  0
SECTION
  2
HEADER
  9
$EXTMIN
 10
-210.0
 20
-148.5
  9
$EXTMAX
 10
210.0
 20
148.5
  9
$PDMODE
 70
    32
  9
$PDSIZE
 40
1.5
  9
$LTSCALE
 40
10.0
  0
ENDSEC
  0
SECTION
  2
TABLES
  0
TABLE
  2
LTYPE
 70
    15
  0
LTYPE
  2
CONTINUOUS
 70
    64
  3
実線
 72
    65
 73
     0
 40
0.0
  0
LTYPE
  2
DASHED
 70
    64
  3
破線A
 72
    65
 73
     2
 40
0.6
 49
0.4
 49
-0.2
  0
LTYPE
  2
DASHEDX2
 70
    64
  3
破線B
 72
    65
 73
     2
 40
1.3
 49
0.9
 49
-0.4
  0
LTYPE
  2
DASHDOT
 70
    64
  3
１点鎖線A
 72
    65
 73
     4
 40
0.5375
 49
0.375
 49
-0.05
 49
0.0625
 49
-0.05
  0
LTYPE
  2
DASHDOTX2
 70
    64
  3
１点鎖線B
 72
    65
 73
     4
 40
1.075
 49
0.75
 49
-0.1
 49
0.125
 49
-0.1
  0
LTYPE
  2
DIVIDE2
 70
    64
  3
２点鎖線A
 72
    65
 73
     6
 40
0.5125
 49
0.3
 49
-0.0375
 49
0.05
 49
-0.0375
 49
0.05
 49
-0.0375
  0
LTYPE
  2
DIVIDE
 70
    64
  3
２点鎖線B
 72
    65
 73
     6
 40
1.05
 49
0.55
 49
-0.1
 49
0.1
 49
-0.1
 49
0.1
 49
-0.1
  0
LTYPE
  2
DOT
 70
    64
  3
点線A
 72
    65
 73
     2
 40
0.1125
 49
0.0625
 49
-0.05
  0
LTYPE
  2
DOTX2
 70
    64
  3
点線B
 72
    65
 73
     2
 40
0.275
 49
0.15
 49
-0.125
  0
LTYPE
  2
CONTINUOUS
 70
    64
  3
実線
 72
    65
 73
     0
 40
0.0
  0
LTYPE
  2
CONTINUOUS
 70
    64
  3
実線
 72
    65
 73
     0
 40
0.0
  0
LTYPE
  2
CONTINUOUS
 70
    64
  3
実線
 72
    65
 73
     0
 40
0.0
  0
LTYPE
  2
CONTINUOUS
 70
    64
  3
実線
 72
    65
 73
     0
 40
0.0
  0
LTYPE
  2
CONTINUOUS
 70
    64
  3
実線
 72
    65
 73
     0
 40
0.0
  0
LTYPE
  2
CONTINUOUS
 70
    64
  3
実線
 72
    65
 73
     0
 40
0.0
  0
ENDTAB
  0
TABLE
  2
LAYER
 70
    34
  0
LAYER
  2
通り芯
 70
     0
 62
    15
  6
CONTINUOUS
  0
LAYER
  2
補助線
 70
     0
 62
    16
  6
DOT
  0
LAYER
  2
躯体
 70
     0
 62
    31
  6
CONTINUOUS
  0
LAYER
  2
型材
 70
     0
 62
    32
  6
CONTINUOUS
  0
LAYER
  2
型材断面
 70
     0
 62
    47
  6
CONTINUOUS
  0
LAYER
  2
ガラス
 70
     0
 62
    48
  6
CONTINUOUS
  0
LAYER
  2
ゴム等
 70
     0
 62
    63
  6
CONTINUOUS
  0
LAYER
  2
ボルト／ビス
 70
     0
 62
    64
  6
CONTINUOUS
  0
LAYER
  2
文字
 70
     0
 62
    79
  6
CONTINUOUS
  0
LAYER
  2
寸法
 70
     0
 62
    80
  6
CONTINUOUS
  0
LAYER
  2
ﾊｯﾁﾝｸﾞ
 70
     0
 62
    95
  6
CONTINUOUS
  0
LAYER
  2
別途部材
 70
     0
 62
    96
  6
CONTINUOUS
  0
LAYER
  2
曲げ物
 70
     0
 62
   111
  6
CONTINUOUS
  0
LAYER
  2
鉄骨等
 70
     0
 62
   112
  6
CONTINUOUS
  0
LAYER
  2
St
 70
     0
 62
   127
  6
CONTINUOUS
  0
LAYER
  2
その他部品等
 70
     0
 62
   128
  6
CONTINUOUS
  0
LAYER
  2
ｶﾞｽｹｯﾄ
 70
     0
 62
   143
  6
CONTINUOUS
  0
LAYER
  2
ｽｹｯﾁ
 70
     0
 62
    14
  6
CONTINUOUS
  0
LAYER
  2
0
 70
     0
 62
    17
  6
CONTINUOUS
  0
LAYER
  2
1
 70
     0
 62
    30
  6
CONTINUOUS
  0
LAYER
  2
4
 70
     0
 62
    33
  6
CONTINUOUS
  0
LAYER
  2
ﾚｲﾔ3
 70
     0
 62
    46
  6
CONTINUOUS
  0
LAYER
  2
外形線
 70
     0
 62
    49
  6
CONTINUOUS
  0
LAYER
  2
部品
 70
     0
 62
    14
  6
CONTINUOUS
  0
LAYER
  2
サッシ芯
 70
     0
 62
    17
  6
DASHDOTX2
  0
LAYER
  2
寸法線
 70
     0
 62
    62
  6
CONTINUOUS
  0
LAYER
  2
姿図外形線
 70
     0
 62
    65
  6
CONTINUOUS
  0
LAYER
  2
姿補助線
 70
     0
 62
    30
  6
CONTINUOUS
  0
LAYER
  2
透視線
 70
     0
 62
    78
  6
DOT
  0
LAYER
  2
用紙
 70
     0
 62
    81
  6
CONTINUOUS
  0
LAYER
  2
実線図枠
 70
     0
 62
    94
  6
CONTINUOUS
  0
LAYER
  2
補助図枠
 70
     0
 62
    97
  6
CONTINUOUS
  0
LAYER
  2
建具記号
 70
     0
 62
   110
  6
CONTINUOUS
  0
LAYER
  2
補助文字
 70
     0
 62
   113
  6
CONTINUOUS
  0
ENDTAB
  0
TABLE
  2
STYLE
 70
    10
  0
STYLE
  2
STANDARD
 70
     0
 40
1.0
 41
1.0
 42
1.0
 50
0.0
 71
     0
  3
TXT
  4
BIGFONT
  0
STYLE
  2
TATE
 70
     4
 40
1.0
 41
1.0
 42
1.0
 50
0.0
 71
     0
  3
TXT
  4
BIGFONT
  0
STYLE
  2
TextStyle03
 70
     0
 40
1.0
 41
1.0
 42
1.0
 50
0.0
 71
     0
  3
MONOTXT
  4
BIGFONT
  0
STYLE
  2
TextStyle04
 70
     0
 40
1.0
 41
1.0
 42
1.0
 50
0.0
 71
     0
  3
MONOTXT
  4
BIGFONT
  0
STYLE
  2
TextStyle05
 70
     0
 40
1.0
 41
1.0
 42
1.0
 50
0.0
 71
     0
  3
MONOTXT
  4
BIGFONT
  0
STYLE
  2
TextStyle06
 70
     0
 40
1.0
 41
1.0
 42
1.0
 50
0.0
 71
     0
  3
MONOTXT
  4
BIGFONT
  0
STYLE
  2
TextStyle07
 70
     0
 40
1.0
 41
1.0
 42
1.0
 50
0.0
 71
     0
  3
MONOTXT
  4
BIGFONT
  0
STYLE
  2
TextStyle08
 70
     0
 40
1.0
 41
1.0
 42
1.0
 50
0.0
 71
     0
  3
MONOTXT
  4
BIGFONT
  0
STYLE
  2
TextStyle09
 70
     0
 40
1.0
 41
1.0
 42
1.0
 50
0.0
 71
     0
  3
MONOTXT
  4
BIGFONT
  0
STYLE
  2
TextStyle10
 70
     0
 40
1.0
 41
1.0
 42
1.0
 50
0.0
 71
     0
  3
MONOTXT
  4
BIGFONT
  0
ENDTAB
  0
ENDSEC
  0
SECTION
  2
BLOCKS
  0
BLOCK
  2
*GRP_0001
 70
    65
 10
0.0
 20
0.0
  0
LINE
  8
型材断面
  6
CONTINUOUS
 10
195.0
 20
133.5
 11
195.0
 21
-133.5
  0
LINE
  8
型材断面
  6
CONTINUOUS
 10
195.0
 20
-133.5
 11
-185.0
 21
-133.5
  0
LINE
  8
型材断面
  6
CONTINUOUS
 10
-185.0
 20
-133.5
 11
-185.0
 21
133.5
  0
LINE
  8
型材断面
  6
CONTINUOUS
 10
195.0
 20
133.5
 11
-185.0
 21
133.5
  0
LINE
  8
型材断面
  6
CONTINUOUS
 10
145.0
 20
-133.5
 11
145.0
 21
-118.5
  0
LINE
  8
型材断面
  6
CONTINUOUS
 10
195.0
 20
-118.5
 11
145.0
 21
-118.5
  0
ENDBLK
  0
BLOCK
  2
*GRP_0002
 70
    65
 10
0.0
 20
0.0
  0
LINE
  8
補助線
  6
BYBLOCK
 62
    64
 10
97.59012
 20
-92.709322
 11
97.76381
 21
-92.889128
  0
LINE
  8
補助線
  6
BYBLOCK
 62
    64
 10
97.766868
 20
-92.71238
 11
97.587062
 21
-92.88607
  0
LINE
  8
補助線
  6
BYBLOCK
 62
    64
 10
86.195625
 20
-80.914178
 11
86.021927
 21
-80.73437
  0
LINE
  8
補助線
  6
BYBLOCK
 62
    64
 10
86.198675
 20
-80.737425
 11
86.018873
 21
-80.911122
  0
LINE
  8
補助線
  6
BYBLOCK
 62
    64
 10
74.627372
 20
-68.93928
 11
74.453675
 21
-68.75948
  0
LINE
  8
補助線
  6
BYBLOCK
 62
    64
 10
74.630425
 20
-68.762532
 11
74.450622
 21
-68.93623
  0
LINE
  8
型材断面
  6
CONTINUOUS
 10
98.92338
 20
-92.29035
 11
98.905055
 21
-93.35085
  0
LINE
  8
型材断面
  6
CONTINUOUS
 10
98.905055
 20
-93.35085
 11
98.18584
 21
-94.04564
  0
LINE
  8
型材断面
  6
CONTINUOUS
 10
98.18584
 20
-94.04564
 11
97.12534
 21
-94.027315
  0
LINE
  8
型材断面
  6
CONTINUOUS
 10
75.092145
 20
-67.621285
 11
74.031645
 21
-67.60297
  0
LINE
  8
型材断面
  6
CONTINUOUS
 10
74.031645
 20
-67.60297
 11
73.312428
 21
-68.29776
  0
LINE
  8
型材断面
  6
CONTINUOUS
 10
73.312428
 20
-68.29776
 11
73.294112
 21
-69.35826
  0
LINE
  8
型材断面
  6
CONTINUOUS
 10
98.92338
 20
-92.29035
 11
75.092265
 21
-67.621288
  0
LINE
  8
型材断面
  6
CONTINUOUS
 10
97.12534
 20
-94.027315
 11
73.294115
 21
-69.35815
  0
LINE
  8
ボルト／ビス
  6
CONTINUOUS
 62
    64
 10
98.009155
 20
-92.478315
 11
98.120975
 21
-92.926458
  0
LINE
  8
ボルト／ビス
  6
CONTINUOUS
 62
    64
 10
98.009155
 20
-92.478315
 11
97.565148
 21
-92.351087
  0
LINE
  8
ボルト／ビス
  6
CONTINUOUS
 62
    64
 10
97.344775
 20
-93.120135
 11
97.788782
 21
-93.247362
  0
LINE
  8
ボルト／ビス
  6
CONTINUOUS
 62
    64
 10
97.344775
 20
-93.120135
 11
97.232955
 21
-92.671993
  0
CIRCLE
  8
ボルト／ビス
  6
CONTINUOUS
 62
    64
 10
97.676965
 20
-92.799225
 40
0.4
  0
LINE
  8
ボルト／ビス
  6
CONTINUOUS
 62
    64
 10
97.565148
 20
-92.351087
 11
97.232955
 21
-92.671993
  0
LINE
  8
ボルト／ビス
  6
CONTINUOUS
 62
    64
 10
98.120975
 20
-92.926458
 11
97.788782
 21
-93.247362
  0
LINE
  8
ボルト／ビス
  6
CONTINUOUS
 62
    64
 10
86.440968
 20
-80.503367
 11
85.996955
 21
-80.376133
  0
LINE
  8
ボルト／ビス
  6
CONTINUOUS
 62
    64
 10
86.440968
 20
-80.503367
 11
86.552787
 21
-80.951505
  0
LINE
  8
ボルト／ビス
  6
CONTINUOUS
 62
    64
 10
85.776583
 20
-81.14518
 11
85.664765
 21
-80.69704
  0
LINE
  8
ボルト／ビス
  6
CONTINUOUS
 62
    64
 10
85.776583
 20
-81.14518
 11
86.220593
 21
-81.272412
  0
CIRCLE
  8
ボルト／ビス
  6
CONTINUOUS
 62
    64
 10
86.108772
 20
-80.824273
 40
0.4
  0
LINE
  8
ボルト／ビス
  6
CONTINUOUS
 62
    64
 10
86.552787
 20
-80.951505
 11
86.220593
 21
-81.272412
  0
LINE
  8
ボルト／ビス
  6
CONTINUOUS
 62
    64
 10
85.996955
 20
-80.376133
 11
85.664765
 21
-80.69704
  0
LINE
  8
ボルト／ビス
  6
CONTINUOUS
 62
    64
 10
74.872715
 20
-68.52847
 11
74.428702
 21
-68.40124
  0
LINE
  8
ボルト／ビス
  6
CONTINUOUS
 62
    64
 10
74.872715
 20
-68.52847
 11
74.984533
 21
-68.97661
  0
LINE
  8
ボルト／ビス
  6
CONTINUOUS
 62
    64
 10
74.208332
 20
-69.17029
 11
74.096515
 21
-68.722148
  0
LINE
  8
ボルト／ビス
  6
CONTINUOUS
 62
    64
 10
74.208332
 20
-69.17029
 11
74.652347
 21
-69.29752
  0
CIRCLE
  8
ボルト／ビス
  6
CONTINUOUS
 62
    64
 10
74.540525
 20
-68.84938
 40
0.4
  0
LINE
  8
ボルト／ビス
  6
CONTINUOUS
 62
    64
 10
74.984533
 20
-68.97661
 11
74.652347
 21
-69.29752
  0
LINE
  8
ボルト／ビス
  6
CONTINUOUS
 62
    64
 10
74.428702
 20
-68.40124
 11
74.096515
 21
-68.722148
  0
ENDBLK
  0
BLOCK
  2
*GRP_0003
 70
    65
 10
0.0
 20
0.0
  0
LINE
  8
補助線
  6
BYBLOCK
 62
    64
 10
74.62743
 20
-92.709322
 11
74.45374
 21
-92.889128
  0
LINE
  8
補助線
  6
BYBLOCK
 62
    64
 10
74.450683
 20
-92.71238
 11
74.630487
 21
-92.88607
  0
LINE
  8
補助線
  6
BYBLOCK
 62
    64
 10
86.021925
 20
-80.914178
 11
86.195622
 21
-80.73437
  0
LINE
  8
補助線
  6
BYBLOCK
 62
    64
 10
86.018875
 20
-80.737425
 11
86.198677
 21
-80.911122
  0
LINE
  8
補助線
  6
BYBLOCK
 62
    64
 10
97.590178
 20
-68.93928
 11
97.763875
 21
-68.75948
  0
LINE
  8
補助線
  6
BYBLOCK
 62
    64
 10
97.587125
 20
-68.762532
 11
97.766928
 21
-68.93623
  0
LINE
  8
型材断面
  6
CONTINUOUS
 10
73.29417
 20
-92.29035
 11
73.312495
 21
-93.35085
  0
LINE
  8
型材断面
  6
CONTINUOUS
 10
73.312495
 20
-93.35085
 11
74.03171
 21
-94.04564
  0
LINE
  8
型材断面
  6
CONTINUOUS
 10
74.03171
 20
-94.04564
 11
75.09221
 21
-94.027315
  0
LINE
  8
型材断面
  6
CONTINUOUS
 10
97.125405
 20
-67.621285
 11
98.185905
 21
-67.60297
  0
LINE
  8
型材断面
  6
CONTINUOUS
 10
98.185905
 20
-67.60297
 11
98.905122
 21
-68.29776
  0
LINE
  8
型材断面
  6
CONTINUOUS
 10
98.905122
 20
-68.29776
 11
98.923438
 21
-69.35826
  0
LINE
  8
型材断面
  6
CONTINUOUS
 10
73.29417
 20
-92.29035
 11
97.125285
 21
-67.621288
  0
LINE
  8
型材断面
  6
CONTINUOUS
 10
75.09221
 20
-94.027315
 11
98.923435
 21
-69.35815
  0
LINE
  8
ボルト／ビス
  6
CONTINUOUS
 62
    64
 10
74.208395
 20
-92.478315
 11
74.096575
 21
-92.926458
  0
LINE
  8
ボルト／ビス
  6
CONTINUOUS
 62
    64
 10
74.208395
 20
-92.478315
 11
74.652403
 21
-92.351087
  0
LINE
  8
ボルト／ビス
  6
CONTINUOUS
 62
    64
 10
74.872775
 20
-93.120135
 11
74.428767
 21
-93.247362
  0
LINE
  8
ボルト／ビス
  6
CONTINUOUS
 62
    64
 10
74.872775
 20
-93.120135
 11
74.984595
 21
-92.671993
  0
CIRCLE
  8
ボルト／ビス
  6
CONTINUOUS
 62
    64
 10
74.540585
 20
-92.799225
 40
0.4
  0
LINE
  8
ボルト／ビス
  6
CONTINUOUS
 62
    64
 10
74.652403
 20
-92.351087
 11
74.984595
 21
-92.671993
  0
LINE
  8
ボルト／ビス
  6
CONTINUOUS
 62
    64
 10
74.096575
 20
-92.926458
 11
74.428767
 21
-93.247362
  0
LINE
  8
ボルト／ビス
  6
CONTINUOUS
 62
    64
 10
85.776583
 20
-80.503367
 11
86.220595
 21
-80.376133
  0
LINE
  8
ボルト／ビス
  6
CONTINUOUS
 62
    64
 10
85.776583
 20
-80.503367
 11
85.664762
 21
-80.951505
  0
LINE
  8
ボルト／ビス
  6
CONTINUOUS
 62
    64
 10
86.440968
 20
-81.14518
 11
86.552785
 21
-80.69704
  0
LINE
  8
ボルト／ビス
  6
CONTINUOUS
 62
    64
 10
86.440968
 20
-81.14518
 11
85.996957
 21
-81.272412
  0
CIRCLE
  8
ボルト／ビス
  6
CONTINUOUS
 62
    64
 10
86.108778
 20
-80.824273
 40
0.4
  0
LINE
  8
ボルト／ビス
  6
CONTINUOUS
 62
    64
 10
85.664762
 20
-80.951505
 11
85.996957
 21
-81.272412
  0
LINE
  8
ボルト／ビス
  6
CONTINUOUS
 62
    64
 10
86.220595
 20
-80.376133
 11
86.552785
 21
-80.69704
  0
LINE
  8
ボルト／ビス
  6
CONTINUOUS
 62
    64
 10
97.344835
 20
-68.52847
 11
97.788847
 21
-68.40124
  0
LINE
  8
ボルト／ビス
  6
CONTINUOUS
 62
    64
 10
97.344835
 20
-68.52847
 11
97.233017
 21
-68.97661
  0
LINE
  8
ボルト／ビス
  6
CONTINUOUS
 62
    64
 10
98.009217
 20
-69.17029
 11
98.121035
 21
-68.722148
  0
LINE
  8
ボルト／ビス
  6
CONTINUOUS
 62
    64
 10
98.009217
 20
-69.17029
 11
97.565202
 21
-69.29752
  0
CIRCLE
  8
ボルト／ビス
  6
CONTINUOUS
 62
    64
 10
97.677025
 20
-68.84938
 40
0.4
  0
LINE
  8
ボルト／ビス
  6
CONTINUOUS
 62
    64
 10
97.233017
 20
-68.97661
 11
97.565202
 21
-69.29752
  0
LINE
  8
ボルト／ビス
  6
CONTINUOUS
 62
    64
 10
97.788847
 20
-68.40124
 11
98.121035
 21
-68.722148
  0
ENDBLK
  0
BLOCK
  2
*GRP_0004
 70
    65
 10
0.0
 20
0.0
  0
LINE
  8
補助線
  6
BYBLOCK
 62
    64
 10
21.73393
 20
-92.709322
 11
21.56024
 21
-92.889128
  0
LINE
  8
補助線
  6
BYBLOCK
 62
    64
 10
21.557183
 20
-92.71238
 11
21.736988
 21
-92.88607
  0
LINE
  8
補助線
  6
BYBLOCK
 62
    64
 10
33.128425
 20
-80.914178
 11
33.302123
 21
-80.73437
  0
LINE
  8
補助線
  6
BYBLOCK
 62
    64
 10
33.125375
 20
-80.737425
 11
33.305177
 21
-80.911122
  0
LINE
  8
補助線
  6
BYBLOCK
 62
    64
 10
44.696678
 20
-68.93928
 11
44.870375
 21
-68.75948
  0
LINE
  8
補助線
  6
BYBLOCK
 62
    64
 10
44.693625
 20
-68.762532
 11
44.873428
 21
-68.93623
  0
LINE
  8
型材断面
  6
CONTINUOUS
 10
20.40067
 20
-92.29035
 11
20.418995
 21
-93.35085
  0
LINE
  8
型材断面
  6
CONTINUOUS
 10
20.418995
 20
-93.35085
 11
21.13821
 21
-94.04564
  0
LINE
  8
型材断面
  6
CONTINUOUS
 10
21.13821
 20
-94.04564
 11
22.19871
 21
-94.027315
  0
LINE
  8
型材断面
  6
CONTINUOUS
 10
44.231905
 20
-67.621285
 11
45.292405
 21
-67.60297
  0
LINE
  8
型材断面
  6
CONTINUOUS
 10
45.292405
 20
-67.60297
 11
46.011622
 21
-68.29776
  0
LINE
  8
型材断面
  6
CONTINUOUS
 10
46.011622
 20
-68.29776
 11
46.029938
 21
-69.35826
  0
LINE
  8
型材断面
  6
CONTINUOUS
 10
20.40067
 20
-92.29035
 11
44.231785
 21
-67.621288
  0
LINE
  8
型材断面
  6
CONTINUOUS
 10
22.19871
 20
-94.027315
 11
46.029935
 21
-69.35815
  0
LINE
  8
ボルト／ビス
  6
CONTINUOUS
 62
    64
 10
21.314895
 20
-92.478315
 11
21.203075
 21
-92.926458
  0
LINE
  8
ボルト／ビス
  6
CONTINUOUS
 62
    64
 10
21.314895
 20
-92.478315
 11
21.758902
 21
-92.351087
  0
LINE
  8
ボルト／ビス
  6
CONTINUOUS
 62
    64
 10
21.979275
 20
-93.120135
 11
21.535268
 21
-93.247362
  0
LINE
  8
ボルト／ビス
  6
CONTINUOUS
 62
    64
 10
21.979275
 20
-93.120135
 11
22.091095
 21
-92.671993
  0
CIRCLE
  8
ボルト／ビス
  6
CONTINUOUS
 62
    64
 10
21.647085
 20
-92.799225
 40
0.4
  0
LINE
  8
ボルト／ビス
  6
CONTINUOUS
 62
    64
 10
21.758902
 20
-92.351087
 11
22.091095
 21
-92.671993
  0
LINE
  8
ボルト／ビス
  6
CONTINUOUS
 62
    64
 10
21.203075
 20
-92.926458
 11
21.535268
 21
-93.247362
  0
LINE
  8
ボルト／ビス
  6
CONTINUOUS
 62
    64
 10
32.883082
 20
-80.503367
 11
33.327095
 21
-80.376133
  0
LINE
  8
ボルト／ビス
  6
CONTINUOUS
 62
    64
 10
32.883082
 20
-80.503367
 11
32.771263
 21
-80.951505
  0
LINE
  8
ボルト／ビス
  6
CONTINUOUS
 62
    64
 10
33.547467
 20
-81.14518
 11
33.659285
 21
-80.69704
  0
LINE
  8
ボルト／ビス
  6
CONTINUOUS
 62
    64
 10
33.547467
 20
-81.14518
 11
33.103457
 21
-81.272412
  0
CIRCLE
  8
ボルト／ビス
  6
CONTINUOUS
 62
    64
 10
33.215278
 20
-80.824273
 40
0.4
  0
LINE
  8
ボルト／ビス
  6
CONTINUOUS
 62
    64
 10
32.771263
 20
-80.951505
 11
33.103457
 21
-81.272412
  0
LINE
  8
ボルト／ビス
  6
CONTINUOUS
 62
    64
 10
33.327095
 20
-80.376133
 11
33.659285
 21
-80.69704
  0
LINE
  8
ボルト／ビス
  6
CONTINUOUS
 62
    64
 10
44.451335
 20
-68.52847
 11
44.895348
 21
-68.40124
  0
LINE
  8
ボルト／ビス
  6
CONTINUOUS
 62
    64
 10
44.451335
 20
-68.52847
 11
44.339517
 21
-68.97661
  0
LINE
  8
ボルト／ビス
  6
CONTINUOUS
 62
    64
 10
45.115718
 20
-69.17029
 11
45.227535
 21
-68.722148
  0
LINE
  8
ボルト／ビス
  6
CONTINUOUS
 62
    64
 10
45.115718
 20
-69.17029
 11
44.671702
 21
-69.29752
  0
CIRCLE
  8
ボルト／ビス
  6
CONTINUOUS
 62
    64
 10
44.783525
 20
-68.84938
 40
0.4
  0
LINE
  8
ボルト／ビス
  6
CONTINUOUS
 62
    64
 10
44.339517
 20
-68.97661
 11
44.671702
 21
-69.29752
  0
LINE
  8
ボルト／ビス
  6
CONTINUOUS
 62
    64
 10
44.895348
 20
-68.40124
 11
45.227535
 21
-68.722148
  0
ENDBLK
  0
BLOCK
  2
*GRP_0005
 70
    65
 10
0.0
 20
0.0
  0
LINE
  8
補助線
  6
BYBLOCK
 62
    64
 10
44.69662
 20
-92.709322
 11
44.87031
 21
-92.889128
  0
LINE
  8
補助線
  6
BYBLOCK
 62
    64
 10
44.873367
 20
-92.71238
 11
44.693563
 21
-92.88607
  0
LINE
  8
補助線
  6
BYBLOCK
 62
    64
 10
33.302125
 20
-80.914178
 11
33.128428
 21
-80.73437
  0
LINE
  8
補助線
  6
BYBLOCK
 62
    64
 10
33.305175
 20
-80.737425
 11
33.125373
 21
-80.911122
  0
LINE
  8
補助線
  6
BYBLOCK
 62
    64
 10
21.733872
 20
-68.93928
 11
21.560175
 21
-68.75948
  0
LINE
  8
補助線
  6
BYBLOCK
 62
    64
 10
21.736925
 20
-68.762532
 11
21.557122
 21
-68.93623
  0
LINE
  8
型材断面
  6
CONTINUOUS
 10
46.02988
 20
-92.29035
 11
46.011555
 21
-93.35085
  0
LINE
  8
型材断面
  6
CONTINUOUS
 10
46.011555
 20
-93.35085
 11
45.29234
 21
-94.04564
  0
LINE
  8
型材断面
  6
CONTINUOUS
 10
45.29234
 20
-94.04564
 11
44.23184
 21
-94.027315
  0
LINE
  8
型材断面
  6
CONTINUOUS
 10
22.198645
 20
-67.621285
 11
21.138145
 21
-67.60297
  0
LINE
  8
型材断面
  6
CONTINUOUS
 10
21.138145
 20
-67.60297
 11
20.418928
 21
-68.29776
  0
LINE
  8
型材断面
  6
CONTINUOUS
 10
20.418928
 20
-68.29776
 11
20.400612
 21
-69.35826
  0
LINE
  8
型材断面
  6
CONTINUOUS
 10
46.02988
 20
-92.29035
 11
22.198765
 21
-67.621288
  0
LINE
  8
型材断面
  6
CONTINUOUS
 10
44.23184
 20
-94.027315
 11
20.400615
 21
-69.35815
  0
LINE
  8
ボルト／ビス
  6
CONTINUOUS
 62
    64
 10
45.115655
 20
-92.478315
 11
45.227475
 21
-92.926458
  0
LINE
  8
ボルト／ビス
  6
CONTINUOUS
 62
    64
 10
45.115655
 20
-92.478315
 11
44.671647
 21
-92.351087
  0
LINE
  8
ボルト／ビス
  6
CONTINUOUS
 62
    64
 10
44.451275
 20
-93.120135
 11
44.895283
 21
-93.247362
  0
LINE
  8
ボルト／ビス
  6
CONTINUOUS
 62
    64
 10
44.451275
 20
-93.120135
 11
44.339455
 21
-92.671993
  0
CIRCLE
  8
ボルト／ビス
  6
CONTINUOUS
 62
    64
 10
44.783465
 20
-92.799225
 40
0.4
  0
LINE
  8
ボルト／ビス
  6
CONTINUOUS
 62
    64
 10
44.671647
 20
-92.351087
 11
44.339455
 21
-92.671993
  0
LINE
  8
ボルト／ビス
  6
CONTINUOUS
 62
    64
 10
45.227475
 20
-92.926458
 11
44.895283
 21
-93.247362
  0
LINE
  8
ボルト／ビス
  6
CONTINUOUS
 62
    64
 10
33.547467
 20
-80.503367
 11
33.103455
 21
-80.376133
  0
LINE
  8
ボルト／ビス
  6
CONTINUOUS
 62
    64
 10
33.547467
 20
-80.503367
 11
33.659288
 21
-80.951505
  0
LINE
  8
ボルト／ビス
  6
CONTINUOUS
 62
    64
 10
32.883082
 20
-81.14518
 11
32.771265
 21
-80.69704
  0
LINE
  8
ボルト／ビス
  6
CONTINUOUS
 62
    64
 10
32.883082
 20
-81.14518
 11
33.327093
 21
-81.272412
  0
CIRCLE
  8
ボルト／ビス
  6
CONTINUOUS
 62
    64
 10
33.215272
 20
-80.824273
 40
0.4
  0
LINE
  8
ボルト／ビス
  6
CONTINUOUS
 62
    64
 10
33.659288
 20
-80.951505
 11
33.327093
 21
-81.272412
  0
LINE
  8
ボルト／ビス
  6
CONTINUOUS
 62
    64
 10
33.103455
 20
-80.376133
 11
32.771265
 21
-80.69704
  0
LINE
  8
ボルト／ビス
  6
CONTINUOUS
 62
    64
 10
21.979215
 20
-68.52847
 11
21.535203
 21
-68.40124
  0
LINE
  8
ボルト／ビス
  6
CONTINUOUS
 62
    64
 10
21.979215
 20
-68.52847
 11
22.091033
 21
-68.97661
  0
LINE
  8
ボルト／ビス
  6
CONTINUOUS
 62
    64
 10
21.314833
 20
-69.17029
 11
21.203015
 21
-68.722148
  0
LINE
  8
ボルト／ビス
  6
CONTINUOUS
 62
    64
 10
21.314833
 20
-69.17029
 11
21.758848
 21
-69.29752
  0
CIRCLE
  8
ボルト／ビス
  6
CONTINUOUS
 62
    64
 10
21.647025
 20
-68.84938
 40
0.4
  0
LINE
  8
ボルト／ビス
  6
CONTINUOUS
 62
    64
 10
22.091033
 20
-68.97661
 11
21.758848
 21
-69.29752
  0
LINE
  8
ボルト／ビス
  6
CONTINUOUS
 62
    64
 10
21.535203
 20
-68.40124
 11
21.203015
 21
-68.722148
  0
ENDBLK
  0
BLOCK
  2
*DIM_0006
 70
    65
 10
0.0
 20
0.0
  0
LINE
  8
寸法
  6
BYBLOCK
 62
     0
 10
-83.476487
 20
-41.801397
 11
-83.476487
 21
-35.188047
  0
LINE
  8
寸法
  6
BYBLOCK
 62
     0
 10
-78.476487
 20
-41.801397
 11
-78.476487
 21
-35.188047
  0
LINE
  8
寸法
  6
BYBLOCK
 62
     0
 10
-83.476487
 20
-35.188047
 11
-78.476487
 21
-35.188047
  0
POINT
  8
寸法
 62
     0
 10
-83.476487
 20
-35.188047
  0
POINT
  8
寸法
 62
     0
 10
-78.476487
 20
-35.188047
  0
TEXT
  7
TextStyle03
  8
寸法
  6
CONTINUOUS
 62
     0
 10
-83.4125
 20
-34.825
  1
100
 40
3.0
 72
     5
 11
-78.5375
 21
-34.825
  0
ENDBLK
  0
BLOCK
  2
*DIM_0007
 70
    65
 10
0.0
 20
0.0
  0
LINE
  8
寸法
  6
BYBLOCK
 62
     0
 10
-70.99942
 20
-40.301433
 11
-70.278028
 21
-40.301433
  0
LINE
  8
寸法
  6
BYBLOCK
 62
     0
 10
-77.476487
 20
-42.801397
 11
-70.278028
 21
-42.801397
  0
LINE
  8
寸法
  6
BYBLOCK
 62
     0
 10
-70.278028
 20
-40.301433
 11
-70.278028
 21
-42.801397
  0
POINT
  8
寸法
 62
     0
 10
-70.278028
 20
-40.301433
  0
POINT
  8
寸法
 62
     0
 10
-70.278028
 20
-42.801397
  0
TEXT
  7
TextStyle03
  8
寸法
  6
CONTINUOUS
 62
     0
 10
-67.275
 20
-43.14375
  1
50
 40
3.0
 50
90.0
 72
     5
 11
-67.275
 21
-39.95625
  0
ENDBLK
  0
BLOCK
  2
*DIM_0008
 70
    65
 10
0.0
 20
0.0
  0
LINE
  8
寸法
  6
CONTINUOUS
 62
     0
 10
-120.976487
 20
-28.204485
 11
-120.976487
 21
-28.702992
  0
LINE
  8
寸法
  6
CONTINUOUS
 62
     0
 10
-40.976487
 20
-28.204485
 11
-40.976487
 21
-28.702992
  0
LINE
  8
寸法
  6
CONTINUOUS
 62
     0
 10
-120.976487
 20
-28.702992
 11
-40.976487
 21
-28.702992
  0
POINT
  8
寸法
 62
     0
 10
-120.976487
 20
-28.702992
  0
POINT
  8
寸法
 62
     0
 10
-40.976487
 20
-28.702992
  0
TEXT
  7
TextStyle03
  8
寸法
  6
CONTINUOUS
 62
     0
 10
-92.69375
 20
-28.35
  1
呼称寸法　1600
 40
3.0
 72
     5
 11
-69.25625
 21
-28.35
  0
ENDBLK
  0
BLOCK
  2
*DIM_0009
 70
    65
 10
0.0
 20
0.0
  0
LINE
  8
寸法
  6
CONTINUOUS
 62
     0
 10
-34.676487
 20
-85.813382
 11
-34.676487
 21
-28.702992
  0
LINE
  8
寸法
  6
CONTINUOUS
 62
     0
 10
-40.976487
 20
-28.702992
 11
-34.676487
 21
-28.702992
  0
POINT
  8
寸法
 62
     0
 10
-34.676487
 20
-28.702992
  0
TEXT
  7
TextStyle03
  8
寸法
  6
CONTINUOUS
 62
     0
 10
-40.2625
 20
-28.35
  1
126
 40
3.0
 72
     5
 11
-35.3875
 21
-28.35
  0
ENDBLK
  0
BLOCK
  2
*DIM_0010
 70
    65
 10
0.0
 20
0.0
  0
LINE
  8
寸法
  6
CONTINUOUS
 62
     0
 10
-120.976487
 20
-28.204485
 11
-120.976487
 21
-28.702992
  0
LINE
  8
寸法
  6
CONTINUOUS
 62
     0
 10
-127.276487
 20
-85.813382
 11
-127.276487
 21
-28.702992
  0
LINE
  8
寸法
  6
CONTINUOUS
 62
     0
 10
-120.976487
 20
-28.702992
 11
-127.276487
 21
-28.702992
  0
POINT
  8
寸法
 62
     0
 10
-127.276487
 20
-28.702992
  0
TEXT
  7
TextStyle03
  8
寸法
  6
CONTINUOUS
 62
     0
 10
-126.5625
 20
-28.35
  1
126
 40
3.0
 72
     5
 11
-121.6875
 21
-28.35
  0
ENDBLK
  0
BLOCK
  2
*DIM_0011
 70
    65
 10
0.0
 20
0.0
  0
LINE
  8
寸法
  6
CONTINUOUS
 62
     0
 10
-79.976487
 20
-40.301433
 11
-13.794743
 21
-40.301433
  0
LINE
  8
寸法
  6
CONTINUOUS
 62
     0
 10
-13.794743
 20
-86.813382
 11
-13.794743
 21
-40.301433
  0
POINT
  8
寸法
 62
     0
 10
-13.794743
 20
-86.813382
  0
POINT
  8
寸法
 62
     0
 10
-13.794743
 20
-40.301433
  0
TEXT
  7
TextStyle03
  8
寸法
  6
CONTINUOUS
 62
     0
 10
-14.15
 20
-67.7
  1
930.2
 40
3.0
 50
90.0
 72
     5
 11
-14.15
 21
-59.45
  0
ENDBLK
  0
BLOCK
  2
*DIM_0012
 70
    65
 10
0.0
 20
0.0
  0
LINE
  8
寸法
  6
BYBLOCK
 62
     0
 10
-40.54929
 20
86.716033
 11
-19.999863
 21
86.716033
  0
LINE
  8
寸法
  6
BYBLOCK
 62
     0
 10
-32.525415
 20
81.166033
 11
-19.999863
 21
81.166033
  0
LINE
  8
寸法
  6
BYBLOCK
 62
     0
 10
-19.999863
 20
86.716033
 11
-19.999863
 21
81.166033
  0
POINT
  8
寸法
 62
     0
 10
-19.999863
 20
86.716033
  0
POINT
  8
寸法
 62
     0
 10
-19.999863
 20
81.166033
  0
TEXT
  7
TextStyle03
  8
寸法
  6
CONTINUOUS
 62
     0
 10
-20.375
 20
81.4875
  1
111
 40
3.0
 50
90.0
 72
     5
 11
-20.375
 21
86.3625
  0
ENDBLK
  0
BLOCK
  2
*GRP_0013
 70
    65
 10
0.0
 20
0.0
  0
POLYLINE
  8
寸法
  6
BYBLOCK
 62
     0
 66
     1
  0
VERTEX
  8
寸法
 10
-44.215827
 20
33.0
  0
VERTEX
  8
寸法
 10
-37.799325
 20
26.583497
  0
VERTEX
  8
寸法
 10
-31.892198
 20
26.583497
  0
SEQEND
  0
ENDBLK
  0
BLOCK
  2
*DIM_0014
 70
    65
 10
0.0
 20
0.0
  0
LINE
  8
寸法
  6
BYBLOCK
 62
     0
 10
-40.54929
 20
6.716028
 11
-19.999863
 21
6.716028
  0
LINE
  8
寸法
  6
BYBLOCK
 62
     0
 10
-32.525415
 20
12.266028
 11
-19.999863
 21
12.266028
  0
LINE
  8
寸法
  6
BYBLOCK
 62
     0
 10
-19.999863
 20
6.716028
 11
-19.999863
 21
12.266028
  0
POINT
  8
寸法
 62
     0
 10
-19.999863
 20
6.716028
  0
POINT
  8
寸法
 62
     0
 10
-19.999863
 20
12.266028
  0
TEXT
  7
TextStyle03
  8
寸法
  6
CONTINUOUS
 62
     0
 10
-20.375
 20
7.0375
  1
111
 40
3.0
 50
90.0
 72
     5
 11
-20.375
 21
11.9125
  0
ENDBLK
  0
BLOCK
  2
*DIM_0015
 70
    65
 10
0.0
 20
0.0
  0
LINE
  8
寸法
  6
BYBLOCK
 62
     0
 10
-83.476487
 20
48.141052
 11
-83.476487
 21
55.813458
  0
LINE
  8
寸法
  6
BYBLOCK
 62
     0
 10
-78.476487
 20
48.141052
 11
-78.476487
 21
55.813458
  0
LINE
  8
寸法
  6
BYBLOCK
 62
     0
 10
-83.476487
 20
55.813458
 11
-78.476487
 21
55.813458
  0
POINT
  8
寸法
 62
     0
 10
-83.476487
 20
55.813458
  0
POINT
  8
寸法
 62
     0
 10
-78.476487
 20
55.813458
  0
TEXT
  7
TextStyle03
  8
寸法
  6
CONTINUOUS
 62
     0
 10
-83.4125
 20
56.175
  1
100
 40
3.0
 72
     5
 11
-78.5375
 21
56.175
  0
ENDBLK
  0
BLOCK
  2
*DIM_0016
 70
    65
 10
0.0
 20
0.0
  0
LINE
  8
寸法
  6
BYBLOCK
 62
     0
 10
-145.571487
 20
64.21603
 11
-156.394787
 21
64.21603
  0
LINE
  8
寸法
  6
BYBLOCK
 62
     0
 10
-145.571487
 20
29.21603
 11
-156.394787
 21
29.21603
  0
LINE
  8
寸法
  6
BYBLOCK
 62
     0
 10
-156.394787
 20
64.21603
 11
-156.394787
 21
29.21603
  0
POINT
  8
寸法
 62
     0
 10
-156.394787
 20
64.21603
  0
POINT
  8
寸法
 62
     0
 10
-156.394787
 20
29.21603
  0
TEXT
  7
TextStyle03
  8
寸法
  6
CONTINUOUS
 62
     0
 10
-156.725
 20
44.2625
  1
700
 40
3.0
 50
90.0
 72
     5
 11
-156.725
 21
49.1375
  0
ENDBLK
  0
BLOCK
  2
*GRP_0017
 70
    65
 10
0.0
 20
0.0
  0
POLYLINE
  8
寸法
  6
BYBLOCK
 62
     0
 66
     1
  0
VERTEX
  8
寸法
 10
-117.902147
 20
68.35206
  0
VERTEX
  8
寸法
 10
-124.31865
 20
74.768563
  0
VERTEX
  8
寸法
 10
-130.225777
 20
74.768563
  0
SEQEND
  0
ENDBLK
  0
BLOCK
  2
*DIM_0018
 70
    65
 10
0.0
 20
0.0
  0
LINE
  8
寸法
  6
BYBLOCK
 62
     0
 10
-110.976487
 20
115.817857
 11
-110.976487
 21
123.593368
  0
LINE
  8
寸法
  6
BYBLOCK
 62
     0
 10
-80.976487
 20
115.817857
 11
-80.976487
 21
123.593368
  0
LINE
  8
寸法
  6
BYBLOCK
 62
     0
 10
-110.976487
 20
123.593368
 11
-80.976487
 21
123.593368
  0
POINT
  8
寸法
 62
     0
 10
-110.976487
 20
123.593368
  0
POINT
  8
寸法
 62
     0
 10
-80.976487
 20
123.593368
  0
TEXT
  7
TextStyle03
  8
寸法
  6
CONTINUOUS
 62
     0
 10
-98.4125
 20
123.95
  1
600
 40
3.0
 72
     5
 11
-93.5375
 21
123.95
  0
ENDBLK
  0
BLOCK
  2
*DIM_0019
 70
    65
 10
0.0
 20
0.0
  0
LINE
  8
寸法
  6
BYBLOCK
 62
     0
 10
-50.976487
 20
115.817857
 11
-50.976487
 21
123.593368
  0
LINE
  8
寸法
  6
BYBLOCK
 62
     0
 10
-80.976487
 20
123.593368
 11
-50.976487
 21
123.593368
  0
POINT
  8
寸法
 62
     0
 10
-50.976487
 20
123.593368
  0
TEXT
  7
TextStyle03
  8
寸法
  6
CONTINUOUS
 62
     0
 10
-68.4125
 20
123.95
  1
600
 40
3.0
 72
     5
 11
-63.5375
 21
123.95
  0
ENDBLK
  0
BLOCK
  2
*DIM_0020
 70
    65
 10
0.0
 20
0.0
  0
LINE
  8
寸法
  6
BYBLOCK
 62
     0
 10
87.956773
 20
-11.939517
 11
87.956773
 21
-22.639315
  0
LINE
  8
寸法
  6
BYBLOCK
 62
     0
 10
171.30177
 20
-11.939517
 11
171.30177
 21
-22.639315
  0
LINE
  8
寸法
  6
BYBLOCK
 62
     0
 10
87.956773
 20
-22.639315
 11
171.30177
 21
-22.639315
  0
POINT
  8
寸法
 62
     0
 10
87.956773
 20
-22.639315
  0
POINT
  8
寸法
 62
     0
 10
171.30177
 20
-22.639315
  0
TEXT
  7
TextStyle03
  8
寸法
  6
CONTINUOUS
 62
     0
 10
124.65625
 20
-22.275
  1
1666.9
 40
3.0
 72
     5
 11
134.59375
 21
-22.275
  0
ENDBLK
  0
BLOCK
  2
*DIM_0021
 70
    65
 10
0.0
 20
0.0
  0
LINE
  8
寸法
  6
BYBLOCK
 62
     0
 10
174.30177
 20
-8.939517
 11
183.241952
 21
-8.939517
  0
LINE
  8
寸法
  6
BYBLOCK
 62
     0
 10
132.62927
 20
49.994047
 11
183.241952
 21
49.994047
  0
LINE
  8
寸法
  6
BYBLOCK
 62
     0
 10
183.241952
 20
-8.939517
 11
183.241952
 21
49.994047
  0
POINT
  8
寸法
 62
     0
 10
183.241952
 20
-8.939517
  0
POINT
  8
寸法
 62
     0
 10
183.241952
 20
49.994047
  0
TEXT
  7
TextStyle03
  8
寸法
  6
CONTINUOUS
 62
     0
 10
182.85
 20
15.55625
  1
1178.7
 40
3.0
 50
90.0
 72
     5
 11
182.85
 21
25.49375
  0
ENDBLK
  0
BLOCK
  2
*DIM_0022
 70
    65
 10
0.0
 20
0.0
  0
LINE
  8
寸法
  6
BYBLOCK
 62
     0
 10
108.947027
 20
-70.013382
 11
122.742212
 21
-70.013382
  0
LINE
  8
寸法
  6
BYBLOCK
 62
     0
 10
108.962027
 20
-90.013382
 11
122.742212
 21
-90.013382
  0
LINE
  8
寸法
  6
BYBLOCK
 62
     0
 10
122.742212
 20
-70.013382
 11
122.742212
 21
-90.013382
  0
POINT
  8
寸法
 62
     0
 10
122.742212
 20
-70.013382
  0
POINT
  8
寸法
 62
     0
 10
122.742212
 20
-90.013382
  0
TEXT
  7
TextStyle03
  8
寸法
  6
CONTINUOUS
 62
     0
 10
127.525
 20
-90.83125
  1
上昇　335以上
 40
3.0
 50
90.0
 72
     5
 11
127.525
 21
-69.26875
  0
ENDBLK
  0
BLOCK
  2
*DIM_0023
 70
    65
 10
0.0
 20
0.0
  0
LINE
  8
寸法
  6
CONTINUOUS
 10
-29.676487
 20
-86.813382
 11
-13.794743
 21
-86.813382
  0
LINE
  8
寸法
  6
CONTINUOUS
 10
-31.83171
 20
-96.613382
 11
-13.794743
 21
-96.613382
  0
LINE
  8
寸法
  6
CONTINUOUS
 10
-13.794743
 20
-86.813382
 11
-13.794743
 21
-96.613382
  0
POINT
  8
寸法
 10
-13.794743
 20
-86.813382
  0
POINT
  8
寸法
 10
-13.794743
 20
-96.613382
  0
TEXT
  7
TextStyle03
  8
寸法
  6
CONTINUOUS
 10
-14.175
 20
-94.1625
  1
196
 40
3.0
 50
90.0
 72
     5
 11
-14.175
 21
-89.2875
  0
ENDBLK
  0
ENDSEC
  0
SECTION
  2
ENTITIES
  0
POLYLINE
  8
通り芯
  6
CONTINUOUS
 66
     1
 70
     1
  0
VERTEX
  8
通り芯
 10
-210.0
 20
-148.5
  0
VERTEX
  8
通り芯
 10
210.0
 20
-148.5
  0
VERTEX
  8
通り芯
 10
210.0
 20
148.5
  0
VERTEX
  8
通り芯
 10
-210.0
 20
148.5
  0
SEQEND
  0
INSERT
  2
*GRP_0001
  8
型材断面
  6
CONTINUOUS
 10
0.0
 20
0.0
  0
ARC
  8
型材断面
  6
CONTINUOUS
 62
    47
 10
-126.411488
 20
-90.773383
 40
0.015
 50
180.0
 51
270.0
  0
ARC
  8
型材断面
  6
CONTINUOUS
 62
    47
 10
-127.261488
 20
-89.998383
 40
0.015
 50
180.0
 51
270.0
  0
LINE
  8
型材断面
  6
CONTINUOUS
 62
    47
 10
-127.276487
 20
-89.998383
 11
-127.276487
 21
-86.813382
  0
LINE
  8
型材断面
  6
CONTINUOUS
 62
    47
 10
-126.426485
 20
-90.40338
 11
-126.411485
 21
-90.38838
  0
LINE
  8
型材断面
  6
CONTINUOUS
 62
    47
 10
-126.411485
 20
-90.38838
 11
-126.426485
 21
-90.373383
  0
LINE
  8
型材断面
  6
CONTINUOUS
 62
    47
 10
-126.426485
 20
-90.773383
 11
-126.426485
 21
-90.40338
  0
LINE
  8
型材断面
  6
CONTINUOUS
 10
-127.276487
 20
-86.813382
 11
-127.364785
 21
-86.725085
  0
LINE
  8
型材断面
  6
CONTINUOUS
 62
    47
 10
-126.426485
 20
-90.373383
 11
-126.426485
 21
-90.01338
  0
LINE
  8
型材断面
  6
CONTINUOUS
 10
-129.000363
 20
12.266025
 11
-132.886122
 21
13.16011
  0
LINE
  8
型材断面
  6
CONTINUOUS
 10
-129.000363
 20
12.266025
 11
-132.886122
 21
11.37194
  0
LINE
  8
型材断面
  6
CONTINUOUS
 10
-132.886122
 20
11.37194
 11
-132.886122
 21
13.16011
  0
LINE
  8
型材断面
  6
CONTINUOUS
 10
-80.976487
 20
-40.301433
 11
-80.976487
 21
-41.602315
  0
LINE
  8
型材断面
  6
CONTINUOUS
 10
-80.976487
 20
-40.301433
 11
-80.976487
 21
-41.602315
  0
LINE
  8
型材断面
  6
CONTINUOUS
 10
-80.976487
 20
-40.301433
 11
-80.976487
 21
-41.602315
  0
LINE
  8
型材断面
  6
CONTINUOUS
 10
-80.976487
 20
-40.301433
 11
-80.976487
 21
-41.602315
  0
LINE
  8
型材断面
  6
CONTINUOUS
 10
-80.976487
 20
-40.301397
 11
-83.476487
 21
-42.801397
  0
LINE
  8
型材断面
  6
CONTINUOUS
 10
-80.976487
 20
-41.70708
 11
-82.070807
 21
-42.801397
  0
LINE
  8
型材断面
  6
CONTINUOUS
 10
-83.476487
 20
-42.801397
 11
-82.070807
 21
-42.801397
  0
LINE
  8
型材断面
  6
CONTINUOUS
 10
-78.476487
 20
-42.801397
 11
-79.882168
 21
-42.801397
  0
LINE
  8
型材断面
  6
CONTINUOUS
 10
-80.976487
 20
-41.70708
 11
-79.882168
 21
-42.801397
  0
LINE
  8
型材断面
  6
CONTINUOUS
 10
-80.976487
 20
-40.301397
 11
-78.476487
 21
-42.801397
  0
LINE
  8
型材断面
  6
CONTINUOUS
 10
-127.364785
 20
-86.725085
 11
-83.4411
 21
-42.801397
  0
LINE
  8
型材断面
  6
CONTINUOUS
 10
-126.187553
 20
-86.813382
 11
-82.175573
 21
-42.801397
  0
LINE
  8
型材断面
  6
CONTINUOUS
 10
-127.276487
 20
-86.813382
 11
-80.976487
 21
-86.813382
  0
LINE
  8
型材断面
  6
CONTINUOUS
 62
    47
 10
-127.261488
 20
-90.01338
 11
-80.976487
 21
-90.01338
  0
LINE
  8
型材断面
  6
CONTINUOUS
 62
    47
 10
-126.411485
 20
-90.788382
 11
-80.976487
 21
-90.788382
  0
ARC
  8
型材断面
  6
CONTINUOUS
 62
    47
 10
-35.541485
 20
-90.773383
 40
0.015
 50
270.0
 51
360.0
  0
ARC
  8
型材断面
  6
CONTINUOUS
 62
    47
 10
-34.691485
 20
-89.998383
 40
0.015
 50
270.0
 51
360.0
  0
LINE
  8
型材断面
  6
CONTINUOUS
 62
    47
 10
-34.676487
 20
-89.998383
 11
-34.676487
 21
-86.813382
  0
LINE
  8
型材断面
  6
CONTINUOUS
 62
    47
 10
-35.52649
 20
-90.40338
 11
-35.54149
 21
-90.38838
  0
LINE
  8
型材断面
  6
CONTINUOUS
 62
    47
 10
-35.54149
 20
-90.38838
 11
-35.52649
 21
-90.373383
  0
LINE
  8
型材断面
  6
CONTINUOUS
 62
    47
 10
-35.52649
 20
-90.773383
 11
-35.52649
 21
-90.40338
  0
LINE
  8
型材断面
  6
CONTINUOUS
 10
-34.676487
 20
-86.813382
 11
-34.58819
 21
-86.725085
  0
LINE
  8
型材断面
  6
CONTINUOUS
 62
    47
 10
-35.52649
 20
-90.373383
 11
-35.52649
 21
-90.01338
  0
LINE
  8
型材断面
  6
CONTINUOUS
 10
-34.58819
 20
-86.725085
 11
-78.511875
 21
-42.801397
  0
LINE
  8
型材断面
  6
CONTINUOUS
 10
-35.765423
 20
-86.813382
 11
-79.777402
 21
-42.801397
  0
LINE
  8
型材断面
  6
CONTINUOUS
 10
-34.676487
 20
-86.813382
 11
-80.976487
 21
-86.813382
  0
LINE
  8
型材断面
  6
CONTINUOUS
 62
    47
 10
-34.691488
 20
-90.01338
 11
-80.976487
 21
-90.01338
  0
LINE
  8
型材断面
  6
CONTINUOUS
 62
    47
 10
-35.54149
 20
-90.788382
 11
-80.976487
 21
-90.788382
  0
LINE
  8
型材断面
  6
CONTINUOUS
 10
-127.276487
 20
0.416028
 11
-80.976487
 21
0.416028
  0
LINE
  8
型材断面
  6
CONTINUOUS
 10
-82.382168
 20
46.71603
 11
-83.476487
 21
45.621712
  0
LINE
  8
型材断面
  6
CONTINUOUS
 10
-83.476487
 20
45.621712
 11
-83.476487
 21
44.216033
  0
LINE
  8
型材断面
  6
CONTINUOUS
 10
-82.070807
 20
44.21603
 11
-83.476487
 21
44.216033
  0
LINE
  8
型材断面
  6
CONTINUOUS
 10
-80.976487
 20
45.31035
 11
-82.07081
 21
44.21603
  0
LINE
  8
型材断面
  6
CONTINUOUS
 10
-80.976487
 20
46.71603
 11
-83.476487
 21
44.216033
  0
LINE
  8
型材断面
  6
CONTINUOUS
 10
-127.276487
 20
0.416028
 11
-83.476485
 21
44.216033
  0
LINE
  8
型材断面
  6
CONTINUOUS
 10
-126.09005
 20
0.416028
 11
-82.29005
 21
44.21603
  0
LINE
  8
型材断面
  6
CONTINUOUS
 10
-127.276487
 20
1.602468
 11
-83.476487
 21
45.402465
  0
LINE
  8
型材断面
  6
DASHDOT
 10
-120.976487
 20
46.71603
 11
-40.976487
 21
46.71603
  0
LINE
  8
型材断面
  6
DASHDOT
 10
-120.976487
 20
6.716028
 11
-40.976487
 21
6.716028
  0
LINE
  8
型材断面
  6
DASHDOT
 10
-120.976487
 20
86.716033
 11
-40.976487
 21
86.716033
  0
LINE
  8
型材断面
  6
CONTINUOUS
 10
-127.276487
 20
0.416028
 11
-127.276487
 21
46.71603
  0
LINE
  8
型材断面
  6
CONTINUOUS
 10
-32.952613
 20
81.166035
 11
-29.066853
 21
80.27195
  0
LINE
  8
型材断面
  6
CONTINUOUS
 10
-32.952613
 20
81.166035
 11
-29.066853
 21
82.06012
  0
LINE
  8
型材断面
  6
CONTINUOUS
 10
-29.066853
 20
82.06012
 11
-29.066853
 21
80.27195
  0
LINE
  8
型材断面
  6
CONTINUOUS
 10
-34.676487
 20
93.016033
 11
-80.976487
 21
93.016033
  0
LINE
  8
型材断面
  6
CONTINUOUS
 10
-79.570807
 20
46.71603
 11
-78.476487
 21
47.810347
  0
LINE
  8
型材断面
  6
CONTINUOUS
 10
-78.476487
 20
47.810347
 11
-78.476487
 21
49.216028
  0
LINE
  8
型材断面
  6
CONTINUOUS
 10
-79.882168
 20
49.21603
 11
-78.476487
 21
49.216028
  0
LINE
  8
型材断面
  6
CONTINUOUS
 10
-80.976487
 20
48.12171
 11
-79.882165
 21
49.21603
  0
LINE
  8
型材断面
  6
CONTINUOUS
 10
-80.976487
 20
46.71603
 11
-78.476487
 21
49.216028
  0
LINE
  8
型材断面
  6
CONTINUOUS
 10
-34.676487
 20
93.016033
 11
-78.47649
 21
49.216028
  0
LINE
  8
型材断面
  6
CONTINUOUS
 10
-35.862925
 20
93.016033
 11
-79.662925
 21
49.21603
  0
LINE
  8
型材断面
  6
CONTINUOUS
 10
-34.676487
 20
91.829593
 11
-78.476487
 21
48.029595
  0
LINE
  8
型材断面
  6
CONTINUOUS
 10
-34.676487
 20
93.016033
 11
-34.676487
 21
46.71603
  0
LINE
  8
型材断面
  6
CONTINUOUS
 10
-129.000363
 20
81.166035
 11
-132.886122
 21
80.27195
  0
LINE
  8
型材断面
  6
CONTINUOUS
 10
-129.000363
 20
81.166035
 11
-132.886122
 21
82.06012
  0
LINE
  8
型材断面
  6
CONTINUOUS
 10
-132.886122
 20
82.06012
 11
-132.886122
 21
80.27195
  0
LINE
  8
型材断面
  6
CONTINUOUS
 10
-127.276487
 20
93.016033
 11
-80.976487
 21
93.016033
  0
LINE
  8
型材断面
  6
CONTINUOUS
 10
-82.382168
 20
46.71603
 11
-83.476487
 21
47.810347
  0
LINE
  8
型材断面
  6
CONTINUOUS
 10
-83.476487
 20
47.810347
 11
-83.476487
 21
49.216028
  0
LINE
  8
型材断面
  6
CONTINUOUS
 10
-82.070807
 20
49.21603
 11
-83.476487
 21
49.216028
  0
LINE
  8
型材断面
  6
CONTINUOUS
 10
-80.976487
 20
48.12171
 11
-82.07081
 21
49.21603
  0
LINE
  8
型材断面
  6
CONTINUOUS
 10
-80.976487
 20
46.71603
 11
-83.476487
 21
49.216028
  0
LINE
  8
型材断面
  6
CONTINUOUS
 10
-127.276487
 20
93.016033
 11
-83.476485
 21
49.216028
  0
LINE
  8
型材断面
  6
CONTINUOUS
 10
-126.09005
 20
93.016033
 11
-82.29005
 21
49.21603
  0
LINE
  8
型材断面
  6
CONTINUOUS
 10
-127.276487
 20
91.829593
 11
-83.476487
 21
48.029595
  0
LINE
  8
型材断面
  6
CONTINUOUS
 10
-127.276487
 20
93.016033
 11
-127.276487
 21
46.71603
  0
LINE
  8
型材断面
  6
CONTINUOUS
 10
-34.676483
 20
0.416033
 11
-34.676485
 21
46.716033
  0
LINE
  8
型材断面
  6
CONTINUOUS
 10
-80.976487
 20
45.31035
 11
-79.88217
 21
44.21603
  0
LINE
  8
型材断面
  6
CONTINUOUS
 10
-79.88217
 20
44.21603
 11
-78.47649
 21
44.21603
  0
LINE
  8
型材断面
  6
CONTINUOUS
 10
-78.476487
 20
45.62171
 11
-78.47649
 21
44.21603
  0
LINE
  8
型材断面
  6
CONTINUOUS
 10
-79.570807
 20
46.71603
 11
-78.476487
 21
45.621708
  0
LINE
  8
型材断面
  6
CONTINUOUS
 10
-80.976487
 20
46.71603
 11
-78.47649
 21
44.21603
  0
LINE
  8
型材断面
  6
CONTINUOUS
 10
-34.676483
 20
0.416033
 11
-78.47649
 21
44.216033
  0
LINE
  8
型材断面
  6
CONTINUOUS
 10
-34.676483
 20
1.60247
 11
-78.476487
 21
45.402468
  0
LINE
  8
型材断面
  6
CONTINUOUS
 10
-35.862922
 20
0.416033
 11
-79.662922
 21
44.21603
  0
LINE
  8
型材断面
  6
CONTINUOUS
 10
-34.676483
 20
0.416033
 11
-80.976485
 21
0.41603
  0
LINE
  8
型材断面
  6
CONTINUOUS
 10
-32.952613
 20
12.266025
 11
-29.066853
 21
13.16011
  0
LINE
  8
型材断面
  6
CONTINUOUS
 10
-32.952613
 20
12.266025
 11
-29.066853
 21
11.37194
  0
LINE
  8
型材断面
  6
CONTINUOUS
 10
-29.066853
 20
11.37194
 11
-29.066853
 21
13.16011
  0
LINE
  8
型材断面
  6
CONTINUOUS
 10
-80.976487
 20
-1.307848
 11
-83.219932
 21
-5.193607
  0
LINE
  8
型材断面
  6
CONTINUOUS
 10
-80.976487
 20
-1.307848
 11
-78.733043
 21
-5.193607
  0
LINE
  8
型材断面
  6
CONTINUOUS
 10
-78.733043
 20
-5.193607
 11
-83.219932
 21
-5.193607
  0
LINE
  8
型材断面
  6
CONTINUOUS
 10
-80.976487
 20
94.739907
 11
-83.219932
 21
98.625668
  0
LINE
  8
型材断面
  6
CONTINUOUS
 10
-80.976487
 20
94.739907
 11
-78.733043
 21
98.625668
  0
LINE
  8
型材断面
  6
CONTINUOUS
 10
-78.733043
 20
98.625668
 11
-83.219932
 21
98.625668
  0
LINE
  8
型材断面
  6
CONTINUOUS
 10
-32.95261
 20
46.716033
 11
-29.06685
 21
44.472588
  0
LINE
  8
型材断面
  6
CONTINUOUS
 10
-32.95261
 20
46.716033
 11
-29.06685
 21
48.959477
  0
LINE
  8
型材断面
  6
CONTINUOUS
 10
-29.06685
 20
48.959477
 11
-29.06685
 21
44.472588
  0
LINE
  8
型材断面
  6
CONTINUOUS
 10
-129.000365
 20
46.716033
 11
-132.886125
 21
44.472588
  0
LINE
  8
型材断面
  6
CONTINUOUS
 10
-129.000365
 20
46.716033
 11
-132.886125
 21
48.959477
  0
LINE
  8
型材断面
  6
CONTINUOUS
 10
-132.886125
 20
48.959477
 11
-132.886125
 21
44.472588
  0
LINE
  8
型材断面
  6
DOT
 10
-46.215827
 20
86.716033
 11
-46.215827
 21
6.716028
  0
LINE
  8
型材断面
  6
DOT
 10
-44.215827
 20
86.716033
 11
-44.215827
 21
6.716028
  0
ARC
  8
型材断面
  6
CONTINUOUS
 62
    47
 10
14.242026
 20
-90.773383
 40
0.015
 50
180.0
 51
270.0
  0
ARC
  8
型材断面
  6
CONTINUOUS
 62
    47
 10
13.392026
 20
-89.998383
 40
0.015
 50
180.0
 51
270.0
  0
LINE
  8
型材断面
  6
CONTINUOUS
 62
    47
 10
13.377025
 20
-89.998383
 11
13.377025
 21
-86.813382
  0
LINE
  8
型材断面
  6
CONTINUOUS
 62
    47
 10
14.227028
 20
-90.40338
 11
14.242028
 21
-90.38838
  0
LINE
  8
型材断面
  6
CONTINUOUS
 62
    47
 10
14.242028
 20
-90.38838
 11
14.227028
 21
-90.373383
  0
LINE
  8
型材断面
  6
CONTINUOUS
 62
    47
 10
14.227028
 20
-90.773383
 11
14.227028
 21
-90.40338
  0
LINE
  8
型材断面
  6
CONTINUOUS
 10
13.377025
 20
-86.813382
 11
13.288727
 21
-86.725085
  0
LINE
  8
型材断面
  6
CONTINUOUS
 62
    47
 10
14.227028
 20
-90.373383
 11
14.227028
 21
-90.01338
  0
LINE
  8
型材断面
  6
CONTINUOUS
 10
59.677025
 20
-40.301433
 11
59.677025
 21
-41.602315
  0
LINE
  8
型材断面
  6
CONTINUOUS
 10
59.677025
 20
-40.301433
 11
59.677025
 21
-41.602315
  0
LINE
  8
型材断面
  6
CONTINUOUS
 10
59.677025
 20
-40.301433
 11
59.677025
 21
-41.602315
  0
LINE
  8
型材断面
  6
CONTINUOUS
 10
59.677025
 20
-40.301433
 11
59.677025
 21
-41.602315
  0
LINE
  8
型材断面
  6
CONTINUOUS
 10
59.677025
 20
-40.301397
 11
57.177025
 21
-42.801397
  0
LINE
  8
型材断面
  6
CONTINUOUS
 10
59.677025
 20
-41.70708
 11
58.582705
 21
-42.801397
  0
LINE
  8
型材断面
  6
CONTINUOUS
 10
57.177025
 20
-42.801397
 11
58.582705
 21
-42.801397
  0
LINE
  8
型材断面
  6
CONTINUOUS
 10
62.177025
 20
-42.801397
 11
60.771345
 21
-42.801397
  0
LINE
  8
型材断面
  6
CONTINUOUS
 10
59.677025
 20
-41.70708
 11
60.771345
 21
-42.801397
  0
LINE
  8
型材断面
  6
CONTINUOUS
 10
59.677025
 20
-40.301397
 11
62.177025
 21
-42.801397
  0
LINE
  8
型材断面
  6
CONTINUOUS
 10
13.288727
 20
-86.725085
 11
57.212413
 21
-42.801397
  0
LINE
  8
型材断面
  6
CONTINUOUS
 10
14.46596
 20
-86.813382
 11
58.47794
 21
-42.801397
  0
LINE
  8
型材断面
  6
CONTINUOUS
 10
13.377025
 20
-86.813382
 11
59.677025
 21
-86.813382
  0
LINE
  8
型材断面
  6
CONTINUOUS
 62
    47
 10
13.392025
 20
-90.01338
 11
59.677025
 21
-90.01338
  0
LINE
  8
型材断面
  6
CONTINUOUS
 62
    47
 10
14.242028
 20
-90.788382
 11
59.677025
 21
-90.788382
  0
ARC
  8
型材断面
  6
CONTINUOUS
 62
    47
 10
105.112029
 20
-90.773383
 40
0.015
 50
270.0
 51
360.0
  0
ARC
  8
型材断面
  6
CONTINUOUS
 62
    47
 10
105.962029
 20
-89.998383
 40
0.015
 50
270.0
 51
360.0
  0
LINE
  8
型材断面
  6
CONTINUOUS
 62
    47
 10
105.977025
 20
-89.998383
 11
105.977025
 21
-86.813382
  0
LINE
  8
型材断面
  6
CONTINUOUS
 62
    47
 10
105.127023
 20
-90.40338
 11
105.112023
 21
-90.38838
  0
LINE
  8
型材断面
  6
CONTINUOUS
 62
    47
 10
105.112023
 20
-90.38838
 11
105.127023
 21
-90.373383
  0
LINE
  8
型材断面
  6
CONTINUOUS
 62
    47
 10
105.127023
 20
-90.773383
 11
105.127023
 21
-90.40338
  0
LINE
  8
型材断面
  6
CONTINUOUS
 10
105.977025
 20
-86.813382
 11
106.065323
 21
-86.725085
  0
LINE
  8
型材断面
  6
CONTINUOUS
 62
    47
 10
105.127023
 20
-90.373383
 11
105.127023
 21
-90.01338
  0
LINE
  8
型材断面
  6
CONTINUOUS
 10
106.065323
 20
-86.725085
 11
62.141638
 21
-42.801397
  0
LINE
  8
型材断面
  6
CONTINUOUS
 10
104.88809
 20
-86.813382
 11
60.87611
 21
-42.801397
  0
LINE
  8
型材断面
  6
CONTINUOUS
 10
105.977025
 20
-86.813382
 11
59.677025
 21
-86.813382
  0
LINE
  8
型材断面
  6
CONTINUOUS
 62
    47
 10
105.962025
 20
-90.01338
 11
59.677025
 21
-90.01338
  0
LINE
  8
型材断面
  6
CONTINUOUS
 62
    47
 10
105.112023
 20
-90.788382
 11
59.677025
 21
-90.788382
  0
ARC
  8
型材断面
  6
DOT
 62
    47
 10
14.227026
 20
-70.773383
 40
0.015
 50
180.0
 51
270.0
  0
ARC
  8
型材断面
  6
DOT
 62
    47
 10
13.377026
 20
-69.998383
 40
0.015
 50
180.0
 51
270.0
  0
LINE
  8
型材断面
  6
DOT
 62
    47
 10
13.362025
 20
-69.998383
 11
13.362025
 21
-66.813382
  0
LINE
  8
型材断面
  6
DOT
 62
    47
 10
14.212027
 20
-70.40338
 11
14.227028
 21
-70.38838
  0
LINE
  8
型材断面
  6
DOT
 62
    47
 10
14.227028
 20
-70.38838
 11
14.212027
 21
-70.373383
  0
LINE
  8
型材断面
  6
DOT
 62
    47
 10
14.212027
 20
-70.773383
 11
14.212027
 21
-70.40338
  0
LINE
  8
型材断面
  6
DOT
 10
13.362025
 20
-66.813382
 11
13.273727
 21
-66.725085
  0
LINE
  8
型材断面
  6
DOT
 62
    47
 10
14.212027
 20
-70.373383
 11
14.212027
 21
-70.01338
  0
LINE
  8
型材断面
  6
DOT
 10
59.662025
 20
-20.301433
 11
59.662025
 21
-21.602315
  0
LINE
  8
型材断面
  6
DOT
 10
59.662025
 20
-20.301433
 11
59.662025
 21
-21.602315
  0
LINE
  8
型材断面
  6
DOT
 10
59.662025
 20
-20.301433
 11
59.662025
 21
-21.602315
  0
LINE
  8
型材断面
  6
DOT
 10
59.662025
 20
-20.301433
 11
59.662025
 21
-21.602315
  0
LINE
  8
型材断面
  6
DOT
 10
59.662025
 20
-20.301397
 11
57.162025
 21
-22.801397
  0
LINE
  8
型材断面
  6
DOT
 10
59.662025
 20
-21.70708
 11
58.567705
 21
-22.801397
  0
LINE
  8
型材断面
  6
DOT
 10
57.162025
 20
-22.801397
 11
58.567705
 21
-22.801397
  0
LINE
  8
型材断面
  6
DOT
 10
62.162025
 20
-22.801397
 11
60.756345
 21
-22.801397
  0
LINE
  8
型材断面
  6
DOT
 10
59.662025
 20
-21.70708
 11
60.756345
 21
-22.801397
  0
LINE
  8
型材断面
  6
DOT
 10
59.662025
 20
-20.301397
 11
62.162025
 21
-22.801397
  0
LINE
  8
型材断面
  6
DOT
 10
13.273727
 20
-66.725085
 11
57.197413
 21
-22.801397
  0
LINE
  8
型材断面
  6
DOT
 10
14.45096
 20
-66.813382
 11
58.46294
 21
-22.801397
  0
LINE
  8
型材断面
  6
DOT
 10
13.362025
 20
-66.813382
 11
59.662025
 21
-66.813382
  0
LINE
  8
型材断面
  6
DOT
 62
    47
 10
13.377025
 20
-70.01338
 11
59.662025
 21
-70.01338
  0
LINE
  8
型材断面
  6
DOT
 62
    47
 10
14.227028
 20
-70.788382
 11
59.662025
 21
-70.788382
  0
ARC
  8
型材断面
  6
DOT
 62
    47
 10
105.097029
 20
-70.773383
 40
0.015
 50
270.0
 51
360.0
  0
ARC
  8
型材断面
  6
DOT
 62
    47
 10
105.947029
 20
-69.998383
 40
0.015
 50
270.0
 51
360.0
  0
LINE
  8
型材断面
  6
DOT
 62
    47
 10
105.962025
 20
-69.998383
 11
105.962025
 21
-66.813382
  0
LINE
  8
型材断面
  6
DOT
 62
    47
 10
105.112023
 20
-70.40338
 11
105.097022
 21
-70.38838
  0
LINE
  8
型材断面
  6
DOT
 62
    47
 10
105.097022
 20
-70.38838
 11
105.112023
 21
-70.373383
  0
LINE
  8
型材断面
  6
DOT
 62
    47
 10
105.112023
 20
-70.773383
 11
105.112023
 21
-70.40338
  0
LINE
  8
型材断面
  6
DOT
 10
105.962025
 20
-66.813382
 11
106.050323
 21
-66.725085
  0
LINE
  8
型材断面
  6
DOT
 62
    47
 10
105.112023
 20
-70.373383
 11
105.112023
 21
-70.01338
  0
LINE
  8
型材断面
  6
DOT
 10
106.050323
 20
-66.725085
 11
62.126637
 21
-22.801397
  0
LINE
  8
型材断面
  6
DOT
 10
104.87309
 20
-66.813382
 11
60.86111
 21
-22.801397
  0
LINE
  8
型材断面
  6
DOT
 10
105.962025
 20
-66.813382
 11
59.662025
 21
-66.813382
  0
LINE
  8
型材断面
  6
DOT
 62
    47
 10
105.947025
 20
-70.01338
 11
59.662025
 21
-70.01338
  0
LINE
  8
型材断面
  6
DOT
 62
    47
 10
105.097022
 20
-70.788382
 11
59.662025
 21
-70.788382
  0
LINE
  8
型材断面
  6
CONTINUOUS
 10
-7.243167
 20
0.93023
 11
-9.486612
 21
-2.95553
  0
LINE
  8
型材断面
  6
CONTINUOUS
 10
-7.243167
 20
0.93023
 11
-4.999723
 21
-2.95553
  0
LINE
  8
型材断面
  6
CONTINUOUS
 10
-4.999723
 20
-2.95553
 11
-9.486612
 21
-2.95553
  0
LINE
  8
型材断面
  6
CONTINUOUS
 10
-7.243167
 20
-6.759317
 11
-6.349082
 21
-10.645078
  0
LINE
  8
型材断面
  6
CONTINUOUS
 10
-7.243167
 20
-6.759317
 11
-8.137252
 21
-10.645078
  0
LINE
  8
型材断面
  6
CONTINUOUS
 10
-8.137252
 20
-10.645078
 11
-6.349082
 21
-10.645078
  0
LINE
  8
型材断面
  6
CONTINUOUS
 10
-16.277048
 20
-4.363422
 11
36.379632
 21
-4.363422
  0
LINE
  8
型材断面
  6
CONTINUOUS
 10
-16.277048
 20
-15.563415
 11
36.379632
 21
-15.563415
  0
LINE
  8
型材断面
  6
CONTINUOUS
 10
-16.277048
 20
-22.40336
 11
36.379632
 21
-22.40336
  0
INSERT
  2
*GRP_0002
  8
型材断面
  6
CONTINUOUS
 10
0.0
 20
0.0
  0
INSERT
  2
*GRP_0003
  8
型材断面
  6
CONTINUOUS
 10
0.0
 20
0.0
  0
INSERT
  2
*GRP_0004
  8
型材断面
  6
CONTINUOUS
 10
0.0
 20
0.0
  0
INSERT
  2
*GRP_0005
  8
型材断面
  6
CONTINUOUS
 10
0.0
 20
0.0
  0
LINE
  8
型材断面
  6
DOT
 10
-115.737147
 20
86.716033
 11
-115.737147
 21
6.716028
  0
LINE
  8
型材断面
  6
DOT
 10
-117.737147
 20
86.716033
 11
-117.737147
 21
6.716028
  0
POLYLINE
  8
型材断面
  6
CONTINUOUS
 66
     1
 70
     1
  0
VERTEX
  8
型材断面
 10
-71.75738
 20
-6.36157
  0
VERTEX
  8
型材断面
 10
-90.312593
 20
-6.36157
  0
VERTEX
  8
型材断面
 10
-90.312593
 20
-11.153605
  0
VERTEX
  8
型材断面
 10
-71.75738
 20
-11.153605
  0
SEQEND
  0
POLYLINE
  8
型材断面
  6
CONTINUOUS
 66
     1
 70
     1
  0
VERTEX
  8
型材断面
 10
-71.75738
 20
104.813183
  0
VERTEX
  8
型材断面
 10
-90.312593
 20
104.813183
  0
VERTEX
  8
型材断面
 10
-90.312593
 20
100.021148
  0
VERTEX
  8
型材断面
 10
-71.75738
 20
100.021148
  0
SEQEND
  0
LINE
  8
型材断面
  6
CONTINUOUS
 10
94.039523
 20
42.649883
 11
117.971145
 21
42.649883
  0
LINE
  8
型材断面
  6
CONTINUOUS
 10
-16.277048
 20
-29.243305
 11
36.379632
 21
-29.243305
  0
LINE
  8
型材断面
  6
DASHDOT
 10
-120.976487
 20
-96.818555
 11
-120.976487
 21
86.716033
  0
LINE
  8
型材断面
  6
DASHDOT
 10
-40.976487
 20
-96.818555
 11
-40.976487
 21
86.716033
  0
LINE
  8
型材断面
  6
DASHDOT
 10
-80.976487
 20
-96.818555
 11
-80.976487
 21
86.716033
  0
LINE
  8
型材断面
  6
CONTINUOUS
 10
-124.371265
 20
-96.613382
 11
-124.371265
 21
-97.118383
  0
LINE
  8
型材断面
  6
CONTINUOUS
 10
-125.121265
 20
-96.613382
 11
-124.371265
 21
-96.613382
  0
LINE
  8
型材断面
  6
CONTINUOUS
 10
-125.121265
 20
-96.613382
 11
-125.121265
 21
-90.788382
  0
LINE
  8
型材断面
  6
CONTINUOUS
 10
-125.121265
 20
-96.613382
 11
-80.976487
 21
-96.613382
  0
LINE
  8
型材断面
  6
CONTINUOUS
 10
-124.371265
 20
-97.118383
 11
-80.976487
 21
-97.118383
  0
LINE
  8
型材断面
  6
CONTINUOUS
 10
-37.58171
 20
-96.613382
 11
-37.58171
 21
-97.118383
  0
LINE
  8
型材断面
  6
CONTINUOUS
 10
-36.83171
 20
-96.613382
 11
-37.58171
 21
-96.613382
  0
LINE
  8
型材断面
  6
CONTINUOUS
 10
-36.83171
 20
-96.613382
 11
-36.83171
 21
-90.788382
  0
LINE
  8
型材断面
  6
CONTINUOUS
 10
-36.83171
 20
-96.613382
 11
-80.976487
 21
-96.613382
  0
LINE
  8
型材断面
  6
CONTINUOUS
 10
-37.58171
 20
-97.118383
 11
-80.976487
 21
-97.118383
  0
LINE
  8
型材断面
  6
CONTINUOUS
 10
16.282248
 20
-96.613382
 11
16.282248
 21
-97.118383
  0
LINE
  8
型材断面
  6
CONTINUOUS
 10
15.532248
 20
-96.613382
 11
16.282248
 21
-96.613382
  0
LINE
  8
型材断面
  6
CONTINUOUS
 10
15.532248
 20
-96.613382
 11
15.532248
 21
-90.788382
  0
LINE
  8
型材断面
  6
CONTINUOUS
 10
15.532248
 20
-96.613382
 11
59.677025
 21
-96.613382
  0
LINE
  8
型材断面
  6
CONTINUOUS
 10
16.282248
 20
-97.118383
 11
59.677025
 21
-97.118383
  0
LINE
  8
型材断面
  6
CONTINUOUS
 10
103.071803
 20
-96.613382
 11
103.071803
 21
-97.118383
  0
LINE
  8
型材断面
  6
CONTINUOUS
 10
103.821803
 20
-96.613382
 11
103.071803
 21
-96.613382
  0
LINE
  8
型材断面
  6
CONTINUOUS
 10
103.821803
 20
-96.613382
 11
103.821803
 21
-90.788382
  0
LINE
  8
型材断面
  6
CONTINUOUS
 10
103.821803
 20
-96.613382
 11
59.677025
 21
-96.613382
  0
LINE
  8
型材断面
  6
CONTINUOUS
 10
103.071803
 20
-97.118383
 11
59.677025
 21
-97.118383
  0
LINE
  8
ガラス
  6
CONTINUOUS
 10
-79.163263
 20
-70.46891
 11
-83.035898
 21
-74.341545
  0
LINE
  8
ガラス
  6
CONTINUOUS
 10
-80.043585
 20
-72.067267
 11
-81.43754
 21
-73.461222
  0
LINE
  8
ガラス
  6
CONTINUOUS
 10
-80.76162
 20
-71.349233
 11
-82.155575
 21
-72.743188
  0
LINE
  8
ガラス
  6
CONTINUOUS
 10
-78.639387
 20
20.428475
 11
-82.512022
 21
16.55584
  0
LINE
  8
ガラス
  6
CONTINUOUS
 10
-80.237745
 20
19.548152
 11
-81.6317
 21
18.154198
  0
LINE
  8
ガラス
  6
CONTINUOUS
 10
-78.639387
 20
73.525497
 11
-82.512022
 21
69.652863
  0
LINE
  8
ガラス
  6
CONTINUOUS
 10
-80.237745
 20
72.645175
 11
-81.6317
 21
71.25122
  0
LINE
  8
ガラス
  6
CONTINUOUS
 10
-103.059345
 20
48.785215
 11
-106.93198
 21
44.91258
  0
LINE
  8
ガラス
  6
CONTINUOUS
 10
-104.657702
 20
47.904892
 11
-106.051657
 21
46.510937
  0
LINE
  8
ガラス
  6
CONTINUOUS
 10
-52.910125
 20
48.785215
 11
-56.78276
 21
44.91258
  0
LINE
  8
ガラス
  6
CONTINUOUS
 10
-54.508482
 20
47.904892
 11
-55.902437
 21
46.510937
  0
LINE
  8
ガラス
  6
CONTINUOUS
 10
-79.51971
 20
71.92714
 11
-80.913665
 21
70.533185
  0
LINE
  8
ガラス
  6
CONTINUOUS
 10
-53.790448
 20
47.186858
 11
-55.184403
 21
45.792902
  0
LINE
  8
ガラス
  6
CONTINUOUS
 10
-79.51971
 20
18.830118
 11
-80.913665
 21
17.436162
  0
LINE
  8
ガラス
  6
CONTINUOUS
 10
-103.939668
 20
47.186858
 11
-105.333623
 21
45.792902
  0
LINE
  8
ゴム等
  6
CONTINUOUS
 10
-121.205102
 20
2.60735
 11
-123.114088
 21
1.646808
  0
LINE
  8
ゴム等
  6
CONTINUOUS
 10
-123.114088
 20
1.646808
 11
-123.392315
 21
1.473148
  0
LINE
  8
ゴム等
  6
CONTINUOUS
 10
-123.472843
 20
1.459013
 11
-126.09005
 21
0.416028
  0
LINE
  8
ゴム等
  6
CONTINUOUS
 10
-125.085167
 20
6.487413
 11
-126.04571
 21
4.57843
  0
LINE
  8
ゴム等
  6
CONTINUOUS
 10
-126.04571
 20
4.57843
 11
-126.21937
 21
4.300202
  0
LINE
  8
ゴム等
  6
CONTINUOUS
 10
-126.233505
 20
4.219675
 11
-127.276487
 21
1.602468
  0
LINE
  8
ゴム等
  6
CONTINUOUS
 10
-121.15319
 20
-85.153625
 11
-123.113937
 21
-85.65747
  0
LINE
  8
ゴム等
  6
CONTINUOUS
 10
-123.113937
 20
-85.65747
 11
-123.47271
 21
-85.73505
  0
LINE
  8
ゴム等
  6
CONTINUOUS
 10
-123.47271
 20
-85.73505
 11
-126.187553
 21
-86.813382
  0
LINE
  8
ゴム等
  6
CONTINUOUS
 10
-80.976487
 20
-41.602315
 11
-80.976487
 21
-44.97692
  0
LINE
  8
ゴム等
  6
CONTINUOUS
 10
-80.976487
 20
-41.602315
 11
-80.976487
 21
-44.97692
  0
LINE
  8
ゴム等
  6
CONTINUOUS
 10
-80.976487
 20
-41.602315
 11
-80.976487
 21
-44.97692
  0
LINE
  8
ゴム等
  6
CONTINUOUS
 10
-80.976487
 20
-41.602315
 11
-80.976487
 21
-44.97692
  0
LINE
  8
ゴム等
  6
CONTINUOUS
 10
-123.113937
 20
-85.65747
 11
-80.976487
 21
-43.520017
  0
LINE
  8
ゴム等
  6
CONTINUOUS
 10
-123.47271
 20
-85.73505
 11
-80.976487
 21
-43.238825
  0
LINE
  8
ゴム等
  6
CONTINUOUS
 10
-121.15319
 20
-85.153625
 11
-80.976487
 21
-44.97692
  0
LINE
  8
ゴム等
  6
CONTINUOUS
 10
-123.113937
 20
-85.65747
 11
-80.976487
 21
-85.65747
  0
LINE
  8
ゴム等
  6
CONTINUOUS
 10
-123.47271
 20
-85.73505
 11
-80.976487
 21
-85.73505
  0
LINE
  8
ゴム等
  6
CONTINUOUS
 10
-121.15319
 20
-85.153625
 11
-80.976487
 21
-85.153625
  0
LINE
  8
ゴム等
  6
CONTINUOUS
 10
-40.799785
 20
-85.153625
 11
-38.839037
 21
-85.65747
  0
LINE
  8
ゴム等
  6
CONTINUOUS
 10
-38.839037
 20
-85.65747
 11
-38.480265
 21
-85.73505
  0
LINE
  8
ゴム等
  6
CONTINUOUS
 10
-38.480265
 20
-85.73505
 11
-35.765423
 21
-86.813382
  0
LINE
  8
ゴム等
  6
CONTINUOUS
 10
-80.976487
 20
-41.602315
 11
-80.976487
 21
-44.97692
  0
LINE
  8
ゴム等
  6
CONTINUOUS
 10
-80.976487
 20
-41.602315
 11
-80.976487
 21
-44.97692
  0
LINE
  8
ゴム等
  6
CONTINUOUS
 10
-80.976487
 20
-41.602315
 11
-80.976487
 21
-44.97692
  0
LINE
  8
ゴム等
  6
CONTINUOUS
 10
-80.976487
 20
-41.602315
 11
-80.976487
 21
-44.97692
  0
LINE
  8
ゴム等
  6
CONTINUOUS
 10
-38.839037
 20
-85.65747
 11
-80.976487
 21
-43.520017
  0
LINE
  8
ゴム等
  6
CONTINUOUS
 10
-38.480265
 20
-85.73505
 11
-80.976487
 21
-43.238825
  0
LINE
  8
ゴム等
  6
CONTINUOUS
 10
-40.799785
 20
-85.153625
 11
-80.976487
 21
-44.97692
  0
LINE
  8
ゴム等
  6
CONTINUOUS
 10
-38.839037
 20
-85.65747
 11
-80.976487
 21
-85.65747
  0
LINE
  8
ゴム等
  6
CONTINUOUS
 10
-38.480265
 20
-85.73505
 11
-80.976487
 21
-85.73505
  0
LINE
  8
ゴム等
  6
CONTINUOUS
 10
-40.799785
 20
-85.153625
 11
-80.976487
 21
-85.153625
  0
LINE
  8
ゴム等
  6
CONTINUOUS
 10
-123.114088
 20
1.646808
 11
-80.976487
 21
1.646808
  0
LINE
  8
ゴム等
  6
CONTINUOUS
 10
-121.205102
 20
2.60735
 11
-80.976487
 21
2.60735
  0
LINE
  8
ゴム等
  6
CONTINUOUS
 10
-123.472843
 20
1.459013
 11
-80.976487
 21
1.459013
  0
LINE
  8
ゴム等
  6
CONTINUOUS
 10
-121.205102
 20
2.60735
 11
-80.976487
 21
42.835962
  0
LINE
  8
ゴム等
  6
CONTINUOUS
 10
-123.114088
 20
1.646808
 11
-80.976487
 21
43.784405
  0
LINE
  8
ゴム等
  6
CONTINUOUS
 10
-123.472843
 20
1.459013
 11
-80.976487
 21
43.955365
  0
LINE
  8
ゴム等
  6
CONTINUOUS
 10
-125.085167
 20
6.487413
 11
-84.85655
 21
46.71603
  0
LINE
  8
ゴム等
  6
CONTINUOUS
 10
-126.233505
 20
4.219675
 11
-83.737147
 21
46.71603
  0
LINE
  8
ゴム等
  6
CONTINUOUS
 10
-126.04571
 20
4.57843
 11
-83.908108
 21
46.71603
  0
LINE
  8
ゴム等
  6
CONTINUOUS
 10
-126.04571
 20
4.57843
 11
-126.04571
 21
46.71603
  0
LINE
  8
ゴム等
  6
CONTINUOUS
 10
-126.233505
 20
4.219675
 11
-126.233505
 21
46.71603
  0
LINE
  8
ゴム等
  6
CONTINUOUS
 10
-125.085167
 20
6.487413
 11
-125.085167
 21
46.71603
  0
LINE
  8
ゴム等
  6
CONTINUOUS
 10
-40.747872
 20
90.82471
 11
-38.838887
 21
91.785253
  0
LINE
  8
ゴム等
  6
CONTINUOUS
 10
-38.838887
 20
91.785253
 11
-38.56066
 21
91.958913
  0
LINE
  8
ゴム等
  6
CONTINUOUS
 10
-38.480133
 20
91.973048
 11
-35.862925
 21
93.016033
  0
LINE
  8
ゴム等
  6
CONTINUOUS
 10
-36.867807
 20
86.944648
 11
-35.907265
 21
88.85363
  0
LINE
  8
ゴム等
  6
CONTINUOUS
 10
-35.907265
 20
88.85363
 11
-35.733605
 21
89.131857
  0
LINE
  8
ゴム等
  6
CONTINUOUS
 10
-35.71947
 20
89.212385
 11
-34.676487
 21
91.829593
  0
LINE
  8
ゴム等
  6
CONTINUOUS
 10
-38.838887
 20
91.785253
 11
-80.976487
 21
91.785253
  0
LINE
  8
ゴム等
  6
CONTINUOUS
 10
-40.747872
 20
90.82471
 11
-80.976487
 21
90.82471
  0
LINE
  8
ゴム等
  6
CONTINUOUS
 10
-38.480133
 20
91.973048
 11
-80.976487
 21
91.973048
  0
LINE
  8
ゴム等
  6
CONTINUOUS
 10
-40.747872
 20
90.82471
 11
-80.976487
 21
50.596097
  0
LINE
  8
ゴム等
  6
CONTINUOUS
 10
-38.838887
 20
91.785253
 11
-80.976487
 21
49.647655
  0
LINE
  8
ゴム等
  6
CONTINUOUS
 10
-38.480133
 20
91.973048
 11
-80.976487
 21
49.476695
  0
LINE
  8
ゴム等
  6
CONTINUOUS
 10
-36.867807
 20
86.944648
 11
-77.096425
 21
46.71603
  0
LINE
  8
ゴム等
  6
CONTINUOUS
 10
-35.71947
 20
89.212385
 11
-78.215827
 21
46.71603
  0
LINE
  8
ゴム等
  6
CONTINUOUS
 10
-35.907265
 20
88.85363
 11
-78.044867
 21
46.71603
  0
LINE
  8
ゴム等
  6
CONTINUOUS
 10
-35.907265
 20
88.85363
 11
-35.907265
 21
46.71603
  0
LINE
  8
ゴム等
  6
CONTINUOUS
 10
-35.71947
 20
89.212385
 11
-35.71947
 21
46.71603
  0
LINE
  8
ゴム等
  6
CONTINUOUS
 10
-36.867807
 20
86.944648
 11
-36.867807
 21
46.71603
  0
LINE
  8
ゴム等
  6
CONTINUOUS
 10
-121.205102
 20
90.82471
 11
-123.114088
 21
91.785253
  0
LINE
  8
ゴム等
  6
CONTINUOUS
 10
-123.114088
 20
91.785253
 11
-123.392315
 21
91.958913
  0
LINE
  8
ゴム等
  6
CONTINUOUS
 10
-123.472843
 20
91.973048
 11
-126.09005
 21
93.016033
  0
LINE
  8
ゴム等
  6
CONTINUOUS
 10
-125.085167
 20
86.944648
 11
-126.04571
 21
88.85363
  0
LINE
  8
ゴム等
  6
CONTINUOUS
 10
-126.04571
 20
88.85363
 11
-126.21937
 21
89.131857
  0
LINE
  8
ゴム等
  6
CONTINUOUS
 10
-126.233505
 20
89.212385
 11
-127.276487
 21
91.829593
  0
LINE
  8
ゴム等
  6
CONTINUOUS
 10
-123.114088
 20
91.785253
 11
-80.976487
 21
91.785253
  0
LINE
  8
ゴム等
  6
CONTINUOUS
 10
-121.205102
 20
90.82471
 11
-80.976487
 21
90.82471
  0
LINE
  8
ゴム等
  6
CONTINUOUS
 10
-123.472843
 20
91.973048
 11
-80.976487
 21
91.973048
  0
LINE
  8
ゴム等
  6
CONTINUOUS
 10
-121.205102
 20
90.82471
 11
-80.976487
 21
50.596097
  0
LINE
  8
ゴム等
  6
CONTINUOUS
 10
-123.114088
 20
91.785253
 11
-80.976487
 21
49.647655
  0
LINE
  8
ゴム等
  6
CONTINUOUS
 10
-123.472843
 20
91.973048
 11
-80.976487
 21
49.476695
  0
LINE
  8
ゴム等
  6
CONTINUOUS
 10
-125.085167
 20
86.944648
 11
-84.85655
 21
46.71603
  0
LINE
  8
ゴム等
  6
CONTINUOUS
 10
-126.233505
 20
89.212385
 11
-83.737147
 21
46.71603
  0
LINE
  8
ゴム等
  6
CONTINUOUS
 10
-126.04571
 20
88.85363
 11
-83.908108
 21
46.71603
  0
LINE
  8
ゴム等
  6
CONTINUOUS
 10
-126.04571
 20
88.85363
 11
-126.04571
 21
46.71603
  0
LINE
  8
ゴム等
  6
CONTINUOUS
 10
-126.233505
 20
89.212385
 11
-126.233505
 21
46.71603
  0
LINE
  8
ゴム等
  6
CONTINUOUS
 10
-125.085167
 20
86.944648
 11
-125.085167
 21
46.71603
  0
LINE
  8
ゴム等
  6
CONTINUOUS
 10
-36.867805
 20
6.487418
 11
-35.907262
 21
4.578433
  0
LINE
  8
ゴム等
  6
CONTINUOUS
 10
-35.907262
 20
4.578433
 11
-35.733602
 21
4.300205
  0
LINE
  8
ゴム等
  6
CONTINUOUS
 10
-35.719467
 20
4.219678
 11
-34.676483
 21
1.60247
  0
LINE
  8
ゴム等
  6
CONTINUOUS
 10
-40.747868
 20
2.607352
 11
-38.838885
 21
1.64681
  0
LINE
  8
ゴム等
  6
CONTINUOUS
 10
-38.838885
 20
1.64681
 11
-38.560657
 21
1.47315
  0
LINE
  8
ゴム等
  6
CONTINUOUS
 10
-38.48013
 20
1.459015
 11
-35.862922
 21
0.416033
  0
LINE
  8
ゴム等
  6
CONTINUOUS
 10
-35.907262
 20
4.578433
 11
-35.907265
 21
46.716033
  0
LINE
  8
ゴム等
  6
CONTINUOUS
 10
-36.867805
 20
6.487418
 11
-36.867807
 21
46.716033
  0
LINE
  8
ゴム等
  6
CONTINUOUS
 10
-35.719467
 20
4.219678
 11
-35.71947
 21
46.716033
  0
LINE
  8
ゴム等
  6
CONTINUOUS
 10
-36.867805
 20
6.487418
 11
-77.09642
 21
46.71603
  0
LINE
  8
ゴム等
  6
CONTINUOUS
 10
-35.907262
 20
4.578433
 11
-78.044862
 21
46.71603
  0
LINE
  8
ゴム等
  6
CONTINUOUS
 10
-35.719467
 20
4.219678
 11
-78.215823
 21
46.71603
  0
LINE
  8
ゴム等
  6
CONTINUOUS
 10
-40.747868
 20
2.607352
 11
-80.976487
 21
42.835967
  0
LINE
  8
ゴム等
  6
CONTINUOUS
 10
-38.48013
 20
1.459015
 11
-80.976487
 21
43.95537
  0
LINE
  8
ゴム等
  6
CONTINUOUS
 10
-38.838885
 20
1.64681
 11
-80.976487
 21
43.78441
  0
LINE
  8
ゴム等
  6
CONTINUOUS
 10
-38.838885
 20
1.64681
 11
-80.976485
 21
1.646808
  0
LINE
  8
ゴム等
  6
CONTINUOUS
 10
-38.48013
 20
1.459015
 11
-80.976485
 21
1.459013
  0
LINE
  8
ゴム等
  6
CONTINUOUS
 10
-40.747868
 20
2.607352
 11
-80.976485
 21
2.60735
  0
LINE
  8
ゴム等
  6
CONTINUOUS
 10
19.500323
 20
-85.153625
 11
17.539575
 21
-85.65747
  0
LINE
  8
ゴム等
  6
CONTINUOUS
 10
17.539575
 20
-85.65747
 11
17.180803
 21
-85.73505
  0
LINE
  8
ゴム等
  6
CONTINUOUS
 10
17.180803
 20
-85.73505
 11
14.46596
 21
-86.813382
  0
LINE
  8
ゴム等
  6
CONTINUOUS
 10
59.677025
 20
-41.602315
 11
59.677025
 21
-44.97692
  0
LINE
  8
ゴム等
  6
CONTINUOUS
 10
59.677025
 20
-41.602315
 11
59.677025
 21
-44.97692
  0
LINE
  8
ゴム等
  6
CONTINUOUS
 10
59.677025
 20
-41.602315
 11
59.677025
 21
-44.97692
  0
LINE
  8
ゴム等
  6
CONTINUOUS
 10
59.677025
 20
-41.602315
 11
59.677025
 21
-44.97692
  0
LINE
  8
ゴム等
  6
CONTINUOUS
 10
17.539575
 20
-85.65747
 11
59.677025
 21
-43.520017
  0
LINE
  8
ゴム等
  6
CONTINUOUS
 10
17.180803
 20
-85.73505
 11
59.677025
 21
-43.238825
  0
LINE
  8
ゴム等
  6
CONTINUOUS
 10
19.500323
 20
-85.153625
 11
59.677025
 21
-44.97692
  0
LINE
  8
ゴム等
  6
CONTINUOUS
 10
17.539575
 20
-85.65747
 11
59.677025
 21
-85.65747
  0
LINE
  8
ゴム等
  6
CONTINUOUS
 10
17.180803
 20
-85.73505
 11
59.677025
 21
-85.73505
  0
LINE
  8
ゴム等
  6
CONTINUOUS
 10
19.500323
 20
-85.153625
 11
59.677025
 21
-85.153625
  0
LINE
  8
ゴム等
  6
CONTINUOUS
 10
99.853728
 20
-85.153625
 11
101.814475
 21
-85.65747
  0
LINE
  8
ゴム等
  6
CONTINUOUS
 10
101.814475
 20
-85.65747
 11
102.173248
 21
-85.73505
  0
LINE
  8
ゴム等
  6
CONTINUOUS
 10
102.173248
 20
-85.73505
 11
104.88809
 21
-86.813382
  0
LINE
  8
ゴム等
  6
CONTINUOUS
 10
59.677025
 20
-41.602315
 11
59.677025
 21
-44.97692
  0
LINE
  8
ゴム等
  6
CONTINUOUS
 10
59.677025
 20
-41.602315
 11
59.677025
 21
-44.97692
  0
LINE
  8
ゴム等
  6
CONTINUOUS
 10
59.677025
 20
-41.602315
 11
59.677025
 21
-44.97692
  0
LINE
  8
ゴム等
  6
CONTINUOUS
 10
59.677025
 20
-41.602315
 11
59.677025
 21
-44.97692
  0
LINE
  8
ゴム等
  6
CONTINUOUS
 10
101.814475
 20
-85.65747
 11
59.677025
 21
-43.520017
  0
LINE
  8
ゴム等
  6
CONTINUOUS
 10
102.173248
 20
-85.73505
 11
59.677025
 21
-43.238825
  0
LINE
  8
ゴム等
  6
CONTINUOUS
 10
99.853728
 20
-85.153625
 11
59.677025
 21
-44.97692
  0
LINE
  8
ゴム等
  6
CONTINUOUS
 10
101.814475
 20
-85.65747
 11
59.677025
 21
-85.65747
  0
LINE
  8
ゴム等
  6
CONTINUOUS
 10
102.173248
 20
-85.73505
 11
59.677025
 21
-85.73505
  0
LINE
  8
ゴム等
  6
CONTINUOUS
 10
99.853728
 20
-85.153625
 11
59.677025
 21
-85.153625
  0
LINE
  8
ゴム等
  6
DOT
 10
19.485323
 20
-65.153625
 11
17.524575
 21
-65.65747
  0
LINE
  8
ゴム等
  6
DOT
 10
17.524575
 20
-65.65747
 11
17.165803
 21
-65.73505
  0
LINE
  8
ゴム等
  6
DOT
 10
17.165803
 20
-65.73505
 11
14.45096
 21
-66.813382
  0
LINE
  8
ゴム等
  6
DOT
 10
59.662025
 20
-21.602315
 11
59.662025
 21
-24.97692
  0
LINE
  8
ゴム等
  6
DOT
 10
59.662025
 20
-21.602315
 11
59.662025
 21
-24.97692
  0
LINE
  8
ゴム等
  6
DOT
 10
59.662025
 20
-21.602315
 11
59.662025
 21
-24.97692
  0
LINE
  8
ゴム等
  6
DOT
 10
59.662025
 20
-21.602315
 11
59.662025
 21
-24.97692
  0
LINE
  8
ゴム等
  6
DOT
 10
17.524575
 20
-65.65747
 11
59.662025
 21
-23.520017
  0
LINE
  8
ゴム等
  6
DOT
 10
17.165803
 20
-65.73505
 11
59.662025
 21
-23.238825
  0
LINE
  8
ゴム等
  6
DOT
 10
19.485323
 20
-65.153625
 11
59.662025
 21
-24.97692
  0
LINE
  8
ゴム等
  6
DOT
 10
17.524575
 20
-65.65747
 11
59.662025
 21
-65.65747
  0
LINE
  8
ゴム等
  6
DOT
 10
17.165803
 20
-65.73505
 11
59.662025
 21
-65.73505
  0
LINE
  8
ゴム等
  6
DOT
 10
19.485323
 20
-65.153625
 11
59.662025
 21
-65.153625
  0
LINE
  8
ゴム等
  6
DOT
 10
99.838727
 20
-65.153625
 11
101.799475
 21
-65.65747
  0
LINE
  8
ゴム等
  6
DOT
 10
101.799475
 20
-65.65747
 11
102.158247
 21
-65.73505
  0
LINE
  8
ゴム等
  6
DOT
 10
102.158247
 20
-65.73505
 11
104.87309
 21
-66.813382
  0
LINE
  8
ゴム等
  6
DOT
 10
59.662025
 20
-21.602315
 11
59.662025
 21
-24.97692
  0
LINE
  8
ゴム等
  6
DOT
 10
59.662025
 20
-21.602315
 11
59.662025
 21
-24.97692
  0
LINE
  8
ゴム等
  6
DOT
 10
59.662025
 20
-21.602315
 11
59.662025
 21
-24.97692
  0
LINE
  8
ゴム等
  6
DOT
 10
59.662025
 20
-21.602315
 11
59.662025
 21
-24.97692
  0
LINE
  8
ゴム等
  6
DOT
 10
101.799475
 20
-65.65747
 11
59.662025
 21
-23.520017
  0
LINE
  8
ゴム等
  6
DOT
 10
102.158247
 20
-65.73505
 11
59.662025
 21
-23.238825
  0
LINE
  8
ゴム等
  6
DOT
 10
99.838727
 20
-65.153625
 11
59.662025
 21
-24.97692
  0
LINE
  8
ゴム等
  6
DOT
 10
101.799475
 20
-65.65747
 11
59.662025
 21
-65.65747
  0
LINE
  8
ゴム等
  6
DOT
 10
102.158247
 20
-65.73505
 11
59.662025
 21
-65.73505
  0
LINE
  8
ゴム等
  6
DOT
 10
99.838727
 20
-65.153625
 11
59.662025
 21
-65.153625
  0
CIRCLE
  8
ボルト／ビス
  6
CONTINUOUS
 10
-124.121265
 20
-92.034225
 40
0.25
  0
CIRCLE
  8
ボルト／ビス
  6
CONTINUOUS
 10
-124.121265
 20
-92.034225
 40
0.2
  0
CIRCLE
  8
ボルト／ビス
  6
CONTINUOUS
 10
-124.121265
 20
-95.249225
 40
0.25
  0
CIRCLE
  8
ボルト／ビス
  6
CONTINUOUS
 10
-124.121265
 20
-95.249225
 40
0.2
  0
CIRCLE
  8
ボルト／ビス
  6
CONTINUOUS
 10
-37.83171
 20
-92.034225
 40
0.25
  0
CIRCLE
  8
ボルト／ビス
  6
CONTINUOUS
 10
-37.83171
 20
-92.034225
 40
0.2
  0
CIRCLE
  8
ボルト／ビス
  6
CONTINUOUS
 10
-37.83171
 20
-95.249225
 40
0.25
  0
CIRCLE
  8
ボルト／ビス
  6
CONTINUOUS
 10
-37.83171
 20
-95.249225
 40
0.2
  0
CIRCLE
  8
ボルト／ビス
  6
CONTINUOUS
 10
16.532248
 20
-92.034225
 40
0.25
  0
CIRCLE
  8
ボルト／ビス
  6
CONTINUOUS
 10
16.532248
 20
-92.034225
 40
0.2
  0
CIRCLE
  8
ボルト／ビス
  6
CONTINUOUS
 10
16.532248
 20
-95.249225
 40
0.25
  0
CIRCLE
  8
ボルト／ビス
  6
CONTINUOUS
 10
16.532248
 20
-95.249225
 40
0.2
  0
CIRCLE
  8
ボルト／ビス
  6
CONTINUOUS
 10
102.821803
 20
-92.034225
 40
0.25
  0
CIRCLE
  8
ボルト／ビス
  6
CONTINUOUS
 10
102.821803
 20
-92.034225
 40
0.2
  0
CIRCLE
  8
ボルト／ビス
  6
CONTINUOUS
 10
102.821803
 20
-95.249225
 40
0.25
  0
CIRCLE
  8
ボルト／ビス
  6
CONTINUOUS
 10
102.821803
 20
-95.249225
 40
0.2
  0
TEXT
  7
TextStyle03
  8
文字
  6
CONTINUOUS
 10
64.675
 20
94.05
  1
ＮＳコード：ＮＳ４Ｇ
 40
5.0
 72
     5
 11
120.3
 21
94.05
  0
TEXT
  7
TextStyle03
  8
文字
  6
CONTINUOUS
 10
-31.325
 20
25.425
  1
ﾊﾞﾗﾝｽｽﾃｰ
 40
3.0
 72
     5
 11
-18.0125
 21
25.425
  0
TEXT
  7
TextStyle03
  8
文字
  6
CONTINUOUS
 10
-2.95
 20
-2.625
  1
は排水穴位置を示す
 40
3.0
 72
     5
 11
27.05
 21
-2.625
  0
TEXT
  7
TextStyle03
  8
文字
  6
CONTINUOUS
 10
-2.95
 20
-10.475
  1
はケーシング位置を示す
 40
3.0
 72
     5
 11
33.8
 21
-10.475
  0
TEXT
  7
TextStyle03
  8
文字
  6
CONTINUOUS
 10
-2.95
 20
-13.85
  1
４ヶ所中1ヶ所に設定
 40
3.0
 72
     5
 11
28.7375
 21
-13.85
  0
TEXT
  7
TextStyle03
  8
文字
  6
CONTINUOUS
 10
-89.325
 20
-10.15
  1
可動装置側
 40
3.0
 72
     5
 11
-72.825
 21
-10.15
  0
TEXT
  7
TextStyle03
  8
文字
  6
CONTINUOUS
 10
-89.325
 20
101.0
  1
可動装置側
 40
3.0
 72
     5
 11
-72.825
 21
101.0
  0
TEXT
  7
TextStyle03
  8
文字
  6
CONTINUOUS
 10
-144.0375
 20
72.9
  1
ﾊﾞﾗﾝｽｽﾃｰ
 40
3.0
 72
     5
 11
-130.725
 21
72.9
  0
TEXT
  7
TextStyle03
  8
文字
  6
CONTINUOUS
 10
-153.225
 20
3.625
  1
アンカーピッチ
 40
3.0
 50
90.0
 72
     5
 11
-153.225
 21
26.875
  0
TEXT
  7
TextStyle03
  8
文字
  6
CONTINUOUS
 10
-141.2
 20
119.65
  1
アンカーピッチ
 40
3.0
 72
     5
 11
-117.95
 21
119.65
  0
TEXT
  7
TextStyle03
  8
文字
  6
CONTINUOUS
 10
149.25
 20
-5.875
  1
×４枚
 40
3.0
 72
     5
 11
159.0
 21
-5.875
  0
TEXT
  7
TextStyle03
  8
文字
  6
CONTINUOUS
 10
97.625
 20
43.85
  1
ガラス寸法
 40
3.0
 72
     5
 11
114.125
 21
43.85
  0
TEXT
  7
TextStyle03
  8
文字
  6
CONTINUOUS
 10
-8.6
 20
-27.825
  1
アームユニット数　４ヶ所
 40
3.0
 72
     5
 11
31.525
 21
-27.825
  0
TEXT
  7
TextStyle03
  8
文字
  6
CONTINUOUS
 10
-8.55
 20
-21.0
  1
アンカー数量　１０ヶ所
 40
3.0
 72
     5
 11
28.2
 21
-21.0
  0
TEXT
  7
TextStyle03
  8
文字
  6
CONTINUOUS
 10
66.275
 20
120.225
  1
シリーズ：ＤＦ４
 40
5.0
 72
     5
 11
110.65
 21
120.225
  0
TEXT
  7
TextStyle03
  8
文字
  6
CONTINUOUS
 10
66.275
 20
114.6
  1
　　　　　四角錘（上下可動）1600×1600タイプ
 40
5.0
 72
     5
 11
189.4
 21
114.6
  0
TEXT
  7
TextStyle03
  8
文字
  6
CONTINUOUS
 10
66.275
 20
108.975
  1
　　　　　シングルガラス仕様
 40
5.0
 72
     5
 11
144.4
 21
108.975
  0
TEXT
  7
TextStyle03
  8
文字
  6
CONTINUOUS
 10
66.275
 20
103.35
  1
図面名　：外観姿図
 40
5.0
 72
     5
 11
116.275
 21
103.35
  0
INSERT
  2
*DIM_0006
  8
寸法
  6
CONTINUOUS
 10
0.0
 20
0.0
  0
INSERT
  2
*DIM_0007
  8
寸法
  6
CONTINUOUS
 10
0.0
 20
0.0
  0
INSERT
  2
*DIM_0008
  8
寸法
  6
CONTINUOUS
 10
0.0
 20
0.0
  0
INSERT
  2
*DIM_0009
  8
寸法
  6
CONTINUOUS
 10
0.0
 20
0.0
  0
INSERT
  2
*DIM_0010
  8
寸法
  6
CONTINUOUS
 10
0.0
 20
0.0
  0
INSERT
  2
*DIM_0011
  8
寸法
  6
CONTINUOUS
 10
0.0
 20
0.0
  0
INSERT
  2
*DIM_0012
  8
寸法
  6
CONTINUOUS
 10
0.0
 20
0.0
  0
INSERT
  2
*GRP_0013
  8
寸法
  6
CONTINUOUS
 10
0.0
 20
0.0
  0
INSERT
  2
*DIM_0014
  8
寸法
  6
CONTINUOUS
 10
0.0
 20
0.0
  0
INSERT
  2
*DIM_0015
  8
寸法
  6
CONTINUOUS
 10
0.0
 20
0.0
  0
INSERT
  2
*DIM_0016
  8
寸法
  6
CONTINUOUS
 10
0.0
 20
0.0
  0
INSERT
  2
*GRP_0017
  8
寸法
  6
CONTINUOUS
 10
0.0
 20
0.0
  0
INSERT
  2
*DIM_0018
  8
寸法
  6
CONTINUOUS
 10
0.0
 20
0.0
  0
INSERT
  2
*DIM_0019
  8
寸法
  6
CONTINUOUS
 10
0.0
 20
0.0
  0
INSERT
  2
*DIM_0020
  8
寸法
  6
CONTINUOUS
 10
0.0
 20
0.0
  0
INSERT
  2
*DIM_0021
  8
寸法
  6
CONTINUOUS
 10
0.0
 20
0.0
  0
INSERT
  2
*DIM_0022
  8
寸法
  6
CONTINUOUS
 10
0.0
 20
0.0
  0
INSERT
  2
*DIM_0023
  8
寸法
  6
CONTINUOUS
 10
0.0
 20
0.0
  0
LINE
  8
曲げ物
  6
CONTINUOUS
 10
171.30177
 20
-8.939517
 11
87.956773
 21
-8.939517
  0
LINE
  8
曲げ物
  6
CONTINUOUS
 10
87.956773
 20
-8.939517
 11
129.62927
 21
49.994047
  0
LINE
  8
曲げ物
  6
CONTINUOUS
 10
171.30177
 20
-8.939517
 11
129.62927
 21
49.994047
  0
ENDSEC
  0
EOF
