  0
SECTION
  2
HEADER
  9
$EXTMIN
 10
-210.0
 20
-148.5
  9
$EXTMAX
 10
210.0
 20
148.5
  9
$PDMODE
 70
    32
  9
$PDSIZE
 40
1.5
  9
$LTSCALE
 40
10.0
  0
ENDSEC
  0
SECTION
  2
TABLES
  0
TABLE
  2
LTYPE
 70
    15
  0
LTYPE
  2
CONTINUOUS
 70
    64
  3
実線
 72
    65
 73
     0
 40
0.0
  0
LTYPE
  2
DASHED
 70
    64
  3
破線A
 72
    65
 73
     2
 40
0.6
 49
0.4
 49
-0.2
  0
LTYPE
  2
DASHEDX2
 70
    64
  3
破線B
 72
    65
 73
     2
 40
1.3
 49
0.9
 49
-0.4
  0
LTYPE
  2
DASHDOT
 70
    64
  3
１点鎖線A
 72
    65
 73
     4
 40
0.5375
 49
0.375
 49
-0.05
 49
0.0625
 49
-0.05
  0
LTYPE
  2
DASHDOTX2
 70
    64
  3
１点鎖線B
 72
    65
 73
     4
 40
1.075
 49
0.75
 49
-0.1
 49
0.125
 49
-0.1
  0
LTYPE
  2
DIVIDE2
 70
    64
  3
２点鎖線A
 72
    65
 73
     6
 40
0.5125
 49
0.3
 49
-0.0375
 49
0.05
 49
-0.0375
 49
0.05
 49
-0.0375
  0
LTYPE
  2
DIVIDE
 70
    64
  3
２点鎖線B
 72
    65
 73
     6
 40
1.05
 49
0.55
 49
-0.1
 49
0.1
 49
-0.1
 49
0.1
 49
-0.1
  0
LTYPE
  2
DOT
 70
    64
  3
点線A
 72
    65
 73
     2
 40
0.1125
 49
0.0625
 49
-0.05
  0
LTYPE
  2
DOTX2
 70
    64
  3
点線B
 72
    65
 73
     2
 40
0.275
 49
0.15
 49
-0.125
  0
LTYPE
  2
CONTINUOUS
 70
    64
  3
実線
 72
    65
 73
     0
 40
0.0
  0
LTYPE
  2
CONTINUOUS
 70
    64
  3
実線
 72
    65
 73
     0
 40
0.0
  0
LTYPE
  2
CONTINUOUS
 70
    64
  3
実線
 72
    65
 73
     0
 40
0.0
  0
LTYPE
  2
CONTINUOUS
 70
    64
  3
実線
 72
    65
 73
     0
 40
0.0
  0
LTYPE
  2
CONTINUOUS
 70
    64
  3
実線
 72
    65
 73
     0
 40
0.0
  0
LTYPE
  2
CONTINUOUS
 70
    64
  3
実線
 72
    65
 73
     0
 40
0.0
  0
ENDTAB
  0
TABLE
  2
LAYER
 70
    34
  0
LAYER
  2
通り芯
 70
     0
 62
    15
  6
CONTINUOUS
  0
LAYER
  2
補助線
 70
     0
 62
    16
  6
DOT
  0
LAYER
  2
躯体
 70
     0
 62
    31
  6
CONTINUOUS
  0
LAYER
  2
型材
 70
     0
 62
    32
  6
CONTINUOUS
  0
LAYER
  2
型材断面
 70
     0
 62
    47
  6
CONTINUOUS
  0
LAYER
  2
ガラス
 70
     0
 62
    48
  6
CONTINUOUS
  0
LAYER
  2
ゴム等
 70
     0
 62
    63
  6
CONTINUOUS
  0
LAYER
  2
ボルト／ビス
 70
     0
 62
    64
  6
CONTINUOUS
  0
LAYER
  2
文字
 70
     0
 62
    79
  6
CONTINUOUS
  0
LAYER
  2
寸法
 70
     0
 62
    80
  6
CONTINUOUS
  0
LAYER
  2
ﾊｯﾁﾝｸﾞ
 70
     0
 62
    95
  6
CONTINUOUS
  0
LAYER
  2
別途部材
 70
     0
 62
    96
  6
CONTINUOUS
  0
LAYER
  2
曲げ物
 70
     0
 62
   111
  6
CONTINUOUS
  0
LAYER
  2
鉄骨等
 70
     0
 62
   112
  6
CONTINUOUS
  0
LAYER
  2
St
 70
     0
 62
   127
  6
CONTINUOUS
  0
LAYER
  2
その他部品等
 70
     0
 62
   128
  6
CONTINUOUS
  0
LAYER
  2
ｶﾞｽｹｯﾄ
 70
     0
 62
   143
  6
CONTINUOUS
  0
LAYER
  2
ｽｹｯﾁ
 70
     0
 62
    14
  6
CONTINUOUS
  0
LAYER
  2
0
 70
     0
 62
    17
  6
CONTINUOUS
  0
LAYER
  2
1
 70
     0
 62
    30
  6
CONTINUOUS
  0
LAYER
  2
4
 70
     0
 62
    33
  6
CONTINUOUS
  0
LAYER
  2
ﾚｲﾔ3
 70
     0
 62
    46
  6
CONTINUOUS
  0
LAYER
  2
外形線
 70
     0
 62
    49
  6
CONTINUOUS
  0
LAYER
  2
部品
 70
     0
 62
    14
  6
CONTINUOUS
  0
LAYER
  2
サッシ芯
 70
     0
 62
    17
  6
DASHDOTX2
  0
LAYER
  2
寸法線
 70
     0
 62
    62
  6
CONTINUOUS
  0
LAYER
  2
姿図外形線
 70
     0
 62
    65
  6
CONTINUOUS
  0
LAYER
  2
姿補助線
 70
     0
 62
    30
  6
CONTINUOUS
  0
LAYER
  2
透視線
 70
     0
 62
    78
  6
DOT
  0
LAYER
  2
用紙
 70
     0
 62
    81
  6
CONTINUOUS
  0
LAYER
  2
実線図枠
 70
     0
 62
    94
  6
CONTINUOUS
  0
LAYER
  2
補助図枠
 70
     0
 62
    97
  6
CONTINUOUS
  0
LAYER
  2
建具記号
 70
     0
 62
   110
  6
CONTINUOUS
  0
LAYER
  2
補助文字
 70
     0
 62
   113
  6
CONTINUOUS
  0
ENDTAB
  0
TABLE
  2
STYLE
 70
    10
  0
STYLE
  2
STANDARD
 70
     0
 40
1.0
 41
1.0
 42
1.0
 50
0.0
 71
     0
  3
TXT
  4
BIGFONT
  0
STYLE
  2
TATE
 70
     4
 40
1.0
 41
1.0
 42
1.0
 50
0.0
 71
     0
  3
TXT
  4
BIGFONT
  0
STYLE
  2
TextStyle03
 70
     0
 40
1.0
 41
1.0
 42
1.0
 50
0.0
 71
     0
  3
MONOTXT
  4
BIGFONT
  0
STYLE
  2
TextStyle04
 70
     0
 40
1.0
 41
1.0
 42
1.0
 50
0.0
 71
     0
  3
MONOTXT
  4
BIGFONT
  0
STYLE
  2
TextStyle05
 70
     0
 40
1.0
 41
1.0
 42
1.0
 50
0.0
 71
     0
  3
MONOTXT
  4
BIGFONT
  0
STYLE
  2
TextStyle06
 70
     0
 40
1.0
 41
1.0
 42
1.0
 50
0.0
 71
     0
  3
MONOTXT
  4
BIGFONT
  0
STYLE
  2
TextStyle07
 70
     0
 40
1.0
 41
1.0
 42
1.0
 50
0.0
 71
     0
  3
MONOTXT
  4
BIGFONT
  0
STYLE
  2
TextStyle08
 70
     0
 40
1.0
 41
1.0
 42
1.0
 50
0.0
 71
     0
  3
MONOTXT
  4
BIGFONT
  0
STYLE
  2
TextStyle09
 70
     0
 40
1.0
 41
1.0
 42
1.0
 50
0.0
 71
     0
  3
MONOTXT
  4
BIGFONT
  0
STYLE
  2
TextStyle10
 70
     0
 40
1.0
 41
1.0
 42
1.0
 50
0.0
 71
     0
  3
MONOTXT
  4
BIGFONT
  0
ENDTAB
  0
ENDSEC
  0
SECTION
  2
BLOCKS
  0
BLOCK
  2
*GRP_0001
 70
    65
 10
0.0
 20
0.0
  0
LINE
  8
型材断面
  6
CONTINUOUS
 10
195.0
 20
133.5
 11
195.0
 21
-133.5
  0
LINE
  8
型材断面
  6
CONTINUOUS
 10
195.0
 20
-133.5
 11
-185.0
 21
-133.5
  0
LINE
  8
型材断面
  6
CONTINUOUS
 10
-185.0
 20
-133.5
 11
-185.0
 21
133.5
  0
LINE
  8
型材断面
  6
CONTINUOUS
 10
195.0
 20
133.5
 11
-185.0
 21
133.5
  0
LINE
  8
型材断面
  6
CONTINUOUS
 10
145.0
 20
-133.5
 11
145.0
 21
-118.5
  0
LINE
  8
型材断面
  6
CONTINUOUS
 10
195.0
 20
-118.5
 11
145.0
 21
-118.5
  0
ENDBLK
  0
BLOCK
  2
*GRP_0002
 70
    65
 10
0.0
 20
0.0
  0
LINE
  8
型材断面
  6
CONTINUOUS
 10
59.194595
 20
-91.87482
 11
59.560238
 21
-92.870463
  0
LINE
  8
型材断面
  6
CONTINUOUS
 10
59.560238
 20
-92.870463
 11
59.140237
 21
-93.777988
  0
LINE
  8
型材断面
  6
CONTINUOUS
 10
59.140237
 20
-93.777988
 11
58.144595
 21
-94.14363
  0
LINE
  8
型材断面
  6
CONTINUOUS
 10
15.179678
 20
-71.504817
 11
59.194595
 21
-91.87482
  0
LINE
  8
型材断面
  6
CONTINUOUS
 10
14.184032
 20
-71.87046
 11
15.179678
 21
-71.504817
  0
LINE
  8
型材断面
  6
CONTINUOUS
 10
14.184032
 20
-71.87046
 11
13.764033
 21
-72.777985
  0
LINE
  8
型材断面
  6
CONTINUOUS
 10
14.129678
 20
-73.773628
 11
58.144595
 21
-94.14363
  0
LINE
  8
型材断面
  6
CONTINUOUS
 10
13.764033
 20
-72.777985
 11
14.129678
 21
-73.773628
  0
INSERT
  2
*GRP_0016
  8
ボルト／ビス
  6
CONTINUOUS
 62
    64
 10
0.0
 20
0.0
  0
INSERT
  2
*GRP_0017
  8
ボルト／ビス
  6
CONTINUOUS
 62
    64
 10
0.0
 20
0.0
  0
INSERT
  2
*GRP_0018
  8
ボルト／ビス
  6
CONTINUOUS
 62
    64
 10
0.0
 20
0.0
  0
ENDBLK
  0
BLOCK
  2
*GRP_0003
 70
    65
 10
0.0
 20
0.0
  0
LINE
  8
型材断面
  6
CONTINUOUS
 10
14.129675
 20
-91.87482
 11
13.764033
 21
-92.870463
  0
LINE
  8
型材断面
  6
CONTINUOUS
 10
13.764033
 20
-92.870463
 11
14.184032
 21
-93.777988
  0
LINE
  8
型材断面
  6
CONTINUOUS
 10
14.184032
 20
-93.777988
 11
15.179675
 21
-94.14363
  0
LINE
  8
型材断面
  6
CONTINUOUS
 10
58.144593
 20
-71.504817
 11
14.129675
 21
-91.87482
  0
LINE
  8
型材断面
  6
CONTINUOUS
 10
59.140237
 20
-71.87046
 11
58.144593
 21
-71.504817
  0
LINE
  8
型材断面
  6
CONTINUOUS
 10
59.140237
 20
-71.87046
 11
59.560238
 21
-72.777985
  0
LINE
  8
型材断面
  6
CONTINUOUS
 10
59.194592
 20
-73.773628
 11
15.179675
 21
-94.14363
  0
LINE
  8
型材断面
  6
CONTINUOUS
 10
59.560238
 20
-72.777985
 11
59.194592
 21
-73.773628
  0
INSERT
  2
*GRP_0019
  8
ボルト／ビス
  6
CONTINUOUS
 62
    64
 10
0.0
 20
0.0
  0
INSERT
  2
*GRP_0020
  8
ボルト／ビス
  6
CONTINUOUS
 62
    64
 10
0.0
 20
0.0
  0
INSERT
  2
*GRP_0021
  8
ボルト／ビス
  6
CONTINUOUS
 62
    64
 10
0.0
 20
0.0
  0
ENDBLK
  0
BLOCK
  2
*DIM_0004
 70
    65
 10
0.0
 20
0.0
  0
LINE
  8
寸法
  6
BYBLOCK
 62
     0
 10
-116.190163
 20
-33.806682
 11
-116.190163
 21
-33.377287
  0
LINE
  8
寸法
  6
BYBLOCK
 62
     0
 10
-51.190163
 20
-33.806682
 11
-51.190163
 21
-33.377287
  0
LINE
  8
寸法
  6
BYBLOCK
 62
     0
 10
-116.190163
 20
-33.377287
 11
-51.190163
 21
-33.377287
  0
POINT
  8
寸法
 62
     0
 10
-116.190163
 20
-33.377287
  0
POINT
  8
寸法
 62
     0
 10
-51.190163
 20
-33.377287
  0
TEXT
  7
TextStyle03
  8
寸法
  6
CONTINUOUS
 62
     0
 10
-95.41875
 20
-33.0
  1
呼称寸法　1300
 40
3.0
 72
     5
 11
-71.98125
 21
-33.0
  0
ENDBLK
  0
BLOCK
  2
*DIM_0005
 70
    65
 10
0.0
 20
0.0
  0
LINE
  8
寸法
  6
BYBLOCK
 62
     0
 10
-44.890163
 20
-85.813382
 11
-44.890163
 21
-33.377287
  0
LINE
  8
寸法
  6
BYBLOCK
 62
     0
 10
-51.190163
 20
-33.377287
 11
-44.890163
 21
-33.377287
  0
POINT
  8
寸法
 62
     0
 10
-51.190163
 20
-33.377287
  0
POINT
  8
寸法
 62
     0
 10
-44.890163
 20
-33.377287
  0
TEXT
  7
TextStyle03
  8
寸法
  6
CONTINUOUS
 62
     0
 10
-50.4875
 20
-33.0
  1
126
 40
3.0
 72
     5
 11
-45.6125
 21
-33.0
  0
ENDBLK
  0
BLOCK
  2
*DIM_0006
 70
    65
 10
0.0
 20
0.0
  0
LINE
  8
寸法
  6
BYBLOCK
 62
     0
 10
-122.490163
 20
-85.813382
 11
-122.490163
 21
-33.377287
  0
LINE
  8
寸法
  6
BYBLOCK
 62
     0
 10
-116.190163
 20
-33.377287
 11
-122.490163
 21
-33.377287
  0
POINT
  8
寸法
 62
     0
 10
-116.190163
 20
-33.377287
  0
POINT
  8
寸法
 62
     0
 10
-122.490163
 20
-33.377287
  0
TEXT
  7
TextStyle03
  8
寸法
  6
CONTINUOUS
 62
     0
 10
-121.7875
 20
-33.0
  1
126
 40
3.0
 72
     5
 11
-116.9125
 21
-33.0
  0
ENDBLK
  0
BLOCK
  2
*DIM_0007
 70
    65
 10
0.0
 20
0.0
  0
LINE
  8
寸法
  6
BYBLOCK
 62
     0
 10
-82.690163
 20
-47.801433
 11
-25.223333
 21
-47.801433
  0
LINE
  8
寸法
  6
BYBLOCK
 62
     0
 10
-25.223333
 20
-86.813382
 11
-25.223333
 21
-47.801433
  0
POINT
  8
寸法
 62
     0
 10
-25.223333
 20
-47.801433
  0
TEXT
  7
TextStyle03
  8
寸法
  6
CONTINUOUS
 62
     0
 10
-25.6
 20
-71.425
  1
780.2
 40
3.0
 50
90.0
 72
     5
 11
-25.6
 21
-63.175
  0
ENDBLK
  0
BLOCK
  2
*DIM_0008
 70
    65
 10
0.0
 20
0.0
  0
LINE
  8
寸法
  6
BYBLOCK
 62
     0
 10
-86.190163
 20
-49.301397
 11
-86.190163
 21
-42.688047
  0
LINE
  8
寸法
  6
BYBLOCK
 62
     0
 10
-81.190163
 20
-49.301397
 11
-81.190163
 21
-42.688047
  0
LINE
  8
寸法
  6
BYBLOCK
 62
     0
 10
-86.190163
 20
-42.688047
 11
-81.190163
 21
-42.688047
  0
POINT
  8
寸法
 62
     0
 10
-86.190163
 20
-42.688047
  0
POINT
  8
寸法
 62
     0
 10
-81.190163
 20
-42.688047
  0
TEXT
  7
TextStyle03
  8
寸法
  6
CONTINUOUS
 62
     0
 10
-86.1375
 20
-42.325
  1
100
 40
3.0
 72
     5
 11
-81.2625
 21
-42.325
  0
ENDBLK
  0
BLOCK
  2
*DIM_0009
 70
    65
 10
0.0
 20
0.0
  0
LINE
  8
寸法
  6
BYBLOCK
 62
     0
 10
-73.713095
 20
-47.801433
 11
-72.991702
 21
-47.801433
  0
LINE
  8
寸法
  6
BYBLOCK
 62
     0
 10
-80.190163
 20
-50.301397
 11
-72.991702
 21
-50.301397
  0
LINE
  8
寸法
  6
BYBLOCK
 62
     0
 10
-72.991702
 20
-47.801433
 11
-72.991702
 21
-50.301397
  0
POINT
  8
寸法
 62
     0
 10
-72.991702
 20
-47.801433
  0
POINT
  8
寸法
 62
     0
 10
-72.991702
 20
-50.301397
  0
TEXT
  7
TextStyle03
  8
寸法
  6
CONTINUOUS
 62
     0
 10
-70.0
 20
-50.64375
  1
50
 40
3.0
 50
90.0
 72
     5
 11
-70.0
 21
-47.45625
  0
ENDBLK
  0
BLOCK
  2
*DIM_0010
 70
    65
 10
0.0
 20
0.0
  0
LINE
  8
寸法
  6
BYBLOCK
 62
     0
 10
-86.190163
 20
42.716025
 11
-86.190163
 21
50.38843
  0
LINE
  8
寸法
  6
BYBLOCK
 62
     0
 10
-81.190163
 20
42.716025
 11
-81.190163
 21
50.38843
  0
LINE
  8
寸法
  6
BYBLOCK
 62
     0
 10
-86.190163
 20
50.38843
 11
-81.190163
 21
50.38843
  0
POINT
  8
寸法
 62
     0
 10
-86.190163
 20
50.38843
  0
POINT
  8
寸法
 62
     0
 10
-81.190163
 20
50.38843
  0
TEXT
  7
TextStyle03
  8
寸法
  6
CONTINUOUS
 62
     0
 10
-86.1375
 20
50.75
  1
100
 40
3.0
 72
     5
 11
-81.2625
 21
50.75
  0
ENDBLK
  0
BLOCK
  2
*DIM_0011
 70
    65
 10
0.0
 20
0.0
  0
LINE
  8
寸法
  6
BYBLOCK
 62
     0
 10
-50.190163
 20
71.71603
 11
-29.640735
 21
71.71603
  0
LINE
  8
寸法
  6
BYBLOCK
 62
     0
 10
-42.166287
 20
66.16603
 11
-29.640735
 21
66.16603
  0
LINE
  8
寸法
  6
BYBLOCK
 62
     0
 10
-29.640735
 20
71.71603
 11
-29.640735
 21
66.16603
  0
POINT
  8
寸法
 62
     0
 10
-29.640735
 20
71.71603
  0
POINT
  8
寸法
 62
     0
 10
-29.640735
 20
66.16603
  0
TEXT
  7
TextStyle03
  8
寸法
  6
CONTINUOUS
 62
     0
 10
-30.025
 20
66.4875
  1
111
 40
3.0
 50
90.0
 72
     5
 11
-30.025
 21
71.3625
  0
ENDBLK
  0
BLOCK
  2
*DIM_0012
 70
    65
 10
0.0
 20
0.0
  0
LINE
  8
寸法
  6
BYBLOCK
 62
     0
 10
-50.190163
 20
6.716025
 11
-29.640735
 21
6.716025
  0
LINE
  8
寸法
  6
BYBLOCK
 62
     0
 10
-42.166287
 20
12.266025
 11
-29.640735
 21
12.266025
  0
LINE
  8
寸法
  6
BYBLOCK
 62
     0
 10
-29.640735
 20
6.716025
 11
-29.640735
 21
12.266025
  0
POINT
  8
寸法
 62
     0
 10
-29.640735
 20
6.716025
  0
POINT
  8
寸法
 62
     0
 10
-29.640735
 20
12.266025
  0
TEXT
  7
TextStyle03
  8
寸法
  6
CONTINUOUS
 62
     0
 10
-30.025
 20
7.0375
  1
111
 40
3.0
 50
90.0
 72
     5
 11
-30.025
 21
11.9125
  0
ENDBLK
  0
BLOCK
  2
*GRP_0013
 70
    65
 10
0.0
 20
0.0
  0
POLYLINE
  8
寸法
  6
BYBLOCK
 62
     0
 66
     1
  0
VERTEX
  8
寸法
 10
-55.40376
 20
33.0
  0
VERTEX
  8
寸法
 10
-48.987258
 20
26.583497
  0
VERTEX
  8
寸法
 10
-43.08013
 20
26.583497
  0
SEQEND
  0
ENDBLK
  0
BLOCK
  2
*DIM_0014
 70
    65
 10
0.0
 20
0.0
  0
LINE
  8
寸法
  6
BYBLOCK
 62
     0
 10
-101.190163
 20
94.584462
 11
-101.190163
 21
104.94
  0
LINE
  8
寸法
  6
BYBLOCK
 62
     0
 10
-66.190163
 20
94.584462
 11
-66.190163
 21
104.94
  0
LINE
  8
寸法
  6
BYBLOCK
 62
     0
 10
-101.190163
 20
104.94
 11
-66.190163
 21
104.94
  0
POINT
  8
寸法
 62
     0
 10
-101.190163
 20
104.94
  0
POINT
  8
寸法
 62
     0
 10
-66.190163
 20
104.94
  0
TEXT
  7
TextStyle03
  8
寸法
  6
CONTINUOUS
 62
     0
 10
-86.1375
 20
105.3
  1
700
 40
3.0
 72
     5
 11
-81.2625
 21
105.3
  0
ENDBLK
  0
BLOCK
  2
*DIM_0015
 70
    65
 10
0.0
 20
0.0
  0
LINE
  8
寸法
  6
BYBLOCK
 62
     0
 10
-144.338598
 20
56.71603
 11
-154.694135
 21
56.71603
  0
LINE
  8
寸法
  6
BYBLOCK
 62
     0
 10
-144.3386
 20
21.71603
 11
-154.694138
 21
21.71603
  0
LINE
  8
寸法
  6
BYBLOCK
 62
     0
 10
-154.694135
 20
56.71603
 11
-154.694138
 21
21.71603
  0
POINT
  8
寸法
 62
     0
 10
-154.694135
 20
56.71603
  0
POINT
  8
寸法
 62
     0
 10
-154.694138
 20
21.71603
  0
TEXT
  7
TextStyle03
  8
寸法
  6
CONTINUOUS
 62
     0
 10
-155.075
 20
36.7625
  1
700
 40
3.0
 50
90.0
 72
     5
 11
-155.075
 21
41.6375
  0
ENDBLK
  0
BLOCK
  2
*GRP_0016
 70
    65
 10
0.0
 20
0.0
  0
INSERT
  2
*GRP_0022
  8
補助線
  6
CONTINUOUS
 62
    64
 10
0.0
 20
0.0
  0
LINE
  8
ボルト／ビス
  6
CONTINUOUS
 62
    64
 10
15.302427
 20
-72.430055
 11
14.842423
 21
-72.47164
  0
LINE
  8
ボルト／ビス
  6
CONTINUOUS
 62
    64
 10
15.302427
 20
-72.430055
 11
15.568442
 21
-72.80764
  0
LINE
  8
ボルト／ビス
  6
CONTINUOUS
 62
    64
 10
14.91445
 20
-73.26839
 11
14.648435
 21
-72.890808
  0
LINE
  8
ボルト／ビス
  6
CONTINUOUS
 62
    64
 10
14.91445
 20
-73.26839
 11
15.374453
 21
-73.226807
  0
CIRCLE
  8
ボルト／ビス
  6
CONTINUOUS
 62
    64
 10
15.108438
 20
-72.849222
 40
0.4
  0
LINE
  8
ボルト／ビス
  6
CONTINUOUS
 62
    64
 10
15.568442
 20
-72.80764
 11
15.374453
 21
-73.226807
  0
LINE
  8
ボルト／ビス
  6
CONTINUOUS
 62
    64
 10
14.842423
 20
-72.47164
 11
14.648435
 21
-72.890808
  0
ENDBLK
  0
BLOCK
  2
*GRP_0017
 70
    65
 10
0.0
 20
0.0
  0
INSERT
  2
*GRP_0023
  8
補助線
  6
CONTINUOUS
 62
    64
 10
0.0
 20
0.0
  0
LINE
  8
ボルト／ビス
  6
CONTINUOUS
 62
    64
 10
58.409822
 20
-92.380058
 11
58.675837
 21
-92.757643
  0
LINE
  8
ボルト／ビス
  6
CONTINUOUS
 62
    64
 10
58.409822
 20
-92.380058
 11
57.949818
 21
-92.421642
  0
LINE
  8
ボルト／ビス
  6
CONTINUOUS
 62
    64
 10
58.021842
 20
-93.218393
 11
58.481848
 21
-93.176807
  0
LINE
  8
ボルト／ビス
  6
CONTINUOUS
 62
    64
 10
58.021842
 20
-93.218393
 11
57.755827
 21
-92.840808
  0
CIRCLE
  8
ボルト／ビス
  6
CONTINUOUS
 62
    64
 10
58.215833
 20
-92.799225
 40
0.4
  0
LINE
  8
ボルト／ビス
  6
CONTINUOUS
 62
    64
 10
57.949818
 20
-92.421642
 11
57.755827
 21
-92.840808
  0
LINE
  8
ボルト／ビス
  6
CONTINUOUS
 62
    64
 10
58.675837
 20
-92.757643
 11
58.481848
 21
-93.176807
  0
ENDBLK
  0
BLOCK
  2
*GRP_0018
 70
    65
 10
0.0
 20
0.0
  0
INSERT
  2
*GRP_0024
  8
補助線
  6
CONTINUOUS
 62
    64
 10
0.0
 20
0.0
  0
LINE
  8
ボルト／ビス
  6
CONTINUOUS
 62
    64
 10
36.856125
 20
-82.405058
 11
36.39612
 21
-82.44664
  0
LINE
  8
ボルト／ビス
  6
CONTINUOUS
 62
    64
 10
36.856125
 20
-82.405058
 11
37.12214
 21
-82.78264
  0
LINE
  8
ボルト／ビス
  6
CONTINUOUS
 62
    64
 10
36.468145
 20
-83.24339
 11
36.20213
 21
-82.865808
  0
LINE
  8
ボルト／ビス
  6
CONTINUOUS
 62
    64
 10
36.468145
 20
-83.24339
 11
36.92815
 21
-83.201808
  0
CIRCLE
  8
ボルト／ビス
  6
CONTINUOUS
 62
    64
 10
36.662135
 20
-82.824225
 40
0.4
  0
LINE
  8
ボルト／ビス
  6
CONTINUOUS
 62
    64
 10
37.12214
 20
-82.78264
 11
36.92815
 21
-83.201808
  0
LINE
  8
ボルト／ビス
  6
CONTINUOUS
 62
    64
 10
36.39612
 20
-82.44664
 11
36.20213
 21
-82.865808
  0
ENDBLK
  0
BLOCK
  2
*GRP_0019
 70
    65
 10
0.0
 20
0.0
  0
INSERT
  2
*GRP_0025
  8
補助線
  6
CONTINUOUS
 62
    64
 10
0.0
 20
0.0
  0
LINE
  8
ボルト／ビス
  6
CONTINUOUS
 62
    64
 10
58.021842
 20
-72.430055
 11
58.481848
 21
-72.47164
  0
LINE
  8
ボルト／ビス
  6
CONTINUOUS
 62
    64
 10
58.021842
 20
-72.430055
 11
57.755827
 21
-72.80764
  0
LINE
  8
ボルト／ビス
  6
CONTINUOUS
 62
    64
 10
58.40982
 20
-73.26839
 11
58.675835
 21
-72.890808
  0
LINE
  8
ボルト／ビス
  6
CONTINUOUS
 62
    64
 10
58.40982
 20
-73.26839
 11
57.949818
 21
-73.226807
  0
CIRCLE
  8
ボルト／ビス
  6
CONTINUOUS
 62
    64
 10
58.215833
 20
-72.849222
 40
0.4
  0
LINE
  8
ボルト／ビス
  6
CONTINUOUS
 62
    64
 10
57.755827
 20
-72.80764
 11
57.949818
 21
-73.226807
  0
LINE
  8
ボルト／ビス
  6
CONTINUOUS
 62
    64
 10
58.481848
 20
-72.47164
 11
58.675835
 21
-72.890808
  0
ENDBLK
  0
BLOCK
  2
*GRP_0020
 70
    65
 10
0.0
 20
0.0
  0
INSERT
  2
*GRP_0026
  8
補助線
  6
CONTINUOUS
 62
    64
 10
0.0
 20
0.0
  0
LINE
  8
ボルト／ビス
  6
CONTINUOUS
 62
    64
 10
14.914447
 20
-92.380058
 11
14.648432
 21
-92.757643
  0
LINE
  8
ボルト／ビス
  6
CONTINUOUS
 62
    64
 10
14.914447
 20
-92.380058
 11
15.374453
 21
-92.421642
  0
LINE
  8
ボルト／ビス
  6
CONTINUOUS
 62
    64
 10
15.302427
 20
-93.218393
 11
14.842423
 21
-93.176807
  0
LINE
  8
ボルト／ビス
  6
CONTINUOUS
 62
    64
 10
15.302427
 20
-93.218393
 11
15.568442
 21
-92.840808
  0
CIRCLE
  8
ボルト／ビス
  6
CONTINUOUS
 62
    64
 10
15.108438
 20
-92.799225
 40
0.4
  0
LINE
  8
ボルト／ビス
  6
CONTINUOUS
 62
    64
 10
15.374453
 20
-92.421642
 11
15.568442
 21
-92.840808
  0
LINE
  8
ボルト／ビス
  6
CONTINUOUS
 62
    64
 10
14.648432
 20
-92.757643
 11
14.842423
 21
-93.176807
  0
ENDBLK
  0
BLOCK
  2
*GRP_0021
 70
    65
 10
0.0
 20
0.0
  0
INSERT
  2
*GRP_0027
  8
補助線
  6
CONTINUOUS
 62
    64
 10
0.0
 20
0.0
  0
LINE
  8
ボルト／ビス
  6
CONTINUOUS
 62
    64
 10
36.468145
 20
-82.405058
 11
36.92815
 21
-82.44664
  0
LINE
  8
ボルト／ビス
  6
CONTINUOUS
 62
    64
 10
36.468145
 20
-82.405058
 11
36.20213
 21
-82.78264
  0
LINE
  8
ボルト／ビス
  6
CONTINUOUS
 62
    64
 10
36.856125
 20
-83.24339
 11
37.12214
 21
-82.865808
  0
LINE
  8
ボルト／ビス
  6
CONTINUOUS
 62
    64
 10
36.856125
 20
-83.24339
 11
36.39612
 21
-83.201808
  0
CIRCLE
  8
ボルト／ビス
  6
CONTINUOUS
 62
    64
 10
36.662135
 20
-82.824225
 40
0.4
  0
LINE
  8
ボルト／ビス
  6
CONTINUOUS
 62
    64
 10
36.20213
 20
-82.78264
 11
36.39612
 21
-83.201808
  0
LINE
  8
ボルト／ビス
  6
CONTINUOUS
 62
    64
 10
36.92815
 20
-82.44664
 11
37.12214
 21
-82.865808
  0
ENDBLK
  0
BLOCK
  2
*GRP_0022
 70
    65
 10
0.0
 20
0.0
  0
LINE
  8
補助線
  6
BYBLOCK
 62
    64
 10
15.22188
 20
-72.901722
 11
14.994997
 21
-72.796723
  0
LINE
  8
補助線
  6
BYBLOCK
 62
    64
 10
15.160937
 20
-72.735782
 11
15.055938
 21
-72.962662
  0
ENDBLK
  0
BLOCK
  2
*GRP_0023
 70
    65
 10
0.0
 20
0.0
  0
LINE
  8
補助線
  6
BYBLOCK
 62
    64
 10
58.102392
 20
-92.746725
 11
58.329272
 21
-92.851725
  0
LINE
  8
補助線
  6
BYBLOCK
 62
    64
 10
58.268333
 20
-92.685785
 11
58.163333
 21
-92.912665
  0
ENDBLK
  0
BLOCK
  2
*GRP_0024
 70
    65
 10
0.0
 20
0.0
  0
LINE
  8
補助線
  6
BYBLOCK
 62
    64
 10
36.775575
 20
-82.876725
 11
36.548695
 21
-82.771725
  0
LINE
  8
補助線
  6
BYBLOCK
 62
    64
 10
36.714635
 20
-82.710783
 11
36.609635
 21
-82.937665
  0
ENDBLK
  0
BLOCK
  2
*GRP_0025
 70
    65
 10
0.0
 20
0.0
  0
LINE
  8
補助線
  6
BYBLOCK
 62
    64
 10
58.10239
 20
-72.901722
 11
58.329272
 21
-72.796723
  0
LINE
  8
補助線
  6
BYBLOCK
 62
    64
 10
58.163333
 20
-72.735782
 11
58.268333
 21
-72.962662
  0
ENDBLK
  0
BLOCK
  2
*GRP_0026
 70
    65
 10
0.0
 20
0.0
  0
LINE
  8
補助線
  6
BYBLOCK
 62
    64
 10
15.221877
 20
-92.746725
 11
14.994997
 21
-92.851725
  0
LINE
  8
補助線
  6
BYBLOCK
 62
    64
 10
15.055938
 20
-92.685785
 11
15.160937
 21
-92.912665
  0
ENDBLK
  0
BLOCK
  2
*GRP_0027
 70
    65
 10
0.0
 20
0.0
  0
LINE
  8
補助線
  6
BYBLOCK
 62
    64
 10
36.548695
 20
-82.876725
 11
36.775575
 21
-82.771725
  0
LINE
  8
補助線
  6
BYBLOCK
 62
    64
 10
36.609635
 20
-82.710783
 11
36.714635
 21
-82.937665
  0
ENDBLK
  0
BLOCK
  2
*DIM_0028
 70
    65
 10
0.0
 20
0.0
  0
LINE
  8
寸法
  6
BYBLOCK
 62
     0
 10
97.792093
 20
-11.939517
 11
97.792093
 21
-24.158975
  0
LINE
  8
寸法
  6
BYBLOCK
 62
     0
 10
166.13709
 20
-11.939517
 11
166.13709
 21
-24.158975
  0
LINE
  8
寸法
  6
BYBLOCK
 62
     0
 10
97.792093
 20
-24.158975
 11
166.13709
 21
-24.158975
  0
POINT
  8
寸法
 62
     0
 10
97.792093
 20
-24.158975
  0
POINT
  8
寸法
 62
     0
 10
166.13709
 20
-24.158975
  0
TEXT
  7
TextStyle03
  8
寸法
  6
CONTINUOUS
 62
     0
 10
126.98125
 20
-23.8
  1
1366.9
 40
3.0
 72
     5
 11
136.91875
 21
-23.8
  0
ENDBLK
  0
BLOCK
  2
*DIM_0029
 70
    65
 10
0.0
 20
0.0
  0
LINE
  8
寸法
  6
BYBLOCK
 62
     0
 10
169.13709
 20
-8.939517
 11
178.81923
 21
-8.939517
  0
LINE
  8
寸法
  6
BYBLOCK
 62
     0
 10
134.96459
 20
39.38749
 11
178.81923
 21
39.38749
  0
LINE
  8
寸法
  6
BYBLOCK
 62
     0
 10
178.81923
 20
-8.939517
 11
178.81923
 21
39.38749
  0
POINT
  8
寸法
 62
     0
 10
178.81923
 20
-8.939517
  0
POINT
  8
寸法
 62
     0
 10
178.81923
 20
39.38749
  0
TEXT
  7
TextStyle03
  8
寸法
  6
CONTINUOUS
 62
     0
 10
178.425
 20
11.075
  1
966.5
 40
3.0
 50
90.0
 72
     5
 11
178.425
 21
19.325
  0
ENDBLK
  0
BLOCK
  2
*DIM_0030
 70
    65
 10
0.0
 20
0.0
  0
LINE
  8
寸法
  6
BYBLOCK
 62
     0
 10
70.500833
 20
-74.01338
 11
86.474425
 21
-74.01338
  0
LINE
  8
寸法
  6
BYBLOCK
 62
     0
 10
70.50083
 20
-90.013382
 11
86.474425
 21
-90.013382
  0
LINE
  8
寸法
  6
BYBLOCK
 62
     0
 10
86.474425
 20
-74.01338
 11
86.474425
 21
-90.013382
  0
POINT
  8
寸法
 62
     0
 10
86.474425
 20
-74.01338
  0
POINT
  8
寸法
 62
     0
 10
86.474425
 20
-90.013382
  0
TEXT
  7
TextStyle03
  8
寸法
  6
CONTINUOUS
 62
     0
 10
90.925
 20
-93.05625
  1
上昇　258以上
 40
3.0
 50
90.0
 72
     5
 11
90.925
 21
-71.49375
  0
ENDBLK
  0
BLOCK
  2
*DIM_0031
 70
    65
 10
0.0
 20
0.0
  0
LINE
  8
寸法
  6
CONTINUOUS
 10
-39.890163
 20
-86.813382
 11
-25.223333
 21
-86.813382
  0
LINE
  8
寸法
  6
CONTINUOUS
 10
-42.045385
 20
-96.613382
 11
-25.223333
 21
-96.613382
  0
LINE
  8
寸法
  6
CONTINUOUS
 10
-25.223333
 20
-86.813382
 11
-25.223333
 21
-96.613382
  0
POINT
  8
寸法
 10
-25.223333
 20
-86.813382
  0
POINT
  8
寸法
 10
-25.223333
 20
-96.613382
  0
TEXT
  7
TextStyle03
  8
寸法
  6
CONTINUOUS
 10
-25.6
 20
-94.1625
  1
196
 40
3.0
 50
90.0
 72
     5
 11
-25.6
 21
-89.2875
  0
ENDBLK
  0
ENDSEC
  0
SECTION
  2
ENTITIES
  0
POLYLINE
  8
通り芯
  6
CONTINUOUS
 66
     1
 70
     1
  0
VERTEX
  8
通り芯
 10
-210.0
 20
-148.5
  0
VERTEX
  8
通り芯
 10
210.0
 20
-148.5
  0
VERTEX
  8
通り芯
 10
210.0
 20
148.5
  0
VERTEX
  8
通り芯
 10
-210.0
 20
148.5
  0
SEQEND
  0
INSERT
  2
*GRP_0001
  8
型材断面
  6
CONTINUOUS
 10
0.0
 20
0.0
  0
LINE
  8
型材断面
  6
CONTINUOUS
 10
-44.890163
 20
0.416028
 11
-44.890163
 21
39.216028
  0
LINE
  8
型材断面
  6
CONTINUOUS
 10
-44.890163
 20
0.416028
 11
-83.690163
 21
0.416028
  0
LINE
  8
型材断面
  6
CONTINUOUS
 10
-122.490163
 20
0.416028
 11
-122.490163
 21
39.216028
  0
LINE
  8
型材断面
  6
CONTINUOUS
 10
-122.490163
 20
0.416028
 11
-83.690163
 21
0.416028
  0
LINE
  8
型材断面
  6
CONTINUOUS
 10
-122.490163
 20
78.01603
 11
-122.490163
 21
39.216028
  0
LINE
  8
型材断面
  6
CONTINUOUS
 10
-122.490163
 20
78.01603
 11
-83.690163
 21
78.01603
  0
LINE
  8
型材断面
  6
CONTINUOUS
 10
-81.38075
 20
41.52544
 11
-83.690163
 21
39.216028
  0
LINE
  8
型材断面
  6
CONTINUOUS
 10
-44.890163
 20
78.01603
 11
-44.890163
 21
39.216028
  0
LINE
  8
型材断面
  6
CONTINUOUS
 10
-44.890163
 20
78.01603
 11
-83.690163
 21
78.01603
  0
LINE
  8
型材断面
  6
DASHDOT
 10
-116.190163
 20
39.216028
 11
-51.190163
 21
39.216028
  0
LINE
  8
型材断面
  6
CONTINUOUS
 10
-122.490163
 20
0.416028
 11
-85.999575
 21
36.906617
  0
LINE
  8
型材断面
  6
DASHDOT
 10
-51.190163
 20
6.716028
 11
-116.190163
 21
6.716028
  0
LINE
  8
型材断面
  6
DASHDOT
 10
-51.190163
 20
71.71603
 11
-116.190163
 21
71.71603
  0
LINE
  8
型材断面
  6
CONTINUOUS
 10
-85.095842
 20
39.216028
 11
-86.190163
 21
38.12171
  0
LINE
  8
型材断面
  6
CONTINUOUS
 10
-86.190163
 20
38.12171
 11
-86.190163
 21
36.71603
  0
LINE
  8
型材断面
  6
CONTINUOUS
 10
-84.784483
 20
36.716028
 11
-86.190163
 21
36.71603
  0
LINE
  8
型材断面
  6
CONTINUOUS
 10
-83.690163
 20
37.810347
 11
-84.784485
 21
36.716028
  0
LINE
  8
型材断面
  6
CONTINUOUS
 10
-121.303725
 20
0.416028
 11
-85.003727
 21
36.716028
  0
LINE
  8
型材断面
  6
CONTINUOUS
 10
-122.490163
 20
1.602468
 11
-86.190163
 21
37.902465
  0
LINE
  8
型材断面
  6
CONTINUOUS
 10
-81.38075
 20
41.525438
 11
-83.690163
 21
39.216028
  0
LINE
  8
型材断面
  6
CONTINUOUS
 10
-82.284483
 20
39.216028
 11
-81.190163
 21
40.310345
  0
LINE
  8
型材断面
  6
CONTINUOUS
 10
-81.190163
 20
40.310345
 11
-81.190163
 21
41.716025
  0
LINE
  8
型材断面
  6
CONTINUOUS
 10
-82.595842
 20
41.716028
 11
-81.190163
 21
41.716025
  0
LINE
  8
型材断面
  6
CONTINUOUS
 10
-83.690163
 20
40.621708
 11
-82.59584
 21
41.716028
  0
LINE
  8
型材断面
  6
CONTINUOUS
 10
-85.095842
 20
39.216028
 11
-86.190163
 21
40.310345
  0
LINE
  8
型材断面
  6
CONTINUOUS
 10
-86.190163
 20
40.310345
 11
-86.190163
 21
41.716025
  0
LINE
  8
型材断面
  6
CONTINUOUS
 10
-84.784483
 20
41.716028
 11
-86.190163
 21
41.716025
  0
LINE
  8
型材断面
  6
CONTINUOUS
 10
-83.690163
 20
40.621708
 11
-84.784485
 21
41.716028
  0
LINE
  8
型材断面
  6
CONTINUOUS
 10
-46.076602
 20
78.01603
 11
-82.3766
 21
41.716028
  0
LINE
  8
型材断面
  6
CONTINUOUS
 10
-44.890163
 20
76.829593
 11
-81.190163
 21
40.52959
  0
LINE
  8
型材断面
  6
CONTINUOUS
 10
-121.303725
 20
78.01603
 11
-85.003725
 21
41.716028
  0
LINE
  8
型材断面
  6
CONTINUOUS
 10
-122.490163
 20
78.01603
 11
-86.19016
 21
41.716025
  0
LINE
  8
型材断面
  6
CONTINUOUS
 10
-122.490163
 20
76.829593
 11
-86.190163
 21
40.52959
  0
LINE
  8
型材断面
  6
CONTINUOUS
 10
-83.690163
 20
39.216028
 11
-86.190163
 21
41.716025
  0
LINE
  8
型材断面
  6
CONTINUOUS
 10
-83.690163
 20
39.216028
 11
-86.190163
 21
36.71603
  0
LINE
  8
型材断面
  6
CONTINUOUS
 10
-82.284483
 20
39.216028
 11
-81.190163
 21
38.12171
  0
LINE
  8
型材断面
  6
CONTINUOUS
 10
-81.190163
 20
38.12171
 11
-81.190163
 21
36.71603
  0
LINE
  8
型材断面
  6
CONTINUOUS
 10
-82.595842
 20
36.716028
 11
-81.190163
 21
36.71603
  0
LINE
  8
型材断面
  6
CONTINUOUS
 10
-83.690163
 20
37.810347
 11
-82.59584
 21
36.716028
  0
LINE
  8
型材断面
  6
CONTINUOUS
 10
-83.690163
 20
39.216028
 11
-81.190163
 21
36.71603
  0
LINE
  8
型材断面
  6
CONTINUOUS
 10
-46.076602
 20
0.416028
 11
-82.376598
 21
36.716028
  0
LINE
  8
型材断面
  6
CONTINUOUS
 10
-44.890163
 20
1.602468
 11
-81.190163
 21
37.902465
  0
LINE
  8
型材断面
  6
CONTINUOUS
 10
-44.890163
 20
0.416028
 11
-81.190163
 21
36.71603
  0
LINE
  8
型材断面
  6
CONTINUOUS
 10
-44.890163
 20
78.01603
 11
-81.190163
 21
41.716028
  0
LINE
  8
型材断面
  6
DOT
 10
-57.40376
 20
71.71603
 11
-57.40376
 21
6.716028
  0
LINE
  8
型材断面
  6
DOT
 10
-55.40376
 20
71.71603
 11
-55.40376
 21
6.716028
  0
ARC
  8
型材断面
  6
CONTINUOUS
 62
    47
 10
-45.755162
 20
-90.773383
 40
0.015
 50
270.0
 51
360.0
  0
ARC
  8
型材断面
  6
CONTINUOUS
 62
    47
 10
-44.905162
 20
-89.998383
 40
0.015
 50
270.0
 51
360.0
  0
LINE
  8
型材断面
  6
CONTINUOUS
 62
    47
 10
-44.890163
 20
-89.998383
 11
-44.890163
 21
-86.813382
  0
LINE
  8
型材断面
  6
CONTINUOUS
 62
    47
 10
-45.740165
 20
-90.40338
 11
-45.755165
 21
-90.38838
  0
LINE
  8
型材断面
  6
CONTINUOUS
 62
    47
 10
-45.755165
 20
-90.38838
 11
-45.740165
 21
-90.373383
  0
LINE
  8
型材断面
  6
CONTINUOUS
 62
    47
 10
-45.740165
 20
-90.773383
 11
-45.740165
 21
-90.40338
  0
LINE
  8
型材断面
  6
CONTINUOUS
 10
-44.890163
 20
-86.813382
 11
-44.801865
 21
-86.725085
  0
LINE
  8
型材断面
  6
CONTINUOUS
 62
    47
 10
-45.740165
 20
-90.373383
 11
-45.740165
 21
-90.01338
  0
LINE
  8
型材断面
  6
CONTINUOUS
 10
-44.890163
 20
-86.813382
 11
-83.690163
 21
-86.813382
  0
LINE
  8
型材断面
  6
CONTINUOUS
 62
    47
 10
-44.905163
 20
-90.01338
 11
-83.690163
 21
-90.01338
  0
LINE
  8
型材断面
  6
CONTINUOUS
 62
    47
 10
-45.755165
 20
-90.788382
 11
-83.690163
 21
-90.788382
  0
LINE
  8
型材断面
  6
CONTINUOUS
 10
-83.690163
 20
-47.801433
 11
-83.690163
 21
-49.102315
  0
LINE
  8
型材断面
  6
CONTINUOUS
 10
-83.690163
 20
-47.801433
 11
-83.690163
 21
-49.102315
  0
ARC
  8
型材断面
  6
CONTINUOUS
 62
    47
 10
-121.625163
 20
-90.773383
 40
0.015
 50
180.0
 51
270.0
  0
ARC
  8
型材断面
  6
CONTINUOUS
 62
    47
 10
-122.475163
 20
-89.998383
 40
0.015
 50
180.0
 51
270.0
  0
LINE
  8
型材断面
  6
CONTINUOUS
 62
    47
 10
-122.490163
 20
-89.998383
 11
-122.490163
 21
-86.813382
  0
LINE
  8
型材断面
  6
CONTINUOUS
 62
    47
 10
-121.64016
 20
-90.40338
 11
-121.62516
 21
-90.38838
  0
LINE
  8
型材断面
  6
CONTINUOUS
 62
    47
 10
-121.62516
 20
-90.38838
 11
-121.64016
 21
-90.373383
  0
LINE
  8
型材断面
  6
CONTINUOUS
 62
    47
 10
-121.64016
 20
-90.773383
 11
-121.64016
 21
-90.40338
  0
LINE
  8
型材断面
  6
CONTINUOUS
 10
-122.490163
 20
-86.813382
 11
-122.57846
 21
-86.725085
  0
LINE
  8
型材断面
  6
CONTINUOUS
 62
    47
 10
-121.64016
 20
-90.373383
 11
-121.64016
 21
-90.01338
  0
LINE
  8
型材断面
  6
CONTINUOUS
 10
-122.490163
 20
-86.813382
 11
-83.690163
 21
-86.813382
  0
LINE
  8
型材断面
  6
CONTINUOUS
 62
    47
 10
-122.475162
 20
-90.01338
 11
-83.690163
 21
-90.01338
  0
LINE
  8
型材断面
  6
CONTINUOUS
 62
    47
 10
-121.62516
 20
-90.788382
 11
-83.690163
 21
-90.788382
  0
LINE
  8
型材断面
  6
CONTINUOUS
 10
-83.690163
 20
-47.801433
 11
-83.690163
 21
-49.102315
  0
LINE
  8
型材断面
  6
CONTINUOUS
 10
-83.690163
 20
-47.801433
 11
-83.690163
 21
-49.102315
  0
LINE
  8
型材断面
  6
CONTINUOUS
 10
-83.690163
 20
-47.801397
 11
-86.190163
 21
-50.301397
  0
LINE
  8
型材断面
  6
CONTINUOUS
 10
-83.690163
 20
-49.20708
 11
-84.784483
 21
-50.301397
  0
LINE
  8
型材断面
  6
CONTINUOUS
 10
-86.190163
 20
-50.301397
 11
-84.784483
 21
-50.301397
  0
LINE
  8
型材断面
  6
CONTINUOUS
 10
-121.401228
 20
-86.813382
 11
-84.889247
 21
-50.301397
  0
LINE
  8
型材断面
  6
CONTINUOUS
 10
-122.57846
 20
-86.725085
 11
-86.154775
 21
-50.301397
  0
LINE
  8
型材断面
  6
CONTINUOUS
 10
-81.190163
 20
-50.301397
 11
-82.595842
 21
-50.301397
  0
LINE
  8
型材断面
  6
CONTINUOUS
 10
-83.690163
 20
-49.20708
 11
-82.595842
 21
-50.301397
  0
LINE
  8
型材断面
  6
CONTINUOUS
 10
-83.690163
 20
-47.801397
 11
-81.190163
 21
-50.301397
  0
LINE
  8
型材断面
  6
CONTINUOUS
 10
-44.801865
 20
-86.725085
 11
-81.22555
 21
-50.301397
  0
LINE
  8
型材断面
  6
CONTINUOUS
 10
-45.979097
 20
-86.813382
 11
-82.491078
 21
-50.301397
  0
LINE
  8
型材断面
  6
CONTINUOUS
 10
-43.166287
 20
66.16603
 11
-39.280527
 21
65.271945
  0
LINE
  8
型材断面
  6
CONTINUOUS
 10
-43.166287
 20
66.16603
 11
-39.280527
 21
67.060115
  0
LINE
  8
型材断面
  6
CONTINUOUS
 10
-39.280527
 20
67.060115
 11
-39.280527
 21
65.271945
  0
LINE
  8
型材断面
  6
CONTINUOUS
 10
-43.166287
 20
12.266025
 11
-39.280527
 21
13.16011
  0
LINE
  8
型材断面
  6
CONTINUOUS
 10
-43.166287
 20
12.266025
 11
-39.280527
 21
11.37194
  0
LINE
  8
型材断面
  6
CONTINUOUS
 10
-39.280527
 20
11.37194
 11
-39.280527
 21
13.16011
  0
LINE
  8
型材断面
  6
CONTINUOUS
 10
-124.214037
 20
12.266025
 11
-128.099798
 21
13.16011
  0
LINE
  8
型材断面
  6
CONTINUOUS
 10
-124.214037
 20
12.266025
 11
-128.099798
 21
11.37194
  0
LINE
  8
型材断面
  6
CONTINUOUS
 10
-128.099798
 20
11.37194
 11
-128.099798
 21
13.16011
  0
LINE
  8
型材断面
  6
CONTINUOUS
 10
-124.214037
 20
66.16603
 11
-128.099798
 21
65.271945
  0
LINE
  8
型材断面
  6
CONTINUOUS
 10
-124.214037
 20
66.16603
 11
-128.099798
 21
67.060115
  0
LINE
  8
型材断面
  6
CONTINUOUS
 10
-128.099798
 20
67.060115
 11
-128.099798
 21
65.271945
  0
LINE
  8
型材断面
  6
CONTINUOUS
 10
-43.166287
 20
39.216028
 11
-39.280527
 21
36.972582
  0
LINE
  8
型材断面
  6
CONTINUOUS
 10
-43.166287
 20
39.216028
 11
-39.280527
 21
41.459473
  0
LINE
  8
型材断面
  6
CONTINUOUS
 10
-39.280527
 20
41.459473
 11
-39.280527
 21
36.972582
  0
LINE
  8
型材断面
  6
CONTINUOUS
 10
-83.690163
 20
79.739903
 11
-85.933608
 21
83.625663
  0
LINE
  8
型材断面
  6
CONTINUOUS
 10
-83.690163
 20
79.739903
 11
-81.446717
 21
83.625663
  0
LINE
  8
型材断面
  6
CONTINUOUS
 10
-81.446717
 20
83.625663
 11
-85.933608
 21
83.625663
  0
LINE
  8
型材断面
  6
CONTINUOUS
 10
-83.690163
 20
-1.307848
 11
-85.933608
 21
-5.193607
  0
LINE
  8
型材断面
  6
CONTINUOUS
 10
-83.690163
 20
-1.307848
 11
-81.446717
 21
-5.193607
  0
LINE
  8
型材断面
  6
CONTINUOUS
 10
-81.446717
 20
-5.193607
 11
-85.933608
 21
-5.193607
  0
LINE
  8
型材断面
  6
CONTINUOUS
 10
-124.214037
 20
39.216028
 11
-128.099798
 21
36.972582
  0
LINE
  8
型材断面
  6
CONTINUOUS
 10
-124.214037
 20
39.216028
 11
-128.099798
 21
41.459473
  0
LINE
  8
型材断面
  6
CONTINUOUS
 10
-128.099798
 20
41.459473
 11
-128.099798
 21
36.972582
  0
LINE
  8
型材断面
  6
CONTINUOUS
 10
-31.05006
 20
0.93023
 11
-33.293505
 21
-2.95553
  0
LINE
  8
型材断面
  6
CONTINUOUS
 10
-31.05006
 20
0.93023
 11
-28.806615
 21
-2.95553
  0
LINE
  8
型材断面
  6
CONTINUOUS
 10
-28.806615
 20
-2.95553
 11
-33.293505
 21
-2.95553
  0
LINE
  8
型材断面
  6
CONTINUOUS
 10
-31.05006
 20
-6.759317
 11
-30.155975
 21
-10.645078
  0
LINE
  8
型材断面
  6
CONTINUOUS
 10
-31.05006
 20
-6.759317
 11
-31.944145
 21
-10.645078
  0
LINE
  8
型材断面
  6
CONTINUOUS
 10
-31.944145
 20
-10.645078
 11
-30.155975
 21
-10.645078
  0
LINE
  8
型材断面
  6
CONTINUOUS
 10
-40.08394
 20
-4.363422
 11
12.57274
 21
-4.363422
  0
LINE
  8
型材断面
  6
CONTINUOUS
 10
-40.08394
 20
-15.563415
 11
12.57274
 21
-15.563415
  0
LINE
  8
型材断面
  6
CONTINUOUS
 10
-40.08394
 20
-22.40336
 11
12.57274
 21
-22.40336
  0
POLYLINE
  8
型材断面
  6
CONTINUOUS
 66
     1
 70
     1
  0
VERTEX
  8
型材断面
 10
-74.45302
 20
-6.001868
  0
VERTEX
  8
型材断面
 10
-93.008233
 20
-6.001868
  0
VERTEX
  8
型材断面
 10
-93.008233
 20
-10.793902
  0
VERTEX
  8
型材断面
 10
-74.45302
 20
-10.793902
  0
SEQEND
  0
POLYLINE
  8
型材断面
  6
CONTINUOUS
 66
     1
 70
     1
  0
VERTEX
  8
型材断面
 10
-74.45302
 20
89.11007
  0
VERTEX
  8
型材断面
 10
-93.008233
 20
89.11007
  0
VERTEX
  8
型材断面
 10
-93.008233
 20
84.318035
  0
VERTEX
  8
型材断面
 10
-74.45302
 20
84.318035
  0
SEQEND
  0
ARC
  8
型材断面
  6
CONTINUOUS
 62
    47
 10
68.650832
 20
-90.773383
 40
0.015
 50
270.0
 51
360.0
  0
ARC
  8
型材断面
  6
CONTINUOUS
 62
    47
 10
69.500832
 20
-89.998383
 40
0.015
 50
270.0
 51
360.0
  0
LINE
  8
型材断面
  6
CONTINUOUS
 62
    47
 10
69.515833
 20
-89.998383
 11
69.515833
 21
-86.813382
  0
LINE
  8
型材断面
  6
CONTINUOUS
 62
    47
 10
68.66583
 20
-90.40338
 11
68.65083
 21
-90.38838
  0
LINE
  8
型材断面
  6
CONTINUOUS
 62
    47
 10
68.65083
 20
-90.38838
 11
68.66583
 21
-90.373383
  0
LINE
  8
型材断面
  6
CONTINUOUS
 62
    47
 10
68.66583
 20
-90.773383
 11
68.66583
 21
-90.40338
  0
LINE
  8
型材断面
  6
CONTINUOUS
 10
69.515833
 20
-86.813382
 11
69.60413
 21
-86.725085
  0
LINE
  8
型材断面
  6
CONTINUOUS
 62
    47
 10
68.66583
 20
-90.373383
 11
68.66583
 21
-90.01338
  0
LINE
  8
型材断面
  6
CONTINUOUS
 10
69.515833
 20
-86.813382
 11
30.715833
 21
-86.813382
  0
LINE
  8
型材断面
  6
CONTINUOUS
 62
    47
 10
69.500833
 20
-90.01338
 11
30.715833
 21
-90.01338
  0
LINE
  8
型材断面
  6
CONTINUOUS
 62
    47
 10
68.65083
 20
-90.788382
 11
30.715833
 21
-90.788382
  0
LINE
  8
型材断面
  6
CONTINUOUS
 10
30.715833
 20
-47.801433
 11
30.715833
 21
-49.102315
  0
LINE
  8
型材断面
  6
CONTINUOUS
 10
30.715833
 20
-47.801433
 11
30.715833
 21
-49.102315
  0
ARC
  8
型材断面
  6
CONTINUOUS
 62
    47
 10
-7.219169
 20
-90.773383
 40
0.015
 50
180.0
 51
270.0
  0
ARC
  8
型材断面
  6
CONTINUOUS
 62
    47
 10
-8.069169
 20
-89.998383
 40
0.015
 50
180.0
 51
270.0
  0
LINE
  8
型材断面
  6
CONTINUOUS
 62
    47
 10
-8.084167
 20
-89.998383
 11
-8.084167
 21
-86.813382
  0
LINE
  8
型材断面
  6
CONTINUOUS
 62
    47
 10
-7.234165
 20
-90.40338
 11
-7.219165
 21
-90.38838
  0
LINE
  8
型材断面
  6
CONTINUOUS
 62
    47
 10
-7.219165
 20
-90.38838
 11
-7.234165
 21
-90.373383
  0
LINE
  8
型材断面
  6
CONTINUOUS
 62
    47
 10
-7.234165
 20
-90.773383
 11
-7.234165
 21
-90.40338
  0
LINE
  8
型材断面
  6
CONTINUOUS
 10
-8.084167
 20
-86.813382
 11
-8.172465
 21
-86.725085
  0
LINE
  8
型材断面
  6
CONTINUOUS
 62
    47
 10
-7.234165
 20
-90.373383
 11
-7.234165
 21
-90.01338
  0
LINE
  8
型材断面
  6
CONTINUOUS
 10
-8.084167
 20
-86.813382
 11
30.715833
 21
-86.813382
  0
LINE
  8
型材断面
  6
CONTINUOUS
 62
    47
 10
-8.069168
 20
-90.01338
 11
30.715833
 21
-90.01338
  0
LINE
  8
型材断面
  6
CONTINUOUS
 62
    47
 10
-7.219165
 20
-90.788382
 11
30.715833
 21
-90.788382
  0
LINE
  8
型材断面
  6
CONTINUOUS
 10
30.715833
 20
-47.801433
 11
30.715833
 21
-49.102315
  0
LINE
  8
型材断面
  6
CONTINUOUS
 10
30.715833
 20
-47.801433
 11
30.715833
 21
-49.102315
  0
LINE
  8
型材断面
  6
CONTINUOUS
 10
30.715833
 20
-47.801397
 11
28.215833
 21
-50.301397
  0
LINE
  8
型材断面
  6
CONTINUOUS
 10
30.715833
 20
-49.20708
 11
29.621513
 21
-50.301397
  0
LINE
  8
型材断面
  6
CONTINUOUS
 10
28.215833
 20
-50.301397
 11
29.621513
 21
-50.301397
  0
LINE
  8
型材断面
  6
CONTINUOUS
 10
-6.995233
 20
-86.813382
 11
29.516748
 21
-50.301397
  0
LINE
  8
型材断面
  6
CONTINUOUS
 10
-8.172465
 20
-86.725085
 11
28.25122
 21
-50.301397
  0
LINE
  8
型材断面
  6
CONTINUOUS
 10
33.215833
 20
-50.301397
 11
31.810153
 21
-50.301397
  0
LINE
  8
型材断面
  6
CONTINUOUS
 10
30.715833
 20
-49.20708
 11
31.810153
 21
-50.301397
  0
LINE
  8
型材断面
  6
CONTINUOUS
 10
30.715833
 20
-47.801397
 11
33.215833
 21
-50.301397
  0
LINE
  8
型材断面
  6
CONTINUOUS
 10
69.60413
 20
-86.725085
 11
33.180445
 21
-50.301397
  0
LINE
  8
型材断面
  6
CONTINUOUS
 10
68.426898
 20
-86.813382
 11
31.914918
 21
-50.301397
  0
ARC
  8
型材断面
  6
DOT
 62
    47
 10
68.650834
 20
-74.773381
 40
0.015
 50
270.0
 51
360.0
  0
ARC
  8
型材断面
  6
DOT
 62
    47
 10
69.500834
 20
-73.998381
 40
0.015
 50
270.0
 51
360.0
  0
LINE
  8
型材断面
  6
DOT
 62
    47
 10
69.515835
 20
-73.99838
 11
69.515835
 21
-70.81338
  0
LINE
  8
型材断面
  6
DOT
 62
    47
 10
68.665833
 20
-74.403377
 11
68.650833
 21
-74.388378
  0
LINE
  8
型材断面
  6
DOT
 62
    47
 10
68.650833
 20
-74.388378
 11
68.665833
 21
-74.37338
  0
LINE
  8
型材断面
  6
DOT
 62
    47
 10
68.665833
 20
-74.77338
 11
68.665833
 21
-74.403377
  0
LINE
  8
型材断面
  6
DOT
 10
69.515835
 20
-70.81338
 11
69.604133
 21
-70.725083
  0
LINE
  8
型材断面
  6
DOT
 62
    47
 10
68.665833
 20
-74.37338
 11
68.665833
 21
-74.013378
  0
LINE
  8
型材断面
  6
DOT
 10
69.515835
 20
-70.81338
 11
30.715835
 21
-70.81338
  0
LINE
  8
型材断面
  6
DOT
 62
    47
 10
69.500835
 20
-74.013378
 11
30.715835
 21
-74.013378
  0
LINE
  8
型材断面
  6
DOT
 62
    47
 10
68.650833
 20
-74.78838
 11
30.715835
 21
-74.78838
  0
LINE
  8
型材断面
  6
DOT
 10
30.715835
 20
-31.80143
 11
30.715835
 21
-33.102312
  0
LINE
  8
型材断面
  6
DOT
 10
30.715835
 20
-31.80143
 11
30.715835
 21
-33.102312
  0
ARC
  8
型材断面
  6
DOT
 62
    47
 10
-7.219166
 20
-74.773381
 40
0.015
 50
180.0
 51
270.0
  0
ARC
  8
型材断面
  6
DOT
 62
    47
 10
-8.069166
 20
-73.998381
 40
0.015
 50
180.0
 51
270.0
  0
LINE
  8
型材断面
  6
DOT
 62
    47
 10
-8.084165
 20
-73.99838
 11
-8.084165
 21
-70.81338
  0
LINE
  8
型材断面
  6
DOT
 62
    47
 10
-7.234163
 20
-74.403377
 11
-7.219163
 21
-74.388378
  0
LINE
  8
型材断面
  6
DOT
 62
    47
 10
-7.219163
 20
-74.388378
 11
-7.234163
 21
-74.37338
  0
LINE
  8
型材断面
  6
DOT
 62
    47
 10
-7.234163
 20
-74.77338
 11
-7.234163
 21
-74.403377
  0
LINE
  8
型材断面
  6
DOT
 10
-8.084165
 20
-70.81338
 11
-8.172462
 21
-70.725083
  0
LINE
  8
型材断面
  6
DOT
 62
    47
 10
-7.234163
 20
-74.37338
 11
-7.234163
 21
-74.013378
  0
LINE
  8
型材断面
  6
DOT
 10
-8.084165
 20
-70.81338
 11
30.715835
 21
-70.81338
  0
LINE
  8
型材断面
  6
DOT
 62
    47
 10
-8.069165
 20
-74.013378
 11
30.715835
 21
-74.013378
  0
LINE
  8
型材断面
  6
DOT
 62
    47
 10
-7.219163
 20
-74.78838
 11
30.715835
 21
-74.78838
  0
LINE
  8
型材断面
  6
DOT
 10
30.715835
 20
-31.80143
 11
30.715835
 21
-33.102312
  0
LINE
  8
型材断面
  6
DOT
 10
30.715835
 20
-31.80143
 11
30.715835
 21
-33.102312
  0
LINE
  8
型材断面
  6
DOT
 10
30.715835
 20
-31.801395
 11
28.215835
 21
-34.301395
  0
LINE
  8
型材断面
  6
DOT
 10
30.715835
 20
-33.207078
 11
29.621515
 21
-34.301395
  0
LINE
  8
型材断面
  6
DOT
 10
28.215835
 20
-34.301395
 11
29.621515
 21
-34.301395
  0
LINE
  8
型材断面
  6
DOT
 10
-6.99523
 20
-70.81338
 11
29.51675
 21
-34.301395
  0
LINE
  8
型材断面
  6
DOT
 10
-8.172462
 20
-70.725083
 11
28.251223
 21
-34.301395
  0
LINE
  8
型材断面
  6
DOT
 10
33.215835
 20
-34.301395
 11
31.810155
 21
-34.301395
  0
LINE
  8
型材断面
  6
DOT
 10
30.715835
 20
-33.207078
 11
31.810155
 21
-34.301395
  0
LINE
  8
型材断面
  6
DOT
 10
30.715835
 20
-31.801395
 11
33.215835
 21
-34.301395
  0
LINE
  8
型材断面
  6
DOT
 10
69.604133
 20
-70.725083
 11
33.180448
 21
-34.301395
  0
LINE
  8
型材断面
  6
DOT
 10
68.4269
 20
-70.81338
 11
31.91492
 21
-34.301395
  0
LINE
  8
型材断面
  6
CONTINUOUS
 10
67.161155
 20
-88.849225
 11
-8.084167
 21
-88.849225
  0
INSERT
  2
*GRP_0002
  8
型材断面
  6
CONTINUOUS
 10
0.0
 20
0.0
  0
INSERT
  2
*GRP_0003
  8
型材断面
  6
CONTINUOUS
 10
0.0
 20
0.0
  0
LINE
  8
型材断面
  6
CONTINUOUS
 10
100.242
 20
42.649883
 11
124.173623
 21
42.649883
  0
LINE
  8
型材断面
  6
CONTINUOUS
 10
-40.08394
 20
-29.243305
 11
12.57274
 21
-29.243305
  0
LINE
  8
型材断面
  6
DASHDOT
 10
-116.190163
 20
71.71603
 11
-116.190163
 21
-96.818555
  0
LINE
  8
型材断面
  6
DASHDOT
 10
-83.690163
 20
71.71603
 11
-83.690163
 21
-96.818555
  0
LINE
  8
型材断面
  6
DASHDOT
 10
-51.190163
 20
72.141022
 11
-51.190163
 21
-96.818555
  0
LINE
  8
型材断面
  6
CONTINUOUS
 10
-119.58494
 20
-96.613382
 11
-119.58494
 21
-97.118383
  0
LINE
  8
型材断面
  6
CONTINUOUS
 10
-120.33494
 20
-96.613382
 11
-119.58494
 21
-96.613382
  0
LINE
  8
型材断面
  6
CONTINUOUS
 10
-120.33494
 20
-96.613382
 11
-120.33494
 21
-90.788382
  0
LINE
  8
型材断面
  6
CONTINUOUS
 10
-120.33494
 20
-96.613382
 11
-83.690163
 21
-96.613382
  0
LINE
  8
型材断面
  6
CONTINUOUS
 10
-119.58494
 20
-97.118383
 11
-83.690163
 21
-97.118383
  0
LINE
  8
型材断面
  6
CONTINUOUS
 10
-47.795385
 20
-96.613382
 11
-47.795385
 21
-97.118383
  0
LINE
  8
型材断面
  6
CONTINUOUS
 10
-47.045385
 20
-96.613382
 11
-47.795385
 21
-96.613382
  0
LINE
  8
型材断面
  6
CONTINUOUS
 10
-47.045385
 20
-96.613382
 11
-47.045385
 21
-90.788382
  0
LINE
  8
型材断面
  6
CONTINUOUS
 10
-47.045385
 20
-96.613382
 11
-83.690163
 21
-96.613382
  0
LINE
  8
型材断面
  6
CONTINUOUS
 10
-47.795385
 20
-97.118383
 11
-83.690163
 21
-97.118383
  0
LINE
  8
型材断面
  6
CONTINUOUS
 10
-5.178945
 20
-96.613382
 11
-5.178945
 21
-97.118383
  0
LINE
  8
型材断面
  6
CONTINUOUS
 10
-5.928945
 20
-96.613382
 11
-5.178945
 21
-96.613382
  0
LINE
  8
型材断面
  6
CONTINUOUS
 10
-5.928945
 20
-96.613382
 11
-5.928945
 21
-90.788382
  0
LINE
  8
型材断面
  6
CONTINUOUS
 10
-5.928945
 20
-96.613382
 11
30.715833
 21
-96.613382
  0
LINE
  8
型材断面
  6
CONTINUOUS
 10
-5.178945
 20
-97.118383
 11
30.715833
 21
-97.118383
  0
LINE
  8
型材断面
  6
CONTINUOUS
 10
66.61061
 20
-96.613382
 11
66.61061
 21
-97.118383
  0
LINE
  8
型材断面
  6
CONTINUOUS
 10
67.36061
 20
-96.613382
 11
66.61061
 21
-96.613382
  0
LINE
  8
型材断面
  6
CONTINUOUS
 10
67.36061
 20
-96.613382
 11
67.36061
 21
-90.788382
  0
LINE
  8
型材断面
  6
CONTINUOUS
 10
67.36061
 20
-96.613382
 11
30.715833
 21
-96.613382
  0
LINE
  8
型材断面
  6
CONTINUOUS
 10
66.61061
 20
-97.118383
 11
30.715833
 21
-97.118383
  0
LINE
  8
ガラス
  6
CONTINUOUS
 10
-81.876937
 20
64.175742
 11
-85.749572
 21
60.303108
  0
LINE
  8
ガラス
  6
CONTINUOUS
 10
-82.75726
 20
62.577385
 11
-84.151215
 21
61.18343
  0
LINE
  8
ガラス
  6
CONTINUOUS
 10
-83.475295
 20
63.29542
 11
-84.86925
 21
61.901465
  0
LINE
  8
ガラス
  6
CONTINUOUS
 10
-81.876937
 20
20.428475
 11
-85.749572
 21
16.55584
  0
LINE
  8
ガラス
  6
CONTINUOUS
 10
-82.75726
 20
18.830118
 11
-84.151215
 21
17.436162
  0
LINE
  8
ガラス
  6
CONTINUOUS
 10
-83.475295
 20
19.548152
 11
-84.86925
 21
18.154198
  0
LINE
  8
ガラス
  6
CONTINUOUS
 10
-61.7259
 20
41.10373
 11
-65.598535
 21
37.231095
  0
LINE
  8
ガラス
  6
CONTINUOUS
 10
-62.606222
 20
39.505372
 11
-64.000177
 21
38.111418
  0
LINE
  8
ガラス
  6
CONTINUOUS
 10
-63.324258
 20
40.223408
 11
-64.718213
 21
38.829452
  0
LINE
  8
ガラス
  6
CONTINUOUS
 10
-101.584223
 20
41.10373
 11
-105.456858
 21
37.231095
  0
LINE
  8
ガラス
  6
CONTINUOUS
 10
-102.464545
 20
39.505372
 11
-103.8585
 21
38.111418
  0
LINE
  8
ガラス
  6
CONTINUOUS
 10
-103.18258
 20
40.223408
 11
-104.576535
 21
38.829452
  0
LINE
  8
ガラス
  6
CONTINUOUS
 10
-81.876937
 20
-70.46891
 11
-85.749572
 21
-74.341545
  0
LINE
  8
ガラス
  6
CONTINUOUS
 10
-82.75726
 20
-72.067267
 11
-84.151215
 21
-73.461222
  0
LINE
  8
ガラス
  6
CONTINUOUS
 10
-83.475295
 20
-71.349233
 11
-84.86925
 21
-72.743188
  0
LINE
  8
ゴム等
  6
CONTINUOUS
 10
-50.961547
 20
2.60735
 11
-49.052565
 21
1.646808
  0
LINE
  8
ゴム等
  6
CONTINUOUS
 10
-49.052565
 20
1.646808
 11
-48.774338
 21
1.473148
  0
LINE
  8
ゴム等
  6
CONTINUOUS
 10
-48.69381
 20
1.459013
 11
-46.076602
 21
0.416028
  0
LINE
  8
ゴム等
  6
CONTINUOUS
 10
-47.081483
 20
6.487413
 11
-46.120942
 21
4.57843
  0
LINE
  8
ゴム等
  6
CONTINUOUS
 10
-46.120942
 20
4.57843
 11
-45.94728
 21
4.300202
  0
LINE
  8
ゴム等
  6
CONTINUOUS
 10
-45.933145
 20
4.219675
 11
-44.890163
 21
1.602468
  0
LINE
  8
ゴム等
  6
CONTINUOUS
 10
-50.961547
 20
2.60735
 11
-83.690163
 21
2.60735
  0
LINE
  8
ゴム等
  6
CONTINUOUS
 10
-49.052565
 20
1.646808
 11
-83.690163
 21
1.646808
  0
LINE
  8
ゴム等
  6
CONTINUOUS
 10
-48.69381
 20
1.459013
 11
-83.690163
 21
1.459013
  0
LINE
  8
ゴム等
  6
CONTINUOUS
 10
-47.081483
 20
6.487413
 11
-47.081483
 21
39.216028
  0
LINE
  8
ゴム等
  6
CONTINUOUS
 10
-45.933145
 20
4.219675
 11
-45.933145
 21
39.216028
  0
LINE
  8
ゴム等
  6
CONTINUOUS
 10
-46.120942
 20
4.57843
 11
-46.120942
 21
39.216028
  0
LINE
  8
ゴム等
  6
CONTINUOUS
 10
-116.418778
 20
2.60735
 11
-118.327762
 21
1.646808
  0
LINE
  8
ゴム等
  6
CONTINUOUS
 10
-118.327762
 20
1.646808
 11
-118.60599
 21
1.473148
  0
LINE
  8
ゴム等
  6
CONTINUOUS
 10
-118.686517
 20
1.459013
 11
-121.303725
 21
0.416028
  0
LINE
  8
ゴム等
  6
CONTINUOUS
 10
-120.298842
 20
6.487413
 11
-121.259385
 21
4.57843
  0
LINE
  8
ゴム等
  6
CONTINUOUS
 10
-121.259385
 20
4.57843
 11
-121.433045
 21
4.300202
  0
LINE
  8
ゴム等
  6
CONTINUOUS
 10
-121.44718
 20
4.219675
 11
-122.490163
 21
1.602468
  0
LINE
  8
ゴム等
  6
CONTINUOUS
 10
-116.418778
 20
2.60735
 11
-83.690163
 21
2.60735
  0
LINE
  8
ゴム等
  6
CONTINUOUS
 10
-118.327762
 20
1.646808
 11
-83.690163
 21
1.646808
  0
LINE
  8
ゴム等
  6
CONTINUOUS
 10
-118.686517
 20
1.459013
 11
-83.690163
 21
1.459013
  0
LINE
  8
ゴム等
  6
CONTINUOUS
 10
-120.298842
 20
6.487413
 11
-120.298842
 21
39.216028
  0
LINE
  8
ゴム等
  6
CONTINUOUS
 10
-121.44718
 20
4.219675
 11
-121.44718
 21
39.216028
  0
LINE
  8
ゴム等
  6
CONTINUOUS
 10
-121.259385
 20
4.57843
 11
-121.259385
 21
39.216028
  0
LINE
  8
ゴム等
  6
CONTINUOUS
 10
-116.418778
 20
75.82471
 11
-118.327762
 21
76.785253
  0
LINE
  8
ゴム等
  6
CONTINUOUS
 10
-118.327762
 20
76.785253
 11
-118.60599
 21
76.958913
  0
LINE
  8
ゴム等
  6
CONTINUOUS
 10
-118.686517
 20
76.973045
 11
-121.303725
 21
78.01603
  0
LINE
  8
ゴム等
  6
CONTINUOUS
 10
-120.298842
 20
71.944645
 11
-121.259385
 21
73.853628
  0
LINE
  8
ゴム等
  6
CONTINUOUS
 10
-121.259385
 20
73.853628
 11
-121.433045
 21
74.131857
  0
LINE
  8
ゴム等
  6
CONTINUOUS
 10
-121.44718
 20
74.212385
 11
-122.490163
 21
76.829593
  0
LINE
  8
ゴム等
  6
CONTINUOUS
 10
-116.418778
 20
75.82471
 11
-83.690163
 21
75.82471
  0
LINE
  8
ゴム等
  6
CONTINUOUS
 10
-118.327762
 20
76.785253
 11
-83.690163
 21
76.785253
  0
LINE
  8
ゴム等
  6
CONTINUOUS
 10
-118.686517
 20
76.973045
 11
-83.690163
 21
76.973045
  0
LINE
  8
ゴム等
  6
CONTINUOUS
 10
-120.298842
 20
71.944645
 11
-120.298842
 21
39.216028
  0
LINE
  8
ゴム等
  6
CONTINUOUS
 10
-121.44718
 20
74.212385
 11
-121.44718
 21
39.216028
  0
LINE
  8
ゴム等
  6
CONTINUOUS
 10
-121.259385
 20
73.853628
 11
-121.259385
 21
39.216028
  0
LINE
  8
ゴム等
  6
CONTINUOUS
 10
-50.961547
 20
75.82471
 11
-49.052565
 21
76.785253
  0
LINE
  8
ゴム等
  6
CONTINUOUS
 10
-49.052565
 20
76.785253
 11
-48.774338
 21
76.958913
  0
LINE
  8
ゴム等
  6
CONTINUOUS
 10
-48.69381
 20
76.973045
 11
-46.076602
 21
78.01603
  0
LINE
  8
ゴム等
  6
CONTINUOUS
 10
-47.081483
 20
71.944645
 11
-46.120942
 21
73.853628
  0
LINE
  8
ゴム等
  6
CONTINUOUS
 10
-46.120942
 20
73.853628
 11
-45.94728
 21
74.131857
  0
LINE
  8
ゴム等
  6
CONTINUOUS
 10
-45.933145
 20
74.212385
 11
-44.890163
 21
76.829593
  0
LINE
  8
ゴム等
  6
CONTINUOUS
 10
-50.961547
 20
75.82471
 11
-83.690163
 21
75.82471
  0
LINE
  8
ゴム等
  6
CONTINUOUS
 10
-49.052565
 20
76.785253
 11
-83.690163
 21
76.785253
  0
LINE
  8
ゴム等
  6
CONTINUOUS
 10
-48.69381
 20
76.973045
 11
-83.690163
 21
76.973045
  0
LINE
  8
ゴム等
  6
CONTINUOUS
 10
-47.081483
 20
71.944645
 11
-47.081483
 21
39.216028
  0
LINE
  8
ゴム等
  6
CONTINUOUS
 10
-45.933145
 20
74.212385
 11
-45.933145
 21
39.216028
  0
LINE
  8
ゴム等
  6
CONTINUOUS
 10
-46.120942
 20
73.853628
 11
-46.120942
 21
39.216028
  0
LINE
  8
ゴム等
  6
CONTINUOUS
 10
-47.081483
 20
6.487413
 11
-79.810098
 21
39.216028
  0
LINE
  8
ゴム等
  6
CONTINUOUS
 10
-46.120942
 20
4.57843
 11
-80.75854
 21
39.216028
  0
LINE
  8
ゴム等
  6
CONTINUOUS
 10
-45.933145
 20
4.219675
 11
-80.9295
 21
39.216028
  0
LINE
  8
ゴム等
  6
CONTINUOUS
 10
-47.081483
 20
71.944645
 11
-79.810098
 21
39.216028
  0
LINE
  8
ゴム等
  6
CONTINUOUS
 10
-45.933145
 20
74.212385
 11
-80.9295
 21
39.216028
  0
LINE
  8
ゴム等
  6
CONTINUOUS
 10
-46.120942
 20
73.853628
 11
-80.75854
 21
39.216028
  0
LINE
  8
ゴム等
  6
CONTINUOUS
 10
-48.69381
 20
1.459013
 11
-83.690163
 21
36.455365
  0
LINE
  8
ゴム等
  6
CONTINUOUS
 10
-49.052565
 20
1.646808
 11
-83.690163
 21
36.284405
  0
LINE
  8
ゴム等
  6
CONTINUOUS
 10
-50.961547
 20
2.60735
 11
-83.690163
 21
35.335962
  0
LINE
  8
ゴム等
  6
CONTINUOUS
 10
-116.418778
 20
2.60735
 11
-83.690163
 21
35.335962
  0
LINE
  8
ゴム等
  6
CONTINUOUS
 10
-118.327762
 20
1.646808
 11
-83.690163
 21
36.284405
  0
LINE
  8
ゴム等
  6
CONTINUOUS
 10
-118.686517
 20
1.459013
 11
-83.690163
 21
36.455365
  0
LINE
  8
ゴム等
  6
CONTINUOUS
 10
-121.259385
 20
4.57843
 11
-86.621785
 21
39.216028
  0
LINE
  8
ゴム等
  6
CONTINUOUS
 10
-121.44718
 20
4.219675
 11
-86.450825
 21
39.216028
  0
LINE
  8
ゴム等
  6
CONTINUOUS
 10
-120.298842
 20
6.487413
 11
-87.570227
 21
39.216028
  0
LINE
  8
ゴム等
  6
CONTINUOUS
 10
-120.298842
 20
71.944645
 11
-87.570227
 21
39.216028
  0
LINE
  8
ゴム等
  6
CONTINUOUS
 10
-121.259385
 20
73.853628
 11
-86.621785
 21
39.216028
  0
LINE
  8
ゴム等
  6
CONTINUOUS
 10
-121.44718
 20
74.212385
 11
-86.450825
 21
39.216028
  0
LINE
  8
ゴム等
  6
CONTINUOUS
 10
-49.052565
 20
76.785253
 11
-83.690163
 21
42.14765
  0
LINE
  8
ゴム等
  6
CONTINUOUS
 10
-48.69381
 20
76.973045
 11
-83.690163
 21
41.976692
  0
LINE
  8
ゴム等
  6
CONTINUOUS
 10
-50.961547
 20
75.82471
 11
-83.690163
 21
43.096092
  0
LINE
  8
ゴム等
  6
CONTINUOUS
 10
-116.418778
 20
75.82471
 11
-83.690163
 21
43.096092
  0
LINE
  8
ゴム等
  6
CONTINUOUS
 10
-118.327762
 20
76.785253
 11
-83.690163
 21
42.14765
  0
LINE
  8
ゴム等
  6
CONTINUOUS
 10
-118.686517
 20
76.973045
 11
-83.690163
 21
41.976692
  0
LINE
  8
ゴム等
  6
CONTINUOUS
 10
-51.013462
 20
-85.153625
 11
-49.052715
 21
-85.65747
  0
LINE
  8
ゴム等
  6
CONTINUOUS
 10
-49.052715
 20
-85.65747
 11
-48.69394
 21
-85.73505
  0
LINE
  8
ゴム等
  6
CONTINUOUS
 10
-48.69394
 20
-85.73505
 11
-45.979097
 21
-86.813382
  0
LINE
  8
ゴム等
  6
CONTINUOUS
 10
-51.013462
 20
-85.153625
 11
-83.690163
 21
-85.153625
  0
LINE
  8
ゴム等
  6
CONTINUOUS
 10
-48.69394
 20
-85.73505
 11
-83.690163
 21
-85.73505
  0
LINE
  8
ゴム等
  6
CONTINUOUS
 10
-49.052715
 20
-85.65747
 11
-83.690163
 21
-85.65747
  0
LINE
  8
ゴム等
  6
CONTINUOUS
 10
-51.013462
 20
-85.153625
 11
-83.690163
 21
-52.47692
  0
LINE
  8
ゴム等
  6
CONTINUOUS
 10
-49.052715
 20
-85.65747
 11
-83.690163
 21
-51.020017
  0
LINE
  8
ゴム等
  6
CONTINUOUS
 10
-48.69394
 20
-85.73505
 11
-83.690163
 21
-50.738825
  0
LINE
  8
ゴム等
  6
CONTINUOUS
 10
-83.690163
 20
-49.102315
 11
-83.690163
 21
-52.47692
  0
LINE
  8
ゴム等
  6
CONTINUOUS
 10
-83.690163
 20
-49.102315
 11
-83.690163
 21
-52.47692
  0
LINE
  8
ゴム等
  6
CONTINUOUS
 10
-116.366865
 20
-85.153625
 11
-118.327613
 21
-85.65747
  0
LINE
  8
ゴム等
  6
CONTINUOUS
 10
-118.327613
 20
-85.65747
 11
-118.686385
 21
-85.73505
  0
LINE
  8
ゴム等
  6
CONTINUOUS
 10
-118.686385
 20
-85.73505
 11
-121.401228
 21
-86.813382
  0
LINE
  8
ゴム等
  6
CONTINUOUS
 10
-116.366865
 20
-85.153625
 11
-83.690163
 21
-85.153625
  0
LINE
  8
ゴム等
  6
CONTINUOUS
 10
-118.686385
 20
-85.73505
 11
-83.690163
 21
-85.73505
  0
LINE
  8
ゴム等
  6
CONTINUOUS
 10
-118.327613
 20
-85.65747
 11
-83.690163
 21
-85.65747
  0
LINE
  8
ゴム等
  6
CONTINUOUS
 10
-116.366865
 20
-85.153625
 11
-83.690163
 21
-52.47692
  0
LINE
  8
ゴム等
  6
CONTINUOUS
 10
-118.327613
 20
-85.65747
 11
-83.690163
 21
-51.020017
  0
LINE
  8
ゴム等
  6
CONTINUOUS
 10
-118.686385
 20
-85.73505
 11
-83.690163
 21
-50.738825
  0
LINE
  8
ゴム等
  6
CONTINUOUS
 10
-83.690163
 20
-49.102315
 11
-83.690163
 21
-52.47692
  0
LINE
  8
ゴム等
  6
CONTINUOUS
 10
-83.690163
 20
-49.102315
 11
-83.690163
 21
-52.47692
  0
LINE
  8
ゴム等
  6
CONTINUOUS
 10
63.392533
 20
-85.153625
 11
65.35328
 21
-85.65747
  0
LINE
  8
ゴム等
  6
CONTINUOUS
 10
65.35328
 20
-85.65747
 11
65.712055
 21
-85.73505
  0
LINE
  8
ゴム等
  6
CONTINUOUS
 10
65.712055
 20
-85.73505
 11
68.426898
 21
-86.813382
  0
LINE
  8
ゴム等
  6
CONTINUOUS
 10
63.392533
 20
-85.153625
 11
30.715833
 21
-85.153625
  0
LINE
  8
ゴム等
  6
CONTINUOUS
 10
65.712055
 20
-85.73505
 11
30.715833
 21
-85.73505
  0
LINE
  8
ゴム等
  6
CONTINUOUS
 10
65.35328
 20
-85.65747
 11
30.715833
 21
-85.65747
  0
LINE
  8
ゴム等
  6
CONTINUOUS
 10
63.392533
 20
-85.153625
 11
30.715833
 21
-52.47692
  0
LINE
  8
ゴム等
  6
CONTINUOUS
 10
65.35328
 20
-85.65747
 11
30.715833
 21
-51.020017
  0
LINE
  8
ゴム等
  6
CONTINUOUS
 10
65.712055
 20
-85.73505
 11
30.715833
 21
-50.738825
  0
LINE
  8
ゴム等
  6
CONTINUOUS
 10
30.715833
 20
-49.102315
 11
30.715833
 21
-52.47692
  0
LINE
  8
ゴム等
  6
CONTINUOUS
 10
30.715833
 20
-49.102315
 11
30.715833
 21
-52.47692
  0
LINE
  8
ゴム等
  6
CONTINUOUS
 10
-1.96087
 20
-85.153625
 11
-3.921617
 21
-85.65747
  0
LINE
  8
ゴム等
  6
CONTINUOUS
 10
-3.921617
 20
-85.65747
 11
-4.28039
 21
-85.73505
  0
LINE
  8
ゴム等
  6
CONTINUOUS
 10
-4.28039
 20
-85.73505
 11
-6.995233
 21
-86.813382
  0
LINE
  8
ゴム等
  6
CONTINUOUS
 10
-1.96087
 20
-85.153625
 11
30.715833
 21
-85.153625
  0
LINE
  8
ゴム等
  6
CONTINUOUS
 10
-4.28039
 20
-85.73505
 11
30.715833
 21
-85.73505
  0
LINE
  8
ゴム等
  6
CONTINUOUS
 10
-3.921617
 20
-85.65747
 11
30.715833
 21
-85.65747
  0
LINE
  8
ゴム等
  6
CONTINUOUS
 10
-1.96087
 20
-85.153625
 11
30.715833
 21
-52.47692
  0
LINE
  8
ゴム等
  6
CONTINUOUS
 10
-3.921617
 20
-85.65747
 11
30.715833
 21
-51.020017
  0
LINE
  8
ゴム等
  6
CONTINUOUS
 10
-4.28039
 20
-85.73505
 11
30.715833
 21
-50.738825
  0
LINE
  8
ゴム等
  6
CONTINUOUS
 10
30.715833
 20
-49.102315
 11
30.715833
 21
-52.47692
  0
LINE
  8
ゴム等
  6
CONTINUOUS
 10
30.715833
 20
-49.102315
 11
30.715833
 21
-52.47692
  0
LINE
  8
ゴム等
  6
DOT
 10
63.392535
 20
-69.153622
 11
65.353283
 21
-69.657467
  0
LINE
  8
ゴム等
  6
DOT
 10
65.353283
 20
-69.657467
 11
65.712058
 21
-69.735048
  0
LINE
  8
ゴム等
  6
DOT
 10
65.712058
 20
-69.735048
 11
68.4269
 21
-70.81338
  0
LINE
  8
ゴム等
  6
DOT
 10
63.392535
 20
-69.153622
 11
30.715835
 21
-69.153622
  0
LINE
  8
ゴム等
  6
DOT
 10
65.712058
 20
-69.735048
 11
30.715835
 21
-69.735048
  0
LINE
  8
ゴム等
  6
DOT
 10
65.353283
 20
-69.657467
 11
30.715835
 21
-69.657467
  0
LINE
  8
ゴム等
  6
DOT
 10
63.392535
 20
-69.153622
 11
30.715835
 21
-36.476918
  0
LINE
  8
ゴム等
  6
DOT
 10
65.353283
 20
-69.657467
 11
30.715835
 21
-35.020015
  0
LINE
  8
ゴム等
  6
DOT
 10
65.712058
 20
-69.735048
 11
30.715835
 21
-34.738822
  0
LINE
  8
ゴム等
  6
DOT
 10
30.715835
 20
-33.102312
 11
30.715835
 21
-36.476918
  0
LINE
  8
ゴム等
  6
DOT
 10
30.715835
 20
-33.102312
 11
30.715835
 21
-36.476918
  0
LINE
  8
ゴム等
  6
DOT
 10
-1.960868
 20
-69.153622
 11
-3.921615
 21
-69.657467
  0
LINE
  8
ゴム等
  6
DOT
 10
-3.921615
 20
-69.657467
 11
-4.280387
 21
-69.735048
  0
LINE
  8
ゴム等
  6
DOT
 10
-4.280387
 20
-69.735048
 11
-6.99523
 21
-70.81338
  0
LINE
  8
ゴム等
  6
DOT
 10
-1.960868
 20
-69.153622
 11
30.715835
 21
-69.153622
  0
LINE
  8
ゴム等
  6
DOT
 10
-4.280387
 20
-69.735048
 11
30.715835
 21
-69.735048
  0
LINE
  8
ゴム等
  6
DOT
 10
-3.921615
 20
-69.657467
 11
30.715835
 21
-69.657467
  0
LINE
  8
ゴム等
  6
DOT
 10
-1.960868
 20
-69.153622
 11
30.715835
 21
-36.476918
  0
LINE
  8
ゴム等
  6
DOT
 10
-3.921615
 20
-69.657467
 11
30.715835
 21
-35.020015
  0
LINE
  8
ゴム等
  6
DOT
 10
-4.280387
 20
-69.735048
 11
30.715835
 21
-34.738822
  0
LINE
  8
ゴム等
  6
DOT
 10
30.715835
 20
-33.102312
 11
30.715835
 21
-36.476918
  0
LINE
  8
ゴム等
  6
DOT
 10
30.715835
 20
-33.102312
 11
30.715835
 21
-36.476918
  0
CIRCLE
  8
ボルト／ビス
  6
CONTINUOUS
 10
-119.33494
 20
-92.034225
 40
0.25
  0
CIRCLE
  8
ボルト／ビス
  6
CONTINUOUS
 10
-119.33494
 20
-92.034225
 40
0.2
  0
CIRCLE
  8
ボルト／ビス
  6
CONTINUOUS
 10
-119.33494
 20
-95.249225
 40
0.25
  0
CIRCLE
  8
ボルト／ビス
  6
CONTINUOUS
 10
-119.33494
 20
-95.249225
 40
0.2
  0
CIRCLE
  8
ボルト／ビス
  6
CONTINUOUS
 10
-48.045385
 20
-92.034225
 40
0.25
  0
CIRCLE
  8
ボルト／ビス
  6
CONTINUOUS
 10
-48.045385
 20
-92.034225
 40
0.2
  0
CIRCLE
  8
ボルト／ビス
  6
CONTINUOUS
 10
-48.045385
 20
-95.249225
 40
0.25
  0
CIRCLE
  8
ボルト／ビス
  6
CONTINUOUS
 10
-48.045385
 20
-95.249225
 40
0.2
  0
CIRCLE
  8
ボルト／ビス
  6
CONTINUOUS
 10
-4.928945
 20
-92.034225
 40
0.25
  0
CIRCLE
  8
ボルト／ビス
  6
CONTINUOUS
 10
-4.928945
 20
-92.034225
 40
0.2
  0
CIRCLE
  8
ボルト／ビス
  6
CONTINUOUS
 10
-4.928945
 20
-95.249225
 40
0.25
  0
CIRCLE
  8
ボルト／ビス
  6
CONTINUOUS
 10
-4.928945
 20
-95.249225
 40
0.2
  0
CIRCLE
  8
ボルト／ビス
  6
CONTINUOUS
 10
66.36061
 20
-92.034225
 40
0.25
  0
CIRCLE
  8
ボルト／ビス
  6
CONTINUOUS
 10
66.36061
 20
-92.034225
 40
0.2
  0
CIRCLE
  8
ボルト／ビス
  6
CONTINUOUS
 10
66.36061
 20
-95.249225
 40
0.25
  0
CIRCLE
  8
ボルト／ビス
  6
CONTINUOUS
 10
66.36061
 20
-95.249225
 40
0.2
  0
TEXT
  7
TextStyle03
  8
文字
  6
CONTINUOUS
 10
-26.775
 20
-2.625
  1
は排水穴位置を示す
 40
3.0
 72
     5
 11
3.225
 21
-2.625
  0
TEXT
  7
TextStyle03
  8
文字
  6
CONTINUOUS
 10
-26.775
 20
-10.475
  1
はケーシング位置を示す
 40
3.0
 72
     5
 11
9.975
 21
-10.475
  0
TEXT
  7
TextStyle03
  8
文字
  6
CONTINUOUS
 10
-26.775
 20
-13.85
  1
４ヶ所中1ヶ所に設定
 40
3.0
 72
     5
 11
4.9125
 21
-13.85
  0
TEXT
  7
TextStyle03
  8
文字
  6
CONTINUOUS
 10
-42.5
 20
25.425
  1
ﾊﾞﾗﾝｽｽﾃｰ
 40
3.0
 72
     5
 11
-29.1875
 21
25.425
  0
TEXT
  7
TextStyle03
  8
文字
  6
CONTINUOUS
 10
-92.025
 20
-9.8
  1
可動装置側
 40
3.0
 72
     5
 11
-75.525
 21
-9.8
  0
TEXT
  7
TextStyle03
  8
文字
  6
CONTINUOUS
 10
-92.025
 20
85.3
  1
可動装置側
 40
3.0
 72
     5
 11
-75.525
 21
85.3
  0
TEXT
  7
TextStyle03
  8
文字
  6
CONTINUOUS
 10
-130.675
 20
98.625
  1
アンカーピッチ
 40
3.0
 72
     5
 11
-107.425
 21
98.625
  0
TEXT
  7
TextStyle03
  8
文字
  6
CONTINUOUS
 10
-147.675
 20
-4.175
  1
アンカーピッチ
 40
3.0
 50
90.0
 72
     5
 11
-147.675
 21
19.075
  0
TEXT
  7
TextStyle03
  8
文字
  6
CONTINUOUS
 10
-32.375
 20
-21.0
  1
アンカー数量　８ヶ所
 40
3.0
 72
     5
 11
1.0
 21
-21.0
  0
TEXT
  7
TextStyle03
  8
文字
  6
CONTINUOUS
 10
144.1
 20
-5.875
  1
×４枚
 40
3.0
 72
     5
 11
153.85
 21
-5.875
  0
TEXT
  7
TextStyle03
  8
文字
  6
CONTINUOUS
 10
103.825
 20
43.85
  1
ガラス寸法
 40
3.0
 72
     5
 11
120.325
 21
43.85
  0
TEXT
  7
TextStyle03
  8
文字
  6
CONTINUOUS
 10
-32.4
 20
-27.825
  1
アームユニット数　２ヶ所
 40
3.0
 72
     5
 11
7.725
 21
-27.825
  0
TEXT
  7
TextStyle03
  8
文字
  6
CONTINUOUS
 10
65.75
 20
96.2
  1
ＮＳコード：ＮＳ４Ｇ
 40
5.0
 72
     5
 11
121.375
 21
96.2
  0
TEXT
  7
TextStyle03
  8
文字
  6
CONTINUOUS
 10
67.35
 20
119.325
  1
シリーズ：ＤＦ４
 40
5.0
 72
     5
 11
111.725
 21
119.325
  0
TEXT
  7
TextStyle03
  8
文字
  6
CONTINUOUS
 10
67.35
 20
113.7
  1
　　　　　四角錘（上下可動）1300×1300タイプ
 40
5.0
 72
     5
 11
190.475
 21
113.7
  0
TEXT
  7
TextStyle03
  8
文字
  6
CONTINUOUS
 10
67.35
 20
108.075
  1
図面名　：外観姿図
 40
5.0
 72
     5
 11
117.35
 21
108.075
  0
TEXT
  7
TextStyle03
  8
文字
  6
CONTINUOUS
 10
67.35
 20
102.45
  1
　　　　　　
 40
5.0
 72
     5
 11
100.475
 21
102.45
  0
INSERT
  2
*DIM_0004
  8
寸法
  6
CONTINUOUS
 10
0.0
 20
0.0
  0
INSERT
  2
*DIM_0005
  8
寸法
  6
CONTINUOUS
 10
0.0
 20
0.0
  0
INSERT
  2
*DIM_0006
  8
寸法
  6
CONTINUOUS
 10
0.0
 20
0.0
  0
INSERT
  2
*DIM_0007
  8
寸法
  6
CONTINUOUS
 10
0.0
 20
0.0
  0
INSERT
  2
*DIM_0008
  8
寸法
  6
CONTINUOUS
 10
0.0
 20
0.0
  0
INSERT
  2
*DIM_0009
  8
寸法
  6
CONTINUOUS
 10
0.0
 20
0.0
  0
INSERT
  2
*DIM_0010
  8
寸法
  6
CONTINUOUS
 10
0.0
 20
0.0
  0
INSERT
  2
*DIM_0011
  8
寸法
  6
CONTINUOUS
 10
0.0
 20
0.0
  0
INSERT
  2
*DIM_0012
  8
寸法
  6
CONTINUOUS
 10
0.0
 20
0.0
  0
INSERT
  2
*GRP_0013
  8
寸法
  6
CONTINUOUS
 10
0.0
 20
0.0
  0
INSERT
  2
*DIM_0014
  8
寸法
  6
CONTINUOUS
 10
0.0
 20
0.0
  0
INSERT
  2
*DIM_0015
  8
寸法
  6
CONTINUOUS
 10
0.0
 20
0.0
  0
INSERT
  2
*DIM_0028
  8
寸法
  6
CONTINUOUS
 10
0.0
 20
0.0
  0
INSERT
  2
*DIM_0029
  8
寸法
  6
CONTINUOUS
 10
0.0
 20
0.0
  0
INSERT
  2
*DIM_0030
  8
寸法
  6
CONTINUOUS
 10
0.0
 20
0.0
  0
INSERT
  2
*DIM_0031
  8
寸法
  6
CONTINUOUS
 10
0.0
 20
0.0
  0
LINE
  8
曲げ物
  6
CONTINUOUS
 10
166.13709
 20
-8.939517
 11
97.792093
 21
-8.939517
  0
LINE
  8
曲げ物
  6
CONTINUOUS
 10
97.792093
 20
-8.939517
 11
131.96459
 21
39.38749
  0
LINE
  8
曲げ物
  6
CONTINUOUS
 10
166.13709
 20
-8.939517
 11
131.96459
 21
39.38749
  0
ENDSEC
  0
EOF
