  0
SECTION
  2
HEADER
  9
$EXTMIN
 10
-210.0
 20
-148.5
  9
$EXTMAX
 10
210.0
 20
148.5
  9
$PDMODE
 70
    32
  9
$PDSIZE
 40
0.3
  9
$LTSCALE
 40
10.0
  0
ENDSEC
  0
SECTION
  2
TABLES
  0
TABLE
  2
LTYPE
 70
    15
  0
LTYPE
  2
CONTINUOUS
 70
    64
  3
実線
 72
    65
 73
     0
 40
0.0
  0
LTYPE
  2
DASHED
 70
    64
  3
破線A
 72
    65
 73
     2
 40
0.6
 49
0.4
 49
-0.2
  0
LTYPE
  2
DASHEDX2
 70
    64
  3
破線B
 72
    65
 73
     2
 40
1.3
 49
0.9
 49
-0.4
  0
LTYPE
  2
DASHDOT
 70
    64
  3
１点鎖線A
 72
    65
 73
     4
 40
0.5375
 49
0.375
 49
-0.05
 49
0.0625
 49
-0.05
  0
LTYPE
  2
DASHDOTX2
 70
    64
  3
１点鎖線B
 72
    65
 73
     4
 40
1.075
 49
0.75
 49
-0.1
 49
0.125
 49
-0.1
  0
LTYPE
  2
DIVIDE2
 70
    64
  3
２点鎖線A
 72
    65
 73
     6
 40
0.5125
 49
0.3
 49
-0.0375
 49
0.05
 49
-0.0375
 49
0.05
 49
-0.0375
  0
LTYPE
  2
DIVIDE
 70
    64
  3
２点鎖線B
 72
    65
 73
     6
 40
1.05
 49
0.55
 49
-0.1
 49
0.1
 49
-0.1
 49
0.1
 49
-0.1
  0
LTYPE
  2
DOT
 70
    64
  3
点線A
 72
    65
 73
     2
 40
0.1125
 49
0.0625
 49
-0.05
  0
LTYPE
  2
DOTX2
 70
    64
  3
点線B
 72
    65
 73
     2
 40
0.275
 49
0.15
 49
-0.125
  0
LTYPE
  2
CONTINUOUS
 70
    64
  3
実線
 72
    65
 73
     0
 40
0.0
  0
LTYPE
  2
CONTINUOUS
 70
    64
  3
実線
 72
    65
 73
     0
 40
0.0
  0
LTYPE
  2
CONTINUOUS
 70
    64
  3
実線
 72
    65
 73
     0
 40
0.0
  0
LTYPE
  2
CONTINUOUS
 70
    64
  3
実線
 72
    65
 73
     0
 40
0.0
  0
LTYPE
  2
CONTINUOUS
 70
    64
  3
実線
 72
    65
 73
     0
 40
0.0
  0
LTYPE
  2
CONTINUOUS
 70
    64
  3
実線
 72
    65
 73
     0
 40
0.0
  0
ENDTAB
  0
TABLE
  2
LAYER
 70
    40
  0
LAYER
  2
通り芯
 70
     0
 62
    15
  6
CONTINUOUS
  0
LAYER
  2
補助線
 70
     0
 62
    16
  6
DOT
  0
LAYER
  2
躯体
 70
     0
 62
    31
  6
CONTINUOUS
  0
LAYER
  2
型材
 70
     0
 62
    32
  6
CONTINUOUS
  0
LAYER
  2
型材断面
 70
     0
 62
    47
  6
CONTINUOUS
  0
LAYER
  2
ガラス
 70
     0
 62
    48
  6
CONTINUOUS
  0
LAYER
  2
ゴム等
 70
     0
 62
    63
  6
CONTINUOUS
  0
LAYER
  2
ボルト／ビス
 70
     0
 62
    64
  6
CONTINUOUS
  0
LAYER
  2
文字
 70
     0
 62
    79
  6
CONTINUOUS
  0
LAYER
  2
寸法
 70
     0
 62
    80
  6
CONTINUOUS
  0
LAYER
  2
ﾊｯﾁﾝｸﾞ
 70
     0
 62
    95
  6
CONTINUOUS
  0
LAYER
  2
別途部材
 70
     0
 62
    96
  6
CONTINUOUS
  0
LAYER
  2
曲げ物
 70
     0
 62
   111
  6
CONTINUOUS
  0
LAYER
  2
鉄骨等
 70
     0
 62
   112
  6
CONTINUOUS
  0
LAYER
  2
St
 70
     0
 62
   127
  6
CONTINUOUS
  0
LAYER
  2
その他部品等
 70
     0
 62
   128
  6
CONTINUOUS
  0
LAYER
  2
ｶﾞｽｹｯﾄ
 70
     0
 62
   143
  6
CONTINUOUS
  0
LAYER
  2
ｽｹｯﾁ
 70
     0
 62
    14
  6
CONTINUOUS
  0
LAYER
  2
0
 70
     0
 62
    17
  6
CONTINUOUS
  0
LAYER
  2
1
 70
     0
 62
    30
  6
CONTINUOUS
  0
LAYER
  2
4
 70
     0
 62
    33
  6
CONTINUOUS
  0
LAYER
  2
ﾚｲﾔ3
 70
     0
 62
    46
  6
CONTINUOUS
  0
LAYER
  2
外形線
 70
     0
 62
    49
  6
CONTINUOUS
  0
LAYER
  2
部品
 70
     0
 62
    14
  6
CONTINUOUS
  0
LAYER
  2
サッシ芯
 70
     0
 62
    17
  6
DASHDOTX2
  0
LAYER
  2
寸法線
 70
     0
 62
    62
  6
CONTINUOUS
  0
LAYER
  2
姿図外形線
 70
     0
 62
    65
  6
CONTINUOUS
  0
LAYER
  2
姿補助線
 70
     0
 62
    30
  6
CONTINUOUS
  0
LAYER
  2
透視線
 70
     0
 62
    78
  6
DOT
  0
LAYER
  2
用紙
 70
     0
 62
    81
  6
CONTINUOUS
  0
LAYER
  2
実線図枠
 70
     0
 62
    94
  6
CONTINUOUS
  0
LAYER
  2
補助図枠
 70
     0
 62
    97
  6
CONTINUOUS
  0
LAYER
  2
建具記号
 70
     0
 62
   110
  6
CONTINUOUS
  0
LAYER
  2
補助文字
 70
     0
 62
   113
  6
CONTINUOUS
  0
LAYER
  2
LAYER001
 70
     0
 62
     7
  6
CONTINUOUS
  0
LAYER
  2
LAYER010
 70
     0
 62
    11
  6
CONTINUOUS
  0
LAYER
  2
LAYER011
 70
     0
 62
    12
  6
CONTINUOUS
  0
LAYER
  2
LAYER013
 70
     0
 62
    14
  6
CONTINUOUS
  0
LAYER
  2
LAYER026
 70
     0
 62
    11
  6
CONTINUOUS
  0
LAYER
  2
断面線04
 70
     0
 62
     4
  6
CONTINUOUS
  0
ENDTAB
  0
TABLE
  2
STYLE
 70
    10
  0
STYLE
  2
STANDARD
 70
     0
 40
1.0
 41
1.0
 42
1.0
 50
0.0
 71
     0
  3
TXT
  4
BIGFONT
  0
STYLE
  2
TATE
 70
     4
 40
1.0
 41
1.0
 42
1.0
 50
0.0
 71
     0
  3
TXT
  4
BIGFONT
  0
STYLE
  2
TextStyle03
 70
     0
 40
1.0
 41
1.0
 42
1.0
 50
0.0
 71
     0
  3
MONOTXT
  4
BIGFONT
  0
STYLE
  2
TextStyle04
 70
     0
 40
1.0
 41
1.0
 42
1.0
 50
0.0
 71
     0
  3
MONOTXT
  4
BIGFONT
  0
STYLE
  2
TextStyle05
 70
     0
 40
1.0
 41
1.0
 42
1.0
 50
0.0
 71
     0
  3
MONOTXT
  4
BIGFONT
  0
STYLE
  2
TextStyle06
 70
     0
 40
1.0
 41
1.0
 42
1.0
 50
0.0
 71
     0
  3
MONOTXT
  4
BIGFONT
  0
STYLE
  2
TextStyle07
 70
     0
 40
1.0
 41
1.0
 42
1.0
 50
0.0
 71
     0
  3
MONOTXT
  4
BIGFONT
  0
STYLE
  2
TextStyle08
 70
     0
 40
1.0
 41
1.0
 42
1.0
 50
0.0
 71
     0
  3
MONOTXT
  4
BIGFONT
  0
STYLE
  2
TextStyle09
 70
     0
 40
1.0
 41
1.0
 42
1.0
 50
0.0
 71
     0
  3
MONOTXT
  4
BIGFONT
  0
STYLE
  2
TextStyle10
 70
     0
 40
1.0
 41
1.0
 42
1.0
 50
0.0
 71
     0
  3
MONOTXT
  4
BIGFONT
  0
ENDTAB
  0
ENDSEC
  0
SECTION
  2
BLOCKS
  0
BLOCK
  2
*HAT_0001
 70
    65
 10
0.0
 20
0.0
  0
LINE
  8
ゴム等
 10
-63.275
 20
-31.325
 11
-62.925
 21
-31.675
  0
LINE
  8
ゴム等
 10
-63.275
 20
-30.675
 11
-62.3
 21
-31.675
  0
LINE
  8
ゴム等
 10
-63.275
 20
-30.05
 11
-61.675
 21
-31.675
  0
LINE
  8
ゴム等
 10
-63.275
 20
-29.425
 11
-61.125
 21
-31.6
  0
LINE
  8
ゴム等
 10
-63.075
 20
-29.025
 11
-61.125
 21
-30.975
  0
LINE
  8
ゴム等
 10
-62.45
 20
-29.025
 11
-61.125
 21
-30.325
  0
LINE
  8
ゴム等
 10
-61.825
 20
-29.025
 11
-61.125
 21
-29.725
  0
LINE
  8
ゴム等
 10
-61.175
 20
-29.025
 11
-61.125
 21
-29.075
  0
ENDBLK
  0
BLOCK
  2
*HAT_0002
 70
    65
 10
0.0
 20
0.0
  0
LINE
  8
ゴム等
 10
54.4
 20
-31.325
 11
54.05
 21
-31.675
  0
LINE
  8
ゴム等
 10
54.4
 20
-30.675
 11
53.425
 21
-31.675
  0
LINE
  8
ゴム等
 10
54.4
 20
-30.05
 11
52.8
 21
-31.675
  0
LINE
  8
ゴム等
 10
54.4
 20
-29.425
 11
52.25
 21
-31.6
  0
LINE
  8
ゴム等
 10
54.2
 20
-29.025
 11
52.25
 21
-30.975
  0
LINE
  8
ゴム等
 10
53.575
 20
-29.025
 11
52.25
 21
-30.325
  0
LINE
  8
ゴム等
 10
52.95
 20
-29.025
 11
52.25
 21
-29.725
  0
LINE
  8
ゴム等
 10
52.3
 20
-29.025
 11
52.25
 21
-29.075
  0
ENDBLK
  0
BLOCK
  2
*HAT_0003
 70
    65
 10
0.0
 20
0.0
  0
LINE
  8
ゴム等
 10
2.525
 20
-31.25
 11
2.875
 21
-31.6
  0
LINE
  8
ゴム等
 10
2.525
 20
-30.6
 11
3.5
 21
-31.6
  0
LINE
  8
ゴム等
 10
2.525
 20
-29.975
 11
4.125
 21
-31.6
  0
LINE
  8
ゴム等
 10
2.525
 20
-29.35
 11
4.675
 21
-31.525
  0
LINE
  8
ゴム等
 10
2.725
 20
-28.95
 11
4.675
 21
-30.9
  0
LINE
  8
ゴム等
 10
3.35
 20
-28.95
 11
4.675
 21
-30.25
  0
LINE
  8
ゴム等
 10
3.975
 20
-28.95
 11
4.675
 21
-29.65
  0
LINE
  8
ゴム等
 10
4.625
 20
-28.95
 11
4.675
 21
-29.0
  0
ENDBLK
  0
BLOCK
  2
*HAT_0004
 70
    65
 10
0.0
 20
0.0
  0
LINE
  8
ゴム等
 10
-11.375
 20
-31.25
 11
-11.725
 21
-31.6
  0
LINE
  8
ゴム等
 10
-11.375
 20
-30.6
 11
-12.35
 21
-31.6
  0
LINE
  8
ゴム等
 10
-11.375
 20
-29.975
 11
-12.975
 21
-31.6
  0
LINE
  8
ゴム等
 10
-11.375
 20
-29.35
 11
-13.525
 21
-31.525
  0
LINE
  8
ゴム等
 10
-11.575
 20
-28.95
 11
-13.525
 21
-30.9
  0
LINE
  8
ゴム等
 10
-12.2
 20
-28.95
 11
-13.525
 21
-30.25
  0
LINE
  8
ゴム等
 10
-12.825
 20
-28.95
 11
-13.525
 21
-29.65
  0
LINE
  8
ゴム等
 10
-13.475
 20
-28.95
 11
-13.525
 21
-29.0
  0
ENDBLK
  0
BLOCK
  2
*HAT_0005
 70
    65
 10
0.0
 20
0.0
  0
LINE
  8
ゴム等
 10
2.525
 20
-90.725
 11
2.875
 21
-91.075
  0
LINE
  8
ゴム等
 10
2.525
 20
-90.075
 11
3.5
 21
-91.075
  0
LINE
  8
ゴム等
 10
2.525
 20
-89.45
 11
4.125
 21
-91.075
  0
LINE
  8
ゴム等
 10
2.525
 20
-88.825
 11
4.675
 21
-91.0
  0
LINE
  8
ゴム等
 10
2.725
 20
-88.425
 11
4.675
 21
-90.375
  0
LINE
  8
ゴム等
 10
3.35
 20
-88.425
 11
4.675
 21
-89.725
  0
LINE
  8
ゴム等
 10
3.975
 20
-88.425
 11
4.675
 21
-89.125
  0
LINE
  8
ゴム等
 10
4.625
 20
-88.425
 11
4.675
 21
-88.475
  0
ENDBLK
  0
BLOCK
  2
*HAT_0006
 70
    65
 10
0.0
 20
0.0
  0
LINE
  8
ゴム等
 10
-11.375
 20
-90.725
 11
-11.725
 21
-91.075
  0
LINE
  8
ゴム等
 10
-11.375
 20
-90.075
 11
-12.35
 21
-91.075
  0
LINE
  8
ゴム等
 10
-11.375
 20
-89.45
 11
-12.975
 21
-91.075
  0
LINE
  8
ゴム等
 10
-11.375
 20
-88.825
 11
-13.525
 21
-91.0
  0
LINE
  8
ゴム等
 10
-11.575
 20
-88.425
 11
-13.525
 21
-90.375
  0
LINE
  8
ゴム等
 10
-12.2
 20
-88.425
 11
-13.525
 21
-89.725
  0
LINE
  8
ゴム等
 10
-12.825
 20
-88.425
 11
-13.525
 21
-89.125
  0
LINE
  8
ゴム等
 10
-13.475
 20
-88.425
 11
-13.525
 21
-88.475
  0
ENDBLK
  0
BLOCK
  2
*HAT_0007
 70
    65
 10
0.0
 20
0.0
  0
LINE
  8
型材断面
  6
DOT
 10
-66.15
 20
-41.6
 11
-65.7
 21
-41.15
  0
LINE
  8
型材断面
  6
DOT
 10
-67.175
 20
-41.775
 11
-65.7
 21
-40.3
  0
LINE
  8
型材断面
  6
DOT
 10
-68.2
 20
-41.95
 11
-65.7
 21
-39.45
  0
LINE
  8
型材断面
  6
DOT
 10
-68.35
 20
-41.275
 11
-66.5
 21
-39.4
  0
LINE
  8
型材断面
  6
DOT
 10
-68.35
 20
-40.425
 11
-67.35
 21
-39.4
  0
LINE
  8
型材断面
  6
DOT
 10
-68.35
 20
-39.575
 11
-68.175
 21
-39.4
  0
ENDBLK
  0
BLOCK
  2
*HAT_0008
 70
    65
 10
0.0
 20
0.0
  0
LINE
  8
型材断面
  6
DOT
 10
57.275
 20
-41.6
 11
56.825
 21
-41.15
  0
LINE
  8
型材断面
  6
DOT
 10
58.3
 20
-41.775
 11
56.825
 21
-40.3
  0
LINE
  8
型材断面
  6
DOT
 10
59.325
 20
-41.95
 11
56.825
 21
-39.45
  0
LINE
  8
型材断面
  6
DOT
 10
59.475
 20
-41.275
 11
57.625
 21
-39.4
  0
LINE
  8
型材断面
  6
DOT
 10
59.475
 20
-40.425
 11
58.475
 21
-39.4
  0
LINE
  8
型材断面
  6
DOT
 10
59.475
 20
-39.575
 11
59.3
 21
-39.4
  0
ENDBLK
  0
BLOCK
  2
*HAT_0009
 70
    65
 10
0.0
 20
0.0
  0
LINE
  8
型材断面
  6
DOT
 10
136.175
 20
14.525
 11
135.725
 21
14.975
  0
LINE
  8
型材断面
  6
DOT
 10
137.2
 20
14.35
 11
135.725
 21
15.825
  0
LINE
  8
型材断面
  6
DOT
 10
138.225
 20
14.175
 11
135.725
 21
16.675
  0
LINE
  8
型材断面
  6
DOT
 10
138.375
 20
14.85
 11
136.525
 21
16.725
  0
LINE
  8
型材断面
  6
DOT
 10
138.375
 20
15.7
 11
137.375
 21
16.725
  0
LINE
  8
型材断面
  6
DOT
 10
138.375
 20
16.55
 11
138.2
 21
16.725
  0
ENDBLK
  0
BLOCK
  2
*HAT_0010
 70
    65
 10
0.0
 20
0.0
  0
LINE
  8
ﾊｯﾁﾝｸﾞ
 10
-60.275
 20
-22.8
 11
-59.825
 21
-22.35
  0
LINE
  8
ﾊｯﾁﾝｸﾞ
 10
-61.2
 20
-22.8
 11
-59.825
 21
-21.425
  0
LINE
  8
ﾊｯﾁﾝｸﾞ
 10
-62.05
 20
-22.7
 11
-59.825
 21
-20.475
  0
LINE
  8
ﾊｯﾁﾝｸﾞ
 10
-62.05
 20
-21.75
 11
-60.25
 21
-19.975
  0
LINE
  8
ﾊｯﾁﾝｸﾞ
 10
-62.05
 20
-20.825
 11
-61.2
 21
-19.975
  0
LINE
  8
ﾊｯﾁﾝｸﾞ
 10
-62.05
 20
-21.925
 11
-61.2
 21
-22.8
  0
LINE
  8
ﾊｯﾁﾝｸﾞ
 10
-62.05
 20
-21.0
 11
-60.25
 21
-22.8
  0
LINE
  8
ﾊｯﾁﾝｸﾞ
 10
-62.05
 20
-20.05
 11
-59.825
 21
-22.275
  0
LINE
  8
ﾊｯﾁﾝｸﾞ
 10
-61.2
 20
-19.975
 11
-59.825
 21
-21.325
  0
LINE
  8
ﾊｯﾁﾝｸﾞ
 10
-60.25
 20
-19.975
 11
-59.825
 21
-20.4
  0
ENDBLK
  0
BLOCK
  2
*HAT_0011
 70
    65
 10
0.0
 20
0.0
  0
LINE
  8
ﾊｯﾁﾝｸﾞ
 10
51.425
 20
-22.8
 11
50.975
 21
-22.35
  0
LINE
  8
ﾊｯﾁﾝｸﾞ
 10
52.35
 20
-22.8
 11
50.975
 21
-21.425
  0
LINE
  8
ﾊｯﾁﾝｸﾞ
 10
53.2
 20
-22.7
 11
50.975
 21
-20.475
  0
LINE
  8
ﾊｯﾁﾝｸﾞ
 10
53.2
 20
-21.75
 11
51.4
 21
-19.975
  0
LINE
  8
ﾊｯﾁﾝｸﾞ
 10
53.2
 20
-20.825
 11
52.35
 21
-19.975
  0
LINE
  8
ﾊｯﾁﾝｸﾞ
 10
53.2
 20
-21.925
 11
52.35
 21
-22.8
  0
LINE
  8
ﾊｯﾁﾝｸﾞ
 10
53.2
 20
-21.0
 11
51.4
 21
-22.8
  0
LINE
  8
ﾊｯﾁﾝｸﾞ
 10
53.2
 20
-20.05
 11
50.975
 21
-22.275
  0
LINE
  8
ﾊｯﾁﾝｸﾞ
 10
52.35
 20
-19.975
 11
50.975
 21
-21.325
  0
LINE
  8
ﾊｯﾁﾝｸﾞ
 10
51.4
 20
-19.975
 11
50.975
 21
-20.4
  0
ENDBLK
  0
BLOCK
  2
*HAT_0012
 70
    65
 10
0.0
 20
0.0
  0
LINE
  8
ﾊｯﾁﾝｸﾞ
 10
6.775
 20
-22.775
 11
7.225
 21
-22.325
  0
LINE
  8
ﾊｯﾁﾝｸﾞ
 10
6.075
 20
-22.775
 11
7.225
 21
-21.625
  0
LINE
  8
ﾊｯﾁﾝｸﾞ
 10
5.375
 20
-22.775
 11
7.225
 21
-20.925
  0
LINE
  8
ﾊｯﾁﾝｸﾞ
 10
4.65
 20
-22.775
 11
7.225
 21
-20.2
  0
LINE
  8
ﾊｯﾁﾝｸﾞ
 10
4.55
 20
-22.175
 11
6.9
 21
-19.825
  0
LINE
  8
ﾊｯﾁﾝｸﾞ
 10
4.55
 20
-21.45
 11
6.175
 21
-19.825
  0
LINE
  8
ﾊｯﾁﾝｸﾞ
 10
4.55
 20
-20.75
 11
5.55
 21
-19.75
  0
LINE
  8
ﾊｯﾁﾝｸﾞ
 10
4.55
 20
-20.05
 11
5.0
 21
-19.6
  0
LINE
  8
ﾊｯﾁﾝｸﾞ
 10
4.55
 20
-22.125
 11
5.2
 21
-22.775
  0
LINE
  8
ﾊｯﾁﾝｸﾞ
 10
4.55
 20
-21.425
 11
5.9
 21
-22.775
  0
LINE
  8
ﾊｯﾁﾝｸﾞ
 10
4.55
 20
-20.7
 11
6.6
 21
-22.775
  0
LINE
  8
ﾊｯﾁﾝｸﾞ
 10
4.55
 20
-20.0
 11
7.225
 21
-22.675
  0
LINE
  8
ﾊｯﾁﾝｸﾞ
 10
4.85
 20
-19.6
 11
7.225
 21
-21.975
  0
LINE
  8
ﾊｯﾁﾝｸﾞ
 10
5.8
 20
-19.825
 11
7.225
 21
-21.25
  0
LINE
  8
ﾊｯﾁﾝｸﾞ
 10
6.5
 20
-19.825
 11
7.225
 21
-20.55
  0
LINE
  8
ﾊｯﾁﾝｸﾞ
 10
7.2
 20
-19.825
 11
7.225
 21
-19.85
  0
ENDBLK
  0
BLOCK
  2
*HAT_0013
 70
    65
 10
0.0
 20
0.0
  0
LINE
  8
ﾊｯﾁﾝｸﾞ
 10
-15.65
 20
-22.775
 11
-16.1
 21
-22.325
  0
LINE
  8
ﾊｯﾁﾝｸﾞ
 10
-14.95
 20
-22.775
 11
-16.1
 21
-21.625
  0
LINE
  8
ﾊｯﾁﾝｸﾞ
 10
-14.25
 20
-22.775
 11
-16.1
 21
-20.925
  0
LINE
  8
ﾊｯﾁﾝｸﾞ
 10
-13.525
 20
-22.775
 11
-16.1
 21
-20.2
  0
LINE
  8
ﾊｯﾁﾝｸﾞ
 10
-13.425
 20
-22.175
 11
-15.775
 21
-19.825
  0
LINE
  8
ﾊｯﾁﾝｸﾞ
 10
-13.425
 20
-21.45
 11
-15.05
 21
-19.825
  0
LINE
  8
ﾊｯﾁﾝｸﾞ
 10
-13.425
 20
-20.75
 11
-14.425
 21
-19.75
  0
LINE
  8
ﾊｯﾁﾝｸﾞ
 10
-13.425
 20
-20.05
 11
-13.875
 21
-19.6
  0
LINE
  8
ﾊｯﾁﾝｸﾞ
 10
-13.425
 20
-22.125
 11
-14.075
 21
-22.775
  0
LINE
  8
ﾊｯﾁﾝｸﾞ
 10
-13.425
 20
-21.425
 11
-14.775
 21
-22.775
  0
LINE
  8
ﾊｯﾁﾝｸﾞ
 10
-13.425
 20
-20.7
 11
-15.475
 21
-22.775
  0
LINE
  8
ﾊｯﾁﾝｸﾞ
 10
-13.425
 20
-20.0
 11
-16.1
 21
-22.675
  0
LINE
  8
ﾊｯﾁﾝｸﾞ
 10
-13.725
 20
-19.6
 11
-16.1
 21
-21.975
  0
LINE
  8
ﾊｯﾁﾝｸﾞ
 10
-14.675
 20
-19.825
 11
-16.1
 21
-21.25
  0
LINE
  8
ﾊｯﾁﾝｸﾞ
 10
-15.375
 20
-19.825
 11
-16.1
 21
-20.55
  0
LINE
  8
ﾊｯﾁﾝｸﾞ
 10
-16.075
 20
-19.825
 11
-16.1
 21
-19.85
  0
ENDBLK
  0
BLOCK
  2
*HAT_0014
 70
    65
 10
0.0
 20
0.0
  0
LINE
  8
ﾊｯﾁﾝｸﾞ
 10
6.775
 20
-82.25
 11
7.225
 21
-81.8
  0
LINE
  8
ﾊｯﾁﾝｸﾞ
 10
6.075
 20
-82.25
 11
7.225
 21
-81.1
  0
LINE
  8
ﾊｯﾁﾝｸﾞ
 10
5.375
 20
-82.25
 11
7.225
 21
-80.4
  0
LINE
  8
ﾊｯﾁﾝｸﾞ
 10
4.65
 20
-82.25
 11
7.225
 21
-79.675
  0
LINE
  8
ﾊｯﾁﾝｸﾞ
 10
4.55
 20
-81.65
 11
6.9
 21
-79.3
  0
LINE
  8
ﾊｯﾁﾝｸﾞ
 10
4.55
 20
-80.925
 11
6.175
 21
-79.3
  0
LINE
  8
ﾊｯﾁﾝｸﾞ
 10
4.55
 20
-80.225
 11
5.55
 21
-79.225
  0
LINE
  8
ﾊｯﾁﾝｸﾞ
 10
4.55
 20
-79.525
 11
5.0
 21
-79.075
  0
LINE
  8
ﾊｯﾁﾝｸﾞ
 10
4.55
 20
-81.6
 11
5.2
 21
-82.25
  0
LINE
  8
ﾊｯﾁﾝｸﾞ
 10
4.55
 20
-80.9
 11
5.9
 21
-82.25
  0
LINE
  8
ﾊｯﾁﾝｸﾞ
 10
4.55
 20
-80.175
 11
6.6
 21
-82.25
  0
LINE
  8
ﾊｯﾁﾝｸﾞ
 10
4.55
 20
-79.475
 11
7.225
 21
-82.15
  0
LINE
  8
ﾊｯﾁﾝｸﾞ
 10
4.85
 20
-79.075
 11
7.225
 21
-81.45
  0
LINE
  8
ﾊｯﾁﾝｸﾞ
 10
5.8
 20
-79.3
 11
7.225
 21
-80.725
  0
LINE
  8
ﾊｯﾁﾝｸﾞ
 10
6.5
 20
-79.3
 11
7.225
 21
-80.025
  0
LINE
  8
ﾊｯﾁﾝｸﾞ
 10
7.2
 20
-79.3
 11
7.225
 21
-79.325
  0
ENDBLK
  0
BLOCK
  2
*HAT_0015
 70
    65
 10
0.0
 20
0.0
  0
LINE
  8
ﾊｯﾁﾝｸﾞ
 10
-15.65
 20
-82.25
 11
-16.1
 21
-81.8
  0
LINE
  8
ﾊｯﾁﾝｸﾞ
 10
-14.95
 20
-82.25
 11
-16.1
 21
-81.1
  0
LINE
  8
ﾊｯﾁﾝｸﾞ
 10
-14.25
 20
-82.25
 11
-16.1
 21
-80.4
  0
LINE
  8
ﾊｯﾁﾝｸﾞ
 10
-13.525
 20
-82.25
 11
-16.1
 21
-79.675
  0
LINE
  8
ﾊｯﾁﾝｸﾞ
 10
-13.425
 20
-81.65
 11
-15.775
 21
-79.3
  0
LINE
  8
ﾊｯﾁﾝｸﾞ
 10
-13.425
 20
-80.925
 11
-15.05
 21
-79.3
  0
LINE
  8
ﾊｯﾁﾝｸﾞ
 10
-13.425
 20
-80.225
 11
-14.425
 21
-79.225
  0
LINE
  8
ﾊｯﾁﾝｸﾞ
 10
-13.425
 20
-79.525
 11
-13.875
 21
-79.075
  0
LINE
  8
ﾊｯﾁﾝｸﾞ
 10
-13.425
 20
-81.6
 11
-14.075
 21
-82.25
  0
LINE
  8
ﾊｯﾁﾝｸﾞ
 10
-13.425
 20
-80.9
 11
-14.775
 21
-82.25
  0
LINE
  8
ﾊｯﾁﾝｸﾞ
 10
-13.425
 20
-80.175
 11
-15.475
 21
-82.25
  0
LINE
  8
ﾊｯﾁﾝｸﾞ
 10
-13.425
 20
-79.475
 11
-16.1
 21
-82.15
  0
LINE
  8
ﾊｯﾁﾝｸﾞ
 10
-13.725
 20
-79.075
 11
-16.1
 21
-81.45
  0
LINE
  8
ﾊｯﾁﾝｸﾞ
 10
-14.675
 20
-79.3
 11
-16.1
 21
-80.725
  0
LINE
  8
ﾊｯﾁﾝｸﾞ
 10
-15.375
 20
-79.3
 11
-16.1
 21
-80.025
  0
LINE
  8
ﾊｯﾁﾝｸﾞ
 10
-16.075
 20
-79.3
 11
-16.1
 21
-79.325
  0
ENDBLK
  0
BLOCK
  2
*HAT_0016
 70
    65
 10
0.0
 20
0.0
  0
LINE
  8
その他部品等
 10
-96.05
 20
-56.75
 11
-95.825
 21
-56.5
  0
LINE
  8
その他部品等
 10
-97.15
 20
-56.9
 11
-95.825
 21
-55.575
  0
LINE
  8
その他部品等
 10
-98.225
 20
-57.05
 11
-95.825
 21
-54.625
  0
LINE
  8
その他部品等
 10
-98.375
 20
-56.225
 11
-95.825
 21
-53.7
  0
LINE
  8
その他部品等
 10
-98.375
 20
-55.275
 11
-95.825
 21
-52.75
  0
LINE
  8
その他部品等
 10
-98.375
 20
-54.35
 11
-96.075
 21
-52.05
  0
LINE
  8
その他部品等
 10
-98.375
 20
-53.4
 11
-97.025
 21
-52.05
  0
LINE
  8
その他部品等
 10
-98.375
 20
-52.45
 11
-97.95
 21
-52.05
  0
LINE
  8
その他部品等
 10
-98.375
 20
-56.75
 11
-98.1
 21
-57.025
  0
LINE
  8
その他部品等
 10
-98.375
 20
-55.8
 11
-97.275
 21
-56.9
  0
LINE
  8
その他部品等
 10
-98.375
 20
-54.875
 11
-96.45
 21
-56.8
  0
LINE
  8
その他部品等
 10
-98.375
 20
-53.925
 11
-95.825
 21
-56.45
  0
LINE
  8
その他部品等
 10
-98.375
 20
-53.0
 11
-95.825
 21
-55.525
  0
LINE
  8
その他部品等
 10
-98.375
 20
-52.05
 11
-95.825
 21
-54.575
  0
LINE
  8
その他部品等
 10
-97.425
 20
-52.05
 11
-95.825
 21
-53.65
  0
LINE
  8
その他部品等
 10
-96.475
 20
-52.05
 11
-95.825
 21
-52.7
  0
ENDBLK
  0
BLOCK
  2
*HAT_0017
 70
    65
 10
0.0
 20
0.0
  0
LINE
  8
その他部品等
 10
87.2
 20
-56.75
 11
86.975
 21
-56.5
  0
LINE
  8
その他部品等
 10
88.3
 20
-56.9
 11
86.975
 21
-55.575
  0
LINE
  8
その他部品等
 10
89.375
 20
-57.05
 11
86.975
 21
-54.625
  0
LINE
  8
その他部品等
 10
89.525
 20
-56.225
 11
86.975
 21
-53.7
  0
LINE
  8
その他部品等
 10
89.525
 20
-55.275
 11
86.975
 21
-52.75
  0
LINE
  8
その他部品等
 10
89.525
 20
-54.35
 11
87.225
 21
-52.05
  0
LINE
  8
その他部品等
 10
89.525
 20
-53.4
 11
88.175
 21
-52.05
  0
LINE
  8
その他部品等
 10
89.525
 20
-52.45
 11
89.1
 21
-52.05
  0
LINE
  8
その他部品等
 10
89.525
 20
-56.75
 11
89.25
 21
-57.025
  0
LINE
  8
その他部品等
 10
89.525
 20
-55.8
 11
88.425
 21
-56.9
  0
LINE
  8
その他部品等
 10
89.525
 20
-54.875
 11
87.6
 21
-56.8
  0
LINE
  8
その他部品等
 10
89.525
 20
-53.925
 11
86.975
 21
-56.45
  0
LINE
  8
その他部品等
 10
89.525
 20
-53.0
 11
86.975
 21
-55.525
  0
LINE
  8
その他部品等
 10
89.525
 20
-52.05
 11
86.975
 21
-54.575
  0
LINE
  8
その他部品等
 10
88.575
 20
-52.05
 11
86.975
 21
-53.65
  0
LINE
  8
その他部品等
 10
87.625
 20
-52.05
 11
86.975
 21
-52.7
  0
ENDBLK
  0
BLOCK
  2
*HAT_0018
 70
    65
 10
0.0
 20
0.0
  0
LINE
  8
その他部品等
 10
116.775
 20
-81.6
 11
116.175
 21
-81.0
  0
LINE
  8
その他部品等
 10
117.7
 20
-81.6
 11
116.175
 21
-80.075
  0
LINE
  8
その他部品等
 10
118.65
 20
-81.6
 11
116.175
 21
-79.125
  0
LINE
  8
その他部品等
 10
119.575
 20
-81.6
 11
116.925
 21
-78.925
  0
LINE
  8
その他部品等
 10
120.525
 20
-81.6
 11
117.85
 21
-78.925
  0
LINE
  8
その他部品等
 10
121.475
 20
-81.6
 11
118.8
 21
-78.925
  0
LINE
  8
その他部品等
 10
122.325
 20
-81.5
 11
119.725
 21
-78.925
  0
LINE
  8
その他部品等
 10
122.325
 20
-80.55
 11
120.675
 21
-78.925
  0
LINE
  8
その他部品等
 10
122.325
 20
-79.6
 11
121.625
 21
-78.925
  0
LINE
  8
その他部品等
 10
122.325
 20
-81.375
 11
122.1
 21
-81.6
  0
LINE
  8
その他部品等
 10
122.325
 20
-80.425
 11
121.15
 21
-81.6
  0
LINE
  8
その他部品等
 10
122.325
 20
-79.5
 11
120.225
 21
-81.6
  0
LINE
  8
その他部品等
 10
121.95
 20
-78.925
 11
119.275
 21
-81.6
  0
LINE
  8
その他部品等
 10
121.0
 20
-78.925
 11
118.325
 21
-81.6
  0
LINE
  8
その他部品等
 10
120.075
 20
-78.925
 11
117.4
 21
-81.6
  0
LINE
  8
その他部品等
 10
119.125
 20
-78.925
 11
116.45
 21
-81.6
  0
LINE
  8
その他部品等
 10
118.175
 20
-78.925
 11
116.175
 21
-80.925
  0
LINE
  8
その他部品等
 10
117.225
 20
-78.925
 11
116.175
 21
-79.975
  0
LINE
  8
その他部品等
 10
116.3
 20
-78.925
 11
116.175
 21
-79.05
  0
ENDBLK
  0
BLOCK
  2
*HAT_0019
 70
    65
 10
0.0
 20
0.0
  0
LINE
  8
その他部品等
 10
-125.65
 20
-81.6
 11
-125.05
 21
-81.0
  0
LINE
  8
その他部品等
 10
-126.575
 20
-81.6
 11
-125.05
 21
-80.075
  0
LINE
  8
その他部品等
 10
-127.525
 20
-81.6
 11
-125.05
 21
-79.125
  0
LINE
  8
その他部品等
 10
-128.45
 20
-81.6
 11
-125.8
 21
-78.925
  0
LINE
  8
その他部品等
 10
-129.4
 20
-81.6
 11
-126.725
 21
-78.925
  0
LINE
  8
その他部品等
 10
-130.35
 20
-81.6
 11
-127.675
 21
-78.925
  0
LINE
  8
その他部品等
 10
-131.2
 20
-81.5
 11
-128.6
 21
-78.925
  0
LINE
  8
その他部品等
 10
-131.2
 20
-80.55
 11
-129.55
 21
-78.925
  0
LINE
  8
その他部品等
 10
-131.2
 20
-79.6
 11
-130.5
 21
-78.925
  0
LINE
  8
その他部品等
 10
-131.2
 20
-81.375
 11
-130.975
 21
-81.6
  0
LINE
  8
その他部品等
 10
-131.2
 20
-80.425
 11
-130.025
 21
-81.6
  0
LINE
  8
その他部品等
 10
-131.2
 20
-79.5
 11
-129.1
 21
-81.6
  0
LINE
  8
その他部品等
 10
-130.825
 20
-78.925
 11
-128.15
 21
-81.6
  0
LINE
  8
その他部品等
 10
-129.875
 20
-78.925
 11
-127.2
 21
-81.6
  0
LINE
  8
その他部品等
 10
-128.95
 20
-78.925
 11
-126.275
 21
-81.6
  0
LINE
  8
その他部品等
 10
-128.0
 20
-78.925
 11
-125.325
 21
-81.6
  0
LINE
  8
その他部品等
 10
-127.05
 20
-78.925
 11
-125.05
 21
-80.925
  0
LINE
  8
その他部品等
 10
-126.1
 20
-78.925
 11
-125.05
 21
-79.975
  0
LINE
  8
その他部品等
 10
-125.175
 20
-78.925
 11
-125.05
 21
-79.05
  0
ENDBLK
  0
BLOCK
  2
*GRP_0001
 70
    65
 10
0.0
 20
0.0
  0
LINE
  8
型材断面
  6
CONTINUOUS
 10
195.0
 20
133.5
 11
195.0
 21
-133.5
  0
LINE
  8
型材断面
  6
CONTINUOUS
 10
195.0
 20
-133.5
 11
-185.0
 21
-133.5
  0
LINE
  8
型材断面
  6
CONTINUOUS
 10
-185.0
 20
-133.5
 11
-185.0
 21
133.5
  0
LINE
  8
型材断面
  6
CONTINUOUS
 10
195.0
 20
133.5
 11
-185.0
 21
133.5
  0
LINE
  8
型材断面
  6
CONTINUOUS
 10
145.0
 20
-133.5
 11
145.0
 21
-118.5
  0
LINE
  8
型材断面
  6
CONTINUOUS
 10
195.0
 20
-118.5
 11
145.0
 21
-118.5
  0
ENDBLK
  0
BLOCK
  2
*GRP_0002
 70
    65
 10
0.0
 20
0.0
  0
LINE
  8
曲げ物
  6
CONTINUOUS
 10
120.48658
 20
-75.244135
 11
120.48653
 21
-95.244135
  0
LINE
  8
曲げ物
  6
DOT
 10
120.153255
 20
-75.244135
 11
120.153205
 21
-95.244135
  0
LINE
  8
曲げ物
  6
CONTINUOUS
 10
117.15324
 20
-75.244135
 11
117.153215
 21
-95.244135
  0
LINE
  8
曲げ物
  6
DOT
 10
117.48659
 20
-75.244135
 11
117.48654
 21
-95.244135
  0
LINE
  8
曲げ物
  6
CONTINUOUS
 10
120.48653
 20
-95.244135
 11
117.153215
 21
-95.244135
  0
LINE
  8
曲げ物
  6
CONTINUOUS
 10
120.48658
 20
-75.244135
 11
117.15324
 21
-75.244135
  0
ENDBLK
  0
BLOCK
  2
*GRP_0003
 70
    65
 10
0.0
 20
0.0
  0
LINE
  8
曲げ物
  6
CONTINUOUS
 10
-126.01768
 20
-75.244135
 11
-126.01773
 21
-95.244135
  0
LINE
  8
曲げ物
  6
DOT
 10
-126.351005
 20
-75.244135
 11
-126.351055
 21
-95.244135
  0
LINE
  8
曲げ物
  6
CONTINUOUS
 10
-129.35102
 20
-75.244135
 11
-129.351045
 21
-95.244135
  0
LINE
  8
曲げ物
  6
DOT
 10
-129.01767
 20
-75.244135
 11
-129.01772
 21
-95.244135
  0
LINE
  8
曲げ物
  6
CONTINUOUS
 10
-126.01773
 20
-95.244135
 11
-129.351045
 21
-95.244135
  0
LINE
  8
曲げ物
  6
CONTINUOUS
 10
-126.01768
 20
-75.244135
 11
-129.35102
 21
-75.244135
  0
ENDBLK
  0
BLOCK
  2
*GRP_0004
 70
    65
 10
0.0
 20
0.0
  0
LINE
  8
型材断面
  6
CONTINUOUS
 62
    47
 10
-131.68421
 20
-61.577467
 11
-131.68425
 21
-81.577467
  0
LINE
  8
型材断面
  6
CONTINUOUS
 10
-131.150885
 20
-78.4108
 11
-130.484217
 21
-78.4108
  0
LINE
  8
型材断面
  6
CONTINUOUS
 10
-129.984217
 20
-77.577467
 11
-130.484217
 21
-77.577467
  0
LINE
  8
型材断面
  6
CONTINUOUS
 10
-130.484217
 20
-78.4108
 11
-130.484217
 21
-77.577467
  0
LINE
  8
型材断面
  6
CONTINUOUS
 10
-129.984217
 20
-78.577467
 11
-129.984217
 21
-77.577467
  0
LINE
  8
型材断面
  6
CONTINUOUS
 10
-131.150885
 20
-78.9108
 11
-130.31755
 21
-78.9108
  0
ARC
  8
型材断面
  6
CONTINUOUS
 10
-130.317554
 20
-78.577468
 40
0.333333
 50
-90.0
 51
0.0
  0
LINE
  8
型材断面
  6
CONTINUOUS
 62
    47
 10
-131.68425
 20
-81.577467
 11
-131.150918
 21
-81.577467
  0
LINE
  8
型材断面
  6
CONTINUOUS
 10
-131.15088
 20
-62.043152
 11
-131.15091
 21
-78.4108
  0
LINE
  8
型材断面
  6
CONTINUOUS
 10
-131.150912
 20
-78.9108
 11
-131.150918
 21
-81.577467
  0
LINE
  8
型材断面
  6
CONTINUOUS
 10
-126.889207
 20
-61.46193
 11
-126.7973
 21
-62.12364
  0
LINE
  8
型材断面
  6
CONTINUOUS
 10
-126.7973
 20
-62.12364
 11
-125.542192
 21
-61.952875
  0
LINE
  8
型材断面
  6
CONTINUOUS
 10
-125.542192
 20
-61.952875
 11
-125.473405
 21
-62.448125
  0
LINE
  8
型材断面
  6
CONTINUOUS
 10
-125.473405
 20
-62.448125
 11
-127.223953
 21
-62.686295
  0
LINE
  8
型材断面
  6
CONTINUOUS
 10
-127.384455
 20
-61.530715
 11
-127.223953
 21
-62.686295
  0
LINE
  8
型材断面
  6
CONTINUOUS
 10
-107.39555
 20
-58.80973
 11
-107.30733
 21
-59.47194
  0
LINE
  8
型材断面
  6
CONTINUOUS
 10
-107.30733
 20
-59.47194
 11
-108.56244
 21
-59.642705
  0
LINE
  8
型材断面
  6
CONTINUOUS
 10
-108.56244
 20
-59.642705
 11
-108.496413
 21
-60.13833
  0
LINE
  8
型材断面
  6
CONTINUOUS
 10
-108.496413
 20
-60.13833
 11
-106.745865
 21
-59.90016
  0
LINE
  8
型材断面
  6
CONTINUOUS
 10
-106.899928
 20
-58.743705
 11
-106.745865
 21
-59.90016
  0
LINE
  8
型材断面
  6
CONTINUOUS
 10
-95.23627
 20
-57.82962
 11
-95.167483
 21
-58.324867
  0
LINE
  8
型材断面
  6
CONTINUOUS
 10
-93.350878
 20
-58.07771
 11
-95.167483
 21
-58.324867
  0
LINE
  8
型材断面
  6
CONTINUOUS
 10
-95.23627
 20
-57.82962
 11
-93.850878
 21
-57.64113
  0
LINE
  8
型材断面
  6
CONTINUOUS
 10
-93.850878
 20
-57.64113
 11
-93.850878
 21
-56.968322
  0
LINE
  8
型材断面
  6
CONTINUOUS
 10
-131.15088
 20
-62.043152
 11
-127.384455
 21
-61.530715
  0
LINE
  8
型材断面
  6
CONTINUOUS
 10
-126.889015
 20
-61.463307
 11
-107.395365
 21
-58.81111
  0
LINE
  8
型材断面
  6
CONTINUOUS
 10
-106.899928
 20
-58.743705
 11
-93.850878
 21
-56.968322
  0
LINE
  8
型材断面
  6
CONTINUOUS
 10
-93.88421
 20
-52.53461
 11
-93.350878
 21
-52.53461
  0
LINE
  8
型材断面
  6
CONTINUOUS
 62
    47
 10
-93.350878
 20
-58.04407
 11
-93.350878
 21
-52.53461
  0
LINE
  8
型材断面
  6
CONTINUOUS
 10
-93.88421
 20
-52.53461
 11
-93.88421
 21
-56.43461
  0
LINE
  8
型材断面
  6
CONTINUOUS
 10
-131.68421
 20
-61.577467
 11
-93.88421
 21
-56.43461
  0
ENDBLK
  0
BLOCK
  2
*GRP_0005
 70
    65
 10
0.0
 20
0.0
  0
LINE
  8
型材断面
  6
CONTINUOUS
 62
    47
 10
122.81975
 20
-61.577467
 11
122.81979
 21
-81.577467
  0
LINE
  8
型材断面
  6
CONTINUOUS
 10
122.286425
 20
-78.4108
 11
121.619758
 21
-78.4108
  0
LINE
  8
型材断面
  6
CONTINUOUS
 10
121.119758
 20
-77.577467
 11
121.619758
 21
-77.577467
  0
LINE
  8
型材断面
  6
CONTINUOUS
 10
121.619758
 20
-78.4108
 11
121.619758
 21
-77.577467
  0
LINE
  8
型材断面
  6
CONTINUOUS
 10
121.119758
 20
-78.577467
 11
121.119758
 21
-77.577467
  0
LINE
  8
型材断面
  6
CONTINUOUS
 10
122.286425
 20
-78.9108
 11
121.45309
 21
-78.9108
  0
ARC
  8
型材断面
  6
CONTINUOUS
 10
121.453094
 20
-78.577468
 40
0.333333
 50
180.0
 51
270.0
  0
LINE
  8
型材断面
  6
CONTINUOUS
 62
    47
 10
122.81979
 20
-81.577467
 11
122.286457
 21
-81.577467
  0
LINE
  8
型材断面
  6
CONTINUOUS
 10
122.28642
 20
-62.043152
 11
122.28645
 21
-78.4108
  0
LINE
  8
型材断面
  6
CONTINUOUS
 10
122.286453
 20
-78.9108
 11
122.286457
 21
-81.577467
  0
LINE
  8
型材断面
  6
CONTINUOUS
 10
118.024748
 20
-61.46193
 11
117.93284
 21
-62.12364
  0
LINE
  8
型材断面
  6
CONTINUOUS
 10
117.93284
 20
-62.12364
 11
116.677732
 21
-61.952875
  0
LINE
  8
型材断面
  6
CONTINUOUS
 10
116.677732
 20
-61.952875
 11
116.608945
 21
-62.448125
  0
LINE
  8
型材断面
  6
CONTINUOUS
 10
116.608945
 20
-62.448125
 11
118.359492
 21
-62.686295
  0
LINE
  8
型材断面
  6
CONTINUOUS
 10
118.519995
 20
-61.530715
 11
118.359492
 21
-62.686295
  0
LINE
  8
型材断面
  6
CONTINUOUS
 10
98.53109
 20
-58.80973
 11
98.44287
 21
-59.47194
  0
LINE
  8
型材断面
  6
CONTINUOUS
 10
98.44287
 20
-59.47194
 11
99.69798
 21
-59.642705
  0
LINE
  8
型材断面
  6
CONTINUOUS
 10
99.69798
 20
-59.642705
 11
99.631953
 21
-60.13833
  0
LINE
  8
型材断面
  6
CONTINUOUS
 10
99.631953
 20
-60.13833
 11
97.881405
 21
-59.90016
  0
LINE
  8
型材断面
  6
CONTINUOUS
 10
98.035468
 20
-58.743705
 11
97.881405
 21
-59.90016
  0
LINE
  8
型材断面
  6
CONTINUOUS
 10
86.37181
 20
-57.82962
 11
86.303023
 21
-58.324867
  0
LINE
  8
型材断面
  6
CONTINUOUS
 10
84.486418
 20
-58.07771
 11
86.303023
 21
-58.324867
  0
LINE
  8
型材断面
  6
CONTINUOUS
 10
86.37181
 20
-57.82962
 11
84.986418
 21
-57.64113
  0
LINE
  8
型材断面
  6
CONTINUOUS
 10
84.986418
 20
-57.64113
 11
84.986418
 21
-56.968322
  0
LINE
  8
型材断面
  6
CONTINUOUS
 10
122.28642
 20
-62.043152
 11
118.519995
 21
-61.530715
  0
LINE
  8
型材断面
  6
CONTINUOUS
 10
118.024555
 20
-61.463307
 11
98.530905
 21
-58.81111
  0
LINE
  8
型材断面
  6
CONTINUOUS
 10
98.035468
 20
-58.743705
 11
84.986418
 21
-56.968322
  0
LINE
  8
型材断面
  6
CONTINUOUS
 10
85.01975
 20
-52.53461
 11
84.486418
 21
-52.53461
  0
LINE
  8
型材断面
  6
CONTINUOUS
 62
    47
 10
84.486418
 20
-58.04407
 11
84.486418
 21
-52.53461
  0
LINE
  8
型材断面
  6
CONTINUOUS
 10
85.01975
 20
-52.53461
 11
85.01975
 21
-56.43461
  0
LINE
  8
型材断面
  6
CONTINUOUS
 10
122.81975
 20
-61.577467
 11
85.01975
 21
-56.43461
  0
ENDBLK
  0
BLOCK
  2
*GRP_0006
 70
    65
 10
0.0
 20
0.0
  0
LINE
  8
型材断面
  6
CONTINUOUS
 62
    47
 10
-59.017502
 20
-51.375688
 11
-59.017502
 21
-41.051822
  0
LINE
  8
型材断面
  6
CONTINUOUS
 62
    47
 10
-97.684238
 20
-47.605518
 11
-59.017502
 21
-41.051822
  0
LINE
  8
型材断面
  6
CONTINUOUS
 62
    47
 10
-97.684238
 20
-47.605518
 11
-97.684238
 21
-51.375688
  0
LINE
  8
型材断面
  6
CONTINUOUS
 62
    47
 10
-93.350865
 20
-52.042313
 11
-98.350782
 21
-52.042313
  0
LINE
  8
型材断面
  6
CONTINUOUS
 62
    47
 10
-64.884133
 20
-51.375688
 11
-59.017502
 21
-51.375688
  0
LINE
  8
型材断面
  6
CONTINUOUS
 62
    47
 10
-64.884133
 20
-52.042313
 11
-58.350845
 21
-52.042313
  0
LINE
  8
型材断面
  6
CONTINUOUS
 62
    47
 10
-65.017522
 20
-51.908983
 11
-65.017522
 21
-51.50896
  0
LINE
  8
型材断面
  6
CONTINUOUS
 62
    47
 10
-90.1508
 20
-51.375688
 11
-97.684238
 21
-51.375688
  0
LINE
  8
型材断面
  6
CONTINUOUS
 62
    47
 10
-90.1508
 20
-52.042313
 11
-92.68415
 21
-52.042313
  0
LINE
  8
型材断面
  6
CONTINUOUS
 62
    47
 10
-90.017527
 20
-51.908983
 11
-90.017527
 21
-51.50896
  0
LINE
  8
型材断面
  6
CONTINUOUS
 62
    47
 10
-98.350782
 20
-52.042313
 11
-98.350782
 21
-47.042335
  0
LINE
  8
型材断面
  6
CONTINUOUS
 62
    47
 10
-98.350782
 20
-47.042335
 11
-69.017468
 21
-42.07053
  0
LINE
  8
型材断面
  6
CONTINUOUS
 62
    47
 10
-68.35086
 20
-41.95753
 11
-59.017502
 21
-40.375655
  0
LINE
  8
型材断面
  6
CONTINUOUS
 62
    47
 10
-68.35086
 20
-39.375677
 11
-66.850925
 21
-39.375677
  0
LINE
  8
型材断面
  6
CONTINUOUS
 62
    47
 10
-66.850925
 20
-37.709008
 11
-67.25086
 21
-37.709008
  0
LINE
  8
型材断面
  6
CONTINUOUS
 62
    47
 10
-67.25086
 20
-37.709008
 11
-67.25086
 21
-38.708997
  0
LINE
  8
型材断面
  6
CONTINUOUS
 62
    47
 10
-67.25086
 20
-38.708997
 11
-68.35086
 21
-38.708997
  0
LINE
  8
型材断面
  6
CONTINUOUS
 62
    47
 10
-68.35086
 20
-39.375677
 11
-68.35086
 21
-41.95753
  0
LINE
  8
型材断面
  6
CONTINUOUS
 62
    47
 10
-66.850925
 20
-37.709008
 11
-66.850925
 21
-39.375677
  0
ARC
  8
型材断面
  6
CONTINUOUS
 62
    47
 10
-64.884133
 20
-51.50896
 40
0.133333
 50
90.001373
 51
180.002747
  0
ARC
  8
型材断面
  6
CONTINUOUS
 62
    47
 10
-64.884133
 20
-51.908983
 40
0.133333
 50
180.002747
 51
270.00412
  0
ARC
  8
型材断面
  6
CONTINUOUS
 62
    47
 10
-90.1508
 20
-51.50896
 40
0.133333
 50
0.0
 51
90.001373
  0
ARC
  8
型材断面
  6
CONTINUOUS
 62
    47
 10
-90.1508
 20
-51.908983
 40
0.133333
 50
270.00412
 51
360.0
  0
LINE
  8
型材断面
  6
CONTINUOUS
 62
    47
 10
-67.25086
 20
-24.709083
 11
-66.850925
 21
-24.709083
  0
LINE
  8
型材断面
  6
CONTINUOUS
 62
    47
 10
-67.25086
 20
-25.375763
 11
-68.35086
 21
-25.375763
  0
LINE
  8
型材断面
  6
CONTINUOUS
 62
    47
 10
-66.850925
 20
-24.709083
 11
-69.017468
 21
-24.709083
  0
LINE
  8
型材断面
  6
CONTINUOUS
 62
    47
 10
-69.017468
 20
-25.375635
 11
-69.017468
 21
-24.709083
  0
LINE
  8
型材断面
  6
CONTINUOUS
 62
    47
 10
-68.35086
 20
-25.375635
 11
-67.25086
 21
-25.375635
  0
LINE
  8
型材断面
  6
CONTINUOUS
 62
    47
 10
-68.35086
 20
-32.375675
 11
-60.6842
 21
-32.375675
  0
LINE
  8
型材断面
  6
CONTINUOUS
 62
    47
 10
-60.6842
 20
-32.375675
 11
-60.6842
 21
-31.042357
  0
LINE
  8
型材断面
  6
CONTINUOUS
 62
    47
 10
-60.6842
 20
-31.042357
 11
-61.084135
 21
-31.042357
  0
LINE
  8
型材断面
  6
CONTINUOUS
 62
    47
 10
-61.084135
 20
-31.708978
 11
-61.084135
 21
-31.042357
  0
LINE
  8
型材断面
  6
CONTINUOUS
 62
    47
 10
-66.017635
 20
-30.442378
 11
-64.684265
 21
-30.442378
  0
LINE
  8
型材断面
  6
CONTINUOUS
 62
    47
 10
-64.684265
 20
-30.442378
 11
-64.684265
 21
-31.709047
  0
LINE
  8
型材断面
  6
CONTINUOUS
 62
    47
 10
-65.184227
 20
-31.709047
 11
-65.184227
 21
-30.942378
  0
LINE
  8
型材断面
  6
CONTINUOUS
 62
    47
 10
-65.184227
 20
-30.942378
 11
-66.017635
 21
-30.942378
  0
LINE
  8
型材断面
  6
CONTINUOUS
 62
    47
 10
-66.017635
 20
-30.942378
 11
-66.017635
 21
-30.442378
  0
LINE
  8
型材断面
  6
CONTINUOUS
 62
    47
 10
-61.084135
 20
-31.708978
 11
-64.684265
 21
-31.708978
  0
LINE
  8
型材断面
  6
CONTINUOUS
 62
    47
 10
-65.184227
 20
-31.709047
 11
-68.35086
 21
-31.709047
  0
LINE
  8
型材断面
  6
CONTINUOUS
 62
    47
 10
-68.35086
 20
-38.708997
 11
-68.35086
 21
-32.375675
  0
LINE
  8
型材断面
  6
CONTINUOUS
 62
    47
 10
-68.35086
 20
-25.375635
 11
-68.35086
 21
-31.709047
  0
LINE
  8
型材断面
  6
CONTINUOUS
 10
-66.850925
 20
-26.375748
 11
-67.25086
 21
-26.375748
  0
LINE
  8
型材断面
  6
CONTINUOUS
 62
    47
 10
-67.25086
 20
-25.375763
 11
-67.25086
 21
-26.375748
  0
LINE
  8
型材断面
  6
CONTINUOUS
 62
    47
 10
-69.884167
 20
-27.47567
 11
-69.017468
 21
-27.47567
  0
LINE
  8
型材断面
  6
CONTINUOUS
 62
    47
 10
-69.884167
 20
-27.875648
 11
-69.017468
 21
-27.875648
  0
LINE
  8
型材断面
  6
CONTINUOUS
 62
    47
 10
-70.01744
 20
-27.742315
 11
-70.01744
 21
-27.608985
  0
ARC
  8
型材断面
  6
CONTINUOUS
 62
    47
 10
-69.884168
 20
-27.608985
 40
0.133333
 50
90.001373
 51
180.002747
  0
ARC
  8
型材断面
  6
CONTINUOUS
 62
    47
 10
-69.884168
 20
-27.742316
 40
0.133333
 50
180.002747
 51
270.00412
  0
LINE
  8
型材断面
  6
CONTINUOUS
 62
    47
 10
-78.88363
 20
-27.875648
 11
-80.416938
 21
-27.875648
  0
LINE
  8
型材断面
  6
CONTINUOUS
 62
    47
 10
-78.88363
 20
-27.47567
 11
-79.750353
 21
-27.47567
  0
LINE
  8
型材断面
  6
CONTINUOUS
 62
    47
 10
-78.750357
 20
-27.608985
 11
-78.750357
 21
-27.742315
  0
ARC
  8
型材断面
  6
CONTINUOUS
 62
    47
 10
-78.88363
 20
-27.742316
 40
0.133333
 50
270.00412
 51
360.0
  0
ARC
  8
型材断面
  6
CONTINUOUS
 62
    47
 10
-78.88363
 20
-27.608985
 40
0.133333
 50
0.0
 51
90.001373
  0
LINE
  8
型材断面
  6
CONTINUOUS
 62
    47
 10
-69.017468
 20
-42.07053
 11
-69.017468
 21
-27.875648
  0
LINE
  8
型材断面
  6
CONTINUOUS
 10
-69.017468
 20
-26.375635
 11
-79.750353
 21
-26.375635
  0
LINE
  8
型材断面
  6
CONTINUOUS
 62
    47
 10
-79.750353
 20
-27.47567
 11
-79.750353
 21
-26.375635
  0
LINE
  8
型材断面
  6
CONTINUOUS
 62
    47
 10
-69.017468
 20
-27.47567
 11
-69.017468
 21
-26.375635
  0
LINE
  8
型材断面
  6
CONTINUOUS
 10
-75.017003
 20
-25.475635
 11
-74.917003
 21
-25.375635
  0
LINE
  8
型材断面
  6
CONTINUOUS
 62
    47
 10
-69.017468
 20
-25.375635
 11
-74.917003
 21
-25.375635
  0
LINE
  8
型材断面
  6
CONTINUOUS
 10
-75.017003
 20
-25.475635
 11
-75.117003
 21
-25.375635
  0
LINE
  8
型材断面
  6
CONTINUOUS
 62
    47
 10
-75.117003
 20
-25.375635
 11
-80.416938
 21
-25.375635
  0
LINE
  8
型材断面
  6
CONTINUOUS
 10
-80.416938
 20
-27.875648
 11
-80.416938
 21
-25.375635
  0
LINE
  8
型材断面
  6
CONTINUOUS
 62
    47
 10
-92.68415
 20
-52.042313
 11
-92.68415
 21
-57.042313
  0
LINE
  8
型材断面
  6
CONTINUOUS
 10
-93.350878
 20
-57.042313
 11
-92.68415
 21
-57.042313
  0
LINE
  8
型材断面
  6
CONTINUOUS
 10
-93.250878
 20
-54.542313
 11
-93.350878
 21
-54.442313
  0
LINE
  8
型材断面
  6
CONTINUOUS
 10
-93.250878
 20
-54.542313
 11
-93.350878
 21
-54.642313
  0
LINE
  8
型材断面
  6
CONTINUOUS
 62
    47
 10
-93.350865
 20
-52.042313
 11
-93.350865
 21
-54.442325
  0
LINE
  8
型材断面
  6
CONTINUOUS
 62
    47
 10
-93.350865
 20
-54.6423
 11
-93.350865
 21
-57.042313
  0
LINE
  8
型材断面
  6
CONTINUOUS
 10
-59.017502
 20
-37.375655
 11
-58.350845
 21
-37.375655
  0
LINE
  8
型材断面
  6
CONTINUOUS
 62
    47
 10
-59.017502
 20
-40.375655
 11
-59.017502
 21
-37.375655
  0
LINE
  8
型材断面
  6
CONTINUOUS
 62
    47
 10
-58.350845
 20
-52.042313
 11
-58.350845
 21
-37.375655
  0
LINE
  8
型材断面
  6
CONTINUOUS
 10
-66.850925
 20
-24.709083
 11
-66.850925
 21
-26.375748
  0
CIRCLE
  8
LAYER010
  6
CONTINUOUS
 62
     7
 10
-98.350782
 20
-47.042335
 40
0.11111
  0
ENDBLK
  0
BLOCK
  2
*GRP_0007
 70
    65
 10
0.0
 20
0.0
  0
LINE
  8
型材断面
  6
CONTINUOUS
 62
    47
 10
50.153043
 20
-51.375688
 11
50.153043
 21
-41.051822
  0
LINE
  8
型材断面
  6
CONTINUOUS
 62
    47
 10
88.819778
 20
-47.605518
 11
50.153043
 21
-41.051822
  0
LINE
  8
型材断面
  6
CONTINUOUS
 62
    47
 10
88.819778
 20
-47.605518
 11
88.819778
 21
-51.375688
  0
LINE
  8
型材断面
  6
CONTINUOUS
 62
    47
 10
84.486405
 20
-52.042313
 11
89.486322
 21
-52.042313
  0
LINE
  8
型材断面
  6
CONTINUOUS
 62
    47
 10
56.019672
 20
-51.375688
 11
50.153043
 21
-51.375688
  0
LINE
  8
型材断面
  6
CONTINUOUS
 62
    47
 10
56.019672
 20
-52.042313
 11
49.486385
 21
-52.042313
  0
LINE
  8
型材断面
  6
CONTINUOUS
 62
    47
 10
56.153062
 20
-51.908983
 11
56.153062
 21
-51.50896
  0
LINE
  8
型材断面
  6
CONTINUOUS
 62
    47
 10
81.28634
 20
-51.375688
 11
88.819778
 21
-51.375688
  0
LINE
  8
型材断面
  6
CONTINUOUS
 62
    47
 10
81.28634
 20
-52.042313
 11
83.81969
 21
-52.042313
  0
LINE
  8
型材断面
  6
CONTINUOUS
 62
    47
 10
81.153067
 20
-51.908983
 11
81.153067
 21
-51.50896
  0
LINE
  8
型材断面
  6
CONTINUOUS
 62
    47
 10
89.486322
 20
-52.042313
 11
89.486322
 21
-47.042335
  0
LINE
  8
型材断面
  6
CONTINUOUS
 62
    47
 10
89.486322
 20
-47.042335
 11
60.153008
 21
-42.07053
  0
LINE
  8
型材断面
  6
CONTINUOUS
 62
    47
 10
59.4864
 20
-41.95753
 11
50.153043
 21
-40.375655
  0
LINE
  8
型材断面
  6
CONTINUOUS
 62
    47
 10
59.4864
 20
-39.375677
 11
57.986465
 21
-39.375677
  0
LINE
  8
型材断面
  6
CONTINUOUS
 62
    47
 10
57.986465
 20
-37.709008
 11
58.3864
 21
-37.709008
  0
LINE
  8
型材断面
  6
CONTINUOUS
 62
    47
 10
58.3864
 20
-37.709008
 11
58.3864
 21
-38.708997
  0
LINE
  8
型材断面
  6
CONTINUOUS
 62
    47
 10
58.3864
 20
-38.708997
 11
59.4864
 21
-38.708997
  0
LINE
  8
型材断面
  6
CONTINUOUS
 62
    47
 10
59.4864
 20
-39.375677
 11
59.4864
 21
-41.95753
  0
LINE
  8
型材断面
  6
CONTINUOUS
 62
    47
 10
57.986465
 20
-37.709008
 11
57.986465
 21
-39.375677
  0
ARC
  8
型材断面
  6
CONTINUOUS
 62
    47
 10
56.019673
 20
-51.50896
 40
0.133333
 50
359.997253
 51
449.998627
  0
ARC
  8
型材断面
  6
CONTINUOUS
 62
    47
 10
56.019673
 20
-51.908983
 40
0.133333
 50
269.99588
 51
359.997253
  0
ARC
  8
型材断面
  6
CONTINUOUS
 62
    47
 10
81.28634
 20
-51.50896
 40
0.133333
 50
89.998627
 51
180.0
  0
ARC
  8
型材断面
  6
CONTINUOUS
 62
    47
 10
81.28634
 20
-51.908983
 40
0.133333
 50
180.0
 51
269.99588
  0
LINE
  8
型材断面
  6
CONTINUOUS
 62
    47
 10
58.3864
 20
-24.709083
 11
57.986465
 21
-24.709083
  0
LINE
  8
型材断面
  6
CONTINUOUS
 62
    47
 10
58.3864
 20
-25.375763
 11
59.4864
 21
-25.375763
  0
LINE
  8
型材断面
  6
CONTINUOUS
 62
    47
 10
57.986465
 20
-24.709083
 11
60.153008
 21
-24.709083
  0
LINE
  8
型材断面
  6
CONTINUOUS
 62
    47
 10
60.153008
 20
-25.375635
 11
60.153008
 21
-24.709083
  0
LINE
  8
型材断面
  6
CONTINUOUS
 62
    47
 10
59.4864
 20
-25.375635
 11
58.3864
 21
-25.375635
  0
LINE
  8
型材断面
  6
CONTINUOUS
 62
    47
 10
59.4864
 20
-32.375675
 11
51.81974
 21
-32.375675
  0
LINE
  8
型材断面
  6
CONTINUOUS
 62
    47
 10
51.81974
 20
-32.375675
 11
51.81974
 21
-31.042357
  0
LINE
  8
型材断面
  6
CONTINUOUS
 62
    47
 10
51.81974
 20
-31.042357
 11
52.219675
 21
-31.042357
  0
LINE
  8
型材断面
  6
CONTINUOUS
 62
    47
 10
52.219675
 20
-31.708978
 11
52.219675
 21
-31.042357
  0
LINE
  8
型材断面
  6
CONTINUOUS
 62
    47
 10
57.153175
 20
-30.442378
 11
55.819805
 21
-30.442378
  0
LINE
  8
型材断面
  6
CONTINUOUS
 62
    47
 10
55.819805
 20
-30.442378
 11
55.819805
 21
-31.709047
  0
LINE
  8
型材断面
  6
CONTINUOUS
 62
    47
 10
56.319767
 20
-31.709047
 11
56.319767
 21
-30.942378
  0
LINE
  8
型材断面
  6
CONTINUOUS
 62
    47
 10
56.319767
 20
-30.942378
 11
57.153175
 21
-30.942378
  0
LINE
  8
型材断面
  6
CONTINUOUS
 62
    47
 10
57.153175
 20
-30.942378
 11
57.153175
 21
-30.442378
  0
LINE
  8
型材断面
  6
CONTINUOUS
 62
    47
 10
52.219675
 20
-31.708978
 11
55.819805
 21
-31.708978
  0
LINE
  8
型材断面
  6
CONTINUOUS
 62
    47
 10
56.319767
 20
-31.709047
 11
59.4864
 21
-31.709047
  0
LINE
  8
型材断面
  6
CONTINUOUS
 62
    47
 10
59.4864
 20
-38.708997
 11
59.4864
 21
-32.375675
  0
LINE
  8
型材断面
  6
CONTINUOUS
 62
    47
 10
59.4864
 20
-25.375635
 11
59.4864
 21
-31.709047
  0
LINE
  8
型材断面
  6
CONTINUOUS
 10
57.986465
 20
-26.375748
 11
58.3864
 21
-26.375748
  0
LINE
  8
型材断面
  6
CONTINUOUS
 62
    47
 10
58.3864
 20
-25.375763
 11
58.3864
 21
-26.375748
  0
LINE
  8
型材断面
  6
CONTINUOUS
 62
    47
 10
61.019708
 20
-27.47567
 11
60.153008
 21
-27.47567
  0
LINE
  8
型材断面
  6
CONTINUOUS
 62
    47
 10
61.019708
 20
-27.875648
 11
60.153008
 21
-27.875648
  0
LINE
  8
型材断面
  6
CONTINUOUS
 62
    47
 10
61.15298
 20
-27.742315
 11
61.15298
 21
-27.608985
  0
ARC
  8
型材断面
  6
CONTINUOUS
 62
    47
 10
61.019708
 20
-27.608985
 40
0.133333
 50
359.997253
 51
449.998627
  0
ARC
  8
型材断面
  6
CONTINUOUS
 62
    47
 10
61.019708
 20
-27.742316
 40
0.133333
 50
269.99588
 51
359.997253
  0
LINE
  8
型材断面
  6
CONTINUOUS
 62
    47
 10
70.01917
 20
-27.875648
 11
71.552477
 21
-27.875648
  0
LINE
  8
型材断面
  6
CONTINUOUS
 62
    47
 10
70.01917
 20
-27.47567
 11
70.885893
 21
-27.47567
  0
LINE
  8
型材断面
  6
CONTINUOUS
 62
    47
 10
69.885897
 20
-27.608985
 11
69.885897
 21
-27.742315
  0
ARC
  8
型材断面
  6
CONTINUOUS
 62
    47
 10
70.01917
 20
-27.742316
 40
0.133333
 50
180.0
 51
269.99588
  0
ARC
  8
型材断面
  6
CONTINUOUS
 62
    47
 10
70.01917
 20
-27.608985
 40
0.133333
 50
89.998627
 51
180.0
  0
LINE
  8
型材断面
  6
CONTINUOUS
 62
    47
 10
60.153008
 20
-42.07053
 11
60.153008
 21
-27.875648
  0
LINE
  8
型材断面
  6
CONTINUOUS
 10
60.153008
 20
-26.375635
 11
70.885893
 21
-26.375635
  0
LINE
  8
型材断面
  6
CONTINUOUS
 62
    47
 10
70.885893
 20
-27.47567
 11
70.885893
 21
-26.375635
  0
LINE
  8
型材断面
  6
CONTINUOUS
 62
    47
 10
60.153008
 20
-27.47567
 11
60.153008
 21
-26.375635
  0
LINE
  8
型材断面
  6
CONTINUOUS
 10
66.152542
 20
-25.475635
 11
66.052542
 21
-25.375635
  0
LINE
  8
型材断面
  6
CONTINUOUS
 62
    47
 10
60.153008
 20
-25.375635
 11
66.052542
 21
-25.375635
  0
LINE
  8
型材断面
  6
CONTINUOUS
 10
66.152542
 20
-25.475635
 11
66.252542
 21
-25.375635
  0
LINE
  8
型材断面
  6
CONTINUOUS
 62
    47
 10
66.252542
 20
-25.375635
 11
71.552477
 21
-25.375635
  0
LINE
  8
型材断面
  6
CONTINUOUS
 10
71.552477
 20
-27.875648
 11
71.552477
 21
-25.375635
  0
LINE
  8
型材断面
  6
CONTINUOUS
 62
    47
 10
83.81969
 20
-52.042313
 11
83.81969
 21
-57.042313
  0
LINE
  8
型材断面
  6
CONTINUOUS
 10
84.486418
 20
-57.042313
 11
83.81969
 21
-57.042313
  0
LINE
  8
型材断面
  6
CONTINUOUS
 10
84.386418
 20
-54.542313
 11
84.486418
 21
-54.442313
  0
LINE
  8
型材断面
  6
CONTINUOUS
 10
84.386418
 20
-54.542313
 11
84.486418
 21
-54.642313
  0
LINE
  8
型材断面
  6
CONTINUOUS
 62
    47
 10
84.486405
 20
-52.042313
 11
84.486405
 21
-54.442325
  0
LINE
  8
型材断面
  6
CONTINUOUS
 62
    47
 10
84.486405
 20
-54.6423
 11
84.486405
 21
-57.042313
  0
LINE
  8
型材断面
  6
CONTINUOUS
 10
50.153043
 20
-37.375655
 11
49.486385
 21
-37.375655
  0
LINE
  8
型材断面
  6
CONTINUOUS
 62
    47
 10
50.153043
 20
-40.375655
 11
50.153043
 21
-37.375655
  0
LINE
  8
型材断面
  6
CONTINUOUS
 62
    47
 10
49.486385
 20
-52.042313
 11
49.486385
 21
-37.375655
  0
LINE
  8
型材断面
  6
CONTINUOUS
 10
57.986465
 20
-24.709083
 11
57.986465
 21
-26.375748
  0
CIRCLE
  8
LAYER010
  6
CONTINUOUS
 62
     7
 10
89.486322
 20
-47.042335
 40
0.11111
  0
ENDBLK
  0
BLOCK
  2
*GRP_0008
 70
    65
 10
0.0
 20
0.0
  0
LINE
  8
断面線04
  6
CONTINUOUS
 62
    47
 10
7.734438
 20
-35.042313
 11
7.401095
 21
-36.708978
  0
LINE
  8
断面線04
  6
CONTINUOUS
 62
    47
 10
-8.83223
 20
-31.708978
 11
-8.83223
 21
-30.942313
  0
ARC
  8
断面線04
  6
CONTINUOUS
 62
    47
 10
-7.06558
 20
-25.808975
 40
0.1
 50
90.0
 51
180.0
  0
LINE
  8
断面線04
  6
CONTINUOUS
 62
    47
 10
-7.165563
 20
-26.275645
 11
-7.165563
 21
-25.808978
  0
ARC
  8
断面線04
  6
CONTINUOUS
 62
    47
 10
-7.06558
 20
-26.275641
 40
0.1
 50
180.0
 51
270.0
  0
ARC
  8
断面線04
  6
CONTINUOUS
 62
    47
 10
-8.098913
 20
-30.542308
 40
0.1
 50
0.0
 51
90.0
  0
LINE
  8
断面線04
  6
CONTINUOUS
 62
    47
 10
-7.998905
 20
-30.842313
 11
-7.998905
 21
-30.542313
  0
LINE
  8
断面線04
  6
CONTINUOUS
 62
    47
 10
-8.098905
 20
-30.942313
 11
-8.83223
 21
-30.942313
  0
ARC
  8
断面線04
  6
CONTINUOUS
 62
    47
 10
-8.098913
 20
-30.842308
 40
0.1
 50
270.0
 51
360.0
  0
LINE
  8
断面線04
  6
CONTINUOUS
 62
    47
 10
-8.098905
 20
-30.442313
 11
-9.23223
 21
-30.442313
  0
LINE
  8
断面線04
  6
CONTINUOUS
 62
    47
 10
-9.33223
 20
-31.708978
 11
-9.33223
 21
-30.542313
  0
ARC
  8
断面線04
  6
CONTINUOUS
 62
    47
 10
-9.232246
 20
-30.542308
 40
0.1
 50
90.0
 51
180.0
  0
LINE
  8
断面線04
  6
CONTINUOUS
 62
    47
 10
-8.83223
 20
-31.708978
 11
-6.43223
 21
-31.708978
  0
LINE
  8
断面線04
  6
CONTINUOUS
 62
    47
 10
-13.598905
 20
-31.708978
 11
-13.598905
 21
-31.142313
  0
ARC
  8
断面線04
  6
CONTINUOUS
 62
    47
 10
-13.698913
 20
-31.142308
 40
0.1
 50
0.0
 51
90.0
  0
LINE
  8
断面線04
  6
CONTINUOUS
 62
    47
 10
-13.698905
 20
-31.042313
 11
-13.898905
 21
-31.042313
  0
ARC
  8
断面線04
  6
CONTINUOUS
 62
    47
 10
-13.898913
 20
-31.142308
 40
0.1
 50
90.0
 51
180.0
  0
LINE
  8
断面線04
  6
CONTINUOUS
 62
    47
 10
-16.93223
 20
-37.375645
 11
-16.93223
 21
-35.042313
  0
LINE
  8
断面線04
  6
CONTINUOUS
 62
    47
 10
-13.998905
 20
-36.708978
 11
-16.265563
 21
-36.708978
  0
LINE
  8
断面線04
  6
CONTINUOUS
 62
    47
 10
-9.33223
 20
-31.708978
 11
-13.598905
 21
-31.708978
  0
LINE
  8
断面線04
  6
CONTINUOUS
 62
    47
 10
-7.065563
 20
-25.708978
 11
-4.43223
 21
-25.708978
  0
LINE
  8
断面線04
  6
CONTINUOUS
 62
    47
 10
-6.43223
 20
-31.708978
 11
-6.43223
 21
-26.375645
  0
LINE
  8
断面線04
  6
CONTINUOUS
 62
    47
 10
-7.065563
 20
-26.375645
 11
-6.43223
 21
-26.375645
  0
LINE
  8
断面線04
  6
CONTINUOUS
 62
    47
 10
-0.03223
 20
-31.708978
 11
-0.03223
 21
-30.942313
  0
ARC
  8
断面線04
  6
CONTINUOUS
 62
    47
 10
-1.798913
 20
-25.808975
 40
0.1
 50
0.0
 51
90.0
  0
LINE
  8
断面線04
  6
CONTINUOUS
 62
    47
 10
-1.698905
 20
-26.275645
 11
-1.698905
 21
-25.808978
  0
ARC
  8
断面線04
  6
CONTINUOUS
 62
    47
 10
-1.798913
 20
-26.275641
 40
0.1
 50
270.0
 51
360.0
  0
ARC
  8
断面線04
  6
CONTINUOUS
 62
    47
 10
-0.76558
 20
-30.542308
 40
0.1
 50
90.0
 51
180.0
  0
LINE
  8
断面線04
  6
CONTINUOUS
 62
    47
 10
-0.865563
 20
-30.842313
 11
-0.865563
 21
-30.542313
  0
LINE
  8
断面線04
  6
CONTINUOUS
 62
    47
 10
-0.765563
 20
-30.942313
 11
-0.03223
 21
-30.942313
  0
ARC
  8
断面線04
  6
CONTINUOUS
 62
    47
 10
-0.76558
 20
-30.842308
 40
0.1
 50
180.0
 51
270.0
  0
LINE
  8
断面線04
  6
CONTINUOUS
 62
    47
 10
-0.765563
 20
-30.442313
 11
0.36777
 21
-30.442313
  0
LINE
  8
断面線04
  6
CONTINUOUS
 62
    47
 10
0.46777
 20
-31.708978
 11
0.46777
 21
-30.542313
  0
ARC
  8
断面線04
  6
CONTINUOUS
 62
    47
 10
0.367754
 20
-30.542308
 40
0.1
 50
0.0
 51
90.0
  0
LINE
  8
断面線04
  6
CONTINUOUS
 62
    47
 10
-0.03223
 20
-31.708978
 11
-2.43223
 21
-31.708978
  0
LINE
  8
断面線04
  6
CONTINUOUS
 62
    47
 10
4.734438
 20
-31.708978
 11
4.734438
 21
-31.142313
  0
ARC
  8
断面線04
  6
CONTINUOUS
 62
    47
 10
4.83442
 20
-31.142308
 40
0.1
 50
90.0
 51
180.0
  0
LINE
  8
断面線04
  6
CONTINUOUS
 62
    47
 10
4.834438
 20
-31.042313
 11
5.034438
 21
-31.042313
  0
ARC
  8
断面線04
  6
CONTINUOUS
 62
    47
 10
5.03442
 20
-31.142308
 40
0.1
 50
0.0
 51
90.0
  0
LINE
  8
断面線04
  6
CONTINUOUS
 62
    47
 10
5.134438
 20
-36.708978
 11
7.401095
 21
-36.708978
  0
LINE
  8
断面線04
  6
CONTINUOUS
 62
    47
 10
0.46777
 20
-31.708978
 11
4.734438
 21
-31.708978
  0
LINE
  8
断面線04
  6
CONTINUOUS
 62
    47
 10
-1.798905
 20
-25.708978
 11
-4.43223
 21
-25.708978
  0
LINE
  8
断面線04
  6
CONTINUOUS
 62
    47
 10
-2.43223
 20
-31.708978
 11
-2.43223
 21
-26.375645
  0
LINE
  8
断面線04
  6
CONTINUOUS
 62
    47
 10
-1.798905
 20
-26.375645
 11
-2.43223
 21
-26.375645
  0
LINE
  8
断面線04
  6
CONTINUOUS
 62
    47
 10
8.06777
 20
-35.042313
 11
7.734438
 21
-35.042313
  0
LINE
  8
断面線04
  6
CONTINUOUS
 62
    47
 10
-16.598905
 20
-35.042313
 11
-16.265563
 21
-36.708978
  0
LINE
  8
断面線04
  6
CONTINUOUS
 62
    47
 10
-16.93223
 20
-35.042313
 11
-16.598905
 21
-35.042313
  0
LINE
  8
断面線04
  6
CONTINUOUS
 62
    47
 10
-13.998905
 20
-31.142313
 11
-13.998905
 21
-36.708978
  0
LINE
  8
断面線04
  6
CONTINUOUS
 62
    47
 10
5.134438
 20
-31.142313
 11
5.134438
 21
-36.708978
  0
LINE
  8
断面線04
  6
CONTINUOUS
 62
    47
 10
8.06777
 20
-35.042313
 11
8.06777
 21
-37.375645
  0
LINE
  8
断面線04
  6
CONTINUOUS
 62
    47
 10
-13.998905
 20
-52.042313
 11
5.134438
 21
-52.042313
  0
LINE
  8
断面線04
  6
CONTINUOUS
 62
    47
 10
-13.998905
 20
-52.042313
 11
-13.998905
 21
-37.375645
  0
LINE
  8
断面線04
  6
CONTINUOUS
 62
    47
 10
5.134438
 20
-52.042313
 11
5.134438
 21
-37.375645
  0
LINE
  8
断面線04
  6
CONTINUOUS
 62
    47
 10
-16.93223
 20
-37.375645
 11
-13.998905
 21
-37.375645
  0
LINE
  8
断面線04
  6
CONTINUOUS
 62
    47
 10
5.134438
 20
-37.375645
 11
8.06777
 21
-37.375645
  0
ARC
  8
断面線04
  6
CONTINUOUS
 62
    47
 10
-12.268798
 20
-34.322988
 40
0.25
 50
312.542364
 51
492.542397
  0
ARC
  8
断面線04
  6
CONTINUOUS
 62
    47
 10
-12.832244
 20
-33.709007
 40
0.583333
 50
47.457615
 51
312.542407
  0
ARC
  8
断面線04
  6
CONTINUOUS
 62
    47
 10
-12.832244
 20
-33.709007
 40
1.083333
 50
252.079761
 51
312.542389
  0
ARC
  8
断面線04
  6
CONTINUOUS
 62
    47
 10
-12.268798
 20
-33.095026
 40
0.25
 50
227.457603
 51
407.457636
  0
LINE
  8
断面線04
  6
CONTINUOUS
 62
    47
 10
-5.598905
 20
-32.542313
 11
-12.832237
 21
-32.542313
  0
ARC
  8
断面線04
  6
CONTINUOUS
 62
    47
 10
-12.832244
 20
-33.709007
 40
1.083333
 50
47.457611
 51
90.000025
  0
LINE
  8
断面線04
  6
CONTINUOUS
 62
    47
 10
-12.832237
 20
-32.625677
 11
-12.832237
 21
-32.542313
  0
ARC
  8
断面線04
  6
CONTINUOUS
 62
    47
 10
3.404312
 20
-34.322988
 40
0.25
 50
47.457603
 51
227.457636
  0
ARC
  8
断面線04
  6
CONTINUOUS
 62
    47
 10
3.967758
 20
-33.709007
 40
0.583333
 50
227.457593
 51
492.542385
  0
ARC
  8
断面線04
  6
CONTINUOUS
 62
    47
 10
3.404312
 20
-33.095026
 40
0.25
 50
132.542364
 51
312.542397
  0
ARC
  8
断面線04
  6
CONTINUOUS
 62
    47
 10
3.967758
 20
-33.709007
 40
1.083333
 50
89.999975
 51
132.542389
  0
ARC
  8
断面線04
  6
CONTINUOUS
 62
    47
 10
3.967758
 20
-33.709007
 40
1.083333
 50
227.457611
 51
287.920239
  0
LINE
  8
断面線04
  6
CONTINUOUS
 62
    47
 10
3.96777
 20
-32.625677
 11
3.96777
 21
-32.542313
  0
LINE
  8
断面線04
  6
CONTINUOUS
 62
    47
 10
-3.265563
 20
-32.542313
 11
3.96777
 21
-32.542313
  0
LINE
  8
断面線04
  6
CONTINUOUS
 62
    47
 10
-3.265563
 20
-27.042313
 11
-5.598905
 21
-27.042313
  0
ARC
  8
断面線04
  6
CONTINUOUS
 62
    47
 10
-11.833013
 20
-50.411373
 40
0.25
 50
357.542364
 51
537.542397
  0
ARC
  8
断面線04
  6
CONTINUOUS
 62
    47
 10
-12.66558
 20
-50.37564
 40
0.583333
 50
92.457615
 51
357.542407
  0
ARC
  8
断面線04
  6
CONTINUOUS
 62
    47
 10
-12.701313
 20
-49.543073
 40
0.25
 50
272.457576
 51
452.457618
  0
ARC
  8
断面線04
  6
CONTINUOUS
 62
    47
 10
-12.66558
 20
-50.37564
 40
1.083333
 50
332.513353
 51
357.542389
  0
ARC
  8
断面線04
  6
CONTINUOUS
 62
    47
 10
2.968521
 20
-50.411373
 40
0.25
 50
2.457603
 51
182.457636
  0
ARC
  8
断面線04
  6
CONTINUOUS
 62
    47
 10
3.801088
 20
-50.37564
 40
0.583333
 50
182.457593
 51
447.542385
  0
ARC
  8
断面線04
  6
CONTINUOUS
 62
    47
 10
3.836821
 20
-49.543073
 40
0.25
 50
87.542382
 51
267.542424
  0
ARC
  8
断面線04
  6
CONTINUOUS
 62
    47
 10
3.801088
 20
-50.37564
 40
1.083333
 50
182.457611
 51
207.486647
  0
ARC
  8
断面線04
  6
CONTINUOUS
 62
    47
 10
3.801088
 20
-50.37564
 40
1.083333
 50
62.513336
 51
87.542389
  0
ARC
  8
断面線04
  6
CONTINUOUS
 62
    47
 10
-12.66558
 20
-50.37564
 40
1.083333
 50
92.457611
 51
117.486331
  0
LINE
  8
断面線04
  6
CONTINUOUS
 62
    47
 10
-3.598895
 20
-29.562587
 11
-3.598895
 21
-30.062587
  0
LINE
  8
断面線04
  6
CONTINUOUS
 62
    47
 10
-5.265563
 20
-30.062587
 11
-5.265563
 21
-29.562587
  0
LINE
  8
断面線04
  6
CONTINUOUS
 62
    47
 10
-5.265563
 20
-30.062587
 11
-5.598905
 21
-30.062587
  0
LINE
  8
断面線04
  6
CONTINUOUS
 62
    47
 10
-5.265563
 20
-29.562587
 11
-5.598905
 21
-29.562587
  0
LINE
  8
断面線04
  6
CONTINUOUS
 62
    47
 10
-3.598895
 20
-29.562587
 11
-3.265563
 21
-29.562587
  0
LINE
  8
断面線04
  6
CONTINUOUS
 62
    47
 10
-3.598895
 20
-30.062587
 11
-3.265563
 21
-30.062587
  0
LINE
  8
断面線04
  6
CONTINUOUS
 62
    47
 10
-3.265563
 20
-32.542313
 11
-3.265563
 21
-30.062587
  0
LINE
  8
断面線04
  6
CONTINUOUS
 62
    47
 10
-3.265563
 20
-29.562587
 11
-3.265563
 21
-27.042313
  0
LINE
  8
断面線04
  6
CONTINUOUS
 62
    47
 10
-5.598905
 20
-32.542313
 11
-5.598905
 21
-30.062587
  0
LINE
  8
断面線04
  6
CONTINUOUS
 62
    47
 10
-5.598905
 20
-29.562587
 11
-5.598905
 21
-27.042313
  0
LINE
  8
断面線04
  6
CONTINUOUS
 62
    47
 10
-3.098895
 20
-49.542313
 11
-3.598895
 21
-49.542313
  0
LINE
  8
断面線04
  6
CONTINUOUS
 62
    47
 10
-5.765563
 20
-49.542313
 11
-5.265563
 21
-49.542313
  0
LINE
  8
断面線04
  6
CONTINUOUS
 62
    47
 10
-3.598895
 20
-49.542313
 11
-3.598895
 21
-50.875645
  0
LINE
  8
断面線04
  6
CONTINUOUS
 62
    47
 10
-3.598895
 20
-50.875645
 11
-5.265563
 21
-50.875645
  0
LINE
  8
断面線04
  6
CONTINUOUS
 62
    47
 10
-5.265563
 20
-49.542313
 11
-5.265563
 21
-50.875645
  0
LINE
  8
断面線04
  6
CONTINUOUS
 62
    47
 10
-5.765563
 20
-49.542313
 11
-5.765563
 21
-50.875645
  0
LINE
  8
断面線04
  6
CONTINUOUS
 62
    47
 10
-11.70452
 20
-50.875645
 11
-5.765563
 21
-50.875645
  0
LINE
  8
断面線04
  6
CONTINUOUS
 62
    47
 10
-3.098895
 20
-49.542313
 11
-3.098895
 21
-50.875645
  0
LINE
  8
断面線04
  6
CONTINUOUS
 62
    47
 10
2.840055
 20
-50.875645
 11
-3.098895
 21
-50.875645
  0
LINE
  8
断面線04
  6
CONTINUOUS
 62
    47
 10
-13.16557
 20
-49.414595
 11
-13.16557
 21
-37.042313
  0
LINE
  8
断面線04
  6
CONTINUOUS
 62
    47
 10
-7.93223
 20
-37.042313
 11
-13.16557
 21
-37.042313
  0
LINE
  8
断面線04
  6
CONTINUOUS
 62
    47
 10
-0.93223
 20
-37.042313
 11
4.301105
 21
-37.042313
  0
LINE
  8
断面線04
  6
CONTINUOUS
 62
    47
 10
4.301105
 20
-49.414595
 11
4.301105
 21
-37.042313
  0
LINE
  8
断面線04
  6
CONTINUOUS
 62
    47
 10
-13.16557
 20
-34.739787
 11
-13.16557
 21
-36.375645
  0
LINE
  8
断面線04
  6
CONTINUOUS
 62
    47
 10
-13.16557
 20
-36.375645
 11
-7.93223
 21
-36.375645
  0
LINE
  8
断面線04
  6
CONTINUOUS
 62
    47
 10
-7.93223
 20
-37.042313
 11
-7.93223
 21
-36.375645
  0
LINE
  8
断面線04
  6
CONTINUOUS
 62
    47
 10
4.301105
 20
-34.739787
 11
4.301105
 21
-36.375645
  0
LINE
  8
断面線04
  6
CONTINUOUS
 62
    47
 10
4.301105
 20
-36.375645
 11
-0.93223
 21
-36.375645
  0
LINE
  8
断面線04
  6
CONTINUOUS
 62
    47
 10
-0.93223
 20
-37.042313
 11
-0.93223
 21
-36.375645
  0
ENDBLK
  0
BLOCK
  2
*GRP_0009
 70
    65
 10
0.0
 20
0.0
  0
LINE
  8
型材断面
  6
CONTINUOUS
 62
    47
 10
6.901105
 20
-18.77561
 11
-4.432245
 21
-18.77561
  0
ARC
  8
型材断面
  6
CONTINUOUS
 62
    47
 10
6.901111
 20
-19.108903
 40
0.333333
 50
0.000053
 51
90.000053
  0
ARC
  8
型材断面
  6
CONTINUOUS
 62
    47
 10
-8.198954
 20
-20.94225
 40
0.166667
 50
90.000053
 51
180.000053
  0
LINE
  8
型材断面
  6
CONTINUOUS
 62
    47
 10
-8.365662
 20
-20.942277
 11
-8.365662
 21
-21.27561
  0
ARC
  8
型材断面
  6
CONTINUOUS
 62
    47
 10
-8.198954
 20
-21.275583
 40
0.166667
 50
180.000053
 51
270.000053
  0
ARC
  8
型材断面
  6
CONTINUOUS
 62
    47
 10
-1.765621
 20
-20.942244
 40
0.166667
 50
90.000053
 51
180.000053
  0
LINE
  8
型材断面
  6
CONTINUOUS
 62
    47
 10
-1.93233
 20
-20.942277
 11
-1.932312
 21
-21.27561
  0
ARC
  8
型材断面
  6
CONTINUOUS
 62
    47
 10
-1.76562
 20
-21.275577
 40
0.166667
 50
180.000053
 51
270.000053
  0
LINE
  8
型材断面
  6
CONTINUOUS
 62
    47
 10
-1.765662
 20
-20.77561
 11
0.501005
 21
-20.77561
  0
LINE
  8
型材断面
  6
CONTINUOUS
 62
    47
 10
1.00102
 20
-20.542278
 11
0.501005
 21
-20.542278
  0
LINE
  8
型材断面
  6
CONTINUOUS
 62
    47
 10
0.501005
 20
-20.77561
 11
0.501005
 21
-20.542278
  0
LINE
  8
型材断面
  6
CONTINUOUS
 62
    47
 10
-7.698995
 20
-20.542278
 11
-7.198995
 21
-20.542278
  0
LINE
  8
型材断面
  6
CONTINUOUS
 62
    47
 10
0.834368
 20
-21.442277
 11
0.834368
 21
-21.442277
  0
ARC
  8
型材断面
  6
CONTINUOUS
 62
    47
 10
1.067701
 20
-21.442274
 40
0.233333
 50
90.0
 51
180.0
  0
LINE
  8
型材断面
  6
CONTINUOUS
 62
    47
 10
-7.198995
 20
-20.542278
 11
-7.198975
 21
-19.608943
  0
LINE
  8
型材断面
  6
CONTINUOUS
 62
    47
 10
-16.098885
 20
-19.842278
 11
-14.43223
 21
-19.842278
  0
LINE
  8
型材断面
  6
CONTINUOUS
 62
    47
 10
1.00102
 20
-20.542278
 11
1.001
 21
-19.608943
  0
LINE
  8
型材断面
  6
CONTINUOUS
 62
    47
 10
7.234405
 20
-19.108928
 11
7.234405
 21
-19.842278
  0
LINE
  8
型材断面
  6
CONTINUOUS
 62
    47
 10
7.234405
 20
-19.842278
 11
5.567737
 21
-19.842278
  0
LINE
  8
型材断面
  6
CONTINUOUS
 62
    47
 10
5.567737
 20
-19.608943
 11
5.567737
 21
-19.842278
  0
LINE
  8
型材断面
  6
CONTINUOUS
 62
    47
 10
-0.965672
 20
-19.608943
 11
-0.96567
 21
-19.77561
  0
LINE
  8
型材断面
  6
CONTINUOUS
 62
    47
 10
5.567737
 20
-19.608943
 11
1.567668
 21
-19.608943
  0
LINE
  8
型材断面
  6
CONTINUOUS
 62
    47
 10
1.0677
 20
-21.208943
 11
1.234362
 21
-21.208943
  0
LINE
  8
型材断面
  6
CONTINUOUS
 62
    47
 10
1.567668
 20
-19.608943
 11
1.567695
 21
-20.875602
  0
ARC
  8
型材断面
  6
CONTINUOUS
 62
    47
 10
1.234362
 20
-20.875607
 40
0.333333
 50
270.0
 51
360.001253
  0
LINE
  8
型材断面
  6
CONTINUOUS
 62
    47
 10
-0.965672
 20
-19.608943
 11
1.001
 21
-19.608943
  0
LINE
  8
型材断面
  6
CONTINUOUS
 62
    47
 10
-2.76567
 20
-19.608943
 11
-6.632308
 21
-19.608943
  0
LINE
  8
型材断面
  6
CONTINUOUS
 62
    47
 10
-6.632308
 20
-19.608943
 11
-6.632348
 21
-21.442277
  0
LINE
  8
型材断面
  6
CONTINUOUS
 62
    47
 10
-7.865662
 20
-21.442277
 11
-7.865662
 21
-21.442277
  0
ARC
  8
型材断面
  6
CONTINUOUS
 62
    47
 10
-7.698996
 20
-21.442274
 40
0.166667
 50
90.0
 51
180.0
  0
LINE
  8
型材断面
  6
CONTINUOUS
 62
    47
 10
-7.698995
 20
-21.27561
 11
-7.298982
 21
-21.27561
  0
LINE
  8
型材断面
  6
CONTINUOUS
 62
    47
 10
-7.132348
 20
-21.442277
 11
-7.132348
 21
-21.442248
  0
ARC
  8
型材断面
  6
CONTINUOUS
 62
    47
 10
-7.298982
 20
-21.442241
 40
0.166633
 50
-0.001289
 51
90.0
  0
LINE
  8
型材断面
  6
CONTINUOUS
 62
    47
 10
-7.698995
 20
-20.542278
 11
-7.698995
 21
-20.67561
  0
LINE
  8
型材断面
  6
CONTINUOUS
 62
    47
 10
-8.198995
 20
-20.77561
 11
-7.798995
 21
-20.77561
  0
ARC
  8
型材断面
  6
CONTINUOUS
 62
    47
 10
-7.798996
 20
-20.675607
 40
0.1
 50
-90.0
 51
0.0
  0
LINE
  8
型材断面
  6
CONTINUOUS
 62
    47
 10
0.001035
 20
-21.442277
 11
0.001035
 21
-21.442277
  0
ARC
  8
型材断面
  6
CONTINUOUS
 62
    47
 10
-0.165632
 20
-21.442274
 40
0.166667
 50
0.0
 51
90.0
  0
LINE
  8
型材断面
  6
CONTINUOUS
 62
    47
 10
-1.09897
 20
-21.442277
 11
-1.09897
 21
-21.442252
  0
LINE
  8
型材断面
  6
CONTINUOUS
 62
    47
 10
-0.165632
 20
-21.27561
 11
-0.932337
 21
-21.27561
  0
ARC
  8
型材断面
  6
CONTINUOUS
 62
    47
 10
-0.932337
 20
-21.442241
 40
0.166633
 50
90.0
 51
180.002865
  0
LINE
  8
型材断面
  6
CONTINUOUS
 62
    47
 10
-8.19898
 20
-21.442277
 11
-7.865662
 21
-21.442277
  0
LINE
  8
型材断面
  6
CONTINUOUS
 62
    47
 10
-7.132348
 20
-21.442277
 11
-6.632348
 21
-21.442277
  0
LINE
  8
型材断面
  6
CONTINUOUS
 62
    47
 10
-1.765662
 20
-21.442277
 11
-1.09897
 21
-21.442277
  0
LINE
  8
型材断面
  6
CONTINUOUS
 62
    47
 10
0.001035
 20
-21.442277
 11
0.834368
 21
-21.442277
  0
LINE
  8
型材断面
  6
CONTINUOUS
 62
    47
 10
-2.76567
 20
-19.608943
 11
-2.599003
 21
-19.77561
  0
LINE
  8
型材断面
  6
CONTINUOUS
 62
    47
 10
-0.96567
 20
-19.77561
 11
-2.599003
 21
-19.77561
  0
LINE
  8
型材断面
  6
CONTINUOUS
 62
    47
 10
-9.198985
 20
-19.608943
 11
-9.03232
 21
-19.77561
  0
LINE
  8
型材断面
  6
CONTINUOUS
 62
    47
 10
-7.198975
 20
-19.608943
 11
-8.298985
 21
-19.608943
  0
LINE
  8
型材断面
  6
CONTINUOUS
 62
    47
 10
-9.03232
 20
-19.77561
 11
-8.298985
 21
-19.77561
  0
LINE
  8
型材断面
  6
CONTINUOUS
 62
    47
 10
-8.298985
 20
-19.608943
 11
-8.298985
 21
-19.77561
  0
LINE
  8
型材断面
  6
CONTINUOUS
 62
    47
 10
-14.43223
 20
-19.842278
 11
-14.43223
 21
-19.608943
  0
LINE
  8
型材断面
  6
CONTINUOUS
 62
    47
 10
-9.198985
 20
-19.608943
 11
-14.43223
 21
-19.608943
  0
LINE
  8
型材断面
  6
CONTINUOUS
 62
    47
 10
-16.098898
 20
-19.108947
 11
-16.098885
 21
-19.842278
  0
LINE
  8
型材断面
  6
CONTINUOUS
 62
    47
 10
-15.765563
 20
-18.77561
 11
-4.432245
 21
-18.77561
  0
ARC
  8
型材断面
  6
CONTINUOUS
 10
-15.765563
 20
-19.108942
 40
0.333333
 50
90.0
 51
180.000843
  0
ENDBLK
  0
BLOCK
  2
*GRP_0010
 70
    65
 10
0.0
 20
0.0
  0
LINE
  8
型材断面
  6
CONTINUOUS
 62
    47
 10
-9.198948
 20
-19.77564
 11
-9.198948
 21
-21.942307
  0
ARC
  8
型材断面
  6
CONTINUOUS
 62
    47
 10
-9.032279
 20
-21.942306
 40
0.166667
 50
180.0
 51
270.0
  0
ARC
  8
型材断面
  6
CONTINUOUS
 62
    47
 10
-7.53228
 20
-19.942305
 40
0.166667
 50
0.0
 51
90.0
  0
LINE
  8
型材断面
  6
CONTINUOUS
 62
    47
 10
-7.365615
 20
-19.942307
 11
-7.365615
 21
-20.27564
  0
ARC
  8
型材断面
  6
CONTINUOUS
 62
    47
 10
-7.53228
 20
-20.275639
 40
0.166667
 50
270.0
 51
360.0
  0
LINE
  8
型材断面
  6
CONTINUOUS
 62
    47
 10
-7.532283
 20
-19.77564
 11
-9.198948
 21
-19.77564
  0
LINE
  8
型材断面
  6
CONTINUOUS
 62
    47
 10
-8.365615
 20
-21.442307
 11
-6.098948
 21
-21.442307
  0
ARC
  8
型材断面
  6
CONTINUOUS
 62
    47
 10
0.66772
 20
-19.942305
 40
0.166667
 50
0.0
 51
90.0
  0
LINE
  8
型材断面
  6
CONTINUOUS
 62
    47
 10
0.834385
 20
-19.942307
 11
0.834385
 21
-20.27564
  0
ARC
  8
型材断面
  6
CONTINUOUS
 62
    47
 10
0.66772
 20
-20.275639
 40
0.166667
 50
270.0
 51
360.0
  0
ARC
  8
型材断面
  6
CONTINUOUS
 62
    47
 10
0.667721
 20
-22.108973
 40
0.166667
 50
270.0
 51
360.0
  0
ARC
  8
型材断面
  6
CONTINUOUS
 62
    47
 10
0.66772
 20
-21.608972
 40
0.166667
 50
0.0
 51
90.0
  0
LINE
  8
型材断面
  6
CONTINUOUS
 62
    47
 10
0.834385
 20
-21.608972
 11
0.834385
 21
-22.108972
  0
LINE
  8
型材断面
  6
CONTINUOUS
 62
    47
 10
-1.932283
 20
-21.442307
 11
0.667718
 21
-21.442307
  0
LINE
  8
型材断面
  6
CONTINUOUS
 62
    47
 10
0.667718
 20
-20.442307
 11
-1.598948
 21
-20.442307
  0
LINE
  8
型材断面
  6
CONTINUOUS
 62
    47
 10
-1.598948
 20
-20.442307
 11
-1.598948
 21
-20.67564
  0
LINE
  8
型材断面
  6
CONTINUOUS
 62
    47
 10
-1.932283
 20
-20.67564
 11
-1.598948
 21
-20.67564
  0
LINE
  8
型材断面
  6
CONTINUOUS
 62
    47
 10
-1.932283
 20
-21.442307
 11
-1.932283
 21
-20.67564
  0
LINE
  8
型材断面
  6
CONTINUOUS
 62
    47
 10
-8.032283
 20
-20.67564
 11
-8.365615
 21
-20.67564
  0
LINE
  8
型材断面
  6
CONTINUOUS
 62
    47
 10
-8.365615
 20
-21.442307
 11
-8.365615
 21
-20.67564
  0
LINE
  8
型材断面
  6
CONTINUOUS
 62
    47
 10
-8.032283
 20
-20.67564
 11
-8.032283
 21
-20.442307
  0
LINE
  8
型材断面
  6
CONTINUOUS
 62
    47
 10
-7.532283
 20
-20.442307
 11
-8.032283
 21
-20.442307
  0
LINE
  8
型材断面
  6
CONTINUOUS
 62
    47
 10
-0.332283
 20
-19.87564
 11
-0.232283
 21
-19.77564
  0
LINE
  8
型材断面
  6
CONTINUOUS
 62
    47
 10
-0.332283
 20
-19.87564
 11
-0.432283
 21
-19.77564
  0
LINE
  8
型材断面
  6
CONTINUOUS
 62
    47
 10
-2.765615
 20
-19.77564
 11
-0.432283
 21
-19.77564
  0
LINE
  8
型材断面
  6
CONTINUOUS
 62
    47
 10
0.667718
 20
-19.77564
 11
-0.232283
 21
-19.77564
  0
LINE
  8
型材断面
  6
CONTINUOUS
 62
    47
 10
-1.332283
 20
-22.27564
 11
0.66772
 21
-22.27564
  0
ARC
  8
型材断面
  6
CONTINUOUS
 62
    47
 10
-1.332282
 20
-22.942306
 40
0.666667
 50
90.0
 51
180.0
  0
LINE
  8
型材断面
  6
CONTINUOUS
 62
    47
 10
-9.032283
 20
-22.108972
 11
-7.532283
 21
-22.108972
  0
ARC
  8
型材断面
  6
CONTINUOUS
 62
    47
 10
-7.532282
 20
-22.775639
 40
0.666667
 50
0.0
 51
90.0
  0
LINE
  8
型材断面
  6
CONTINUOUS
 62
    47
 10
-2.665448
 20
-25.608978
 11
-2.665448
 21
-25.708978
  0
LINE
  8
型材断面
  6
CONTINUOUS
 62
    47
 10
-6.198948
 20
-25.608978
 11
-6.198948
 21
-25.708978
  0
LINE
  8
型材断面
  6
CONTINUOUS
 62
    47
 10
-2.665448
 20
-25.608978
 11
-6.198948
 21
-25.608978
  0
LINE
  8
型材断面
  6
CONTINUOUS
 62
    47
 10
-6.465615
 20
-25.608978
 11
-6.465615
 21
-25.708978
  0
LINE
  8
型材断面
  6
CONTINUOUS
 62
    47
 10
-6.198948
 20
-25.708978
 11
-6.465615
 21
-25.708978
  0
LINE
  8
型材断面
  6
CONTINUOUS
 62
    47
 10
-2.39878
 20
-25.608978
 11
-2.39878
 21
-25.708978
  0
LINE
  8
型材断面
  6
CONTINUOUS
 62
    47
 10
-2.665448
 20
-25.708978
 11
-2.39878
 21
-25.708978
  0
LINE
  8
型材断面
  6
CONTINUOUS
 62
    47
 10
-2.39878
 20
-25.608978
 11
-1.998948
 21
-25.608978
  0
LINE
  8
型材断面
  6
CONTINUOUS
 62
    47
 10
-6.465615
 20
-25.608978
 11
-6.865615
 21
-25.608978
  0
ARC
  8
型材断面
  6
CONTINUOUS
 62
    47
 10
-2.932279
 20
-24.675643
 40
0.166667
 50
270.0
 51
360.0
  0
ARC
  8
型材断面
  6
CONTINUOUS
 62
    47
 10
-5.932279
 20
-24.675643
 40
0.166667
 50
180.0
 51
270.0
  0
LINE
  8
型材断面
  6
CONTINUOUS
 62
    47
 10
-4.432283
 20
-24.94231
 11
-4.332283
 21
-24.84231
  0
LINE
  8
型材断面
  6
CONTINUOUS
 62
    47
 10
-4.432283
 20
-24.94231
 11
-4.532283
 21
-24.84231
  0
LINE
  8
型材断面
  6
CONTINUOUS
 62
    47
 10
-4.332283
 20
-24.84231
 11
-2.932283
 21
-24.84231
  0
LINE
  8
型材断面
  6
CONTINUOUS
 62
    47
 10
-5.932283
 20
-24.84231
 11
-4.532283
 21
-24.84231
  0
LINE
  8
型材断面
  6
CONTINUOUS
 62
    47
 10
-6.865615
 20
-22.77564
 11
-6.865615
 21
-25.608978
  0
LINE
  8
型材断面
  6
CONTINUOUS
 62
    47
 10
-1.998948
 20
-22.942307
 11
-1.998948
 21
-25.608978
  0
LINE
  8
型材断面
  6
CONTINUOUS
 62
    47
 10
-6.098948
 20
-21.442307
 11
-6.098948
 21
-24.675645
  0
LINE
  8
型材断面
  6
CONTINUOUS
 62
    47
 10
-2.765615
 20
-19.77564
 11
-2.765615
 21
-24.675645
  0
LINE
  8
型材断面
  6
DOT
 10
-4.432283
 20
-25.608978
 11
-4.432283
 21
-24.84231
  0
ENDBLK
  0
BLOCK
  2
*GRP_0011
 70
    65
 10
0.0
 20
0.0
  0
LINE
  8
型材断面
  6
CONTINUOUS
 10
7.734445
 20
-94.540197
 11
7.40111
 21
-96.206865
  0
LINE
  8
型材断面
  6
CONTINUOUS
 62
    47
 10
-8.832222
 20
-91.206868
 11
-8.832222
 21
-90.4402
  0
ARC
  8
型材断面
  6
CONTINUOUS
 62
    47
 10
-7.065557
 20
-85.306861
 40
0.1
 50
90.0
 51
180.0
  0
LINE
  8
型材断面
  6
CONTINUOUS
 62
    47
 10
-7.165555
 20
-85.773532
 11
-7.165555
 21
-85.306868
  0
ARC
  8
型材断面
  6
CONTINUOUS
 62
    47
 10
-7.065557
 20
-85.773527
 40
0.1
 50
180.0
 51
270.0
  0
ARC
  8
型材断面
  6
CONTINUOUS
 62
    47
 10
-8.098891
 20
-90.040194
 40
0.1
 50
0.0
 51
90.0
  0
LINE
  8
型材断面
  6
CONTINUOUS
 62
    47
 10
-7.99889
 20
-90.3402
 11
-7.99889
 21
-90.0402
  0
LINE
  8
型材断面
  6
CONTINUOUS
 62
    47
 10
-8.09889
 20
-90.4402
 11
-8.832222
 21
-90.4402
  0
ARC
  8
型材断面
  6
CONTINUOUS
 62
    47
 10
-8.098891
 20
-90.340194
 40
0.1
 50
270.0
 51
360.0
  0
LINE
  8
型材断面
  6
CONTINUOUS
 62
    47
 10
-8.09889
 20
-89.9402
 11
-9.232222
 21
-89.9402
  0
LINE
  8
型材断面
  6
CONTINUOUS
 62
    47
 10
-9.332222
 20
-91.206868
 11
-9.332222
 21
-90.0402
  0
ARC
  8
型材断面
  6
CONTINUOUS
 62
    47
 10
-9.232224
 20
-90.040194
 40
0.1
 50
90.0
 51
180.0
  0
LINE
  8
型材断面
  6
CONTINUOUS
 62
    47
 10
-8.832222
 20
-91.206868
 11
-6.432222
 21
-91.206868
  0
LINE
  8
型材断面
  6
CONTINUOUS
 62
    47
 10
-13.59889
 20
-91.206868
 11
-13.59889
 21
-90.6402
  0
ARC
  8
型材断面
  6
CONTINUOUS
 62
    47
 10
-13.698891
 20
-90.640194
 40
0.1
 50
0.0
 51
90.0
  0
LINE
  8
型材断面
  6
CONTINUOUS
 62
    47
 10
-13.69889
 20
-90.5402
 11
-13.89889
 21
-90.5402
  0
ARC
  8
型材断面
  6
CONTINUOUS
 62
    47
 10
-13.898891
 20
-90.640194
 40
0.1
 50
90.0
 51
180.0
  0
LINE
  8
型材断面
  6
CONTINUOUS
 62
    47
 10
-13.99889
 20
-90.6402
 11
-13.99889
 21
-96.206865
  0
LINE
  8
型材断面
  6
CONTINUOUS
 62
    47
 10
-13.748892
 20
-93.206865
 11
-11.91556
 21
-93.206865
  0
ARC
  8
型材断面
  6
CONTINUOUS
 62
    47
 10
-12.268778
 20
-93.820842
 40
0.25
 50
312.542364
 51
492.542397
  0
ARC
  8
型材断面
  6
CONTINUOUS
 62
    47
 10
-12.832224
 20
-93.206861
 40
0.583333
 50
47.457615
 51
312.542407
  0
ARC
  8
型材断面
  6
CONTINUOUS
 62
    47
 10
-12.268778
 20
-92.59288
 40
0.25
 50
227.457576
 51
407.457618
  0
ARC
  8
型材断面
  6
CONTINUOUS
 62
    47
 10
-12.832224
 20
-93.206861
 40
1.083333
 50
47.457611
 51
90.000044
  0
LINE
  8
型材断面
  6
CONTINUOUS
 10
-16.932222
 20
-96.873532
 11
-16.932222
 21
-94.540197
  0
LINE
  8
型材断面
  6
CONTINUOUS
 10
-13.99889
 20
-96.206865
 11
-16.265555
 21
-96.206865
  0
LINE
  8
型材断面
  6
CONTINUOUS
 62
    47
 10
-4.432222
 20
-96.873532
 11
-16.932222
 21
-96.873532
  0
LINE
  8
型材断面
  6
CONTINUOUS
 62
    47
 10
-12.832225
 20
-92.2902
 11
-12.832225
 21
-94.290197
  0
LINE
  8
型材断面
  6
CONTINUOUS
 10
-4.432222
 20
-96.0402
 11
-13.165557
 21
-96.0402
  0
LINE
  8
型材断面
  6
CONTINUOUS
 10
-13.165557
 20
-96.0402
 11
-13.165557
 21
-94.237643
  0
LINE
  8
型材断面
  6
CONTINUOUS
 10
-12.832225
 20
-92.123532
 11
-12.832225
 21
-92.0402
  0
ARC
  8
型材断面
  6
CONTINUOUS
 62
    47
 10
-12.832224
 20
-93.206861
 40
1.083333
 50
252.079718
 51
312.542389
  0
LINE
  8
型材断面
  6
CONTINUOUS
 10
-12.832225
 20
-92.0402
 11
-5.59889
 21
-92.0402
  0
LINE
  8
型材断面
  6
CONTINUOUS
 62
    47
 10
-9.332222
 20
-91.206868
 11
-13.59889
 21
-91.206868
  0
LINE
  8
型材断面
  6
CONTINUOUS
 62
    47
 10
-7.065555
 20
-85.206868
 11
-4.432222
 21
-85.206868
  0
LINE
  8
型材断面
  6
CONTINUOUS
 10
-5.59889
 20
-92.0402
 11
-5.59889
 21
-85.873532
  0
LINE
  8
型材断面
  6
CONTINUOUS
 62
    47
 10
-6.432222
 20
-91.206868
 11
-6.432222
 21
-85.873532
  0
LINE
  8
型材断面
  6
CONTINUOUS
 62
    47
 10
-7.065555
 20
-85.873532
 11
-6.432222
 21
-85.873532
  0
LINE
  8
型材断面
  6
CONTINUOUS
 62
    47
 10
-5.59889
 20
-85.873532
 11
-4.432222
 21
-85.873532
  0
LINE
  8
型材断面
  6
CONTINUOUS
 62
    47
 10
-0.032222
 20
-91.206868
 11
-0.032222
 21
-90.4402
  0
ARC
  8
型材断面
  6
CONTINUOUS
 62
    47
 10
-1.798891
 20
-85.306861
 40
0.1
 50
0.0
 51
90.0
  0
LINE
  8
型材断面
  6
CONTINUOUS
 62
    47
 10
-1.69889
 20
-85.773532
 11
-1.69889
 21
-85.306868
  0
ARC
  8
型材断面
  6
CONTINUOUS
 62
    47
 10
-1.798891
 20
-85.773527
 40
0.1
 50
270.0
 51
360.0
  0
ARC
  8
型材断面
  6
CONTINUOUS
 62
    47
 10
-0.765558
 20
-90.040194
 40
0.1
 50
90.0
 51
180.0
  0
LINE
  8
型材断面
  6
CONTINUOUS
 62
    47
 10
-0.865555
 20
-90.3402
 11
-0.865555
 21
-90.0402
  0
LINE
  8
型材断面
  6
CONTINUOUS
 62
    47
 10
-0.765555
 20
-90.4402
 11
-0.032222
 21
-90.4402
  0
ARC
  8
型材断面
  6
CONTINUOUS
 62
    47
 10
-0.765558
 20
-90.340194
 40
0.1
 50
180.0
 51
270.0
  0
LINE
  8
型材断面
  6
CONTINUOUS
 62
    47
 10
-0.765555
 20
-89.9402
 11
0.367778
 21
-89.9402
  0
LINE
  8
型材断面
  6
CONTINUOUS
 62
    47
 10
0.467778
 20
-91.206868
 11
0.467778
 21
-90.0402
  0
ARC
  8
型材断面
  6
CONTINUOUS
 62
    47
 10
0.367776
 20
-90.040194
 40
0.1
 50
0.0
 51
90.0
  0
LINE
  8
型材断面
  6
CONTINUOUS
 62
    47
 10
-0.032222
 20
-91.206868
 11
-2.432222
 21
-91.206868
  0
LINE
  8
型材断面
  6
CONTINUOUS
 62
    47
 10
4.734445
 20
-91.206868
 11
4.734445
 21
-90.6402
  0
ARC
  8
型材断面
  6
CONTINUOUS
 62
    47
 10
4.834442
 20
-90.640194
 40
0.1
 50
90.0
 51
180.0
  0
LINE
  8
型材断面
  6
CONTINUOUS
 62
    47
 10
4.834445
 20
-90.5402
 11
5.034445
 21
-90.5402
  0
ARC
  8
型材断面
  6
CONTINUOUS
 62
    47
 10
5.034442
 20
-90.640194
 40
0.1
 50
0.0
 51
90.0
  0
LINE
  8
型材断面
  6
CONTINUOUS
 62
    47
 10
5.134445
 20
-90.6402
 11
5.134445
 21
-96.206865
  0
LINE
  8
型材断面
  6
CONTINUOUS
 62
    47
 10
4.884447
 20
-93.206865
 11
3.051115
 21
-93.206865
  0
ARC
  8
型材断面
  6
CONTINUOUS
 62
    47
 10
3.40433
 20
-93.820842
 40
0.25
 50
47.457603
 51
227.457636
  0
ARC
  8
型材断面
  6
CONTINUOUS
 62
    47
 10
3.967776
 20
-93.206861
 40
0.583333
 50
227.457593
 51
492.542385
  0
ARC
  8
型材断面
  6
CONTINUOUS
 62
    47
 10
3.40433
 20
-92.59288
 40
0.25
 50
132.542382
 51
312.542424
  0
ARC
  8
型材断面
  6
CONTINUOUS
 62
    47
 10
3.967776
 20
-93.206861
 40
1.083333
 50
89.999956
 51
132.542389
  0
LINE
  8
型材断面
  6
CONTINUOUS
 10
8.067778
 20
-96.873532
 11
8.067778
 21
-94.540197
  0
LINE
  8
型材断面
  6
CONTINUOUS
 10
5.134445
 20
-96.206865
 11
7.40111
 21
-96.206865
  0
LINE
  8
型材断面
  6
CONTINUOUS
 62
    47
 10
-4.432222
 20
-96.873532
 11
8.067778
 21
-96.873532
  0
LINE
  8
型材断面
  6
CONTINUOUS
 62
    47
 10
3.96778
 20
-92.2902
 11
3.96778
 21
-94.290197
  0
LINE
  8
型材断面
  6
CONTINUOUS
 10
-4.432222
 20
-96.0402
 11
4.301113
 21
-96.0402
  0
LINE
  8
型材断面
  6
CONTINUOUS
 10
4.301113
 20
-96.0402
 11
4.301113
 21
-94.237643
  0
LINE
  8
型材断面
  6
CONTINUOUS
 10
3.96778
 20
-92.123532
 11
3.96778
 21
-92.0402
  0
ARC
  8
型材断面
  6
CONTINUOUS
 62
    47
 10
3.967776
 20
-93.206861
 40
1.083333
 50
227.457611
 51
287.920282
  0
LINE
  8
型材断面
  6
CONTINUOUS
 10
3.96778
 20
-92.0402
 11
-3.265555
 21
-92.0402
  0
LINE
  8
型材断面
  6
CONTINUOUS
 62
    47
 10
0.467778
 20
-91.206868
 11
4.734445
 21
-91.206868
  0
LINE
  8
型材断面
  6
CONTINUOUS
 62
    47
 10
-1.79889
 20
-85.206868
 11
-4.432222
 21
-85.206868
  0
LINE
  8
型材断面
  6
CONTINUOUS
 10
-3.265555
 20
-92.0402
 11
-3.265555
 21
-85.873532
  0
LINE
  8
型材断面
  6
CONTINUOUS
 62
    47
 10
-2.432222
 20
-91.206868
 11
-2.432222
 21
-85.873532
  0
LINE
  8
型材断面
  6
CONTINUOUS
 62
    47
 10
-1.79889
 20
-85.873532
 11
-2.432222
 21
-85.873532
  0
LINE
  8
型材断面
  6
CONTINUOUS
 62
    47
 10
-3.265555
 20
-85.873532
 11
-4.432222
 21
-85.873532
  0
LINE
  8
型材断面
  6
CONTINUOUS
 10
8.067778
 20
-94.540197
 11
7.734445
 21
-94.540197
  0
LINE
  8
型材断面
  6
CONTINUOUS
 10
-16.59889
 20
-94.540197
 11
-16.265555
 21
-96.206865
  0
LINE
  8
型材断面
  6
CONTINUOUS
 10
-16.932222
 20
-94.540197
 11
-16.59889
 21
-94.540197
  0
ENDBLK
  0
BLOCK
  2
*GRP_0012
 70
    65
 10
0.0
 20
0.0
  0
LINE
  8
型材断面
  6
CONTINUOUS
 62
    47
 10
6.901113
 20
-78.273498
 11
-4.432237
 21
-78.273498
  0
ARC
  8
型材断面
  6
CONTINUOUS
 62
    47
 10
6.901118
 20
-78.606791
 40
0.333333
 50
0.000053
 51
90.000053
  0
ARC
  8
型材断面
  6
CONTINUOUS
 62
    47
 10
-8.198946
 20
-80.440137
 40
0.166667
 50
90.000053
 51
180.000053
  0
LINE
  8
型材断面
  6
CONTINUOUS
 62
    47
 10
-8.365655
 20
-80.440165
 11
-8.365655
 21
-80.773498
  0
ARC
  8
型材断面
  6
CONTINUOUS
 62
    47
 10
-8.198946
 20
-80.773471
 40
0.166667
 50
180.000053
 51
270.000053
  0
ARC
  8
型材断面
  6
CONTINUOUS
 62
    47
 10
-1.765613
 20
-80.440132
 40
0.166667
 50
90.000053
 51
180.000053
  0
LINE
  8
型材断面
  6
CONTINUOUS
 62
    47
 10
-1.932323
 20
-80.440165
 11
-1.932305
 21
-80.773498
  0
ARC
  8
型材断面
  6
CONTINUOUS
 62
    47
 10
-1.765613
 20
-80.773465
 40
0.166667
 50
180.000053
 51
270.000053
  0
LINE
  8
型材断面
  6
CONTINUOUS
 62
    47
 10
-1.765655
 20
-80.273498
 11
0.501013
 21
-80.273498
  0
LINE
  8
型材断面
  6
CONTINUOUS
 62
    47
 10
1.001028
 20
-80.040165
 11
0.501013
 21
-80.040165
  0
LINE
  8
型材断面
  6
CONTINUOUS
 62
    47
 10
0.501013
 20
-80.273498
 11
0.501013
 21
-80.040165
  0
LINE
  8
型材断面
  6
CONTINUOUS
 62
    47
 10
-7.698988
 20
-80.040165
 11
-7.198988
 21
-80.040165
  0
LINE
  8
型材断面
  6
CONTINUOUS
 62
    47
 10
0.834375
 20
-80.940165
 11
0.834375
 21
-80.940165
  0
ARC
  8
型材断面
  6
CONTINUOUS
 62
    47
 10
1.067709
 20
-80.940162
 40
0.233333
 50
90.0
 51
180.0
  0
LINE
  8
型材断面
  6
CONTINUOUS
 62
    47
 10
-7.198988
 20
-80.040165
 11
-7.198967
 21
-79.10683
  0
LINE
  8
型材断面
  6
CONTINUOUS
 62
    47
 10
-16.098877
 20
-79.340165
 11
-14.432222
 21
-79.340165
  0
LINE
  8
型材断面
  6
CONTINUOUS
 62
    47
 10
1.001028
 20
-80.040165
 11
1.001008
 21
-79.10683
  0
LINE
  8
型材断面
  6
CONTINUOUS
 62
    47
 10
7.234412
 20
-78.606815
 11
7.234412
 21
-79.340165
  0
LINE
  8
型材断面
  6
CONTINUOUS
 62
    47
 10
7.234412
 20
-79.340165
 11
5.567745
 21
-79.340165
  0
LINE
  8
型材断面
  6
CONTINUOUS
 62
    47
 10
5.567745
 20
-79.10683
 11
5.567745
 21
-79.340165
  0
LINE
  8
型材断面
  6
CONTINUOUS
 62
    47
 10
-0.965665
 20
-79.10683
 11
-0.965662
 21
-79.273498
  0
LINE
  8
型材断面
  6
CONTINUOUS
 62
    47
 10
5.567745
 20
-79.10683
 11
1.567675
 21
-79.10683
  0
LINE
  8
型材断面
  6
CONTINUOUS
 62
    47
 10
1.067707
 20
-80.70683
 11
1.23437
 21
-80.70683
  0
LINE
  8
型材断面
  6
CONTINUOUS
 62
    47
 10
1.567675
 20
-79.10683
 11
1.567703
 21
-80.37349
  0
ARC
  8
型材断面
  6
CONTINUOUS
 62
    47
 10
1.234369
 20
-80.373495
 40
0.333333
 50
270.0
 51
360.001253
  0
LINE
  8
型材断面
  6
CONTINUOUS
 62
    47
 10
-0.965665
 20
-79.10683
 11
1.001008
 21
-79.10683
  0
LINE
  8
型材断面
  6
CONTINUOUS
 62
    47
 10
-2.765662
 20
-79.10683
 11
-6.6323
 21
-79.10683
  0
LINE
  8
型材断面
  6
CONTINUOUS
 62
    47
 10
-6.6323
 20
-79.10683
 11
-6.63234
 21
-80.940165
  0
LINE
  8
型材断面
  6
CONTINUOUS
 62
    47
 10
-7.865655
 20
-80.940165
 11
-7.865655
 21
-80.940165
  0
ARC
  8
型材断面
  6
CONTINUOUS
 62
    47
 10
-7.698988
 20
-80.940162
 40
0.166667
 50
90.0
 51
180.0
  0
LINE
  8
型材断面
  6
CONTINUOUS
 62
    47
 10
-7.698988
 20
-80.773498
 11
-7.298975
 21
-80.773498
  0
LINE
  8
型材断面
  6
CONTINUOUS
 62
    47
 10
-7.13234
 20
-80.940165
 11
-7.13234
 21
-80.940135
  0
ARC
  8
型材断面
  6
CONTINUOUS
 62
    47
 10
-7.298975
 20
-80.940128
 40
0.166633
 50
-0.001289
 51
90.0
  0
LINE
  8
型材断面
  6
CONTINUOUS
 62
    47
 10
-7.698988
 20
-80.040165
 11
-7.698988
 21
-80.173498
  0
LINE
  8
型材断面
  6
CONTINUOUS
 62
    47
 10
-8.198988
 20
-80.273498
 11
-7.798988
 21
-80.273498
  0
ARC
  8
型材断面
  6
CONTINUOUS
 62
    47
 10
-7.798988
 20
-80.173495
 40
0.1
 50
-90.0
 51
0.0
  0
LINE
  8
型材断面
  6
CONTINUOUS
 62
    47
 10
0.001043
 20
-80.940165
 11
0.001043
 21
-80.940165
  0
ARC
  8
型材断面
  6
CONTINUOUS
 62
    47
 10
-0.165625
 20
-80.940162
 40
0.166667
 50
0.0
 51
90.0
  0
LINE
  8
型材断面
  6
CONTINUOUS
 62
    47
 10
-1.098963
 20
-80.940165
 11
-1.098963
 21
-80.94014
  0
LINE
  8
型材断面
  6
CONTINUOUS
 62
    47
 10
-0.165625
 20
-80.773498
 11
-0.93233
 21
-80.773498
  0
ARC
  8
型材断面
  6
CONTINUOUS
 62
    47
 10
-0.93233
 20
-80.940128
 40
0.166633
 50
90.0
 51
180.002865
  0
LINE
  8
型材断面
  6
CONTINUOUS
 62
    47
 10
-8.198973
 20
-80.940165
 11
-7.865655
 21
-80.940165
  0
LINE
  8
型材断面
  6
CONTINUOUS
 62
    47
 10
-7.13234
 20
-80.940165
 11
-6.63234
 21
-80.940165
  0
LINE
  8
型材断面
  6
CONTINUOUS
 62
    47
 10
-1.765655
 20
-80.940165
 11
-1.098963
 21
-80.940165
  0
LINE
  8
型材断面
  6
CONTINUOUS
 62
    47
 10
0.001043
 20
-80.940165
 11
0.834375
 21
-80.940165
  0
LINE
  8
型材断面
  6
CONTINUOUS
 62
    47
 10
-2.765662
 20
-79.10683
 11
-2.598995
 21
-79.273498
  0
LINE
  8
型材断面
  6
CONTINUOUS
 62
    47
 10
-0.965662
 20
-79.273498
 11
-2.598995
 21
-79.273498
  0
LINE
  8
型材断面
  6
CONTINUOUS
 62
    47
 10
-9.198978
 20
-79.10683
 11
-9.032312
 21
-79.273498
  0
LINE
  8
型材断面
  6
CONTINUOUS
 62
    47
 10
-7.198967
 20
-79.10683
 11
-8.298978
 21
-79.10683
  0
LINE
  8
型材断面
  6
CONTINUOUS
 62
    47
 10
-9.032312
 20
-79.273498
 11
-8.298978
 21
-79.273498
  0
LINE
  8
型材断面
  6
CONTINUOUS
 62
    47
 10
-8.298978
 20
-79.10683
 11
-8.298978
 21
-79.273498
  0
LINE
  8
型材断面
  6
CONTINUOUS
 62
    47
 10
-14.432222
 20
-79.340165
 11
-14.432222
 21
-79.10683
  0
LINE
  8
型材断面
  6
CONTINUOUS
 62
    47
 10
-9.198978
 20
-79.10683
 11
-14.432222
 21
-79.10683
  0
LINE
  8
型材断面
  6
CONTINUOUS
 62
    47
 10
-16.09889
 20
-78.606835
 11
-16.098877
 21
-79.340165
  0
LINE
  8
型材断面
  6
CONTINUOUS
 62
    47
 10
-15.765555
 20
-78.273498
 11
-4.432237
 21
-78.273498
  0
ARC
  8
型材断面
  6
CONTINUOUS
 10
-15.765555
 20
-78.606829
 40
0.333333
 50
90.0
 51
180.000843
  0
ENDBLK
  0
BLOCK
  2
*GRP_0013
 70
    65
 10
0.0
 20
0.0
  0
LINE
  8
型材断面
  6
CONTINUOUS
 62
    47
 10
-9.19894
 20
-79.273528
 11
-9.19894
 21
-81.440195
  0
ARC
  8
型材断面
  6
CONTINUOUS
 62
    47
 10
-9.032272
 20
-81.440194
 40
0.166667
 50
180.0
 51
270.0
  0
ARC
  8
型材断面
  6
CONTINUOUS
 62
    47
 10
-7.532273
 20
-79.440193
 40
0.166667
 50
0.0
 51
90.0
  0
LINE
  8
型材断面
  6
CONTINUOUS
 62
    47
 10
-7.365607
 20
-79.440195
 11
-7.365607
 21
-79.773528
  0
ARC
  8
型材断面
  6
CONTINUOUS
 62
    47
 10
-7.532273
 20
-79.773526
 40
0.166667
 50
270.0
 51
360.0
  0
LINE
  8
型材断面
  6
CONTINUOUS
 62
    47
 10
-7.532275
 20
-79.273528
 11
-9.19894
 21
-79.273528
  0
LINE
  8
型材断面
  6
CONTINUOUS
 62
    47
 10
-8.365607
 20
-80.940195
 11
-6.09894
 21
-80.940195
  0
ARC
  8
型材断面
  6
CONTINUOUS
 62
    47
 10
0.667727
 20
-79.440193
 40
0.166667
 50
0.0
 51
90.0
  0
LINE
  8
型材断面
  6
CONTINUOUS
 62
    47
 10
0.834392
 20
-79.440195
 11
0.834392
 21
-79.773528
  0
ARC
  8
型材断面
  6
CONTINUOUS
 62
    47
 10
0.667727
 20
-79.773526
 40
0.166667
 50
270.0
 51
360.0
  0
ARC
  8
型材断面
  6
CONTINUOUS
 62
    47
 10
0.667728
 20
-81.60686
 40
0.166667
 50
270.0
 51
360.0
  0
ARC
  8
型材断面
  6
CONTINUOUS
 62
    47
 10
0.667727
 20
-81.10686
 40
0.166667
 50
0.0
 51
90.0
  0
LINE
  8
型材断面
  6
CONTINUOUS
 62
    47
 10
0.834392
 20
-81.10686
 11
0.834392
 21
-81.60686
  0
LINE
  8
型材断面
  6
CONTINUOUS
 62
    47
 10
-1.932275
 20
-80.940195
 11
0.667725
 21
-80.940195
  0
LINE
  8
型材断面
  6
CONTINUOUS
 62
    47
 10
0.667725
 20
-79.940195
 11
-1.59894
 21
-79.940195
  0
LINE
  8
型材断面
  6
CONTINUOUS
 62
    47
 10
-1.59894
 20
-79.940195
 11
-1.59894
 21
-80.173528
  0
LINE
  8
型材断面
  6
CONTINUOUS
 62
    47
 10
-1.932275
 20
-80.173528
 11
-1.59894
 21
-80.173528
  0
LINE
  8
型材断面
  6
CONTINUOUS
 62
    47
 10
-1.932275
 20
-80.940195
 11
-1.932275
 21
-80.173528
  0
LINE
  8
型材断面
  6
CONTINUOUS
 62
    47
 10
-8.032275
 20
-80.173528
 11
-8.365607
 21
-80.173528
  0
LINE
  8
型材断面
  6
CONTINUOUS
 62
    47
 10
-8.365607
 20
-80.940195
 11
-8.365607
 21
-80.173528
  0
LINE
  8
型材断面
  6
CONTINUOUS
 62
    47
 10
-8.032275
 20
-80.173528
 11
-8.032275
 21
-79.940195
  0
LINE
  8
型材断面
  6
CONTINUOUS
 62
    47
 10
-7.532275
 20
-79.940195
 11
-8.032275
 21
-79.940195
  0
LINE
  8
型材断面
  6
CONTINUOUS
 62
    47
 10
-0.332275
 20
-79.373527
 11
-0.232275
 21
-79.273528
  0
LINE
  8
型材断面
  6
CONTINUOUS
 62
    47
 10
-0.332275
 20
-79.373527
 11
-0.432275
 21
-79.273528
  0
LINE
  8
型材断面
  6
CONTINUOUS
 62
    47
 10
-2.765607
 20
-79.273528
 11
-0.432275
 21
-79.273528
  0
LINE
  8
型材断面
  6
CONTINUOUS
 62
    47
 10
0.667725
 20
-79.273528
 11
-0.232275
 21
-79.273528
  0
LINE
  8
型材断面
  6
CONTINUOUS
 62
    47
 10
-1.332275
 20
-81.773528
 11
0.667728
 21
-81.773528
  0
ARC
  8
型材断面
  6
CONTINUOUS
 62
    47
 10
-1.332274
 20
-82.440193
 40
0.666667
 50
90.0
 51
180.0
  0
LINE
  8
型材断面
  6
CONTINUOUS
 62
    47
 10
-9.032275
 20
-81.60686
 11
-7.532275
 21
-81.60686
  0
ARC
  8
型材断面
  6
CONTINUOUS
 62
    47
 10
-7.532274
 20
-82.273527
 40
0.666667
 50
0.0
 51
90.0
  0
LINE
  8
型材断面
  6
CONTINUOUS
 62
    47
 10
-2.66544
 20
-85.106865
 11
-2.66544
 21
-85.206865
  0
LINE
  8
型材断面
  6
CONTINUOUS
 62
    47
 10
-6.19894
 20
-85.106865
 11
-6.19894
 21
-85.206865
  0
LINE
  8
型材断面
  6
CONTINUOUS
 62
    47
 10
-2.66544
 20
-85.106865
 11
-6.19894
 21
-85.106865
  0
LINE
  8
型材断面
  6
CONTINUOUS
 62
    47
 10
-6.465607
 20
-85.106865
 11
-6.465607
 21
-85.206865
  0
LINE
  8
型材断面
  6
CONTINUOUS
 62
    47
 10
-6.19894
 20
-85.206865
 11
-6.465607
 21
-85.206865
  0
LINE
  8
型材断面
  6
CONTINUOUS
 62
    47
 10
-2.398772
 20
-85.106865
 11
-2.398772
 21
-85.206865
  0
LINE
  8
型材断面
  6
CONTINUOUS
 62
    47
 10
-2.66544
 20
-85.206865
 11
-2.398772
 21
-85.206865
  0
LINE
  8
型材断面
  6
CONTINUOUS
 62
    47
 10
-2.398772
 20
-85.106865
 11
-1.99894
 21
-85.106865
  0
LINE
  8
型材断面
  6
CONTINUOUS
 62
    47
 10
-6.465607
 20
-85.106865
 11
-6.865607
 21
-85.106865
  0
ARC
  8
型材断面
  6
CONTINUOUS
 62
    47
 10
-2.932272
 20
-84.17353
 40
0.166667
 50
270.0
 51
360.0
  0
ARC
  8
型材断面
  6
CONTINUOUS
 62
    47
 10
-5.932272
 20
-84.17353
 40
0.166667
 50
180.0
 51
270.0
  0
LINE
  8
型材断面
  6
CONTINUOUS
 62
    47
 10
-4.432275
 20
-84.440197
 11
-4.332275
 21
-84.340197
  0
LINE
  8
型材断面
  6
CONTINUOUS
 62
    47
 10
-4.432275
 20
-84.440197
 11
-4.532275
 21
-84.340197
  0
LINE
  8
型材断面
  6
CONTINUOUS
 62
    47
 10
-4.332275
 20
-84.340197
 11
-2.932275
 21
-84.340197
  0
LINE
  8
型材断面
  6
CONTINUOUS
 62
    47
 10
-5.932275
 20
-84.340197
 11
-4.532275
 21
-84.340197
  0
LINE
  8
型材断面
  6
CONTINUOUS
 62
    47
 10
-6.865607
 20
-82.273528
 11
-6.865607
 21
-85.106865
  0
LINE
  8
型材断面
  6
CONTINUOUS
 62
    47
 10
-1.99894
 20
-82.440195
 11
-1.99894
 21
-85.106865
  0
LINE
  8
型材断面
  6
CONTINUOUS
 62
    47
 10
-6.09894
 20
-80.940195
 11
-6.09894
 21
-84.173532
  0
LINE
  8
型材断面
  6
CONTINUOUS
 62
    47
 10
-2.765607
 20
-79.273528
 11
-2.765607
 21
-84.173532
  0
LINE
  8
型材断面
  6
DOT
 10
-4.432275
 20
-85.106865
 11
-4.432275
 21
-84.340197
  0
ENDBLK
  0
BLOCK
  2
*GRP_0014
 70
    65
 10
0.0
 20
0.0
  0
LINE
  8
型材断面
  6
CONTINUOUS
 62
    47
 10
129.095578
 20
4.78575
 11
129.095578
 21
15.109615
  0
LINE
  8
型材断面
  6
CONTINUOUS
 62
    47
 10
167.762313
 20
8.55592
 11
129.095578
 21
15.109615
  0
LINE
  8
型材断面
  6
CONTINUOUS
 62
    47
 10
167.762313
 20
8.55592
 11
167.762313
 21
4.78575
  0
LINE
  8
型材断面
  6
CONTINUOUS
 62
    47
 10
163.42894
 20
4.119125
 11
168.428858
 21
4.119125
  0
LINE
  8
型材断面
  6
CONTINUOUS
 62
    47
 10
134.962207
 20
4.78575
 11
129.095578
 21
4.78575
  0
LINE
  8
型材断面
  6
CONTINUOUS
 62
    47
 10
134.962207
 20
4.119125
 11
128.42892
 21
4.119125
  0
LINE
  8
型材断面
  6
CONTINUOUS
 62
    47
 10
135.095598
 20
4.252455
 11
135.095598
 21
4.652477
  0
LINE
  8
型材断面
  6
CONTINUOUS
 62
    47
 10
160.228875
 20
4.78575
 11
167.762313
 21
4.78575
  0
LINE
  8
型材断面
  6
CONTINUOUS
 62
    47
 10
160.228875
 20
4.119125
 11
162.762225
 21
4.119125
  0
LINE
  8
型材断面
  6
CONTINUOUS
 62
    47
 10
160.095602
 20
4.252455
 11
160.095602
 21
4.652477
  0
LINE
  8
型材断面
  6
CONTINUOUS
 62
    47
 10
168.428858
 20
4.119125
 11
168.428858
 21
9.119103
  0
LINE
  8
型材断面
  6
CONTINUOUS
 62
    47
 10
168.428858
 20
9.119103
 11
139.095543
 21
14.090907
  0
LINE
  8
型材断面
  6
CONTINUOUS
 62
    47
 10
138.428935
 20
14.203908
 11
129.095578
 21
15.785782
  0
LINE
  8
型材断面
  6
CONTINUOUS
 62
    47
 10
138.428935
 20
16.78576
 11
136.929
 21
16.78576
  0
LINE
  8
型材断面
  6
CONTINUOUS
 62
    47
 10
136.929
 20
18.45243
 11
137.328935
 21
18.45243
  0
LINE
  8
型材断面
  6
CONTINUOUS
 62
    47
 10
137.328935
 20
18.45243
 11
137.328935
 21
17.45244
  0
LINE
  8
型材断面
  6
CONTINUOUS
 62
    47
 10
137.328935
 20
17.45244
 11
138.428935
 21
17.45244
  0
LINE
  8
型材断面
  6
CONTINUOUS
 62
    47
 10
138.428935
 20
16.78576
 11
138.428935
 21
14.203908
  0
LINE
  8
型材断面
  6
CONTINUOUS
 62
    47
 10
136.929
 20
18.45243
 11
136.929
 21
16.78576
  0
ARC
  8
型材断面
  6
CONTINUOUS
 62
    47
 10
134.962209
 20
4.652477
 40
0.133333
 50
359.997253
 51
449.998627
  0
ARC
  8
型材断面
  6
CONTINUOUS
 62
    47
 10
134.962209
 20
4.252454
 40
0.133333
 50
269.99588
 51
359.997253
  0
ARC
  8
型材断面
  6
CONTINUOUS
 62
    47
 10
160.228876
 20
4.652477
 40
0.133333
 50
89.998627
 51
180.0
  0
ARC
  8
型材断面
  6
CONTINUOUS
 62
    47
 10
160.228876
 20
4.252454
 40
0.133333
 50
180.0
 51
269.99588
  0
LINE
  8
型材断面
  6
CONTINUOUS
 62
    47
 10
137.328935
 20
31.452355
 11
136.929
 21
31.452355
  0
LINE
  8
型材断面
  6
CONTINUOUS
 62
    47
 10
137.328935
 20
30.785675
 11
138.428935
 21
30.785675
  0
LINE
  8
型材断面
  6
CONTINUOUS
 62
    47
 10
136.929
 20
31.452355
 11
139.095543
 21
31.452355
  0
LINE
  8
型材断面
  6
CONTINUOUS
 62
    47
 10
139.095543
 20
30.785802
 11
139.095543
 21
31.452355
  0
LINE
  8
型材断面
  6
CONTINUOUS
 62
    47
 10
138.428935
 20
30.785802
 11
137.328935
 21
30.785802
  0
LINE
  8
型材断面
  6
CONTINUOUS
 62
    47
 10
138.428935
 20
23.785763
 11
130.762275
 21
23.785763
  0
LINE
  8
型材断面
  6
CONTINUOUS
 62
    47
 10
130.762275
 20
23.785763
 11
130.762275
 21
25.11908
  0
LINE
  8
型材断面
  6
CONTINUOUS
 62
    47
 10
130.762275
 20
25.11908
 11
131.16221
 21
25.11908
  0
LINE
  8
型材断面
  6
CONTINUOUS
 62
    47
 10
131.16221
 20
24.45246
 11
131.16221
 21
25.11908
  0
LINE
  8
型材断面
  6
CONTINUOUS
 62
    47
 10
136.09571
 20
25.71906
 11
134.76234
 21
25.71906
  0
LINE
  8
型材断面
  6
CONTINUOUS
 62
    47
 10
134.76234
 20
25.71906
 11
134.76234
 21
24.45239
  0
LINE
  8
型材断面
  6
CONTINUOUS
 62
    47
 10
135.262303
 20
24.45239
 11
135.262303
 21
25.21906
  0
LINE
  8
型材断面
  6
CONTINUOUS
 62
    47
 10
135.262303
 20
25.21906
 11
136.09571
 21
25.21906
  0
LINE
  8
型材断面
  6
CONTINUOUS
 62
    47
 10
136.09571
 20
25.21906
 11
136.09571
 21
25.71906
  0
LINE
  8
型材断面
  6
CONTINUOUS
 62
    47
 10
131.16221
 20
24.45246
 11
134.76234
 21
24.45246
  0
LINE
  8
型材断面
  6
CONTINUOUS
 62
    47
 10
135.262303
 20
24.45239
 11
138.428935
 21
24.45239
  0
LINE
  8
型材断面
  6
CONTINUOUS
 62
    47
 10
138.428935
 20
17.45244
 11
138.428935
 21
23.785763
  0
LINE
  8
型材断面
  6
CONTINUOUS
 62
    47
 10
138.428935
 20
30.785802
 11
138.428935
 21
24.45239
  0
LINE
  8
型材断面
  6
CONTINUOUS
 10
136.929
 20
29.78569
 11
137.328935
 21
29.78569
  0
LINE
  8
型材断面
  6
CONTINUOUS
 62
    47
 10
137.328935
 20
30.785675
 11
137.328935
 21
29.78569
  0
LINE
  8
型材断面
  6
CONTINUOUS
 62
    47
 10
139.962242
 20
28.685767
 11
139.095543
 21
28.685767
  0
LINE
  8
型材断面
  6
CONTINUOUS
 62
    47
 10
139.962242
 20
28.28579
 11
139.095543
 21
28.28579
  0
LINE
  8
型材断面
  6
CONTINUOUS
 62
    47
 10
140.095515
 20
28.419123
 11
140.095515
 21
28.552453
  0
ARC
  8
型材断面
  6
CONTINUOUS
 62
    47
 10
139.962245
 20
28.552453
 40
0.133333
 50
359.997253
 51
449.998627
  0
ARC
  8
型材断面
  6
CONTINUOUS
 62
    47
 10
139.962245
 20
28.419121
 40
0.133333
 50
269.99588
 51
359.997253
  0
LINE
  8
型材断面
  6
CONTINUOUS
 62
    47
 10
148.961705
 20
28.28579
 11
150.495012
 21
28.28579
  0
LINE
  8
型材断面
  6
CONTINUOUS
 62
    47
 10
148.961705
 20
28.685767
 11
149.828428
 21
28.685767
  0
LINE
  8
型材断面
  6
CONTINUOUS
 62
    47
 10
148.828433
 20
28.552453
 11
148.828433
 21
28.419123
  0
ARC
  8
型材断面
  6
CONTINUOUS
 62
    47
 10
148.961707
 20
28.419121
 40
0.133333
 50
180.0
 51
269.99588
  0
ARC
  8
型材断面
  6
CONTINUOUS
 62
    47
 10
148.961707
 20
28.552453
 40
0.133333
 50
89.998627
 51
180.0
  0
LINE
  8
型材断面
  6
CONTINUOUS
 62
    47
 10
139.095543
 20
14.090907
 11
139.095543
 21
28.28579
  0
LINE
  8
型材断面
  6
CONTINUOUS
 10
139.095543
 20
29.785802
 11
149.828428
 21
29.785802
  0
LINE
  8
型材断面
  6
CONTINUOUS
 62
    47
 10
149.828428
 20
28.685767
 11
149.828428
 21
29.785802
  0
LINE
  8
型材断面
  6
CONTINUOUS
 62
    47
 10
139.095543
 20
28.685767
 11
139.095543
 21
29.785802
  0
LINE
  8
型材断面
  6
CONTINUOUS
 10
145.095077
 20
30.685802
 11
144.995077
 21
30.785802
  0
LINE
  8
型材断面
  6
CONTINUOUS
 62
    47
 10
139.095543
 20
30.785802
 11
144.995077
 21
30.785802
  0
LINE
  8
型材断面
  6
CONTINUOUS
 10
145.095077
 20
30.685802
 11
145.195077
 21
30.785802
  0
LINE
  8
型材断面
  6
CONTINUOUS
 62
    47
 10
145.195077
 20
30.785802
 11
150.495012
 21
30.785802
  0
LINE
  8
型材断面
  6
CONTINUOUS
 10
150.495012
 20
28.28579
 11
150.495012
 21
30.785802
  0
LINE
  8
型材断面
  6
CONTINUOUS
 62
    47
 10
162.762225
 20
4.119125
 11
162.762225
 21
-0.880875
  0
LINE
  8
型材断面
  6
CONTINUOUS
 10
163.428953
 20
-0.880875
 11
162.762225
 21
-0.880875
  0
LINE
  8
型材断面
  6
CONTINUOUS
 10
163.328953
 20
1.619125
 11
163.428953
 21
1.719125
  0
LINE
  8
型材断面
  6
CONTINUOUS
 10
163.328953
 20
1.619125
 11
163.428953
 21
1.519125
  0
LINE
  8
型材断面
  6
CONTINUOUS
 62
    47
 10
163.42894
 20
4.119125
 11
163.42894
 21
1.719112
  0
LINE
  8
型材断面
  6
CONTINUOUS
 62
    47
 10
163.42894
 20
1.519138
 11
163.42894
 21
-0.880875
  0
LINE
  8
型材断面
  6
CONTINUOUS
 10
129.095578
 20
18.785782
 11
128.42892
 21
18.785782
  0
LINE
  8
型材断面
  6
CONTINUOUS
 62
    47
 10
129.095578
 20
15.785782
 11
129.095578
 21
18.785782
  0
LINE
  8
型材断面
  6
CONTINUOUS
 62
    47
 10
128.42892
 20
4.119125
 11
128.42892
 21
18.785782
  0
LINE
  8
型材断面
  6
CONTINUOUS
 10
136.929
 20
31.452355
 11
136.929
 21
29.78569
  0
CIRCLE
  8
LAYER010
  6
CONTINUOUS
 62
     7
 10
168.428858
 20
9.119103
 40
0.11111
  0
ENDBLK
  0
BLOCK
  2
*GRP_0015
 70
    65
 10
0.0
 20
0.0
  0
LINE
  8
ゴム等
  6
CONTINUOUS
 10
-61.084135
 20
-29.04231
 11
-61.084135
 21
-31.708978
  0
LINE
  8
ゴム等
  6
CONTINUOUS
 10
-61.084135
 20
-29.04231
 11
-63.250803
 21
-29.04231
  0
LINE
  8
ゴム等
  6
CONTINUOUS
 10
-61.084135
 20
-31.708978
 11
-62.917468
 21
-31.708978
  0
LINE
  8
ゴム等
  6
CONTINUOUS
 10
-63.250803
 20
-31.375645
 11
-63.250803
 21
-29.04231
  0
LINE
  8
ゴム等
  6
CONTINUOUS
 10
-62.917468
 20
-31.708978
 11
-63.250803
 21
-31.375645
  0
INSERT
  2
*HAT_0001
  8
ゴム等
 10
0.0
 20
0.0
  0
ENDBLK
  0
BLOCK
  2
*GRP_0016
 70
    65
 10
0.0
 20
0.0
  0
LINE
  8
ゴム等
  6
CONTINUOUS
 10
52.219675
 20
-29.04231
 11
52.219675
 21
-31.708978
  0
LINE
  8
ゴム等
  6
CONTINUOUS
 10
52.219675
 20
-29.04231
 11
54.386342
 21
-29.04231
  0
LINE
  8
ゴム等
  6
CONTINUOUS
 10
52.219675
 20
-31.708978
 11
54.053008
 21
-31.708978
  0
LINE
  8
ゴム等
  6
CONTINUOUS
 10
54.386342
 20
-31.375645
 11
54.386342
 21
-29.04231
  0
LINE
  8
ゴム等
  6
CONTINUOUS
 10
54.053008
 20
-31.708978
 11
54.386342
 21
-31.375645
  0
INSERT
  2
*HAT_0002
  8
ゴム等
 10
0.0
 20
0.0
  0
ENDBLK
  0
BLOCK
  2
*GRP_0017
 70
    65
 10
0.0
 20
0.0
  0
LINE
  8
ゴム等
  6
CONTINUOUS
 10
4.734438
 20
-29.04231
 11
4.734438
 21
-31.708978
  0
LINE
  8
ゴム等
  6
CONTINUOUS
 10
4.734438
 20
-29.04231
 11
2.56777
 21
-29.04231
  0
LINE
  8
ゴム等
  6
CONTINUOUS
 10
4.734438
 20
-31.708978
 11
2.901105
 21
-31.708978
  0
LINE
  8
ゴム等
  6
CONTINUOUS
 10
2.56777
 20
-31.375645
 11
2.56777
 21
-29.04231
  0
LINE
  8
ゴム等
  6
CONTINUOUS
 10
2.901105
 20
-31.708978
 11
2.56777
 21
-31.375645
  0
INSERT
  2
*HAT_0003
  8
ゴム等
 10
0.0
 20
0.0
  0
ENDBLK
  0
BLOCK
  2
*GRP_0018
 70
    65
 10
0.0
 20
0.0
  0
LINE
  8
ゴム等
  6
CONTINUOUS
 10
-13.598898
 20
-29.04231
 11
-13.598898
 21
-31.708978
  0
LINE
  8
ゴム等
  6
CONTINUOUS
 10
-13.598898
 20
-29.04231
 11
-11.43223
 21
-29.04231
  0
LINE
  8
ゴム等
  6
CONTINUOUS
 10
-13.598898
 20
-31.708978
 11
-11.765565
 21
-31.708978
  0
LINE
  8
ゴム等
  6
CONTINUOUS
 10
-11.43223
 20
-31.375645
 11
-11.43223
 21
-29.04231
  0
LINE
  8
ゴム等
  6
CONTINUOUS
 10
-11.765565
 20
-31.708978
 11
-11.43223
 21
-31.375645
  0
INSERT
  2
*HAT_0004
  8
ゴム等
 10
0.0
 20
0.0
  0
ENDBLK
  0
BLOCK
  2
*GRP_0019
 70
    65
 10
0.0
 20
0.0
  0
LINE
  8
ゴム等
  6
CONTINUOUS
 10
4.734445
 20
-88.540197
 11
4.734445
 21
-91.206865
  0
LINE
  8
ゴム等
  6
CONTINUOUS
 10
4.734445
 20
-88.540197
 11
2.567778
 21
-88.540197
  0
LINE
  8
ゴム等
  6
CONTINUOUS
 10
4.734445
 20
-91.206865
 11
2.901113
 21
-91.206865
  0
LINE
  8
ゴム等
  6
CONTINUOUS
 10
2.567778
 20
-90.873532
 11
2.567778
 21
-88.540197
  0
LINE
  8
ゴム等
  6
CONTINUOUS
 10
2.901113
 20
-91.206865
 11
2.567778
 21
-90.873532
  0
INSERT
  2
*HAT_0005
  8
ゴム等
 10
0.0
 20
0.0
  0
ENDBLK
  0
BLOCK
  2
*GRP_0020
 70
    65
 10
0.0
 20
0.0
  0
LINE
  8
ゴム等
  6
CONTINUOUS
 10
-13.59889
 20
-88.540197
 11
-13.59889
 21
-91.206865
  0
LINE
  8
ゴム等
  6
CONTINUOUS
 10
-13.59889
 20
-88.540197
 11
-11.432222
 21
-88.540197
  0
LINE
  8
ゴム等
  6
CONTINUOUS
 10
-13.59889
 20
-91.206865
 11
-11.765557
 21
-91.206865
  0
LINE
  8
ゴム等
  6
CONTINUOUS
 10
-11.432222
 20
-90.873532
 11
-11.432222
 21
-88.540197
  0
LINE
  8
ゴム等
  6
CONTINUOUS
 10
-11.765557
 20
-91.206865
 11
-11.432222
 21
-90.873532
  0
INSERT
  2
*HAT_0006
  8
ゴム等
 10
0.0
 20
0.0
  0
ENDBLK
  0
BLOCK
  2
*GRP_0021
 70
    65
 10
0.0
 20
0.0
  0
LINE
  8
ボルト／ビス
  6
CONTINUOUS
 62
    64
 10
-93.88421
 20
-53.368812
 11
-94.233598
 21
-53.39938
  0
ARC
  8
ボルト／ビス
  6
CONTINUOUS
 62
    64
 10
-94.18421
 20
-53.96389
 40
0.566667
 50
94.999989
 51
180.0
  0
LINE
  8
ボルト／ビス
  6
CONTINUOUS
 62
    64
 10
-94.750878
 20
-53.96389
 11
-94.750878
 21
-54.53548
  0
LINE
  8
ボルト／ビス
  6
CONTINUOUS
 62
    64
 10
-93.88421
 20
-55.702147
 11
-94.233598
 21
-55.67158
  0
ARC
  8
ボルト／ビス
  6
CONTINUOUS
 62
    64
 10
-94.18421
 20
-55.107068
 40
0.566667
 50
180.0
 51
265.000011
  0
LINE
  8
ボルト／ビス
  6
CONTINUOUS
 62
    64
 10
-94.750878
 20
-55.10707
 11
-94.750878
 21
-54.53548
  0
LINE
  8
ボルト／ビス
  6
CONTINUOUS
 62
    64
 10
-94.622575
 20
-53.7366
 11
-94.703295
 21
-53.7366
  0
LINE
  8
ボルト／ビス
  6
CONTINUOUS
 62
    64
 10
-94.40588
 20
-54.302147
 11
-94.40588
 21
-54.53548
  0
LINE
  8
ボルト／ビス
  6
CONTINUOUS
 62
    64
 10
-94.622575
 20
-54.168812
 11
-94.622575
 21
-53.7366
  0
LINE
  8
ボルト／ビス
  6
CONTINUOUS
 62
    64
 10
-94.40588
 20
-54.302147
 11
-94.489243
 21
-54.302147
  0
ARC
  8
ボルト／ビス
  6
CONTINUOUS
 62
    64
 10
-94.489242
 20
-54.168812
 40
0.133333
 50
180.0
 51
270.0
  0
LINE
  8
ボルト／ビス
  6
CONTINUOUS
 62
    64
 10
-94.622575
 20
-55.33436
 11
-94.703295
 21
-55.33436
  0
LINE
  8
ボルト／ビス
  6
CONTINUOUS
 62
    64
 10
-94.40588
 20
-54.768812
 11
-94.40588
 21
-54.53548
  0
LINE
  8
ボルト／ビス
  6
CONTINUOUS
 62
    64
 10
-94.622575
 20
-54.902147
 11
-94.622575
 21
-55.33436
  0
LINE
  8
ボルト／ビス
  6
CONTINUOUS
 62
    64
 10
-94.40588
 20
-54.768812
 11
-94.489243
 21
-54.768812
  0
ARC
  8
ボルト／ビス
  6
CONTINUOUS
 62
    64
 10
-94.489242
 20
-54.902145
 40
0.133333
 50
90.0
 51
180.0
  0
LINE
  8
ボルト／ビス
  6
CONTINUOUS
 62
    64
 10
-93.88421
 20
-53.368812
 11
-93.88421
 21
-55.702147
  0
LINE
  8
ボルト／ビス
  6
CONTINUOUS
 62
    64
 10
-90.717543
 20
-53.868812
 11
-90.550878
 21
-54.03548
  0
LINE
  8
ボルト／ビス
  6
CONTINUOUS
 62
    64
 10
-90.717543
 20
-55.202147
 11
-90.550878
 21
-55.03548
  0
LINE
  8
ボルト／ビス
  6
CONTINUOUS
 62
    64
 10
-90.717543
 20
-53.868812
 11
-90.717543
 21
-55.202147
  0
LINE
  8
ボルト／ビス
  6
CONTINUOUS
 62
    64
 10
-90.550878
 20
-54.03548
 11
-90.550878
 21
-55.03548
  0
LINE
  8
ボルト／ビス
  6
CONTINUOUS
 62
    64
 10
-95.408005
 20
-54.53548
 11
-90.02592
 21
-54.53548
  0
LINE
  8
ボルト／ビス
  6
CONTINUOUS
 62
    64
 10
-93.88421
 20
-53.868812
 11
-90.717543
 21
-53.868812
  0
LINE
  8
ボルト／ビス
  6
CONTINUOUS
 62
    64
 10
-93.88421
 20
-55.202147
 11
-90.717543
 21
-55.202147
  0
LINE
  8
ボルト／ビス
  6
CONTINUOUS
 62
    64
 10
-93.88421
 20
-55.03548
 11
-90.550878
 21
-55.03548
  0
LINE
  8
ボルト／ビス
  6
CONTINUOUS
 62
    64
 10
-93.88421
 20
-54.03548
 11
-90.550878
 21
-54.03548
  0
ENDBLK
  0
BLOCK
  2
*GRP_0022
 70
    65
 10
0.0
 20
0.0
  0
LINE
  8
ボルト／ビス
  6
CONTINUOUS
 62
    64
 10
85.01975
 20
-53.368812
 11
85.369138
 21
-53.39938
  0
ARC
  8
ボルト／ビス
  6
CONTINUOUS
 62
    64
 10
85.31975
 20
-53.96389
 40
0.566667
 50
0.0
 51
85.000011
  0
LINE
  8
ボルト／ビス
  6
CONTINUOUS
 62
    64
 10
85.886418
 20
-53.96389
 11
85.886418
 21
-54.53548
  0
LINE
  8
ボルト／ビス
  6
CONTINUOUS
 62
    64
 10
85.01975
 20
-55.702147
 11
85.369138
 21
-55.67158
  0
ARC
  8
ボルト／ビス
  6
CONTINUOUS
 62
    64
 10
85.31975
 20
-55.107068
 40
0.566667
 50
274.999989
 51
360.0
  0
LINE
  8
ボルト／ビス
  6
CONTINUOUS
 62
    64
 10
85.886418
 20
-55.10707
 11
85.886418
 21
-54.53548
  0
LINE
  8
ボルト／ビス
  6
CONTINUOUS
 62
    64
 10
85.758115
 20
-53.7366
 11
85.838835
 21
-53.7366
  0
LINE
  8
ボルト／ビス
  6
CONTINUOUS
 62
    64
 10
85.54142
 20
-54.302147
 11
85.54142
 21
-54.53548
  0
LINE
  8
ボルト／ビス
  6
CONTINUOUS
 62
    64
 10
85.758115
 20
-54.168812
 11
85.758115
 21
-53.7366
  0
LINE
  8
ボルト／ビス
  6
CONTINUOUS
 62
    64
 10
85.54142
 20
-54.302147
 11
85.624783
 21
-54.302147
  0
ARC
  8
ボルト／ビス
  6
CONTINUOUS
 62
    64
 10
85.624782
 20
-54.168812
 40
0.133333
 50
270.0
 51
360.0
  0
LINE
  8
ボルト／ビス
  6
CONTINUOUS
 62
    64
 10
85.758115
 20
-55.33436
 11
85.838835
 21
-55.33436
  0
LINE
  8
ボルト／ビス
  6
CONTINUOUS
 62
    64
 10
85.54142
 20
-54.768812
 11
85.54142
 21
-54.53548
  0
LINE
  8
ボルト／ビス
  6
CONTINUOUS
 62
    64
 10
85.758115
 20
-54.902147
 11
85.758115
 21
-55.33436
  0
LINE
  8
ボルト／ビス
  6
CONTINUOUS
 62
    64
 10
85.54142
 20
-54.768812
 11
85.624783
 21
-54.768812
  0
ARC
  8
ボルト／ビス
  6
CONTINUOUS
 62
    64
 10
85.624782
 20
-54.902145
 40
0.133333
 50
0.0
 51
90.0
  0
LINE
  8
ボルト／ビス
  6
CONTINUOUS
 62
    64
 10
85.01975
 20
-53.368812
 11
85.01975
 21
-55.702147
  0
LINE
  8
ボルト／ビス
  6
CONTINUOUS
 62
    64
 10
81.853082
 20
-53.868812
 11
81.686418
 21
-54.03548
  0
LINE
  8
ボルト／ビス
  6
CONTINUOUS
 62
    64
 10
81.853082
 20
-55.202147
 11
81.686418
 21
-55.03548
  0
LINE
  8
ボルト／ビス
  6
CONTINUOUS
 62
    64
 10
81.853082
 20
-53.868812
 11
81.853082
 21
-55.202147
  0
LINE
  8
ボルト／ビス
  6
CONTINUOUS
 62
    64
 10
81.686418
 20
-54.03548
 11
81.686418
 21
-55.03548
  0
LINE
  8
ボルト／ビス
  6
CONTINUOUS
 62
    64
 10
86.543545
 20
-54.53548
 11
81.16146
 21
-54.53548
  0
LINE
  8
ボルト／ビス
  6
CONTINUOUS
 62
    64
 10
85.01975
 20
-53.868812
 11
81.853082
 21
-53.868812
  0
LINE
  8
ボルト／ビス
  6
CONTINUOUS
 62
    64
 10
85.01975
 20
-55.202147
 11
81.853082
 21
-55.202147
  0
LINE
  8
ボルト／ビス
  6
CONTINUOUS
 62
    64
 10
85.01975
 20
-55.03548
 11
81.686418
 21
-55.03548
  0
LINE
  8
ボルト／ビス
  6
CONTINUOUS
 62
    64
 10
85.01975
 20
-54.03548
 11
81.686418
 21
-54.03548
  0
ENDBLK
  0
BLOCK
  2
*GRP_0023
 70
    65
 10
0.0
 20
0.0
  0
POLYLINE
  8
ボルト／ビス
  6
CONTINUOUS
 62
    64
 66
     1
  0
VERTEX
  8
ボルト／ビス
 10
55.985602
 20
-53.775642
  0
VERTEX
  8
ボルト／ビス
 10
55.981603
 20
-53.791968
  0
VERTEX
  8
ボルト／ビス
 10
55.969602
 20
-53.808143
  0
VERTEX
  8
ボルト／ビス
 10
55.949725
 20
-53.824022
  0
VERTEX
  8
ボルト／ビス
 10
55.922172
 20
-53.839422
  0
VERTEX
  8
ボルト／ビス
 10
55.887203
 20
-53.854195
  0
VERTEX
  8
ボルト／ビス
 10
55.845175
 20
-53.868222
  0
VERTEX
  8
ボルト／ビス
 10
55.796445
 20
-53.881368
  0
VERTEX
  8
ボルト／ビス
 10
55.741525
 20
-53.893495
  0
VERTEX
  8
ボルト／ビス
 10
55.680925
 20
-53.904468
  0
VERTEX
  8
ボルト／ビス
 10
55.615245
 20
-53.914222
  0
VERTEX
  8
ボルト／ビス
 10
55.545103
 20
-53.922623
  0
VERTEX
  8
ボルト／ビス
 10
55.471185
 20
-53.929623
  0
VERTEX
  8
ボルト／ビス
 10
55.394175
 20
-53.935123
  0
VERTEX
  8
ボルト／ビス
 10
55.314862
 20
-53.939095
  0
VERTEX
  8
ボルト／ビス
 10
55.233945
 20
-53.941495
  0
VERTEX
  8
ボルト／ビス
 10
55.152285
 20
-53.942295
  0
VERTEX
  8
ボルト／ビス
 10
55.070605
 20
-53.941495
  0
VERTEX
  8
ボルト／ビス
 10
54.989705
 20
-53.939095
  0
VERTEX
  8
ボルト／ビス
 10
54.910385
 20
-53.935123
  0
VERTEX
  8
ボルト／ビス
 10
54.833385
 20
-53.929623
  0
VERTEX
  8
ボルト／ビス
 10
54.759462
 20
-53.922623
  0
VERTEX
  8
ボルト／ビス
 10
54.689305
 20
-53.914222
  0
VERTEX
  8
ボルト／ビス
 10
54.623632
 20
-53.904468
  0
VERTEX
  8
ボルト／ビス
 10
54.563033
 20
-53.893495
  0
VERTEX
  8
ボルト／ビス
 10
54.508105
 20
-53.881368
  0
VERTEX
  8
ボルト／ビス
 10
54.459385
 20
-53.868222
  0
VERTEX
  8
ボルト／ビス
 10
54.417362
 20
-53.854195
  0
VERTEX
  8
ボルト／ビス
 10
54.382385
 20
-53.839422
  0
VERTEX
  8
ボルト／ビス
 10
54.354835
 20
-53.824022
  0
VERTEX
  8
ボルト／ビス
 10
54.334963
 20
-53.808143
  0
VERTEX
  8
ボルト／ビス
 10
54.322945
 20
-53.791968
  0
VERTEX
  8
ボルト／ビス
 10
54.318963
 20
-53.775642
  0
SEQEND
  0
LINE
  8
ボルト／ビス
  6
CONTINUOUS
 62
    64
 10
55.985602
 20
-53.775642
 11
56.152275
 21
-53.332903
  0
LINE
  8
ボルト／ビス
  6
CONTINUOUS
 62
    64
 10
54.322945
 20
-53.791968
 11
54.152285
 21
-53.332903
  0
LINE
  8
ボルト／ビス
  6
CONTINUOUS
 62
    64
 10
54.152285
 20
-53.108968
 11
54.152285
 21
-53.332903
  0
LINE
  8
ボルト／ビス
  6
CONTINUOUS
 62
    64
 10
56.152275
 20
-53.108968
 11
56.152275
 21
-53.332903
  0
ARC
  8
ボルト／ビス
  6
CONTINUOUS
 62
    64
 10
55.152279
 20
-53.665649
 40
0.033333
 50
9.840875
 51
170.159125
  0
LINE
  8
ボルト／ビス
  6
CONTINUOUS
 62
    64
 10
55.220472
 20
-53.863742
 11
55.545103
 21
-53.922623
  0
LINE
  8
ボルト／ビス
  6
CONTINUOUS
 62
    64
 10
55.084085
 20
-53.863742
 11
54.759462
 21
-53.922623
  0
LINE
  8
ボルト／ビス
  6
CONTINUOUS
 62
    64
 10
55.185132
 20
-53.659943
 11
55.220472
 21
-53.863742
  0
LINE
  8
ボルト／ビス
  6
CONTINUOUS
 62
    64
 10
55.119425
 20
-53.659943
 11
55.084085
 21
-53.863742
  0
LINE
  8
ボルト／ビス
  6
CONTINUOUS
 62
    64
 10
56.152275
 20
-53.108968
 11
54.152285
 21
-53.108968
  0
LINE
  8
ボルト／ビス
  6
CONTINUOUS
 62
    64
 10
55.818945
 20
-50.275662
 11
55.652275
 21
-50.108987
  0
LINE
  8
ボルト／ビス
  6
CONTINUOUS
 62
    64
 10
54.652285
 20
-50.108987
 11
54.485605
 21
-50.275662
  0
LINE
  8
ボルト／ビス
  6
CONTINUOUS
 62
    64
 10
54.652285
 20
-53.108968
 11
54.652285
 21
-50.108987
  0
LINE
  8
ボルト／ビス
  6
CONTINUOUS
 62
    64
 10
54.652285
 20
-50.108987
 11
55.652275
 21
-50.108987
  0
LINE
  8
ボルト／ビス
  6
CONTINUOUS
 62
    64
 10
55.652275
 20
-53.108968
 11
55.652275
 21
-50.108987
  0
LINE
  8
ボルト／ビス
  6
CONTINUOUS
 62
    64
 10
55.818945
 20
-53.108968
 11
55.818945
 21
-50.275662
  0
LINE
  8
ボルト／ビス
  6
CONTINUOUS
 62
    64
 10
55.818945
 20
-50.275662
 11
54.485605
 21
-50.275662
  0
LINE
  8
ボルト／ビス
  6
CONTINUOUS
 62
    64
 10
54.485605
 20
-53.108968
 11
54.485605
 21
-50.275662
  0
LINE
  8
ボルト／ビス
  6
CONTINUOUS
 62
    64
 10
55.152285
 20
-55.411888
 11
55.152285
 21
-49.523315
  0
ENDBLK
  0
BLOCK
  2
*GRP_0024
 70
    65
 10
0.0
 20
0.0
  0
POLYLINE
  8
ボルト／ビス
  6
CONTINUOUS
 62
    64
 66
     1
  0
VERTEX
  8
ボルト／ビス
 10
82.986335
 20
-53.775642
  0
VERTEX
  8
ボルト／ビス
 10
82.982332
 20
-53.791968
  0
VERTEX
  8
ボルト／ビス
 10
82.970333
 20
-53.808143
  0
VERTEX
  8
ボルト／ビス
 10
82.950462
 20
-53.824022
  0
VERTEX
  8
ボルト／ビス
 10
82.922905
 20
-53.839422
  0
VERTEX
  8
ボルト／ビス
 10
82.887935
 20
-53.854195
  0
VERTEX
  8
ボルト／ビス
 10
82.845905
 20
-53.868222
  0
VERTEX
  8
ボルト／ビス
 10
82.797183
 20
-53.881368
  0
VERTEX
  8
ボルト／ビス
 10
82.742262
 20
-53.893495
  0
VERTEX
  8
ボルト／ビス
 10
82.681662
 20
-53.904468
  0
VERTEX
  8
ボルト／ビス
 10
82.615983
 20
-53.914222
  0
VERTEX
  8
ボルト／ビス
 10
82.545832
 20
-53.922623
  0
VERTEX
  8
ボルト／ビス
 10
82.471923
 20
-53.929623
  0
VERTEX
  8
ボルト／ビス
 10
82.394905
 20
-53.935123
  0
VERTEX
  8
ボルト／ビス
 10
82.315592
 20
-53.939095
  0
VERTEX
  8
ボルト／ビス
 10
82.234683
 20
-53.941495
  0
VERTEX
  8
ボルト／ビス
 10
82.153023
 20
-53.942295
  0
VERTEX
  8
ボルト／ビス
 10
82.071342
 20
-53.941495
  0
VERTEX
  8
ボルト／ビス
 10
81.990443
 20
-53.939095
  0
VERTEX
  8
ボルト／ビス
 10
81.911123
 20
-53.935123
  0
VERTEX
  8
ボルト／ビス
 10
81.834123
 20
-53.929623
  0
VERTEX
  8
ボルト／ビス
 10
81.760193
 20
-53.922623
  0
VERTEX
  8
ボルト／ビス
 10
81.690042
 20
-53.914222
  0
VERTEX
  8
ボルト／ビス
 10
81.624365
 20
-53.904468
  0
VERTEX
  8
ボルト／ビス
 10
81.563765
 20
-53.893495
  0
VERTEX
  8
ボルト／ビス
 10
81.508842
 20
-53.881368
  0
VERTEX
  8
ボルト／ビス
 10
81.460123
 20
-53.868222
  0
VERTEX
  8
ボルト／ビス
 10
81.418095
 20
-53.854195
  0
VERTEX
  8
ボルト／ビス
 10
81.383122
 20
-53.839422
  0
VERTEX
  8
ボルト／ビス
 10
81.355565
 20
-53.824022
  0
VERTEX
  8
ボルト／ビス
 10
81.335693
 20
-53.808143
  0
VERTEX
  8
ボルト／ビス
 10
81.323682
 20
-53.791968
  0
VERTEX
  8
ボルト／ビス
 10
81.319695
 20
-53.775642
  0
SEQEND
  0
LINE
  8
ボルト／ビス
  6
CONTINUOUS
 62
    64
 10
82.986335
 20
-53.775642
 11
83.153005
 21
-53.332903
  0
LINE
  8
ボルト／ビス
  6
CONTINUOUS
 62
    64
 10
81.323682
 20
-53.791968
 11
81.153023
 21
-53.332903
  0
LINE
  8
ボルト／ビス
  6
CONTINUOUS
 62
    64
 10
81.153023
 20
-53.108968
 11
81.153023
 21
-53.332903
  0
LINE
  8
ボルト／ビス
  6
CONTINUOUS
 62
    64
 10
83.153005
 20
-53.108968
 11
83.153005
 21
-53.332903
  0
ARC
  8
ボルト／ビス
  6
CONTINUOUS
 62
    64
 10
82.153014
 20
-53.665649
 40
0.033333
 50
9.840875
 51
170.159125
  0
LINE
  8
ボルト／ビス
  6
CONTINUOUS
 62
    64
 10
82.221205
 20
-53.863742
 11
82.545832
 21
-53.922623
  0
LINE
  8
ボルト／ビス
  6
CONTINUOUS
 62
    64
 10
82.084822
 20
-53.863742
 11
81.760193
 21
-53.922623
  0
LINE
  8
ボルト／ビス
  6
CONTINUOUS
 62
    64
 10
82.185865
 20
-53.659943
 11
82.221205
 21
-53.863742
  0
LINE
  8
ボルト／ビス
  6
CONTINUOUS
 62
    64
 10
82.120162
 20
-53.659943
 11
82.084822
 21
-53.863742
  0
LINE
  8
ボルト／ビス
  6
CONTINUOUS
 62
    64
 10
83.153005
 20
-53.108968
 11
81.153023
 21
-53.108968
  0
LINE
  8
ボルト／ビス
  6
CONTINUOUS
 62
    64
 10
82.819683
 20
-50.275662
 11
82.653005
 21
-50.108987
  0
LINE
  8
ボルト／ビス
  6
CONTINUOUS
 62
    64
 10
81.653023
 20
-50.108987
 11
81.486342
 21
-50.275662
  0
LINE
  8
ボルト／ビス
  6
CONTINUOUS
 62
    64
 10
81.653023
 20
-53.108968
 11
81.653023
 21
-50.108987
  0
LINE
  8
ボルト／ビス
  6
CONTINUOUS
 62
    64
 10
81.653023
 20
-50.108987
 11
82.653005
 21
-50.108987
  0
LINE
  8
ボルト／ビス
  6
CONTINUOUS
 62
    64
 10
82.653005
 20
-53.108968
 11
82.653005
 21
-50.108987
  0
LINE
  8
ボルト／ビス
  6
CONTINUOUS
 62
    64
 10
82.819683
 20
-53.108968
 11
82.819683
 21
-50.275662
  0
LINE
  8
ボルト／ビス
  6
CONTINUOUS
 62
    64
 10
82.819683
 20
-50.275662
 11
81.486342
 21
-50.275662
  0
LINE
  8
ボルト／ビス
  6
CONTINUOUS
 62
    64
 10
81.486342
 20
-53.108968
 11
81.486342
 21
-50.275662
  0
LINE
  8
ボルト／ビス
  6
CONTINUOUS
 62
    64
 10
82.153023
 20
-55.411888
 11
82.153023
 21
-49.523315
  0
ENDBLK
  0
BLOCK
  2
*GRP_0025
 70
    65
 10
0.0
 20
0.0
  0
LINE
  8
ボルト／ビス
  6
CONTINUOUS
 62
    64
 10
74.870003
 20
-65.793858
 11
74.718235
 21
-66.210833
  0
ARC
  8
ボルト／ビス
  6
CONTINUOUS
 62
    64
 10
73.50528
 20
-65.585369
 40
1.364723
 50
0.0
 51
27.277966
  0
LINE
  8
ボルト／ビス
  6
CONTINUOUS
 62
    64
 10
74.870003
 20
-61.624105
 11
74.718235
 21
-61.20713
  0
ARC
  8
ボルト／ビス
  6
CONTINUOUS
 62
    64
 10
73.50528
 20
-61.83259
 40
1.364723
 50
332.722034
 51
360.0
  0
ARC
  8
ボルト／ビス
  6
CONTINUOUS
 62
    64
 10
69.638759
 20
-63.70898
 40
5.231244
 50
346.165046
 51
373.834954
  0
LINE
  8
ボルト／ビス
  6
CONTINUOUS
 62
    64
 10
73.153335
 20
-66.210833
 11
74.718235
 21
-66.210833
  0
LINE
  8
ボルト／ビス
  6
CONTINUOUS
 62
    64
 10
73.153335
 20
-61.20713
 11
74.718235
 21
-61.20713
  0
LINE
  8
ボルト／ビス
  6
CONTINUOUS
 62
    64
 10
74.870003
 20
-61.624105
 11
74.870003
 21
-65.793858
  0
LINE
  8
ボルト／ビス
  6
CONTINUOUS
 62
    64
 10
74.718235
 20
-62.458055
 11
73.153335
 21
-62.458055
  0
LINE
  8
ボルト／ビス
  6
CONTINUOUS
 62
    64
 10
74.718235
 20
-64.959908
 11
73.153335
 21
-64.959908
  0
LINE
  8
ボルト／ビス
  6
CONTINUOUS
 62
    64
 10
73.153335
 20
-61.20713
 11
73.153335
 21
-66.210833
  0
LINE
  8
ボルト／ビス
  6
CONTINUOUS
 62
    64
 10
72.553335
 20
-66.625648
 11
72.220003
 21
-66.625648
  0
LINE
  8
ボルト／ビス
  6
CONTINUOUS
 62
    64
 10
72.553335
 20
-60.792315
 11
72.220003
 21
-60.792315
  0
LINE
  8
ボルト／ビス
  6
CONTINUOUS
 62
    64
 10
72.553335
 20
-66.625648
 11
72.553335
 21
-60.792315
  0
LINE
  8
ボルト／ビス
  6
CONTINUOUS
 62
    64
 10
72.220003
 20
-66.625648
 11
72.220003
 21
-60.792315
  0
LINE
  8
ボルト／ビス
  6
CONTINUOUS
 62
    64
 10
73.153335
 20
-63.70898
 11
72.553335
 21
-63.70898
  0
LINE
  8
ボルト／ビス
  6
CONTINUOUS
 62
    64
 10
73.153335
 20
-61.075648
 11
72.553335
 21
-61.075648
  0
LINE
  8
ボルト／ビス
  6
CONTINUOUS
 62
    64
 10
73.153335
 20
-66.342315
 11
72.553335
 21
-66.342315
  0
LINE
  8
ボルト／ビス
  6
CONTINUOUS
 62
    64
 10
73.153335
 20
-61.075648
 11
73.153335
 21
-66.342315
  0
LINE
  8
ボルト／ビス
  6
CONTINUOUS
 62
    64
 10
76.536667
 20
-63.70898
 11
63.153335
 21
-63.70898
  0
LINE
  8
ボルト／ビス
  6
CONTINUOUS
 62
    64
 10
64.820003
 20
-62.642315
 11
64.820003
 21
-64.775648
  0
LINE
  8
ボルト／ビス
  6
CONTINUOUS
 62
    64
 10
65.220003
 20
-62.375648
 11
64.820003
 21
-62.642315
  0
LINE
  8
ボルト／ビス
  6
CONTINUOUS
 62
    64
 10
65.220003
 20
-65.042315
 11
64.820003
 21
-64.775648
  0
LINE
  8
ボルト／ビス
  6
CONTINUOUS
 62
    64
 10
64.820003
 20
-62.642315
 11
64.820003
 21
-64.775648
  0
LINE
  8
ボルト／ビス
  6
CONTINUOUS
 62
    64
 10
65.220003
 20
-62.375648
 11
65.220003
 21
-65.042315
  0
LINE
  8
ボルト／ビス
  6
CONTINUOUS
 62
    64
 10
72.220003
 20
-62.375648
 11
65.220003
 21
-62.375648
  0
LINE
  8
ボルト／ビス
  6
CONTINUOUS
 62
    64
 10
72.220003
 20
-65.042315
 11
65.220003
 21
-65.042315
  0
LINE
  8
ボルト／ビス
  6
CONTINUOUS
 62
    64
 10
72.220003
 20
-62.642315
 11
64.820003
 21
-62.642315
  0
LINE
  8
ボルト／ビス
  6
CONTINUOUS
 62
    64
 10
72.220003
 20
-64.775648
 11
64.820003
 21
-64.775648
  0
ENDBLK
  0
BLOCK
  2
*GRP_0026
 70
    65
 10
0.0
 20
0.0
  0
LINE
  8
ボルト／ビス
  6
CONTINUOUS
 62
    64
 10
67.436667
 20
-65.793855
 11
67.588433
 21
-66.21083
  0
ARC
  8
ボルト／ビス
  6
CONTINUOUS
 62
    64
 10
68.80139
 20
-65.585368
 40
1.364723
 50
152.722034
 51
180.0
  0
LINE
  8
ボルト／ビス
  6
CONTINUOUS
 62
    64
 10
67.436667
 20
-61.624103
 11
67.588433
 21
-61.207128
  0
ARC
  8
ボルト／ビス
  6
CONTINUOUS
 62
    64
 10
68.80139
 20
-61.832589
 40
1.364723
 50
180.0
 51
207.277966
  0
ARC
  8
ボルト／ビス
  6
CONTINUOUS
 62
    64
 10
72.667911
 20
-63.708978
 40
5.231244
 50
166.165046
 51
193.834954
  0
LINE
  8
ボルト／ビス
  6
CONTINUOUS
 62
    64
 10
69.153335
 20
-66.21083
 11
67.588433
 21
-66.21083
  0
LINE
  8
ボルト／ビス
  6
CONTINUOUS
 62
    64
 10
69.153335
 20
-61.207128
 11
67.588433
 21
-61.207128
  0
LINE
  8
ボルト／ビス
  6
CONTINUOUS
 62
    64
 10
67.436667
 20
-61.624103
 11
67.436667
 21
-65.793855
  0
LINE
  8
ボルト／ビス
  6
CONTINUOUS
 62
    64
 10
67.588433
 20
-62.458053
 11
69.153335
 21
-62.458053
  0
LINE
  8
ボルト／ビス
  6
CONTINUOUS
 62
    64
 10
67.588433
 20
-64.959905
 11
69.153335
 21
-64.959905
  0
LINE
  8
ボルト／ビス
  6
CONTINUOUS
 62
    64
 10
69.153335
 20
-61.207128
 11
69.153335
 21
-66.21083
  0
LINE
  8
ボルト／ビス
  6
CONTINUOUS
 62
    64
 10
69.753335
 20
-66.625645
 11
70.086667
 21
-66.625645
  0
LINE
  8
ボルト／ビス
  6
CONTINUOUS
 62
    64
 10
69.753335
 20
-60.792313
 11
70.086667
 21
-60.792313
  0
LINE
  8
ボルト／ビス
  6
CONTINUOUS
 62
    64
 10
69.753335
 20
-66.625645
 11
69.753335
 21
-60.792313
  0
LINE
  8
ボルト／ビス
  6
CONTINUOUS
 62
    64
 10
70.086667
 20
-66.625645
 11
70.086667
 21
-60.792313
  0
LINE
  8
ボルト／ビス
  6
CONTINUOUS
 62
    64
 10
69.153335
 20
-63.708978
 11
69.753335
 21
-63.708978
  0
LINE
  8
ボルト／ビス
  6
CONTINUOUS
 62
    64
 10
69.153335
 20
-61.075645
 11
69.753335
 21
-61.075645
  0
LINE
  8
ボルト／ビス
  6
CONTINUOUS
 62
    64
 10
69.153335
 20
-66.342313
 11
69.753335
 21
-66.342313
  0
LINE
  8
ボルト／ビス
  6
CONTINUOUS
 62
    64
 10
69.153335
 20
-61.075645
 11
69.153335
 21
-66.342313
  0
ENDBLK
  0
BLOCK
  2
*GRP_0027
 70
    65
 10
0.0
 20
0.0
  0
POLYLINE
  8
ボルト／ビス
  6
CONTINUOUS
 62
    64
 66
     1
  0
VERTEX
  8
ボルト／ビス
 10
-64.850062
 20
-53.775642
  0
VERTEX
  8
ボルト／ビス
 10
-64.846062
 20
-53.791968
  0
VERTEX
  8
ボルト／ビス
 10
-64.834062
 20
-53.808143
  0
VERTEX
  8
ボルト／ビス
 10
-64.814185
 20
-53.824022
  0
VERTEX
  8
ボルト／ビス
 10
-64.786632
 20
-53.839422
  0
VERTEX
  8
ボルト／ビス
 10
-64.751663
 20
-53.854195
  0
VERTEX
  8
ボルト／ビス
 10
-64.709635
 20
-53.868222
  0
VERTEX
  8
ボルト／ビス
 10
-64.660905
 20
-53.881368
  0
VERTEX
  8
ボルト／ビス
 10
-64.605985
 20
-53.893495
  0
VERTEX
  8
ボルト／ビス
 10
-64.545385
 20
-53.904468
  0
VERTEX
  8
ボルト／ビス
 10
-64.479705
 20
-53.914222
  0
VERTEX
  8
ボルト／ビス
 10
-64.409562
 20
-53.922623
  0
VERTEX
  8
ボルト／ビス
 10
-64.335645
 20
-53.929623
  0
VERTEX
  8
ボルト／ビス
 10
-64.258635
 20
-53.935123
  0
VERTEX
  8
ボルト／ビス
 10
-64.179323
 20
-53.939095
  0
VERTEX
  8
ボルト／ビス
 10
-64.098405
 20
-53.941495
  0
VERTEX
  8
ボルト／ビス
 10
-64.016745
 20
-53.942295
  0
VERTEX
  8
ボルト／ビス
 10
-63.935065
 20
-53.941495
  0
VERTEX
  8
ボルト／ビス
 10
-63.854165
 20
-53.939095
  0
VERTEX
  8
ボルト／ビス
 10
-63.774845
 20
-53.935123
  0
VERTEX
  8
ボルト／ビス
 10
-63.697845
 20
-53.929623
  0
VERTEX
  8
ボルト／ビス
 10
-63.623923
 20
-53.922623
  0
VERTEX
  8
ボルト／ビス
 10
-63.553765
 20
-53.914222
  0
VERTEX
  8
ボルト／ビス
 10
-63.488093
 20
-53.904468
  0
VERTEX
  8
ボルト／ビス
 10
-63.427492
 20
-53.893495
  0
VERTEX
  8
ボルト／ビス
 10
-63.372565
 20
-53.881368
  0
VERTEX
  8
ボルト／ビス
 10
-63.323845
 20
-53.868222
  0
VERTEX
  8
ボルト／ビス
 10
-63.281822
 20
-53.854195
  0
VERTEX
  8
ボルト／ビス
 10
-63.246845
 20
-53.839422
  0
VERTEX
  8
ボルト／ビス
 10
-63.219295
 20
-53.824022
  0
VERTEX
  8
ボルト／ビス
 10
-63.199423
 20
-53.808143
  0
VERTEX
  8
ボルト／ビス
 10
-63.187405
 20
-53.791968
  0
VERTEX
  8
ボルト／ビス
 10
-63.183422
 20
-53.775642
  0
SEQEND
  0
LINE
  8
ボルト／ビス
  6
CONTINUOUS
 62
    64
 10
-64.850062
 20
-53.775642
 11
-65.016735
 21
-53.332903
  0
LINE
  8
ボルト／ビス
  6
CONTINUOUS
 62
    64
 10
-63.187405
 20
-53.791968
 11
-63.016745
 21
-53.332903
  0
LINE
  8
ボルト／ビス
  6
CONTINUOUS
 62
    64
 10
-63.016745
 20
-53.108968
 11
-63.016745
 21
-53.332903
  0
LINE
  8
ボルト／ビス
  6
CONTINUOUS
 62
    64
 10
-65.016735
 20
-53.108968
 11
-65.016735
 21
-53.332903
  0
ARC
  8
ボルト／ビス
  6
CONTINUOUS
 62
    64
 10
-64.016739
 20
-53.665649
 40
0.033333
 50
9.840875
 51
170.159125
  0
LINE
  8
ボルト／ビス
  6
CONTINUOUS
 62
    64
 10
-64.084933
 20
-53.863742
 11
-64.409562
 21
-53.922623
  0
LINE
  8
ボルト／ビス
  6
CONTINUOUS
 62
    64
 10
-63.948545
 20
-53.863742
 11
-63.623923
 21
-53.922623
  0
LINE
  8
ボルト／ビス
  6
CONTINUOUS
 62
    64
 10
-64.049593
 20
-53.659943
 11
-64.084933
 21
-53.863742
  0
LINE
  8
ボルト／ビス
  6
CONTINUOUS
 62
    64
 10
-63.983885
 20
-53.659943
 11
-63.948545
 21
-53.863742
  0
LINE
  8
ボルト／ビス
  6
CONTINUOUS
 62
    64
 10
-65.016735
 20
-53.108968
 11
-63.016745
 21
-53.108968
  0
LINE
  8
ボルト／ビス
  6
CONTINUOUS
 62
    64
 10
-64.683405
 20
-50.275662
 11
-64.516735
 21
-50.108987
  0
LINE
  8
ボルト／ビス
  6
CONTINUOUS
 62
    64
 10
-63.516745
 20
-50.108987
 11
-63.350065
 21
-50.275662
  0
LINE
  8
ボルト／ビス
  6
CONTINUOUS
 62
    64
 10
-63.516745
 20
-53.108968
 11
-63.516745
 21
-50.108987
  0
LINE
  8
ボルト／ビス
  6
CONTINUOUS
 62
    64
 10
-63.516745
 20
-50.108987
 11
-64.516735
 21
-50.108987
  0
LINE
  8
ボルト／ビス
  6
CONTINUOUS
 62
    64
 10
-64.516735
 20
-53.108968
 11
-64.516735
 21
-50.108987
  0
LINE
  8
ボルト／ビス
  6
CONTINUOUS
 62
    64
 10
-64.683405
 20
-53.108968
 11
-64.683405
 21
-50.275662
  0
LINE
  8
ボルト／ビス
  6
CONTINUOUS
 62
    64
 10
-64.683405
 20
-50.275662
 11
-63.350065
 21
-50.275662
  0
LINE
  8
ボルト／ビス
  6
CONTINUOUS
 62
    64
 10
-63.350065
 20
-53.108968
 11
-63.350065
 21
-50.275662
  0
LINE
  8
ボルト／ビス
  6
CONTINUOUS
 62
    64
 10
-64.016745
 20
-55.411888
 11
-64.016745
 21
-49.523315
  0
ENDBLK
  0
BLOCK
  2
*GRP_0028
 70
    65
 10
0.0
 20
0.0
  0
POLYLINE
  8
ボルト／ビス
  6
CONTINUOUS
 62
    64
 66
     1
  0
VERTEX
  8
ボルト／ビス
 10
-91.850795
 20
-53.775642
  0
VERTEX
  8
ボルト／ビス
 10
-91.846792
 20
-53.791968
  0
VERTEX
  8
ボルト／ビス
 10
-91.834793
 20
-53.808143
  0
VERTEX
  8
ボルト／ビス
 10
-91.814923
 20
-53.824022
  0
VERTEX
  8
ボルト／ビス
 10
-91.787365
 20
-53.839422
  0
VERTEX
  8
ボルト／ビス
 10
-91.752395
 20
-53.854195
  0
VERTEX
  8
ボルト／ビス
 10
-91.710365
 20
-53.868222
  0
VERTEX
  8
ボルト／ビス
 10
-91.661643
 20
-53.881368
  0
VERTEX
  8
ボルト／ビス
 10
-91.606722
 20
-53.893495
  0
VERTEX
  8
ボルト／ビス
 10
-91.546122
 20
-53.904468
  0
VERTEX
  8
ボルト／ビス
 10
-91.480443
 20
-53.914222
  0
VERTEX
  8
ボルト／ビス
 10
-91.410293
 20
-53.922623
  0
VERTEX
  8
ボルト／ビス
 10
-91.336383
 20
-53.929623
  0
VERTEX
  8
ボルト／ビス
 10
-91.259365
 20
-53.935123
  0
VERTEX
  8
ボルト／ビス
 10
-91.180052
 20
-53.939095
  0
VERTEX
  8
ボルト／ビス
 10
-91.099143
 20
-53.941495
  0
VERTEX
  8
ボルト／ビス
 10
-91.017483
 20
-53.942295
  0
VERTEX
  8
ボルト／ビス
 10
-90.935803
 20
-53.941495
  0
VERTEX
  8
ボルト／ビス
 10
-90.854903
 20
-53.939095
  0
VERTEX
  8
ボルト／ビス
 10
-90.775583
 20
-53.935123
  0
VERTEX
  8
ボルト／ビス
 10
-90.698582
 20
-53.929623
  0
VERTEX
  8
ボルト／ビス
 10
-90.624652
 20
-53.922623
  0
VERTEX
  8
ボルト／ビス
 10
-90.554503
 20
-53.914222
  0
VERTEX
  8
ボルト／ビス
 10
-90.488825
 20
-53.904468
  0
VERTEX
  8
ボルト／ビス
 10
-90.428225
 20
-53.893495
  0
VERTEX
  8
ボルト／ビス
 10
-90.373303
 20
-53.881368
  0
VERTEX
  8
ボルト／ビス
 10
-90.324582
 20
-53.868222
  0
VERTEX
  8
ボルト／ビス
 10
-90.282555
 20
-53.854195
  0
VERTEX
  8
ボルト／ビス
 10
-90.247583
 20
-53.839422
  0
VERTEX
  8
ボルト／ビス
 10
-90.220025
 20
-53.824022
  0
VERTEX
  8
ボルト／ビス
 10
-90.200152
 20
-53.808143
  0
VERTEX
  8
ボルト／ビス
 10
-90.188142
 20
-53.791968
  0
VERTEX
  8
ボルト／ビス
 10
-90.184155
 20
-53.775642
  0
SEQEND
  0
LINE
  8
ボルト／ビス
  6
CONTINUOUS
 62
    64
 10
-91.850795
 20
-53.775642
 11
-92.017465
 21
-53.332903
  0
LINE
  8
ボルト／ビス
  6
CONTINUOUS
 62
    64
 10
-90.188142
 20
-53.791968
 11
-90.017483
 21
-53.332903
  0
LINE
  8
ボルト／ビス
  6
CONTINUOUS
 62
    64
 10
-90.017483
 20
-53.108968
 11
-90.017483
 21
-53.332903
  0
LINE
  8
ボルト／ビス
  6
CONTINUOUS
 62
    64
 10
-92.017465
 20
-53.108968
 11
-92.017465
 21
-53.332903
  0
ARC
  8
ボルト／ビス
  6
CONTINUOUS
 62
    64
 10
-91.017474
 20
-53.665649
 40
0.033333
 50
9.840875
 51
170.159125
  0
LINE
  8
ボルト／ビス
  6
CONTINUOUS
 62
    64
 10
-91.085665
 20
-53.863742
 11
-91.410293
 21
-53.922623
  0
LINE
  8
ボルト／ビス
  6
CONTINUOUS
 62
    64
 10
-90.949283
 20
-53.863742
 11
-90.624652
 21
-53.922623
  0
LINE
  8
ボルト／ビス
  6
CONTINUOUS
 62
    64
 10
-91.050325
 20
-53.659943
 11
-91.085665
 21
-53.863742
  0
LINE
  8
ボルト／ビス
  6
CONTINUOUS
 62
    64
 10
-90.984623
 20
-53.659943
 11
-90.949283
 21
-53.863742
  0
LINE
  8
ボルト／ビス
  6
CONTINUOUS
 62
    64
 10
-92.017465
 20
-53.108968
 11
-90.017483
 21
-53.108968
  0
LINE
  8
ボルト／ビス
  6
CONTINUOUS
 62
    64
 10
-91.684142
 20
-50.275662
 11
-91.517465
 21
-50.108987
  0
LINE
  8
ボルト／ビス
  6
CONTINUOUS
 62
    64
 10
-90.517483
 20
-50.108987
 11
-90.350803
 21
-50.275662
  0
LINE
  8
ボルト／ビス
  6
CONTINUOUS
 62
    64
 10
-90.517483
 20
-53.108968
 11
-90.517483
 21
-50.108987
  0
LINE
  8
ボルト／ビス
  6
CONTINUOUS
 62
    64
 10
-90.517483
 20
-50.108987
 11
-91.517465
 21
-50.108987
  0
LINE
  8
ボルト／ビス
  6
CONTINUOUS
 62
    64
 10
-91.517465
 20
-53.108968
 11
-91.517465
 21
-50.108987
  0
LINE
  8
ボルト／ビス
  6
CONTINUOUS
 62
    64
 10
-91.684142
 20
-53.108968
 11
-91.684142
 21
-50.275662
  0
LINE
  8
ボルト／ビス
  6
CONTINUOUS
 62
    64
 10
-91.684142
 20
-50.275662
 11
-90.350803
 21
-50.275662
  0
LINE
  8
ボルト／ビス
  6
CONTINUOUS
 62
    64
 10
-90.350803
 20
-53.108968
 11
-90.350803
 21
-50.275662
  0
LINE
  8
ボルト／ビス
  6
CONTINUOUS
 62
    64
 10
-91.017483
 20
-55.411888
 11
-91.017483
 21
-49.523315
  0
ENDBLK
  0
BLOCK
  2
*GRP_0029
 70
    65
 10
0.0
 20
0.0
  0
LINE
  8
ボルト／ビス
  6
CONTINUOUS
 62
    64
 10
-83.734462
 20
-65.793858
 11
-83.582695
 21
-66.210833
  0
ARC
  8
ボルト／ビス
  6
CONTINUOUS
 62
    64
 10
-82.36974
 20
-65.585369
 40
1.364723
 50
152.722034
 51
180.0
  0
LINE
  8
ボルト／ビス
  6
CONTINUOUS
 62
    64
 10
-83.734462
 20
-61.624105
 11
-83.582695
 21
-61.20713
  0
ARC
  8
ボルト／ビス
  6
CONTINUOUS
 62
    64
 10
-82.36974
 20
-61.83259
 40
1.364723
 50
180.0
 51
207.277966
  0
ARC
  8
ボルト／ビス
  6
CONTINUOUS
 62
    64
 10
-78.503219
 20
-63.70898
 40
5.231244
 50
166.165046
 51
193.834954
  0
LINE
  8
ボルト／ビス
  6
CONTINUOUS
 62
    64
 10
-82.017795
 20
-66.210833
 11
-83.582695
 21
-66.210833
  0
LINE
  8
ボルト／ビス
  6
CONTINUOUS
 62
    64
 10
-82.017795
 20
-61.20713
 11
-83.582695
 21
-61.20713
  0
LINE
  8
ボルト／ビス
  6
CONTINUOUS
 62
    64
 10
-83.734462
 20
-61.624105
 11
-83.734462
 21
-65.793858
  0
LINE
  8
ボルト／ビス
  6
CONTINUOUS
 62
    64
 10
-83.582695
 20
-62.458055
 11
-82.017795
 21
-62.458055
  0
LINE
  8
ボルト／ビス
  6
CONTINUOUS
 62
    64
 10
-83.582695
 20
-64.959908
 11
-82.017795
 21
-64.959908
  0
LINE
  8
ボルト／ビス
  6
CONTINUOUS
 62
    64
 10
-82.017795
 20
-61.20713
 11
-82.017795
 21
-66.210833
  0
LINE
  8
ボルト／ビス
  6
CONTINUOUS
 62
    64
 10
-81.417795
 20
-66.625648
 11
-81.084462
 21
-66.625648
  0
LINE
  8
ボルト／ビス
  6
CONTINUOUS
 62
    64
 10
-81.417795
 20
-60.792315
 11
-81.084462
 21
-60.792315
  0
LINE
  8
ボルト／ビス
  6
CONTINUOUS
 62
    64
 10
-81.417795
 20
-66.625648
 11
-81.417795
 21
-60.792315
  0
LINE
  8
ボルト／ビス
  6
CONTINUOUS
 62
    64
 10
-81.084462
 20
-66.625648
 11
-81.084462
 21
-60.792315
  0
LINE
  8
ボルト／ビス
  6
CONTINUOUS
 62
    64
 10
-82.017795
 20
-63.70898
 11
-81.417795
 21
-63.70898
  0
LINE
  8
ボルト／ビス
  6
CONTINUOUS
 62
    64
 10
-82.017795
 20
-61.075648
 11
-81.417795
 21
-61.075648
  0
LINE
  8
ボルト／ビス
  6
CONTINUOUS
 62
    64
 10
-82.017795
 20
-66.342315
 11
-81.417795
 21
-66.342315
  0
LINE
  8
ボルト／ビス
  6
CONTINUOUS
 62
    64
 10
-82.017795
 20
-61.075648
 11
-82.017795
 21
-66.342315
  0
LINE
  8
ボルト／ビス
  6
CONTINUOUS
 62
    64
 10
-85.401127
 20
-63.70898
 11
-72.017795
 21
-63.70898
  0
LINE
  8
ボルト／ビス
  6
CONTINUOUS
 62
    64
 10
-73.684462
 20
-62.642315
 11
-73.684462
 21
-64.775648
  0
LINE
  8
ボルト／ビス
  6
CONTINUOUS
 62
    64
 10
-74.084462
 20
-62.375648
 11
-73.684462
 21
-62.642315
  0
LINE
  8
ボルト／ビス
  6
CONTINUOUS
 62
    64
 10
-74.084462
 20
-65.042315
 11
-73.684462
 21
-64.775648
  0
LINE
  8
ボルト／ビス
  6
CONTINUOUS
 62
    64
 10
-73.684462
 20
-62.642315
 11
-73.684462
 21
-64.775648
  0
LINE
  8
ボルト／ビス
  6
CONTINUOUS
 62
    64
 10
-74.084462
 20
-62.375648
 11
-74.084462
 21
-65.042315
  0
LINE
  8
ボルト／ビス
  6
CONTINUOUS
 62
    64
 10
-81.084462
 20
-62.375648
 11
-74.084462
 21
-62.375648
  0
LINE
  8
ボルト／ビス
  6
CONTINUOUS
 62
    64
 10
-81.084462
 20
-65.042315
 11
-74.084462
 21
-65.042315
  0
LINE
  8
ボルト／ビス
  6
CONTINUOUS
 62
    64
 10
-81.084462
 20
-62.642315
 11
-73.684462
 21
-62.642315
  0
LINE
  8
ボルト／ビス
  6
CONTINUOUS
 62
    64
 10
-81.084462
 20
-64.775648
 11
-73.684462
 21
-64.775648
  0
ENDBLK
  0
BLOCK
  2
*GRP_0030
 70
    65
 10
0.0
 20
0.0
  0
LINE
  8
ボルト／ビス
  6
CONTINUOUS
 62
    64
 10
-76.301127
 20
-65.793855
 11
-76.452892
 21
-66.21083
  0
ARC
  8
ボルト／ビス
  6
CONTINUOUS
 62
    64
 10
-77.66585
 20
-65.585368
 40
1.364723
 50
0.0
 51
27.277966
  0
LINE
  8
ボルト／ビス
  6
CONTINUOUS
 62
    64
 10
-76.301127
 20
-61.624103
 11
-76.452892
 21
-61.207128
  0
ARC
  8
ボルト／ビス
  6
CONTINUOUS
 62
    64
 10
-77.66585
 20
-61.832589
 40
1.364723
 50
332.722034
 51
360.0
  0
ARC
  8
ボルト／ビス
  6
CONTINUOUS
 62
    64
 10
-81.532371
 20
-63.708978
 40
5.231244
 50
346.165046
 51
373.834954
  0
LINE
  8
ボルト／ビス
  6
CONTINUOUS
 62
    64
 10
-78.017795
 20
-66.21083
 11
-76.452892
 21
-66.21083
  0
LINE
  8
ボルト／ビス
  6
CONTINUOUS
 62
    64
 10
-78.017795
 20
-61.207128
 11
-76.452892
 21
-61.207128
  0
LINE
  8
ボルト／ビス
  6
CONTINUOUS
 62
    64
 10
-76.301127
 20
-61.624103
 11
-76.301127
 21
-65.793855
  0
LINE
  8
ボルト／ビス
  6
CONTINUOUS
 62
    64
 10
-76.452892
 20
-62.458053
 11
-78.017795
 21
-62.458053
  0
LINE
  8
ボルト／ビス
  6
CONTINUOUS
 62
    64
 10
-76.452892
 20
-64.959905
 11
-78.017795
 21
-64.959905
  0
LINE
  8
ボルト／ビス
  6
CONTINUOUS
 62
    64
 10
-78.017795
 20
-61.207128
 11
-78.017795
 21
-66.21083
  0
LINE
  8
ボルト／ビス
  6
CONTINUOUS
 62
    64
 10
-78.617795
 20
-66.625645
 11
-78.951127
 21
-66.625645
  0
LINE
  8
ボルト／ビス
  6
CONTINUOUS
 62
    64
 10
-78.617795
 20
-60.792313
 11
-78.951127
 21
-60.792313
  0
LINE
  8
ボルト／ビス
  6
CONTINUOUS
 62
    64
 10
-78.617795
 20
-66.625645
 11
-78.617795
 21
-60.792313
  0
LINE
  8
ボルト／ビス
  6
CONTINUOUS
 62
    64
 10
-78.951127
 20
-66.625645
 11
-78.951127
 21
-60.792313
  0
LINE
  8
ボルト／ビス
  6
CONTINUOUS
 62
    64
 10
-78.017795
 20
-63.708978
 11
-78.617795
 21
-63.708978
  0
LINE
  8
ボルト／ビス
  6
CONTINUOUS
 62
    64
 10
-78.017795
 20
-61.075645
 11
-78.617795
 21
-61.075645
  0
LINE
  8
ボルト／ビス
  6
CONTINUOUS
 62
    64
 10
-78.017795
 20
-66.342313
 11
-78.617795
 21
-66.342313
  0
LINE
  8
ボルト／ビス
  6
CONTINUOUS
 62
    64
 10
-78.017795
 20
-61.075645
 11
-78.017795
 21
-66.342313
  0
ENDBLK
  0
BLOCK
  2
*GRP_0031
 70
    65
 10
0.0
 20
0.0
  0
LINE
  8
ボルト／ビス
  6
CONTINUOUS
 62
    64
 10
-80.916935
 20
-29.875627
 11
-81.266317
 21
-29.906192
  0
ARC
  8
ボルト／ビス
  6
CONTINUOUS
 62
    64
 10
-81.216939
 20
-30.470716
 40
0.566667
 50
94.999989
 51
180.0
  0
LINE
  8
ボルト／ビス
  6
CONTINUOUS
 62
    64
 10
-81.7836
 20
-30.47071
 11
-81.7836
 21
-31.042292
  0
LINE
  8
ボルト／ビス
  6
CONTINUOUS
 62
    64
 10
-80.916935
 20
-32.20896
 11
-81.266317
 21
-32.178392
  0
ARC
  8
ボルト／ビス
  6
CONTINUOUS
 62
    64
 10
-81.216939
 20
-31.613894
 40
0.566667
 50
180.0
 51
265.000011
  0
LINE
  8
ボルト／ビス
  6
CONTINUOUS
 62
    64
 10
-81.7836
 20
-31.613878
 11
-81.7836
 21
-31.042292
  0
LINE
  8
ボルト／ビス
  6
CONTINUOUS
 62
    64
 10
-81.6553
 20
-30.24341
 11
-81.736017
 21
-30.24341
  0
LINE
  8
ボルト／ビス
  6
CONTINUOUS
 62
    64
 10
-81.4386
 20
-30.80896
 11
-81.4386
 21
-31.042292
  0
LINE
  8
ボルト／ビス
  6
CONTINUOUS
 62
    64
 10
-81.6553
 20
-30.675627
 11
-81.6553
 21
-30.24341
  0
LINE
  8
ボルト／ビス
  6
CONTINUOUS
 62
    64
 10
-81.4386
 20
-30.80896
 11
-81.521968
 21
-30.80896
  0
ARC
  8
ボルト／ビス
  6
CONTINUOUS
 62
    64
 10
-81.52197
 20
-30.675638
 40
0.133333
 50
180.0
 51
270.0
  0
LINE
  8
ボルト／ビス
  6
CONTINUOUS
 62
    64
 10
-81.6553
 20
-31.841177
 11
-81.736017
 21
-31.841177
  0
LINE
  8
ボルト／ビス
  6
CONTINUOUS
 62
    64
 10
-81.4386
 20
-31.275627
 11
-81.4386
 21
-31.042292
  0
LINE
  8
ボルト／ビス
  6
CONTINUOUS
 62
    64
 10
-81.6553
 20
-31.40896
 11
-81.6553
 21
-31.841177
  0
LINE
  8
ボルト／ビス
  6
CONTINUOUS
 62
    64
 10
-81.4386
 20
-31.275627
 11
-81.521968
 21
-31.275627
  0
ARC
  8
ボルト／ビス
  6
CONTINUOUS
 62
    64
 10
-81.52197
 20
-31.408971
 40
0.133333
 50
90.0
 51
180.0
  0
LINE
  8
ボルト／ビス
  6
CONTINUOUS
 62
    64
 10
-80.916935
 20
-29.875627
 11
-80.916935
 21
-32.20896
  0
LINE
  8
ボルト／ビス
  6
CONTINUOUS
 62
    64
 10
-77.0836
 20
-30.375627
 11
-76.916935
 21
-30.542292
  0
LINE
  8
ボルト／ビス
  6
CONTINUOUS
 62
    64
 10
-77.0836
 20
-31.70896
 11
-76.916935
 21
-31.542292
  0
LINE
  8
ボルト／ビス
  6
CONTINUOUS
 62
    64
 10
-77.0836
 20
-30.375627
 11
-77.0836
 21
-31.70896
  0
LINE
  8
ボルト／ビス
  6
CONTINUOUS
 62
    64
 10
-76.916935
 20
-30.542292
 11
-76.916935
 21
-31.542292
  0
LINE
  8
ボルト／ビス
  6
CONTINUOUS
 62
    64
 10
-80.916935
 20
-30.542292
 11
-76.916935
 21
-30.542292
  0
LINE
  8
ボルト／ビス
  6
CONTINUOUS
 62
    64
 10
-80.916935
 20
-31.542292
 11
-76.916935
 21
-31.542292
  0
LINE
  8
ボルト／ビス
  6
CONTINUOUS
 62
    64
 10
-80.916935
 20
-31.70896
 11
-77.0836
 21
-31.70896
  0
LINE
  8
ボルト／ビス
  6
CONTINUOUS
 62
    64
 10
-80.916935
 20
-30.375627
 11
-77.0836
 21
-30.375627
  0
LINE
  8
ボルト／ビス
  6
DASHDOT
 62
    64
 10
-82.7836
 20
-31.042292
 11
-75.916935
 21
-31.042292
  0
ENDBLK
  0
BLOCK
  2
*GRP_0032
 70
    65
 10
0.0
 20
0.0
  0
LINE
  8
ボルト／ビス
  6
CONTINUOUS
 62
    64
 10
-76.417
 20
-25.375635
 11
-75.683667
 21
-26.275635
  0
LINE
  8
ボルト／ビス
  6
CONTINUOUS
 62
    64
 10
-73.617
 20
-25.375635
 11
-74.350335
 21
-26.275635
  0
LINE
  8
ボルト／ビス
  6
CONTINUOUS
 62
    64
 10
-73.617
 20
-25.375635
 11
-76.417
 21
-25.375635
  0
LINE
  8
ボルト／ビス
  6
CONTINUOUS
 62
    64
 10
-75.017
 20
-30.121267
 11
-75.017
 21
-23.96961
  0
LINE
  8
ボルト／ビス
  6
CONTINUOUS
 62
    64
 10
-74.350335
 20
-26.275635
 11
-75.683667
 21
-26.275635
  0
LINE
  8
ボルト／ビス
  6
CONTINUOUS
 62
    64
 10
-74.350335
 20
-29.208968
 11
-74.517
 21
-29.375635
  0
LINE
  8
ボルト／ビス
  6
CONTINUOUS
 62
    64
 10
-75.683667
 20
-29.208968
 11
-75.517
 21
-29.375635
  0
LINE
  8
ボルト／ビス
  6
CONTINUOUS
 62
    64
 10
-75.683667
 20
-29.208968
 11
-74.350335
 21
-29.208968
  0
LINE
  8
ボルト／ビス
  6
CONTINUOUS
 62
    64
 10
-74.517
 20
-29.375635
 11
-75.517
 21
-29.375635
  0
LINE
  8
ボルト／ビス
  6
CONTINUOUS
 62
    64
 10
-74.350335
 20
-26.275635
 11
-74.350335
 21
-29.208968
  0
LINE
  8
ボルト／ビス
  6
CONTINUOUS
 62
    64
 10
-75.683667
 20
-26.275635
 11
-75.683667
 21
-29.208968
  0
LINE
  8
ボルト／ビス
  6
CONTINUOUS
 62
    64
 10
-75.517
 20
-26.275635
 11
-75.517
 21
-29.375635
  0
LINE
  8
ボルト／ビス
  6
CONTINUOUS
 62
    64
 10
-74.517
 20
-26.275635
 11
-74.517
 21
-29.375635
  0
ENDBLK
  0
BLOCK
  2
*GRP_0033
 70
    65
 10
0.0
 20
0.0
  0
LINE
  8
ボルト／ビス
  6
CONTINUOUS
 62
    64
 10
72.052475
 20
-29.875627
 11
72.401858
 21
-29.906192
  0
ARC
  8
ボルト／ビス
  6
CONTINUOUS
 62
    64
 10
72.352479
 20
-30.470716
 40
0.566667
 50
0.0
 51
85.000011
  0
LINE
  8
ボルト／ビス
  6
CONTINUOUS
 62
    64
 10
72.91914
 20
-30.47071
 11
72.91914
 21
-31.042292
  0
LINE
  8
ボルト／ビス
  6
CONTINUOUS
 62
    64
 10
72.052475
 20
-32.20896
 11
72.401858
 21
-32.178392
  0
ARC
  8
ボルト／ビス
  6
CONTINUOUS
 62
    64
 10
72.352479
 20
-31.613894
 40
0.566667
 50
274.999989
 51
360.0
  0
LINE
  8
ボルト／ビス
  6
CONTINUOUS
 62
    64
 10
72.91914
 20
-31.613878
 11
72.91914
 21
-31.042292
  0
LINE
  8
ボルト／ビス
  6
CONTINUOUS
 62
    64
 10
72.79084
 20
-30.24341
 11
72.871558
 21
-30.24341
  0
LINE
  8
ボルト／ビス
  6
CONTINUOUS
 62
    64
 10
72.57414
 20
-30.80896
 11
72.57414
 21
-31.042292
  0
LINE
  8
ボルト／ビス
  6
CONTINUOUS
 62
    64
 10
72.79084
 20
-30.675627
 11
72.79084
 21
-30.24341
  0
LINE
  8
ボルト／ビス
  6
CONTINUOUS
 62
    64
 10
72.57414
 20
-30.80896
 11
72.657508
 21
-30.80896
  0
ARC
  8
ボルト／ビス
  6
CONTINUOUS
 62
    64
 10
72.65751
 20
-30.675638
 40
0.133333
 50
270.0
 51
360.0
  0
LINE
  8
ボルト／ビス
  6
CONTINUOUS
 62
    64
 10
72.79084
 20
-31.841177
 11
72.871558
 21
-31.841177
  0
LINE
  8
ボルト／ビス
  6
CONTINUOUS
 62
    64
 10
72.57414
 20
-31.275627
 11
72.57414
 21
-31.042292
  0
LINE
  8
ボルト／ビス
  6
CONTINUOUS
 62
    64
 10
72.79084
 20
-31.40896
 11
72.79084
 21
-31.841177
  0
LINE
  8
ボルト／ビス
  6
CONTINUOUS
 62
    64
 10
72.57414
 20
-31.275627
 11
72.657508
 21
-31.275627
  0
ARC
  8
ボルト／ビス
  6
CONTINUOUS
 62
    64
 10
72.65751
 20
-31.408971
 40
0.133333
 50
0.0
 51
90.0
  0
LINE
  8
ボルト／ビス
  6
CONTINUOUS
 62
    64
 10
72.052475
 20
-29.875627
 11
72.052475
 21
-32.20896
  0
LINE
  8
ボルト／ビス
  6
CONTINUOUS
 62
    64
 10
68.21914
 20
-30.375627
 11
68.052475
 21
-30.542292
  0
LINE
  8
ボルト／ビス
  6
CONTINUOUS
 62
    64
 10
68.21914
 20
-31.70896
 11
68.052475
 21
-31.542292
  0
LINE
  8
ボルト／ビス
  6
CONTINUOUS
 62
    64
 10
68.21914
 20
-30.375627
 11
68.21914
 21
-31.70896
  0
LINE
  8
ボルト／ビス
  6
CONTINUOUS
 62
    64
 10
68.052475
 20
-30.542292
 11
68.052475
 21
-31.542292
  0
LINE
  8
ボルト／ビス
  6
CONTINUOUS
 62
    64
 10
72.052475
 20
-30.542292
 11
68.052475
 21
-30.542292
  0
LINE
  8
ボルト／ビス
  6
CONTINUOUS
 62
    64
 10
72.052475
 20
-31.542292
 11
68.052475
 21
-31.542292
  0
LINE
  8
ボルト／ビス
  6
CONTINUOUS
 62
    64
 10
72.052475
 20
-31.70896
 11
68.21914
 21
-31.70896
  0
LINE
  8
ボルト／ビス
  6
CONTINUOUS
 62
    64
 10
72.052475
 20
-30.375627
 11
68.21914
 21
-30.375627
  0
LINE
  8
ボルト／ビス
  6
DASHDOT
 62
    64
 10
73.91914
 20
-31.042292
 11
67.052475
 21
-31.042292
  0
ENDBLK
  0
BLOCK
  2
*GRP_0034
 70
    65
 10
0.0
 20
0.0
  0
LINE
  8
ボルト／ビス
  6
CONTINUOUS
 62
    64
 10
67.55254
 20
-25.375635
 11
66.819208
 21
-26.275635
  0
LINE
  8
ボルト／ビス
  6
CONTINUOUS
 62
    64
 10
64.75254
 20
-25.375635
 11
65.485875
 21
-26.275635
  0
LINE
  8
ボルト／ビス
  6
CONTINUOUS
 62
    64
 10
64.75254
 20
-25.375635
 11
67.55254
 21
-25.375635
  0
LINE
  8
ボルト／ビス
  6
CONTINUOUS
 62
    64
 10
66.15254
 20
-30.121267
 11
66.15254
 21
-23.96961
  0
LINE
  8
ボルト／ビス
  6
CONTINUOUS
 62
    64
 10
65.485875
 20
-26.275635
 11
66.819208
 21
-26.275635
  0
LINE
  8
ボルト／ビス
  6
CONTINUOUS
 62
    64
 10
65.485875
 20
-29.208968
 11
65.65254
 21
-29.375635
  0
LINE
  8
ボルト／ビス
  6
CONTINUOUS
 62
    64
 10
66.819208
 20
-29.208968
 11
66.65254
 21
-29.375635
  0
LINE
  8
ボルト／ビス
  6
CONTINUOUS
 62
    64
 10
66.819208
 20
-29.208968
 11
65.485875
 21
-29.208968
  0
LINE
  8
ボルト／ビス
  6
CONTINUOUS
 62
    64
 10
65.65254
 20
-29.375635
 11
66.65254
 21
-29.375635
  0
LINE
  8
ボルト／ビス
  6
CONTINUOUS
 62
    64
 10
65.485875
 20
-26.275635
 11
65.485875
 21
-29.208968
  0
LINE
  8
ボルト／ビス
  6
CONTINUOUS
 62
    64
 10
66.819208
 20
-26.275635
 11
66.819208
 21
-29.208968
  0
LINE
  8
ボルト／ビス
  6
CONTINUOUS
 62
    64
 10
66.65254
 20
-26.275635
 11
66.65254
 21
-29.375635
  0
LINE
  8
ボルト／ビス
  6
CONTINUOUS
 62
    64
 10
65.65254
 20
-26.275635
 11
65.65254
 21
-29.375635
  0
ENDBLK
  0
BLOCK
  2
*GRP_0035
 70
    65
 10
0.0
 20
0.0
  0
INSERT
  2
*GRP_0103
  8
補助線
  6
DOT
 62
    64
 10
0.0
 20
0.0
  0
CIRCLE
  8
ボルト／ビス
  6
DOT
 62
    64
 10
-12.83223
 20
-33.708978
 40
1.166668
  0
LINE
  8
ボルト／ビス
  6
DOT
 62
    64
 10
-12.645562
 20
-33.335645
 11
-12.645562
 21
-33.06986
  0
LINE
  8
ボルト／ビス
  6
DOT
 62
    64
 10
-12.458897
 20
-33.52231
 11
-12.19313
 21
-33.52231
  0
ARC
  8
ボルト／ビス
  6
DOT
 62
    64
 10
-12.458897
 20
-33.335638
 40
0.186667
 50
180.0
 51
270.0
  0
LINE
  8
ボルト／ビス
  6
DOT
 62
    64
 10
-12.19313
 20
-33.52231
 11
-12.19313
 21
-33.708978
  0
LINE
  8
ボルト／ビス
  6
DOT
 62
    64
 10
-12.645562
 20
-33.06986
 11
-12.83223
 21
-33.06986
  0
LINE
  8
ボルト／ビス
  6
DOT
 62
    64
 10
-12.645562
 20
-34.08231
 11
-12.645562
 21
-34.348078
  0
LINE
  8
ボルト／ビス
  6
DOT
 62
    64
 10
-12.458897
 20
-33.895645
 11
-12.19313
 21
-33.895645
  0
ARC
  8
ボルト／ビス
  6
DOT
 62
    64
 10
-12.458897
 20
-34.082305
 40
0.186667
 50
90.0
 51
180.0
  0
LINE
  8
ボルト／ビス
  6
DOT
 62
    64
 10
-12.19313
 20
-33.895645
 11
-12.19313
 21
-33.708978
  0
LINE
  8
ボルト／ビス
  6
DOT
 62
    64
 10
-12.645562
 20
-34.348078
 11
-12.83223
 21
-34.348078
  0
LINE
  8
ボルト／ビス
  6
DOT
 62
    64
 10
-13.018898
 20
-34.08231
 11
-13.018898
 21
-34.348078
  0
LINE
  8
ボルト／ビス
  6
DOT
 62
    64
 10
-13.205562
 20
-33.895645
 11
-13.47133
 21
-33.895645
  0
ARC
  8
ボルト／ビス
  6
DOT
 62
    64
 10
-13.205564
 20
-34.082305
 40
0.186667
 50
0.0
 51
90.0
  0
LINE
  8
ボルト／ビス
  6
DOT
 62
    64
 10
-13.47133
 20
-33.895645
 11
-13.47133
 21
-33.708978
  0
LINE
  8
ボルト／ビス
  6
DOT
 62
    64
 10
-13.018898
 20
-34.348078
 11
-12.83223
 21
-34.348078
  0
LINE
  8
ボルト／ビス
  6
DOT
 62
    64
 10
-13.018898
 20
-33.335645
 11
-13.018898
 21
-33.06986
  0
LINE
  8
ボルト／ビス
  6
DOT
 62
    64
 10
-13.205562
 20
-33.52231
 11
-13.47133
 21
-33.52231
  0
ARC
  8
ボルト／ビス
  6
DOT
 62
    64
 10
-13.205564
 20
-33.335638
 40
0.186667
 50
270.0
 51
360.0
  0
LINE
  8
ボルト／ビス
  6
DOT
 62
    64
 10
-13.47133
 20
-33.52231
 11
-13.47133
 21
-33.708978
  0
LINE
  8
ボルト／ビス
  6
DOT
 62
    64
 10
-13.018898
 20
-33.06986
 11
-12.83223
 21
-33.06986
  0
ENDBLK
  0
BLOCK
  2
*GRP_0036
 70
    65
 10
0.0
 20
0.0
  0
INSERT
  2
*GRP_0104
  8
補助線
  6
DOT
 62
    64
 10
0.0
 20
0.0
  0
CIRCLE
  8
ボルト／ビス
  6
DOT
 62
    64
 10
3.96777
 20
-33.708978
 40
1.166668
  0
LINE
  8
ボルト／ビス
  6
DOT
 62
    64
 10
3.781103
 20
-33.335645
 11
3.781103
 21
-33.06986
  0
LINE
  8
ボルト／ビス
  6
DOT
 62
    64
 10
3.594437
 20
-33.52231
 11
3.32867
 21
-33.52231
  0
ARC
  8
ボルト／ビス
  6
DOT
 62
    64
 10
3.594439
 20
-33.335638
 40
0.186667
 50
270.0
 51
360.0
  0
LINE
  8
ボルト／ビス
  6
DOT
 62
    64
 10
3.32867
 20
-33.52231
 11
3.32867
 21
-33.708978
  0
LINE
  8
ボルト／ビス
  6
DOT
 62
    64
 10
3.781103
 20
-33.06986
 11
3.96777
 21
-33.06986
  0
LINE
  8
ボルト／ビス
  6
DOT
 62
    64
 10
3.781103
 20
-34.08231
 11
3.781103
 21
-34.348078
  0
LINE
  8
ボルト／ビス
  6
DOT
 62
    64
 10
3.594437
 20
-33.895645
 11
3.32867
 21
-33.895645
  0
ARC
  8
ボルト／ビス
  6
DOT
 62
    64
 10
3.594439
 20
-34.082305
 40
0.186667
 50
0.0
 51
90.0
  0
LINE
  8
ボルト／ビス
  6
DOT
 62
    64
 10
3.32867
 20
-33.895645
 11
3.32867
 21
-33.708978
  0
LINE
  8
ボルト／ビス
  6
DOT
 62
    64
 10
3.781103
 20
-34.348078
 11
3.96777
 21
-34.348078
  0
LINE
  8
ボルト／ビス
  6
DOT
 62
    64
 10
4.154437
 20
-34.08231
 11
4.154437
 21
-34.348078
  0
LINE
  8
ボルト／ビス
  6
DOT
 62
    64
 10
4.341102
 20
-33.895645
 11
4.60687
 21
-33.895645
  0
ARC
  8
ボルト／ビス
  6
DOT
 62
    64
 10
4.341106
 20
-34.082305
 40
0.186667
 50
90.0
 51
180.0
  0
LINE
  8
ボルト／ビス
  6
DOT
 62
    64
 10
4.60687
 20
-33.895645
 11
4.60687
 21
-33.708978
  0
LINE
  8
ボルト／ビス
  6
DOT
 62
    64
 10
4.154437
 20
-34.348078
 11
3.96777
 21
-34.348078
  0
LINE
  8
ボルト／ビス
  6
DOT
 62
    64
 10
4.154437
 20
-33.335645
 11
4.154437
 21
-33.06986
  0
LINE
  8
ボルト／ビス
  6
DOT
 62
    64
 10
4.341102
 20
-33.52231
 11
4.60687
 21
-33.52231
  0
ARC
  8
ボルト／ビス
  6
DOT
 62
    64
 10
4.341106
 20
-33.335638
 40
0.186667
 50
180.0
 51
270.0
  0
LINE
  8
ボルト／ビス
  6
DOT
 62
    64
 10
4.60687
 20
-33.52231
 11
4.60687
 21
-33.708978
  0
LINE
  8
ボルト／ビス
  6
DOT
 62
    64
 10
4.154437
 20
-33.06986
 11
3.96777
 21
-33.06986
  0
ENDBLK
  0
BLOCK
  2
*GRP_0037
 70
    65
 10
0.0
 20
0.0
  0
INSERT
  2
*GRP_0105
  8
補助線
  6
CONTINUOUS
 62
    64
 10
0.0
 20
0.0
  0
CIRCLE
  8
ボルト／ビス
  6
CONTINUOUS
 62
    64
 10
-18.43223
 20
-33.708978
 40
1.166668
  0
LINE
  8
ボルト／ビス
  6
CONTINUOUS
 62
    64
 10
-18.245562
 20
-33.335645
 11
-18.245562
 21
-33.069873
  0
LINE
  8
ボルト／ビス
  6
CONTINUOUS
 62
    64
 10
-18.058897
 20
-33.52231
 11
-17.793125
 21
-33.52231
  0
ARC
  8
ボルト／ビス
  6
CONTINUOUS
 62
    64
 10
-18.058898
 20
-33.335642
 40
0.186667
 50
180.0
 51
270.0
  0
LINE
  8
ボルト／ビス
  6
CONTINUOUS
 62
    64
 10
-17.793125
 20
-33.52231
 11
-17.793125
 21
-33.708978
  0
LINE
  8
ボルト／ビス
  6
CONTINUOUS
 62
    64
 10
-18.245562
 20
-33.069873
 11
-18.43223
 21
-33.069873
  0
LINE
  8
ボルト／ビス
  6
CONTINUOUS
 62
    64
 10
-18.245562
 20
-34.08231
 11
-18.245562
 21
-34.348082
  0
LINE
  8
ボルト／ビス
  6
CONTINUOUS
 62
    64
 10
-18.058897
 20
-33.895645
 11
-17.793125
 21
-33.895645
  0
ARC
  8
ボルト／ビス
  6
CONTINUOUS
 62
    64
 10
-18.058898
 20
-34.082309
 40
0.186667
 50
90.0
 51
180.0
  0
LINE
  8
ボルト／ビス
  6
CONTINUOUS
 62
    64
 10
-17.793125
 20
-33.895645
 11
-17.793125
 21
-33.708978
  0
LINE
  8
ボルト／ビス
  6
CONTINUOUS
 62
    64
 10
-18.245562
 20
-34.348082
 11
-18.43223
 21
-34.348082
  0
LINE
  8
ボルト／ビス
  6
CONTINUOUS
 62
    64
 10
-18.618898
 20
-34.08231
 11
-18.618898
 21
-34.348082
  0
LINE
  8
ボルト／ビス
  6
CONTINUOUS
 62
    64
 10
-18.805562
 20
-33.895645
 11
-19.071335
 21
-33.895645
  0
ARC
  8
ボルト／ビス
  6
CONTINUOUS
 62
    64
 10
-18.805565
 20
-34.082309
 40
0.186667
 50
0.0
 51
90.0
  0
LINE
  8
ボルト／ビス
  6
CONTINUOUS
 62
    64
 10
-19.071335
 20
-33.895645
 11
-19.071335
 21
-33.708978
  0
LINE
  8
ボルト／ビス
  6
CONTINUOUS
 62
    64
 10
-18.618898
 20
-34.348082
 11
-18.43223
 21
-34.348082
  0
LINE
  8
ボルト／ビス
  6
CONTINUOUS
 62
    64
 10
-18.618898
 20
-33.335645
 11
-18.618898
 21
-33.069873
  0
LINE
  8
ボルト／ビス
  6
CONTINUOUS
 62
    64
 10
-18.805562
 20
-33.52231
 11
-19.071335
 21
-33.52231
  0
ARC
  8
ボルト／ビス
  6
CONTINUOUS
 62
    64
 10
-18.805565
 20
-33.335642
 40
0.186667
 50
270.0
 51
360.0
  0
LINE
  8
ボルト／ビス
  6
CONTINUOUS
 62
    64
 10
-19.071335
 20
-33.52231
 11
-19.071335
 21
-33.708978
  0
LINE
  8
ボルト／ビス
  6
CONTINUOUS
 62
    64
 10
-18.618898
 20
-33.069873
 11
-18.43223
 21
-33.069873
  0
ENDBLK
  0
BLOCK
  2
*GRP_0038
 70
    65
 10
0.0
 20
0.0
  0
INSERT
  2
*GRP_0106
  8
補助線
  6
CONTINUOUS
 62
    64
 10
0.0
 20
0.0
  0
CIRCLE
  8
ボルト／ビス
  6
CONTINUOUS
 62
    64
 10
9.56777
 20
-33.708978
 40
1.166668
  0
LINE
  8
ボルト／ビス
  6
CONTINUOUS
 62
    64
 10
9.381103
 20
-33.335645
 11
9.381103
 21
-33.069873
  0
LINE
  8
ボルト／ビス
  6
CONTINUOUS
 62
    64
 10
9.194437
 20
-33.52231
 11
8.928665
 21
-33.52231
  0
ARC
  8
ボルト／ビス
  6
CONTINUOUS
 62
    64
 10
9.194435
 20
-33.335642
 40
0.186667
 50
270.0
 51
360.0
  0
LINE
  8
ボルト／ビス
  6
CONTINUOUS
 62
    64
 10
8.928665
 20
-33.52231
 11
8.928665
 21
-33.708978
  0
LINE
  8
ボルト／ビス
  6
CONTINUOUS
 62
    64
 10
9.381103
 20
-33.069873
 11
9.56777
 21
-33.069873
  0
LINE
  8
ボルト／ビス
  6
CONTINUOUS
 62
    64
 10
9.381103
 20
-34.08231
 11
9.381103
 21
-34.348082
  0
LINE
  8
ボルト／ビス
  6
CONTINUOUS
 62
    64
 10
9.194437
 20
-33.895645
 11
8.928665
 21
-33.895645
  0
ARC
  8
ボルト／ビス
  6
CONTINUOUS
 62
    64
 10
9.194435
 20
-34.082309
 40
0.186667
 50
0.0
 51
90.0
  0
LINE
  8
ボルト／ビス
  6
CONTINUOUS
 62
    64
 10
8.928665
 20
-33.895645
 11
8.928665
 21
-33.708978
  0
LINE
  8
ボルト／ビス
  6
CONTINUOUS
 62
    64
 10
9.381103
 20
-34.348082
 11
9.56777
 21
-34.348082
  0
LINE
  8
ボルト／ビス
  6
CONTINUOUS
 62
    64
 10
9.754437
 20
-34.08231
 11
9.754437
 21
-34.348082
  0
LINE
  8
ボルト／ビス
  6
CONTINUOUS
 62
    64
 10
9.941102
 20
-33.895645
 11
10.206875
 21
-33.895645
  0
ARC
  8
ボルト／ビス
  6
CONTINUOUS
 62
    64
 10
9.941102
 20
-34.082309
 40
0.186667
 50
90.0
 51
180.0
  0
LINE
  8
ボルト／ビス
  6
CONTINUOUS
 62
    64
 10
10.206875
 20
-33.895645
 11
10.206875
 21
-33.708978
  0
LINE
  8
ボルト／ビス
  6
CONTINUOUS
 62
    64
 10
9.754437
 20
-34.348082
 11
9.56777
 21
-34.348082
  0
LINE
  8
ボルト／ビス
  6
CONTINUOUS
 62
    64
 10
9.754437
 20
-33.335645
 11
9.754437
 21
-33.069873
  0
LINE
  8
ボルト／ビス
  6
CONTINUOUS
 62
    64
 10
9.941102
 20
-33.52231
 11
10.206875
 21
-33.52231
  0
ARC
  8
ボルト／ビス
  6
CONTINUOUS
 62
    64
 10
9.941102
 20
-33.335642
 40
0.186667
 50
180.0
 51
270.0
  0
LINE
  8
ボルト／ビス
  6
CONTINUOUS
 62
    64
 10
10.206875
 20
-33.52231
 11
10.206875
 21
-33.708978
  0
LINE
  8
ボルト／ビス
  6
CONTINUOUS
 62
    64
 10
9.754437
 20
-33.069873
 11
9.56777
 21
-33.069873
  0
ENDBLK
  0
BLOCK
  2
*GRP_0039
 70
    65
 10
0.0
 20
0.0
  0
INSERT
  2
*GRP_0107
  8
補助線
  6
CONTINUOUS
 62
    64
 10
0.0
 20
0.0
  0
CIRCLE
  8
ボルト／ビス
  6
CONTINUOUS
 62
    64
 10
-12.832233
 20
-33.708978
 40
1.166668
  0
LINE
  8
ボルト／ビス
  6
CONTINUOUS
 62
    64
 10
-12.645565
 20
-33.335645
 11
-12.645565
 21
-33.069873
  0
LINE
  8
ボルト／ビス
  6
CONTINUOUS
 62
    64
 10
-12.4589
 20
-33.52231
 11
-12.193127
 21
-33.52231
  0
ARC
  8
ボルト／ビス
  6
CONTINUOUS
 62
    64
 10
-12.458901
 20
-33.335642
 40
0.186667
 50
180.0
 51
270.0
  0
LINE
  8
ボルト／ビス
  6
CONTINUOUS
 62
    64
 10
-12.193127
 20
-33.52231
 11
-12.193127
 21
-33.708978
  0
LINE
  8
ボルト／ビス
  6
CONTINUOUS
 62
    64
 10
-12.645565
 20
-33.069873
 11
-12.832233
 21
-33.069873
  0
LINE
  8
ボルト／ビス
  6
CONTINUOUS
 62
    64
 10
-12.645565
 20
-34.08231
 11
-12.645565
 21
-34.348082
  0
LINE
  8
ボルト／ビス
  6
CONTINUOUS
 62
    64
 10
-12.4589
 20
-33.895645
 11
-12.193127
 21
-33.895645
  0
ARC
  8
ボルト／ビス
  6
CONTINUOUS
 62
    64
 10
-12.458901
 20
-34.082309
 40
0.186667
 50
90.0
 51
180.0
  0
LINE
  8
ボルト／ビス
  6
CONTINUOUS
 62
    64
 10
-12.193127
 20
-33.895645
 11
-12.193127
 21
-33.708978
  0
LINE
  8
ボルト／ビス
  6
CONTINUOUS
 62
    64
 10
-12.645565
 20
-34.348082
 11
-12.832233
 21
-34.348082
  0
LINE
  8
ボルト／ビス
  6
CONTINUOUS
 62
    64
 10
-13.0189
 20
-34.08231
 11
-13.0189
 21
-34.348082
  0
LINE
  8
ボルト／ビス
  6
CONTINUOUS
 62
    64
 10
-13.205565
 20
-33.895645
 11
-13.471338
 21
-33.895645
  0
ARC
  8
ボルト／ビス
  6
CONTINUOUS
 62
    64
 10
-13.205568
 20
-34.082309
 40
0.186667
 50
0.0
 51
90.0
  0
LINE
  8
ボルト／ビス
  6
CONTINUOUS
 62
    64
 10
-13.471338
 20
-33.895645
 11
-13.471338
 21
-33.708978
  0
LINE
  8
ボルト／ビス
  6
CONTINUOUS
 62
    64
 10
-13.0189
 20
-34.348082
 11
-12.832233
 21
-34.348082
  0
LINE
  8
ボルト／ビス
  6
CONTINUOUS
 62
    64
 10
-13.0189
 20
-33.335645
 11
-13.0189
 21
-33.069873
  0
LINE
  8
ボルト／ビス
  6
CONTINUOUS
 62
    64
 10
-13.205565
 20
-33.52231
 11
-13.471338
 21
-33.52231
  0
ARC
  8
ボルト／ビス
  6
CONTINUOUS
 62
    64
 10
-13.205568
 20
-33.335642
 40
0.186667
 50
270.0
 51
360.0
  0
LINE
  8
ボルト／ビス
  6
CONTINUOUS
 62
    64
 10
-13.471338
 20
-33.52231
 11
-13.471338
 21
-33.708978
  0
LINE
  8
ボルト／ビス
  6
CONTINUOUS
 62
    64
 10
-13.0189
 20
-33.069873
 11
-12.832233
 21
-33.069873
  0
ENDBLK
  0
BLOCK
  2
*GRP_0040
 70
    65
 10
0.0
 20
0.0
  0
INSERT
  2
*GRP_0108
  8
補助線
  6
CONTINUOUS
 62
    64
 10
0.0
 20
0.0
  0
CIRCLE
  8
ボルト／ビス
  6
CONTINUOUS
 62
    64
 10
3.967772
 20
-33.708978
 40
1.166668
  0
LINE
  8
ボルト／ビス
  6
CONTINUOUS
 62
    64
 10
4.15444
 20
-33.335645
 11
4.15444
 21
-33.069873
  0
LINE
  8
ボルト／ビス
  6
CONTINUOUS
 62
    64
 10
4.341105
 20
-33.52231
 11
4.606877
 21
-33.52231
  0
ARC
  8
ボルト／ビス
  6
CONTINUOUS
 62
    64
 10
4.341104
 20
-33.335642
 40
0.186667
 50
180.0
 51
270.0
  0
LINE
  8
ボルト／ビス
  6
CONTINUOUS
 62
    64
 10
4.606877
 20
-33.52231
 11
4.606877
 21
-33.708978
  0
LINE
  8
ボルト／ビス
  6
CONTINUOUS
 62
    64
 10
4.15444
 20
-33.069873
 11
3.967772
 21
-33.069873
  0
LINE
  8
ボルト／ビス
  6
CONTINUOUS
 62
    64
 10
4.15444
 20
-34.08231
 11
4.15444
 21
-34.348082
  0
LINE
  8
ボルト／ビス
  6
CONTINUOUS
 62
    64
 10
4.341105
 20
-33.895645
 11
4.606877
 21
-33.895645
  0
ARC
  8
ボルト／ビス
  6
CONTINUOUS
 62
    64
 10
4.341104
 20
-34.082309
 40
0.186667
 50
90.0
 51
180.0
  0
LINE
  8
ボルト／ビス
  6
CONTINUOUS
 62
    64
 10
4.606877
 20
-33.895645
 11
4.606877
 21
-33.708978
  0
LINE
  8
ボルト／ビス
  6
CONTINUOUS
 62
    64
 10
4.15444
 20
-34.348082
 11
3.967772
 21
-34.348082
  0
LINE
  8
ボルト／ビス
  6
CONTINUOUS
 62
    64
 10
3.781105
 20
-34.08231
 11
3.781105
 21
-34.348082
  0
LINE
  8
ボルト／ビス
  6
CONTINUOUS
 62
    64
 10
3.59444
 20
-33.895645
 11
3.328667
 21
-33.895645
  0
ARC
  8
ボルト／ビス
  6
CONTINUOUS
 62
    64
 10
3.594437
 20
-34.082309
 40
0.186667
 50
0.0
 51
90.0
  0
LINE
  8
ボルト／ビス
  6
CONTINUOUS
 62
    64
 10
3.328667
 20
-33.895645
 11
3.328667
 21
-33.708978
  0
LINE
  8
ボルト／ビス
  6
CONTINUOUS
 62
    64
 10
3.781105
 20
-34.348082
 11
3.967772
 21
-34.348082
  0
LINE
  8
ボルト／ビス
  6
CONTINUOUS
 62
    64
 10
3.781105
 20
-33.335645
 11
3.781105
 21
-33.069873
  0
LINE
  8
ボルト／ビス
  6
CONTINUOUS
 62
    64
 10
3.59444
 20
-33.52231
 11
3.328667
 21
-33.52231
  0
ARC
  8
ボルト／ビス
  6
CONTINUOUS
 62
    64
 10
3.594437
 20
-33.335642
 40
0.186667
 50
270.0
 51
360.0
  0
LINE
  8
ボルト／ビス
  6
CONTINUOUS
 62
    64
 10
3.328667
 20
-33.52231
 11
3.328667
 21
-33.708978
  0
LINE
  8
ボルト／ビス
  6
CONTINUOUS
 62
    64
 10
3.781105
 20
-33.069873
 11
3.967772
 21
-33.069873
  0
ENDBLK
  0
BLOCK
  2
*GRP_0041
 70
    65
 10
0.0
 20
0.0
  0
LINE
  8
ボルト／ビス
  6
CONTINUOUS
 62
    64
 10
-3.265563
 20
-24.84231
 11
-3.29613
 21
-24.492928
  0
ARC
  8
ボルト／ビス
  6
CONTINUOUS
 62
    64
 10
-3.86064
 20
-24.542308
 40
0.566667
 50
4.999989
 51
90.0
  0
LINE
  8
ボルト／ビス
  6
CONTINUOUS
 62
    64
 10
-3.860647
 20
-23.975642
 11
-4.43223
 21
-23.975642
  0
LINE
  8
ボルト／ビス
  6
CONTINUOUS
 62
    64
 10
-5.598898
 20
-24.84231
 11
-5.56833
 21
-24.492928
  0
ARC
  8
ボルト／ビス
  6
CONTINUOUS
 62
    64
 10
-5.003818
 20
-24.542308
 40
0.566667
 50
90.0
 51
175.000011
  0
LINE
  8
ボルト／ビス
  6
CONTINUOUS
 62
    64
 10
-5.003813
 20
-23.975642
 11
-4.43223
 21
-23.975642
  0
LINE
  8
ボルト／ビス
  6
CONTINUOUS
 62
    64
 10
-3.633348
 20
-24.103942
 11
-3.633348
 21
-24.023228
  0
LINE
  8
ボルト／ビス
  6
CONTINUOUS
 62
    64
 10
-4.198898
 20
-24.320643
 11
-4.43223
 21
-24.320643
  0
LINE
  8
ボルト／ビス
  6
CONTINUOUS
 62
    64
 10
-4.065563
 20
-24.103942
 11
-3.633348
 21
-24.103942
  0
LINE
  8
ボルト／ビス
  6
CONTINUOUS
 62
    64
 10
-4.198898
 20
-24.320643
 11
-4.198898
 21
-24.237277
  0
ARC
  8
ボルト／ビス
  6
CONTINUOUS
 62
    64
 10
-4.065562
 20
-24.237277
 40
0.133333
 50
90.0
 51
180.0
  0
LINE
  8
ボルト／ビス
  6
CONTINUOUS
 62
    64
 10
-5.231113
 20
-24.103942
 11
-5.231113
 21
-24.023228
  0
LINE
  8
ボルト／ビス
  6
CONTINUOUS
 62
    64
 10
-4.665563
 20
-24.320643
 11
-4.43223
 21
-24.320643
  0
LINE
  8
ボルト／ビス
  6
CONTINUOUS
 62
    64
 10
-4.798898
 20
-24.103942
 11
-5.231113
 21
-24.103942
  0
LINE
  8
ボルト／ビス
  6
CONTINUOUS
 62
    64
 10
-4.665563
 20
-24.320643
 11
-4.665563
 21
-24.237277
  0
ARC
  8
ボルト／ビス
  6
CONTINUOUS
 62
    64
 10
-4.798895
 20
-24.237277
 40
0.133333
 50
0.0
 51
90.0
  0
LINE
  8
ボルト／ビス
  6
CONTINUOUS
 62
    64
 10
-3.265563
 20
-24.84231
 11
-5.598898
 21
-24.84231
  0
LINE
  8
ボルト／ビス
  6
CONTINUOUS
 62
    64
 10
-3.765563
 20
-28.008978
 11
-3.93223
 21
-28.175642
  0
LINE
  8
ボルト／ビス
  6
CONTINUOUS
 62
    64
 10
-5.098898
 20
-28.008978
 11
-4.93223
 21
-28.175642
  0
LINE
  8
ボルト／ビス
  6
CONTINUOUS
 62
    64
 10
-3.765563
 20
-28.008978
 11
-5.098898
 21
-28.008978
  0
LINE
  8
ボルト／ビス
  6
CONTINUOUS
 62
    64
 10
-3.93223
 20
-28.175642
 11
-4.93223
 21
-28.175642
  0
LINE
  8
ボルト／ビス
  6
CONTINUOUS
 62
    64
 10
-4.43223
 20
-23.31851
 11
-4.43223
 21
-28.700593
  0
LINE
  8
ボルト／ビス
  6
CONTINUOUS
 62
    64
 10
-3.765563
 20
-24.84231
 11
-3.765563
 21
-28.008978
  0
LINE
  8
ボルト／ビス
  6
CONTINUOUS
 62
    64
 10
-5.098898
 20
-24.84231
 11
-5.098898
 21
-28.008978
  0
LINE
  8
ボルト／ビス
  6
CONTINUOUS
 62
    64
 10
-4.93223
 20
-24.84231
 11
-4.93223
 21
-28.175642
  0
LINE
  8
ボルト／ビス
  6
CONTINUOUS
 62
    64
 10
-3.93223
 20
-24.84231
 11
-3.93223
 21
-28.175642
  0
ENDBLK
  0
BLOCK
  2
*GRP_0042
 70
    65
 10
0.0
 20
0.0
  0
INSERT
  2
*GRP_0109
  8
補助線
  6
CONTINUOUS
 62
    64
 10
0.0
 20
0.0
  0
CIRCLE
  8
ボルト／ビス
  6
CONTINUOUS
 62
    64
 10
-18.432222
 20
-93.206865
 40
1.166668
  0
LINE
  8
ボルト／ビス
  6
CONTINUOUS
 62
    64
 10
-18.245555
 20
-92.833533
 11
-18.245555
 21
-92.56776
  0
LINE
  8
ボルト／ビス
  6
CONTINUOUS
 62
    64
 10
-18.05889
 20
-93.020197
 11
-17.793117
 21
-93.020197
  0
ARC
  8
ボルト／ビス
  6
CONTINUOUS
 62
    64
 10
-18.058891
 20
-92.833529
 40
0.186667
 50
180.0
 51
270.0
  0
LINE
  8
ボルト／ビス
  6
CONTINUOUS
 62
    64
 10
-17.793117
 20
-93.020197
 11
-17.793117
 21
-93.206865
  0
LINE
  8
ボルト／ビス
  6
CONTINUOUS
 62
    64
 10
-18.245555
 20
-92.56776
 11
-18.432222
 21
-92.56776
  0
LINE
  8
ボルト／ビス
  6
CONTINUOUS
 62
    64
 10
-18.245555
 20
-93.580198
 11
-18.245555
 21
-93.84597
  0
LINE
  8
ボルト／ビス
  6
CONTINUOUS
 62
    64
 10
-18.05889
 20
-93.393533
 11
-17.793117
 21
-93.393533
  0
ARC
  8
ボルト／ビス
  6
CONTINUOUS
 62
    64
 10
-18.058891
 20
-93.580196
 40
0.186667
 50
90.0
 51
180.0
  0
LINE
  8
ボルト／ビス
  6
CONTINUOUS
 62
    64
 10
-17.793117
 20
-93.393533
 11
-17.793117
 21
-93.206865
  0
LINE
  8
ボルト／ビス
  6
CONTINUOUS
 62
    64
 10
-18.245555
 20
-93.84597
 11
-18.432222
 21
-93.84597
  0
LINE
  8
ボルト／ビス
  6
CONTINUOUS
 62
    64
 10
-18.61889
 20
-93.580198
 11
-18.61889
 21
-93.84597
  0
LINE
  8
ボルト／ビス
  6
CONTINUOUS
 62
    64
 10
-18.805555
 20
-93.393533
 11
-19.071328
 21
-93.393533
  0
ARC
  8
ボルト／ビス
  6
CONTINUOUS
 62
    64
 10
-18.805558
 20
-93.580196
 40
0.186667
 50
0.0
 51
90.0
  0
LINE
  8
ボルト／ビス
  6
CONTINUOUS
 62
    64
 10
-19.071328
 20
-93.393533
 11
-19.071328
 21
-93.206865
  0
LINE
  8
ボルト／ビス
  6
CONTINUOUS
 62
    64
 10
-18.61889
 20
-93.84597
 11
-18.432222
 21
-93.84597
  0
LINE
  8
ボルト／ビス
  6
CONTINUOUS
 62
    64
 10
-18.61889
 20
-92.833533
 11
-18.61889
 21
-92.56776
  0
LINE
  8
ボルト／ビス
  6
CONTINUOUS
 62
    64
 10
-18.805555
 20
-93.020197
 11
-19.071328
 21
-93.020197
  0
ARC
  8
ボルト／ビス
  6
CONTINUOUS
 62
    64
 10
-18.805558
 20
-92.833529
 40
0.186667
 50
270.0
 51
360.0
  0
LINE
  8
ボルト／ビス
  6
CONTINUOUS
 62
    64
 10
-19.071328
 20
-93.020197
 11
-19.071328
 21
-93.206865
  0
LINE
  8
ボルト／ビス
  6
CONTINUOUS
 62
    64
 10
-18.61889
 20
-92.56776
 11
-18.432222
 21
-92.56776
  0
ENDBLK
  0
BLOCK
  2
*GRP_0043
 70
    65
 10
0.0
 20
0.0
  0
INSERT
  2
*GRP_0110
  8
補助線
  6
CONTINUOUS
 62
    64
 10
0.0
 20
0.0
  0
CIRCLE
  8
ボルト／ビス
  6
CONTINUOUS
 62
    64
 10
9.567778
 20
-93.206865
 40
1.166668
  0
LINE
  8
ボルト／ビス
  6
CONTINUOUS
 62
    64
 10
9.38111
 20
-92.833533
 11
9.38111
 21
-92.56776
  0
LINE
  8
ボルト／ビス
  6
CONTINUOUS
 62
    64
 10
9.194445
 20
-93.020197
 11
8.928672
 21
-93.020197
  0
ARC
  8
ボルト／ビス
  6
CONTINUOUS
 62
    64
 10
9.194443
 20
-92.833529
 40
0.186667
 50
270.0
 51
360.0
  0
LINE
  8
ボルト／ビス
  6
CONTINUOUS
 62
    64
 10
8.928672
 20
-93.020197
 11
8.928672
 21
-93.206865
  0
LINE
  8
ボルト／ビス
  6
CONTINUOUS
 62
    64
 10
9.38111
 20
-92.56776
 11
9.567778
 21
-92.56776
  0
LINE
  8
ボルト／ビス
  6
CONTINUOUS
 62
    64
 10
9.38111
 20
-93.580198
 11
9.38111
 21
-93.84597
  0
LINE
  8
ボルト／ビス
  6
CONTINUOUS
 62
    64
 10
9.194445
 20
-93.393533
 11
8.928672
 21
-93.393533
  0
ARC
  8
ボルト／ビス
  6
CONTINUOUS
 62
    64
 10
9.194443
 20
-93.580196
 40
0.186667
 50
0.0
 51
90.0
  0
LINE
  8
ボルト／ビス
  6
CONTINUOUS
 62
    64
 10
8.928672
 20
-93.393533
 11
8.928672
 21
-93.206865
  0
LINE
  8
ボルト／ビス
  6
CONTINUOUS
 62
    64
 10
9.38111
 20
-93.84597
 11
9.567778
 21
-93.84597
  0
LINE
  8
ボルト／ビス
  6
CONTINUOUS
 62
    64
 10
9.754445
 20
-93.580198
 11
9.754445
 21
-93.84597
  0
LINE
  8
ボルト／ビス
  6
CONTINUOUS
 62
    64
 10
9.94111
 20
-93.393533
 11
10.206883
 21
-93.393533
  0
ARC
  8
ボルト／ビス
  6
CONTINUOUS
 62
    64
 10
9.941109
 20
-93.580196
 40
0.186667
 50
90.0
 51
180.0
  0
LINE
  8
ボルト／ビス
  6
CONTINUOUS
 62
    64
 10
10.206883
 20
-93.393533
 11
10.206883
 21
-93.206865
  0
LINE
  8
ボルト／ビス
  6
CONTINUOUS
 62
    64
 10
9.754445
 20
-93.84597
 11
9.567778
 21
-93.84597
  0
LINE
  8
ボルト／ビス
  6
CONTINUOUS
 62
    64
 10
9.754445
 20
-92.833533
 11
9.754445
 21
-92.56776
  0
LINE
  8
ボルト／ビス
  6
CONTINUOUS
 62
    64
 10
9.94111
 20
-93.020197
 11
10.206883
 21
-93.020197
  0
ARC
  8
ボルト／ビス
  6
CONTINUOUS
 62
    64
 10
9.941109
 20
-92.833529
 40
0.186667
 50
180.0
 51
270.0
  0
LINE
  8
ボルト／ビス
  6
CONTINUOUS
 62
    64
 10
10.206883
 20
-93.020197
 11
10.206883
 21
-93.206865
  0
LINE
  8
ボルト／ビス
  6
CONTINUOUS
 62
    64
 10
9.754445
 20
-92.56776
 11
9.567778
 21
-92.56776
  0
ENDBLK
  0
BLOCK
  2
*GRP_0044
 70
    65
 10
0.0
 20
0.0
  0
INSERT
  2
*GRP_0111
  8
補助線
  6
CONTINUOUS
 62
    64
 10
0.0
 20
0.0
  0
CIRCLE
  8
ボルト／ビス
  6
CONTINUOUS
 62
    64
 10
-12.832225
 20
-93.206865
 40
1.166668
  0
LINE
  8
ボルト／ビス
  6
CONTINUOUS
 62
    64
 10
-12.645557
 20
-92.833533
 11
-12.645557
 21
-92.56776
  0
LINE
  8
ボルト／ビス
  6
CONTINUOUS
 62
    64
 10
-12.458893
 20
-93.020197
 11
-12.19312
 21
-93.020197
  0
ARC
  8
ボルト／ビス
  6
CONTINUOUS
 62
    64
 10
-12.458893
 20
-92.833529
 40
0.186667
 50
180.0
 51
270.0
  0
LINE
  8
ボルト／ビス
  6
CONTINUOUS
 62
    64
 10
-12.19312
 20
-93.020197
 11
-12.19312
 21
-93.206865
  0
LINE
  8
ボルト／ビス
  6
CONTINUOUS
 62
    64
 10
-12.645557
 20
-92.56776
 11
-12.832225
 21
-92.56776
  0
LINE
  8
ボルト／ビス
  6
CONTINUOUS
 62
    64
 10
-12.645557
 20
-93.580198
 11
-12.645557
 21
-93.84597
  0
LINE
  8
ボルト／ビス
  6
CONTINUOUS
 62
    64
 10
-12.458893
 20
-93.393533
 11
-12.19312
 21
-93.393533
  0
ARC
  8
ボルト／ビス
  6
CONTINUOUS
 62
    64
 10
-12.458893
 20
-93.580196
 40
0.186667
 50
90.0
 51
180.0
  0
LINE
  8
ボルト／ビス
  6
CONTINUOUS
 62
    64
 10
-12.19312
 20
-93.393533
 11
-12.19312
 21
-93.206865
  0
LINE
  8
ボルト／ビス
  6
CONTINUOUS
 62
    64
 10
-12.645557
 20
-93.84597
 11
-12.832225
 21
-93.84597
  0
LINE
  8
ボルト／ビス
  6
CONTINUOUS
 62
    64
 10
-13.018893
 20
-93.580198
 11
-13.018893
 21
-93.84597
  0
LINE
  8
ボルト／ビス
  6
CONTINUOUS
 62
    64
 10
-13.205558
 20
-93.393533
 11
-13.47133
 21
-93.393533
  0
ARC
  8
ボルト／ビス
  6
CONTINUOUS
 62
    64
 10
-13.20556
 20
-93.580196
 40
0.186667
 50
0.0
 51
90.0
  0
LINE
  8
ボルト／ビス
  6
CONTINUOUS
 62
    64
 10
-13.47133
 20
-93.393533
 11
-13.47133
 21
-93.206865
  0
LINE
  8
ボルト／ビス
  6
CONTINUOUS
 62
    64
 10
-13.018893
 20
-93.84597
 11
-12.832225
 21
-93.84597
  0
LINE
  8
ボルト／ビス
  6
CONTINUOUS
 62
    64
 10
-13.018893
 20
-92.833533
 11
-13.018893
 21
-92.56776
  0
LINE
  8
ボルト／ビス
  6
CONTINUOUS
 62
    64
 10
-13.205558
 20
-93.020197
 11
-13.47133
 21
-93.020197
  0
ARC
  8
ボルト／ビス
  6
CONTINUOUS
 62
    64
 10
-13.20556
 20
-92.833529
 40
0.186667
 50
270.0
 51
360.0
  0
LINE
  8
ボルト／ビス
  6
CONTINUOUS
 62
    64
 10
-13.47133
 20
-93.020197
 11
-13.47133
 21
-93.206865
  0
LINE
  8
ボルト／ビス
  6
CONTINUOUS
 62
    64
 10
-13.018893
 20
-92.56776
 11
-12.832225
 21
-92.56776
  0
ENDBLK
  0
BLOCK
  2
*GRP_0045
 70
    65
 10
0.0
 20
0.0
  0
INSERT
  2
*GRP_0112
  8
補助線
  6
CONTINUOUS
 62
    64
 10
0.0
 20
0.0
  0
CIRCLE
  8
ボルト／ビス
  6
CONTINUOUS
 62
    64
 10
3.96778
 20
-93.206865
 40
1.166668
  0
LINE
  8
ボルト／ビス
  6
CONTINUOUS
 62
    64
 10
4.154448
 20
-92.833533
 11
4.154448
 21
-92.56776
  0
LINE
  8
ボルト／ビス
  6
CONTINUOUS
 62
    64
 10
4.341113
 20
-93.020197
 11
4.606885
 21
-93.020197
  0
ARC
  8
ボルト／ビス
  6
CONTINUOUS
 62
    64
 10
4.341112
 20
-92.833529
 40
0.186667
 50
180.0
 51
270.0
  0
LINE
  8
ボルト／ビス
  6
CONTINUOUS
 62
    64
 10
4.606885
 20
-93.020197
 11
4.606885
 21
-93.206865
  0
LINE
  8
ボルト／ビス
  6
CONTINUOUS
 62
    64
 10
4.154448
 20
-92.56776
 11
3.96778
 21
-92.56776
  0
LINE
  8
ボルト／ビス
  6
CONTINUOUS
 62
    64
 10
4.154448
 20
-93.580198
 11
4.154448
 21
-93.84597
  0
LINE
  8
ボルト／ビス
  6
CONTINUOUS
 62
    64
 10
4.341113
 20
-93.393533
 11
4.606885
 21
-93.393533
  0
ARC
  8
ボルト／ビス
  6
CONTINUOUS
 62
    64
 10
4.341112
 20
-93.580196
 40
0.186667
 50
90.0
 51
180.0
  0
LINE
  8
ボルト／ビス
  6
CONTINUOUS
 62
    64
 10
4.606885
 20
-93.393533
 11
4.606885
 21
-93.206865
  0
LINE
  8
ボルト／ビス
  6
CONTINUOUS
 62
    64
 10
4.154448
 20
-93.84597
 11
3.96778
 21
-93.84597
  0
LINE
  8
ボルト／ビス
  6
CONTINUOUS
 62
    64
 10
3.781113
 20
-93.580198
 11
3.781113
 21
-93.84597
  0
LINE
  8
ボルト／ビス
  6
CONTINUOUS
 62
    64
 10
3.594448
 20
-93.393533
 11
3.328675
 21
-93.393533
  0
ARC
  8
ボルト／ビス
  6
CONTINUOUS
 62
    64
 10
3.594445
 20
-93.580196
 40
0.186667
 50
0.0
 51
90.0
  0
LINE
  8
ボルト／ビス
  6
CONTINUOUS
 62
    64
 10
3.328675
 20
-93.393533
 11
3.328675
 21
-93.206865
  0
LINE
  8
ボルト／ビス
  6
CONTINUOUS
 62
    64
 10
3.781113
 20
-93.84597
 11
3.96778
 21
-93.84597
  0
LINE
  8
ボルト／ビス
  6
CONTINUOUS
 62
    64
 10
3.781113
 20
-92.833533
 11
3.781113
 21
-92.56776
  0
LINE
  8
ボルト／ビス
  6
CONTINUOUS
 62
    64
 10
3.594448
 20
-93.020197
 11
3.328675
 21
-93.020197
  0
ARC
  8
ボルト／ビス
  6
CONTINUOUS
 62
    64
 10
3.594445
 20
-92.833529
 40
0.186667
 50
270.0
 51
360.0
  0
LINE
  8
ボルト／ビス
  6
CONTINUOUS
 62
    64
 10
3.328675
 20
-93.020197
 11
3.328675
 21
-93.206865
  0
LINE
  8
ボルト／ビス
  6
CONTINUOUS
 62
    64
 10
3.781113
 20
-92.56776
 11
3.96778
 21
-92.56776
  0
ENDBLK
  0
BLOCK
  2
*GRP_0046
 70
    65
 10
0.0
 20
0.0
  0
LINE
  8
ボルト／ビス
  6
CONTINUOUS
 62
    64
 10
-3.265555
 20
-84.340197
 11
-3.296123
 21
-83.990815
  0
ARC
  8
ボルト／ビス
  6
CONTINUOUS
 62
    64
 10
-3.860632
 20
-84.040196
 40
0.566667
 50
4.999989
 51
90.0
  0
LINE
  8
ボルト／ビス
  6
CONTINUOUS
 62
    64
 10
-3.86064
 20
-83.47353
 11
-4.432222
 21
-83.47353
  0
LINE
  8
ボルト／ビス
  6
CONTINUOUS
 62
    64
 10
-5.59889
 20
-84.340197
 11
-5.568322
 21
-83.990815
  0
ARC
  8
ボルト／ビス
  6
CONTINUOUS
 62
    64
 10
-5.00381
 20
-84.040196
 40
0.566667
 50
90.0
 51
175.000011
  0
LINE
  8
ボルト／ビス
  6
CONTINUOUS
 62
    64
 10
-5.003805
 20
-83.47353
 11
-4.432222
 21
-83.47353
  0
LINE
  8
ボルト／ビス
  6
CONTINUOUS
 62
    64
 10
-3.63334
 20
-83.60183
 11
-3.63334
 21
-83.521115
  0
LINE
  8
ボルト／ビス
  6
CONTINUOUS
 62
    64
 10
-4.19889
 20
-83.81853
 11
-4.432222
 21
-83.81853
  0
LINE
  8
ボルト／ビス
  6
CONTINUOUS
 62
    64
 10
-4.065555
 20
-83.60183
 11
-3.63334
 21
-83.60183
  0
LINE
  8
ボルト／ビス
  6
CONTINUOUS
 62
    64
 10
-4.19889
 20
-83.81853
 11
-4.19889
 21
-83.735165
  0
ARC
  8
ボルト／ビス
  6
CONTINUOUS
 62
    64
 10
-4.065555
 20
-83.735164
 40
0.133333
 50
90.0
 51
180.0
  0
LINE
  8
ボルト／ビス
  6
CONTINUOUS
 62
    64
 10
-5.231105
 20
-83.60183
 11
-5.231105
 21
-83.521115
  0
LINE
  8
ボルト／ビス
  6
CONTINUOUS
 62
    64
 10
-4.665555
 20
-83.81853
 11
-4.432222
 21
-83.81853
  0
LINE
  8
ボルト／ビス
  6
CONTINUOUS
 62
    64
 10
-4.79889
 20
-83.60183
 11
-5.231105
 21
-83.60183
  0
LINE
  8
ボルト／ビス
  6
CONTINUOUS
 62
    64
 10
-4.665555
 20
-83.81853
 11
-4.665555
 21
-83.735165
  0
ARC
  8
ボルト／ビス
  6
CONTINUOUS
 62
    64
 10
-4.798888
 20
-83.735164
 40
0.133333
 50
0.0
 51
90.0
  0
LINE
  8
ボルト／ビス
  6
CONTINUOUS
 62
    64
 10
-3.265555
 20
-84.340197
 11
-5.59889
 21
-84.340197
  0
LINE
  8
ボルト／ビス
  6
CONTINUOUS
 62
    64
 10
-3.765555
 20
-87.506865
 11
-3.932222
 21
-87.67353
  0
LINE
  8
ボルト／ビス
  6
CONTINUOUS
 62
    64
 10
-5.09889
 20
-87.506865
 11
-4.932222
 21
-87.67353
  0
LINE
  8
ボルト／ビス
  6
CONTINUOUS
 62
    64
 10
-3.765555
 20
-87.506865
 11
-5.09889
 21
-87.506865
  0
LINE
  8
ボルト／ビス
  6
CONTINUOUS
 62
    64
 10
-3.932222
 20
-87.67353
 11
-4.932222
 21
-87.67353
  0
LINE
  8
ボルト／ビス
  6
CONTINUOUS
 62
    64
 10
-4.432222
 20
-82.816398
 11
-4.432222
 21
-88.19848
  0
LINE
  8
ボルト／ビス
  6
CONTINUOUS
 62
    64
 10
-3.765555
 20
-84.340197
 11
-3.765555
 21
-87.506865
  0
LINE
  8
ボルト／ビス
  6
CONTINUOUS
 62
    64
 10
-5.09889
 20
-84.340197
 11
-5.09889
 21
-87.506865
  0
LINE
  8
ボルト／ビス
  6
CONTINUOUS
 62
    64
 10
-4.932222
 20
-84.340197
 11
-4.932222
 21
-87.67353
  0
LINE
  8
ボルト／ビス
  6
CONTINUOUS
 62
    64
 10
-3.932222
 20
-84.340197
 11
-3.932222
 21
-87.67353
  0
ENDBLK
  0
BLOCK
  2
*GRP_0047
 70
    65
 10
0.0
 20
0.0
  0
POLYLINE
  8
寸法
  6
BYBLOCK
 62
     0
 66
     1
  0
VERTEX
  8
寸法
 10
-107.834213
 20
-56.47909
  0
VERTEX
  8
寸法
 10
-105.236135
 20
-57.97909
  0
VERTEX
  8
寸法
 10
-106.736135
 20
-55.381012
  0
SEQEND
  0
POLYLINE
  8
寸法
  6
BYBLOCK
 62
     0
 66
     1
  0
VERTEX
  8
寸法
 10
-105.236135
 20
-57.97909
  0
VERTEX
  8
寸法
 10
-114.274377
 20
-48.940848
  0
VERTEX
  8
寸法
 10
-117.19589
 20
-48.940848
  0
SEQEND
  0
ENDBLK
  0
BLOCK
  2
*DIM_0048
 70
    65
 10
0.0
 20
0.0
  0
LINE
  8
寸法
  6
BYBLOCK
 62
     0
 10
-68.350335
 20
6.756055
 11
-68.350335
 21
74.207575
  0
LINE
  8
寸法
  6
BYBLOCK
 62
     0
 10
-98.350782
 20
-46.042335
 11
-98.350782
 21
74.207575
  0
LINE
  8
寸法
  6
BYBLOCK
 62
     0
 10
-68.350335
 20
74.207575
 11
-98.350782
 21
74.207575
  0
POINT
  8
寸法
 62
     0
 10
-68.350335
 20
74.207575
  0
POINT
  8
寸法
 62
     0
 10
-98.350782
 20
74.207575
  0
TEXT
  7
TextStyle03
  8
寸法
  6
CONTINUOUS
 62
     0
 10
-85.5
 20
74.575
  1
90
 40
4.0
 72
     5
 11
-81.25
 21
74.575
  0
ENDBLK
  0
BLOCK
  2
*DIM_0049
 70
    65
 10
0.0
 20
0.0
  0
LINE
  8
寸法
  6
BYBLOCK
 62
     0
 10
89.486322
 20
-46.042335
 11
89.486322
 21
74.207575
  0
LINE
  8
寸法
  6
BYBLOCK
 62
     0
 10
59.486855
 20
74.207575
 11
89.486322
 21
74.207575
  0
POINT
  8
寸法
 62
     0
 10
59.486855
 20
74.207575
  0
POINT
  8
寸法
 62
     0
 10
89.486322
 20
74.207575
  0
TEXT
  7
TextStyle03
  8
寸法
  6
CONTINUOUS
 62
     0
 10
72.35
 20
74.575
  1
90
 40
4.0
 72
     5
 11
76.6
 21
74.575
  0
ENDBLK
  0
BLOCK
  2
*DIM_0050
 70
    65
 10
0.0
 20
0.0
  0
LINE
  8
寸法
  6
BYBLOCK
 62
     0
 10
-98.350782
 20
66.27495
 11
-98.350782
 21
66.87609
  0
LINE
  8
寸法
  6
BYBLOCK
 62
     0
 10
-58.350845
 20
-37.708997
 11
-58.350845
 21
66.87609
  0
LINE
  8
寸法
  6
BYBLOCK
 62
     0
 10
-98.350782
 20
66.87609
 11
-58.350845
 21
66.87609
  0
POINT
  8
寸法
 62
     0
 10
-98.350782
 20
66.87609
  0
POINT
  8
寸法
 62
     0
 10
-58.350845
 20
66.87609
  0
TEXT
  7
TextStyle03
  8
寸法
  6
CONTINUOUS
 62
     0
 10
-81.625
 20
67.25
  1
120
 40
4.0
 72
     5
 11
-75.125
 21
67.25
  0
ENDBLK
  0
BLOCK
  2
*DIM_0051
 70
    65
 10
0.0
 20
0.0
  0
LINE
  8
寸法
  6
BYBLOCK
 62
     0
 10
89.486322
 20
-37.708997
 11
89.486322
 21
66.87609
  0
LINE
  8
寸法
  6
BYBLOCK
 62
     0
 10
49.486385
 20
66.87609
 11
89.486322
 21
66.87609
  0
POINT
  8
寸法
 62
     0
 10
89.486322
 20
66.87609
  0
TEXT
  7
TextStyle03
  8
寸法
  6
CONTINUOUS
 62
     0
 10
66.225
 20
67.25
  1
120
 40
4.0
 72
     5
 11
72.725
 21
67.25
  0
ENDBLK
  0
BLOCK
  2
*DIM_0052
 70
    65
 10
0.0
 20
0.0
  0
LINE
  8
寸法
  6
BYBLOCK
 62
     0
 10
-68.350335
 20
59.046265
 11
-58.350845
 21
59.046265
  0
POINT
  8
寸法
 62
     0
 10
-68.350335
 20
59.046265
  0
POINT
  8
寸法
 62
     0
 10
-58.350845
 20
59.046265
  0
TEXT
  7
TextStyle03
  8
寸法
  6
CONTINUOUS
 62
     0
 10
-65.5
 20
59.4
  1
30
 40
4.0
 72
     5
 11
-61.25
 21
59.4
  0
ENDBLK
  0
BLOCK
  2
*DIM_0053
 70
    65
 10
0.0
 20
0.0
  0
LINE
  8
寸法
  6
BYBLOCK
 62
     0
 10
59.485875
 20
59.046265
 11
49.486385
 21
59.046265
  0
POINT
  8
寸法
 62
     0
 10
59.485875
 20
59.046265
  0
POINT
  8
寸法
 62
     0
 10
49.486385
 20
59.046265
  0
TEXT
  7
TextStyle03
  8
寸法
  6
CONTINUOUS
 62
     0
 10
52.35
 20
59.4
  1
30
 40
4.0
 72
     5
 11
56.6
 21
59.4
  0
ENDBLK
  0
BLOCK
  2
*DIM_0054
 70
    65
 10
0.0
 20
0.0
  0
LINE
  8
寸法
  6
BYBLOCK
 62
     0
 10
90.486322
 20
-52.042313
 11
155.715907
 21
-52.042313
  0
LINE
  8
寸法
  6
BYBLOCK
 62
     0
 10
155.715907
 20
-47.042335
 11
155.715907
 21
-52.042313
  0
POINT
  8
寸法
 62
     0
 10
155.715907
 20
-52.042313
  0
TEXT
  7
TextStyle03
  8
寸法
  6
CONTINUOUS
 62
     0
 10
155.325
 20
-51.675
  1
15
 40
4.0
 50
90.0
 72
     5
 11
155.325
 21
-47.425
  0
ENDBLK
  0
BLOCK
  2
*DIM_0055
 70
    65
 10
0.0
 20
0.0
  0
LINE
  8
寸法
  6
BYBLOCK
 62
     0
 10
91.48633
 20
-57.042313
 11
155.715907
 21
-57.042313
  0
LINE
  8
寸法
  6
BYBLOCK
 62
     0
 10
155.715907
 20
-52.042313
 11
155.715907
 21
-57.042313
  0
POINT
  8
寸法
 62
     0
 10
155.715907
 20
-57.042313
  0
TEXT
  7
TextStyle03
  8
寸法
  6
CONTINUOUS
 62
     0
 10
155.325
 20
-56.675
  1
15
 40
4.0
 50
90.0
 72
     5
 11
155.325
 21
-52.425
  0
ENDBLK
  0
BLOCK
  2
*DIM_0056
 70
    65
 10
0.0
 20
0.0
  0
LINE
  8
寸法
  6
BYBLOCK
 62
     0
 10
92.486322
 20
-47.042335
 11
155.715907
 21
-47.042335
  0
LINE
  8
寸法
  6
BYBLOCK
 62
     0
 10
80.717703
 20
-31.87565
 11
155.715907
 21
-31.87565
  0
LINE
  8
寸法
  6
BYBLOCK
 62
     0
 10
155.715907
 20
-47.042335
 11
155.715907
 21
-31.87565
  0
POINT
  8
寸法
 62
     0
 10
155.715907
 20
-47.042335
  0
POINT
  8
寸法
 62
     0
 10
155.715907
 20
-31.87565
  0
TEXT
  7
TextStyle03
  8
寸法
  6
CONTINUOUS
 62
     0
 10
155.325
 20
-43.85
  1
45.5
 40
4.0
 50
90.0
 72
     5
 11
155.325
 21
-35.1
  0
ENDBLK
  0
BLOCK
  2
*DIM_0057
 70
    65
 10
0.0
 20
0.0
  0
LINE
  8
寸法
  6
CONTINUOUS
 10
-84.815485
 20
-15.542292
 11
-84.815485
 21
59.046265
  0
LINE
  8
寸法
  6
CONTINUOUS
 10
-68.350335
 20
59.046265
 11
-84.815485
 21
59.046265
  0
POINT
  8
寸法
 10
-68.350335
 20
59.046265
  0
POINT
  8
寸法
 10
-84.815485
 20
59.046265
  0
TEXT
  7
TextStyle03
  8
寸法
  6
CONTINUOUS
 10
-80.975
 20
59.4
  1
49.4
 40
4.0
 72
     5
 11
-72.225
 21
59.4
  0
ENDBLK
  0
BLOCK
  2
*DIM_0058
 70
    65
 10
0.0
 20
0.0
  0
LINE
  8
寸法
  6
CONTINUOUS
 10
-98.350782
 20
-42.042335
 11
-98.350782
 21
59.046265
  0
LINE
  8
寸法
  6
CONTINUOUS
 10
-84.815485
 20
59.046265
 11
-98.350782
 21
59.046265
  0
POINT
  8
寸法
 10
-98.350782
 20
59.046265
  0
TEXT
  7
TextStyle03
  8
寸法
  6
CONTINUOUS
 10
-95.975
 20
59.4
  1
40.6
 40
4.0
 72
     5
 11
-87.225
 21
59.4
  0
ENDBLK
  0
BLOCK
  2
*DIM_0059
 70
    65
 10
0.0
 20
0.0
  0
LINE
  8
寸法
  6
CONTINUOUS
 10
75.951025
 20
-15.542292
 11
75.951025
 21
59.046265
  0
LINE
  8
寸法
  6
CONTINUOUS
 10
59.485875
 20
59.046265
 11
75.951025
 21
59.046265
  0
POINT
  8
寸法
 10
59.485875
 20
59.046265
  0
POINT
  8
寸法
 10
75.951025
 20
59.046265
  0
TEXT
  7
TextStyle03
  8
寸法
  6
CONTINUOUS
 10
63.325
 20
59.4
  1
49.4
 40
4.0
 72
     5
 11
72.075
 21
59.4
  0
ENDBLK
  0
BLOCK
  2
*DIM_0060
 70
    65
 10
0.0
 20
0.0
  0
LINE
  8
寸法
  6
CONTINUOUS
 10
89.486322
 20
-42.042335
 11
89.486322
 21
59.046265
  0
LINE
  8
寸法
  6
CONTINUOUS
 10
75.951025
 20
59.046265
 11
89.486322
 21
59.046265
  0
POINT
  8
寸法
 10
89.486322
 20
59.046265
  0
TEXT
  7
TextStyle03
  8
寸法
  6
CONTINUOUS
 10
78.325
 20
59.4
  1
40.6
 40
4.0
 72
     5
 11
87.075
 21
59.4
  0
ENDBLK
  0
BLOCK
  2
*DIM_0061
 70
    65
 10
0.0
 20
0.0
  0
LINE
  8
寸法
  6
CONTINUOUS
 10
94.486318
 20
-57.042307
 11
162.228125
 21
-57.042307
  0
LINE
  8
寸法
  6
CONTINUOUS
 10
79.95103
 20
-18.87563
 11
162.228125
 21
-18.87563
  0
LINE
  8
寸法
  6
CONTINUOUS
 10
162.228125
 20
-57.042307
 11
162.228125
 21
-18.87563
  0
POINT
  8
寸法
 10
162.228125
 20
-57.042307
  0
POINT
  8
寸法
 10
162.228125
 20
-18.87563
  0
TEXT
  7
TextStyle03
  8
寸法
  6
CONTINUOUS
 10
161.85
 20
-43.475
  1
114.5
 40
4.0
 50
90.0
 72
     5
 11
161.85
 21
-32.475
  0
ENDBLK
  0
BLOCK
  2
*DIM_0062
 70
    65
 10
0.0
 20
0.0
  0
LINE
  8
寸法
  6
CONTINUOUS
 10
79.231133
 20
-18.875627
 11
155.715907
 21
-18.875627
  0
LINE
  8
寸法
  6
CONTINUOUS
 10
155.715907
 20
-31.87565
 11
155.715907
 21
-18.875627
  0
POINT
  8
寸法
 10
155.715907
 20
-31.87565
  0
POINT
  8
寸法
 10
155.715907
 20
-18.875627
  0
TEXT
  7
TextStyle03
  8
寸法
  6
CONTINUOUS
 10
155.325
 20
-27.525
  1
39
 40
4.0
 50
90.0
 72
     5
 11
155.325
 21
-23.275
  0
ENDBLK
  0
BLOCK
  2
*DIM_0063
 70
    65
 10
0.0
 20
0.0
  0
LINE
  8
寸法
  6
BYBLOCK
 62
     0
 10
62.81987
 20
-104.44947
 11
62.81987
 21
-118.077013
  0
LINE
  8
寸法
  6
BYBLOCK
 62
     0
 10
51.153205
 20
-118.077013
 11
62.81987
 21
-118.077013
  0
POINT
  8
寸法
 62
     0
 10
62.81987
 20
-118.077013
  0
TEXT
  7
TextStyle03
  8
寸法
  6
CONTINUOUS
 62
     0
 10
55.38125
 20
-117.7
  1
35
 40
3.0
 72
     5
 11
58.56875
 21
-117.7
  0
ENDBLK
  0
BLOCK
  2
*DIM_0064
 70
    65
 10
0.0
 20
0.0
  0
LINE
  8
寸法
  6
BYBLOCK
 62
     0
 10
112.81991
 20
-104.44947
 11
112.81991
 21
-118.077013
  0
LINE
  8
寸法
  6
BYBLOCK
 62
     0
 10
62.81987
 20
-118.077013
 11
112.81991
 21
-118.077013
  0
POINT
  8
寸法
 62
     0
 10
112.81991
 20
-118.077013
  0
TEXT
  7
TextStyle03
  8
寸法
  6
CONTINUOUS
 62
     0
 10
85.3625
 20
-117.7
  1
150
 40
3.0
 72
     5
 11
90.2375
 21
-117.7
  0
ENDBLK
  0
BLOCK
  2
*DIM_0065
 70
    65
 10
0.0
 20
0.0
  0
LINE
  8
寸法
  6
BYBLOCK
 62
     0
 10
116.15324
 20
-104.44947
 11
116.15324
 21
-118.077013
  0
LINE
  8
寸法
  6
BYBLOCK
 62
     0
 10
112.81991
 20
-118.077013
 11
116.15324
 21
-118.077013
  0
POINT
  8
寸法
 62
     0
 10
116.15324
 20
-118.077013
  0
TEXT
  7
TextStyle03
  8
寸法
  6
CONTINUOUS
 62
     0
 10
112.88125
 20
-121.075
  1
10
 40
3.0
 72
     5
 11
116.06875
 21
-121.075
  0
ENDBLK
  0
BLOCK
  2
*DIM_0066
 70
    65
 10
0.0
 20
0.0
  0
LINE
  8
寸法
  6
BYBLOCK
 62
     0
 10
-60.017665
 20
-104.44947
 11
-60.017665
 21
-118.077013
  0
LINE
  8
寸法
  6
BYBLOCK
 62
     0
 10
-71.68433
 20
-104.44947
 11
-71.68433
 21
-118.077013
  0
LINE
  8
寸法
  6
BYBLOCK
 62
     0
 10
-60.017665
 20
-118.077013
 11
-71.68433
 21
-118.077013
  0
POINT
  8
寸法
 62
     0
 10
-71.68433
 20
-118.077013
  0
TEXT
  7
TextStyle03
  8
寸法
  6
CONTINUOUS
 62
     0
 10
-67.46875
 20
-117.7
  1
35
 40
3.0
 72
     5
 11
-64.28125
 21
-117.7
  0
ENDBLK
  0
BLOCK
  2
*DIM_0067
 70
    65
 10
0.0
 20
0.0
  0
LINE
  8
寸法
  6
BYBLOCK
 62
     0
 10
-71.68433
 20
-104.44947
 11
-71.68433
 21
-118.077013
  0
LINE
  8
寸法
  6
BYBLOCK
 62
     0
 10
-121.68437
 20
-104.44947
 11
-121.68437
 21
-118.077013
  0
LINE
  8
寸法
  6
BYBLOCK
 62
     0
 10
-71.68433
 20
-118.077013
 11
-121.68437
 21
-118.077013
  0
POINT
  8
寸法
 62
     0
 10
-121.68437
 20
-118.077013
  0
TEXT
  7
TextStyle03
  8
寸法
  6
CONTINUOUS
 62
     0
 10
-99.1375
 20
-117.7
  1
150
 40
3.0
 72
     5
 11
-94.2625
 21
-117.7
  0
ENDBLK
  0
BLOCK
  2
*DIM_0068
 70
    65
 10
0.0
 20
0.0
  0
LINE
  8
寸法
  6
BYBLOCK
 62
     0
 10
-121.68437
 20
-104.44947
 11
-121.68437
 21
-118.077013
  0
LINE
  8
寸法
  6
BYBLOCK
 62
     0
 10
-125.0177
 20
-104.44947
 11
-125.0177
 21
-118.077013
  0
LINE
  8
寸法
  6
BYBLOCK
 62
     0
 10
-121.68437
 20
-118.077013
 11
-125.0177
 21
-118.077013
  0
POINT
  8
寸法
 62
     0
 10
-125.0177
 20
-118.077013
  0
TEXT
  7
TextStyle03
  8
寸法
  6
CONTINUOUS
 62
     0
 10
-124.96875
 20
-121.075
  1
10
 40
3.0
 72
     5
 11
-121.78125
 21
-121.075
  0
ENDBLK
  0
BLOCK
  2
*GRP_0069
 70
    65
 10
0.0
 20
0.0
  0
POLYLINE
  8
寸法
  6
CONTINUOUS
 66
     1
  0
VERTEX
  8
寸法
 10
119.230142
 20
-75.754252
  0
VERTEX
  8
寸法
 10
127.878655
 20
-67.105742
  0
VERTEX
  8
寸法
 10
133.481285
 20
-67.105742
  0
SEQEND
  0
ENDBLK
  0
BLOCK
  2
*DIM_0070
 70
    65
 10
0.0
 20
0.0
  0
LINE
  8
寸法
  6
CONTINUOUS
 10
116.15324
 20
-103.323995
 11
116.15324
 21
-118.077013
  0
LINE
  8
寸法
  6
CONTINUOUS
 10
122.819785
 20
-84.136628
 11
122.819785
 21
-118.077013
  0
LINE
  8
寸法
  6
CONTINUOUS
 10
116.15324
 20
-118.077013
 11
122.819785
 21
-118.077013
  0
POINT
  8
寸法
 10
116.15324
 20
-118.077013
  0
POINT
  8
寸法
 10
122.819785
 20
-118.077013
  0
TEXT
  7
TextStyle03
  8
寸法
  6
CONTINUOUS
 10
117.88125
 20
-117.725
  1
20
 40
3.0
 72
     5
 11
121.06875
 21
-117.725
  0
ENDBLK
  0
BLOCK
  2
*DIM_0071
 70
    65
 10
0.0
 20
0.0
  0
LINE
  8
寸法
  6
CONTINUOUS
 10
51.153205
 20
-103.58973
 11
51.153205
 21
-118.077013
  0
LINE
  8
寸法
  6
CONTINUOUS
 10
49.486385
 20
-55.780375
 11
49.486385
 21
-118.077013
  0
LINE
  8
寸法
  6
CONTINUOUS
 10
51.153205
 20
-118.077013
 11
49.486385
 21
-118.077013
  0
POINT
  8
寸法
 10
51.153205
 20
-118.077013
  0
POINT
  8
寸法
 10
49.486385
 20
-118.077013
  0
TEXT
  7
TextStyle03
  8
寸法
  6
CONTINUOUS
 10
49.55
 20
-117.725
  1
5
 40
3.0
 72
     5
 11
51.05
 21
-117.725
  0
ENDBLK
  0
BLOCK
  2
*DIM_0072
 70
    65
 10
0.0
 20
0.0
  0
LINE
  8
寸法
  6
CONTINUOUS
 10
-125.0177
 20
-103.323995
 11
-125.0177
 21
-118.077013
  0
LINE
  8
寸法
  6
CONTINUOUS
 10
-131.684245
 20
-84.136628
 11
-131.684245
 21
-118.077013
  0
LINE
  8
寸法
  6
CONTINUOUS
 10
-125.0177
 20
-118.077013
 11
-131.684245
 21
-118.077013
  0
POINT
  8
寸法
 10
-125.0177
 20
-118.077013
  0
POINT
  8
寸法
 10
-131.684245
 20
-118.077013
  0
TEXT
  7
TextStyle03
  8
寸法
  6
CONTINUOUS
 10
-129.96875
 20
-117.725
  1
20
 40
3.0
 72
     5
 11
-126.78125
 21
-117.725
  0
ENDBLK
  0
BLOCK
  2
*DIM_0073
 70
    65
 10
0.0
 20
0.0
  0
LINE
  8
寸法
  6
CONTINUOUS
 10
-60.017665
 20
-103.58973
 11
-60.017665
 21
-118.077013
  0
LINE
  8
寸法
  6
CONTINUOUS
 10
-58.350845
 20
-55.780375
 11
-58.350845
 21
-118.077013
  0
LINE
  8
寸法
  6
CONTINUOUS
 10
-60.017665
 20
-118.077013
 11
-58.350845
 21
-118.077013
  0
POINT
  8
寸法
 10
-60.017665
 20
-118.077013
  0
POINT
  8
寸法
 10
-58.350845
 20
-118.077013
  0
TEXT
  7
TextStyle03
  8
寸法
  6
CONTINUOUS
 10
-59.95
 20
-117.725
  1
5
 40
3.0
 50
360.0
 72
     5
 11
-58.45
 21
-117.725
  0
ENDBLK
  0
BLOCK
  2
*DIM_0074
 70
    65
 10
0.0
 20
0.0
  0
LINE
  8
寸法
  6
CONTINUOUS
 10
59.486855
 20
6.756055
 11
59.486855
 21
74.207575
  0
LINE
  8
寸法
  6
CONTINUOUS
 10
-68.350335
 20
74.207575
 11
59.486855
 21
74.207575
  0
POINT
  8
寸法
 10
59.486855
 20
74.207575
  0
TEXT
  7
TextStyle03
  8
寸法
  6
CONTINUOUS
 10
-13.2
 20
74.575
  1
呼称寸法
 40
4.0
 72
     5
 11
4.3
 21
74.575
  0
ENDBLK
  0
BLOCK
  2
*DIM_0075
 70
    65
 10
0.0
 20
0.0
  0
LINE
  8
寸法
  6
CONTINUOUS
 10
-171.709055
 20
114.633237
 11
-174.485278
 21
114.633237
  0
LINE
  8
寸法
  6
CONTINUOUS
 10
-171.709055
 20
108.633237
 11
-174.485278
 21
108.633237
  0
LINE
  8
寸法
  6
CONTINUOUS
 10
-174.485278
 20
114.633237
 11
-174.485278
 21
108.633237
  0
POINT
  8
寸法
 10
-174.485278
 20
114.633237
  0
POINT
  8
寸法
 10
-174.485278
 20
108.633237
  0
TEXT
  7
TextStyle03
  8
寸法
  6
CONTINUOUS
 10
-174.85
 20
109.1375
  1
600
 40
3.0
 50
90.0
 72
     5
 11
-174.85
 21
114.0125
  0
ENDBLK
  0
BLOCK
  2
*DIM_0076
 70
    65
 10
0.0
 20
0.0
  0
LINE
  8
寸法
  6
CONTINUOUS
 10
-171.709055
 20
93.027375
 11
-174.485278
 21
93.027375
  0
LINE
  8
寸法
  6
CONTINUOUS
 10
-171.709055
 20
84.027375
 11
-174.485278
 21
84.027375
  0
LINE
  8
寸法
  6
CONTINUOUS
 10
-174.485278
 20
93.027375
 11
-174.485278
 21
84.027375
  0
POINT
  8
寸法
 10
-174.485278
 20
93.027375
  0
POINT
  8
寸法
 10
-174.485278
 20
84.027375
  0
TEXT
  7
TextStyle03
  8
寸法
  6
CONTINUOUS
 10
-174.85
 20
86.0375
  1
900
 40
3.0
 50
90.0
 72
     5
 11
-174.85
 21
90.9125
  0
ENDBLK
  0
BLOCK
  2
*DIM_0077
 70
    65
 10
0.0
 20
0.0
  0
LINE
  8
寸法
  6
CONTINUOUS
 10
-171.709055
 20
67.229327
 11
-174.485278
 21
67.229327
  0
LINE
  8
寸法
  6
CONTINUOUS
 10
-171.709055
 20
54.229327
 11
-174.485278
 21
54.229327
  0
LINE
  8
寸法
  6
CONTINUOUS
 10
-174.485278
 20
67.229327
 11
-174.485278
 21
54.229327
  0
POINT
  8
寸法
 10
-174.485278
 20
67.229327
  0
POINT
  8
寸法
 10
-174.485278
 20
54.229327
  0
TEXT
  7
TextStyle03
  8
寸法
  6
CONTINUOUS
 10
-174.85
 20
57.41875
  1
1300
 40
3.0
 50
90.0
 72
     5
 11
-174.85
 21
63.98125
  0
ENDBLK
  0
BLOCK
  2
*GRP_0078
 70
    65
 10
0.0
 20
0.0
  0
POLYLINE
  8
寸法
  6
CONTINUOUS
 66
     1
  0
VERTEX
  8
寸法
 10
-159.663828
 20
110.381677
  0
VERTEX
  8
寸法
 10
-156.709055
 20
109.862717
  0
VERTEX
  8
寸法
 10
-159.008482
 20
111.789535
  0
SEQEND
  0
LINE
  8
寸法
  6
CONTINUOUS
 10
-156.709055
 20
109.862717
 11
-161.553518
 21
112.117765
  0
ENDBLK
  0
BLOCK
  2
*GRP_0079
 70
    65
 10
0.0
 20
0.0
  0
POLYLINE
  8
寸法
  6
CONTINUOUS
 66
     1
  0
VERTEX
  8
寸法
 10
-149.663828
 20
110.381677
  0
VERTEX
  8
寸法
 10
-146.709055
 20
109.862717
  0
VERTEX
  8
寸法
 10
-149.008482
 20
111.789535
  0
SEQEND
  0
LINE
  8
寸法
  6
CONTINUOUS
 10
-146.709055
 20
109.862717
 11
-151.553518
 21
112.117765
  0
ENDBLK
  0
BLOCK
  2
*GRP_0080
 70
    65
 10
0.0
 20
0.0
  0
POLYLINE
  8
寸法
  6
CONTINUOUS
 66
     1
  0
VERTEX
  8
寸法
 10
-139.663828
 20
110.381677
  0
VERTEX
  8
寸法
 10
-136.709055
 20
109.862717
  0
VERTEX
  8
寸法
 10
-139.008482
 20
111.789535
  0
SEQEND
  0
LINE
  8
寸法
  6
CONTINUOUS
 10
-136.709055
 20
109.862717
 11
-141.553518
 21
112.117765
  0
ENDBLK
  0
BLOCK
  2
*GRP_0081
 70
    65
 10
0.0
 20
0.0
  0
POLYLINE
  8
寸法
  6
CONTINUOUS
 66
     1
  0
VERTEX
  8
寸法
 10
-159.663828
 20
87.969625
  0
VERTEX
  8
寸法
 10
-156.709055
 20
87.450665
  0
VERTEX
  8
寸法
 10
-159.008482
 20
89.377483
  0
SEQEND
  0
LINE
  8
寸法
  6
CONTINUOUS
 10
-156.709055
 20
87.450665
 11
-161.553518
 21
89.705712
  0
ENDBLK
  0
BLOCK
  2
*GRP_0082
 70
    65
 10
0.0
 20
0.0
  0
POLYLINE
  8
寸法
  6
CONTINUOUS
 66
     1
  0
VERTEX
  8
寸法
 10
-149.663828
 20
87.969625
  0
VERTEX
  8
寸法
 10
-146.709055
 20
87.450665
  0
VERTEX
  8
寸法
 10
-149.008482
 20
89.377483
  0
SEQEND
  0
LINE
  8
寸法
  6
CONTINUOUS
 10
-146.709055
 20
87.450665
 11
-151.553518
 21
89.705712
  0
ENDBLK
  0
BLOCK
  2
*GRP_0083
 70
    65
 10
0.0
 20
0.0
  0
POLYLINE
  8
寸法
  6
CONTINUOUS
 66
     1
  0
VERTEX
  8
寸法
 10
-139.663828
 20
87.969625
  0
VERTEX
  8
寸法
 10
-136.709055
 20
87.450665
  0
VERTEX
  8
寸法
 10
-139.008482
 20
89.377483
  0
SEQEND
  0
LINE
  8
寸法
  6
CONTINUOUS
 10
-136.709055
 20
87.450665
 11
-141.553518
 21
89.705712
  0
ENDBLK
  0
BLOCK
  2
*GRP_0084
 70
    65
 10
0.0
 20
0.0
  0
POLYLINE
  8
寸法
  6
CONTINUOUS
 66
     1
  0
VERTEX
  8
寸法
 10
-159.663828
 20
59.430537
  0
VERTEX
  8
寸法
 10
-156.709055
 20
58.911578
  0
VERTEX
  8
寸法
 10
-159.008482
 20
60.838395
  0
SEQEND
  0
LINE
  8
寸法
  6
CONTINUOUS
 10
-156.709055
 20
58.911578
 11
-161.553518
 21
61.166625
  0
ENDBLK
  0
BLOCK
  2
*GRP_0085
 70
    65
 10
0.0
 20
0.0
  0
POLYLINE
  8
寸法
  6
CONTINUOUS
 66
     1
  0
VERTEX
  8
寸法
 10
-149.663828
 20
59.430537
  0
VERTEX
  8
寸法
 10
-146.709055
 20
58.911578
  0
VERTEX
  8
寸法
 10
-149.008482
 20
60.838395
  0
SEQEND
  0
LINE
  8
寸法
  6
CONTINUOUS
 10
-146.709055
 20
58.911578
 11
-151.553518
 21
61.166625
  0
ENDBLK
  0
BLOCK
  2
*GRP_0086
 70
    65
 10
0.0
 20
0.0
  0
POLYLINE
  8
寸法
  6
CONTINUOUS
 66
     1
  0
VERTEX
  8
寸法
 10
-139.663828
 20
59.430537
  0
VERTEX
  8
寸法
 10
-136.709055
 20
58.911578
  0
VERTEX
  8
寸法
 10
-139.008482
 20
60.838395
  0
SEQEND
  0
LINE
  8
寸法
  6
CONTINUOUS
 10
-136.709055
 20
58.911578
 11
-141.553518
 21
61.166625
  0
ENDBLK
  0
BLOCK
  2
*DIM_0087
 70
    65
 10
0.0
 20
0.0
  0
LINE
  8
寸法
  6
CONTINUOUS
 10
8.06777
 20
-42.375645
 11
8.06777
 21
-59.384677
  0
LINE
  8
寸法
  6
CONTINUOUS
 10
5.134438
 20
-57.042313
 11
5.134438
 21
-59.384677
  0
LINE
  8
寸法
  6
CONTINUOUS
 10
8.06777
 20
-59.384677
 11
5.134438
 21
-59.384677
  0
POINT
  8
寸法
 10
8.06777
 20
-59.384677
  0
POINT
  8
寸法
 10
5.134438
 20
-59.384677
  0
TEXT
  7
TextStyle03
  8
寸法
  6
CONTINUOUS
 10
9.1875
 20
-59.025
  1
8.8
 40
3.0
 72
     5
 11
14.0625
 21
-59.025
  0
ENDBLK
  0
BLOCK
  2
*DIM_0088
 70
    65
 10
0.0
 20
0.0
  0
LINE
  8
寸法
  6
CONTINUOUS
 10
-13.998905
 20
-57.042313
 11
-13.998905
 21
-59.384677
  0
LINE
  8
寸法
  6
CONTINUOUS
 10
5.134438
 20
-59.384677
 11
-13.998905
 21
-59.384677
  0
POINT
  8
寸法
 10
-13.998905
 20
-59.384677
  0
TEXT
  7
TextStyle03
  8
寸法
  6
CONTINUOUS
 10
-7.73125
 20
-59.025
  1
57.4
 40
3.0
 72
     5
 11
-1.16875
 21
-59.025
  0
ENDBLK
  0
BLOCK
  2
*DIM_0089
 70
    65
 10
0.0
 20
0.0
  0
LINE
  8
寸法
  6
CONTINUOUS
 10
-16.93223
 20
-42.375645
 11
-16.93223
 21
-59.384677
  0
LINE
  8
寸法
  6
CONTINUOUS
 10
-13.998905
 20
-59.384677
 11
-16.93223
 21
-59.384677
  0
POINT
  8
寸法
 10
-16.93223
 20
-59.384677
  0
TEXT
  7
TextStyle03
  8
寸法
  6
CONTINUOUS
 10
-22.9625
 20
-59.025
  1
8.8
 40
3.0
 72
     5
 11
-18.0875
 21
-59.025
  0
ENDBLK
  0
BLOCK
  2
*DIM_0090
 70
    65
 10
0.0
 20
0.0
  0
LINE
  8
寸法
  6
CONTINUOUS
 10
8.06777
 20
-42.375645
 11
8.06777
 21
-65.336122
  0
LINE
  8
寸法
  6
CONTINUOUS
 10
-16.93223
 20
-42.375645
 11
-16.93223
 21
-65.336122
  0
LINE
  8
寸法
  6
CONTINUOUS
 10
8.06777
 20
-65.336122
 11
-16.93223
 21
-65.336122
  0
POINT
  8
寸法
 10
8.06777
 20
-65.336122
  0
POINT
  8
寸法
 10
-16.93223
 20
-65.336122
  0
TEXT
  7
TextStyle03
  8
寸法
  6
CONTINUOUS
 10
-6.01875
 20
-64.975
  1
75
 40
3.0
 72
     5
 11
-2.83125
 21
-64.975
  0
ENDBLK
  0
BLOCK
  2
*DIM_0091
 70
    65
 10
0.0
 20
0.0
  0
LINE
  8
寸法
  6
CONTINUOUS
 10
8.067778
 20
-101.873532
 11
8.067778
 21
-104.92719
  0
LINE
  8
寸法
  6
CONTINUOUS
 10
-16.932222
 20
-101.873532
 11
-16.932222
 21
-104.92719
  0
LINE
  8
寸法
  6
CONTINUOUS
 10
8.067778
 20
-104.92719
 11
-16.932222
 21
-104.92719
  0
POINT
  8
寸法
 10
8.067778
 20
-104.92719
  0
POINT
  8
寸法
 10
-16.932222
 20
-104.92719
  0
TEXT
  7
TextStyle03
  8
寸法
  6
CONTINUOUS
 10
-6.01875
 20
-104.575
  1
75
 40
3.0
 72
     5
 11
-2.83125
 21
-104.575
  0
ENDBLK
  0
BLOCK
  2
*GRP_0092
 70
    65
 10
0.0
 20
0.0
  0
POLYLINE
  8
寸法
  6
CONTINUOUS
 66
     1
  0
VERTEX
  8
寸法
 10
11.256322
 20
-93.690727
  0
VERTEX
  8
寸法
 10
13.72537
 20
-102.144095
  0
VERTEX
  8
寸法
 10
16.29023
 20
-102.144095
  0
SEQEND
  0
ENDBLK
  0
BLOCK
  2
*GRP_0093
 70
    65
 10
0.0
 20
0.0
  0
LINE
  8
別途部材
  6
CONTINUOUS
 10
-84.815485
 20
-20.542292
 11
-84.315485
 21
-20.542292
  0
LINE
  8
別途部材
  6
CONTINUOUS
 10
-84.815485
 20
-19.875627
 11
-84.815485
 21
-20.542292
  0
ARC
  8
別途部材
  6
CONTINUOUS
 10
-83.815489
 20
-19.87563
 40
1.0
 50
90.0
 51
180.0
  0
LINE
  8
別途部材
  6
CONTINUOUS
 10
-84.315485
 20
-19.875627
 11
-84.315485
 21
-20.542292
  0
ARC
  8
別途部材
  6
CONTINUOUS
 10
-83.815489
 20
-19.87563
 40
0.5
 50
90.0
 51
180.0
  0
LINE
  8
別途部材
  6
CONTINUOUS
 10
-83.815485
 20
-19.375627
 11
-83.250267
 21
-19.375627
  0
LINE
  8
別途部材
  6
CONTINUOUS
 10
-62.48215
 20
-19.942292
 11
-62.48215
 21
-19.542292
  0
LINE
  8
別途部材
  6
CONTINUOUS
 10
-59.815485
 20
-19.20896
 11
-59.815485
 21
-19.942292
  0
ARC
  8
別途部材
  6
CONTINUOUS
 10
-60.148822
 20
-19.208963
 40
0.333333
 50
0.0
 51
90.0
  0
LINE
  8
別途部材
  6
CONTINUOUS
 10
-59.815485
 20
-19.942292
 11
-62.48215
 21
-19.942292
  0
LINE
  8
別途部材
  6
CONTINUOUS
 10
-83.815485
 20
-18.875627
 11
-60.148818
 21
-18.875627
  0
LINE
  8
別途部材
  6
CONTINUOUS
 10
-69.0836
 20
-19.542292
 11
-62.48215
 21
-19.542292
  0
ARC
  8
別途部材
  6
CONTINUOUS
 10
-69.083608
 20
-20.5423
 40
1.0
 50
90.0
 51
180.0
  0
LINE
  8
別途部材
  6
CONTINUOUS
 10
-70.1836
 20
-23.20896
 11
-70.0836
 21
-23.10896
  0
LINE
  8
別途部材
  6
CONTINUOUS
 10
-70.1836
 20
-23.20896
 11
-70.0836
 21
-23.30896
  0
LINE
  8
別途部材
  6
CONTINUOUS
 10
-70.0836
 20
-20.542292
 11
-70.0836
 21
-23.10896
  0
LINE
  8
別途部材
  6
CONTINUOUS
 10
-70.0836
 20
-23.30896
 11
-70.0836
 21
-25.375627
  0
LINE
  8
別途部材
  6
CONTINUOUS
 10
-83.150267
 20
-31.042292
 11
-83.250267
 21
-30.942292
  0
LINE
  8
別途部材
  6
CONTINUOUS
 10
-83.150267
 20
-31.042292
 11
-83.250267
 21
-31.142292
  0
LINE
  8
別途部材
  6
CONTINUOUS
 10
-83.250267
 20
-19.375627
 11
-83.250267
 21
-30.942292
  0
LINE
  8
別途部材
  6
CONTINUOUS
 10
-83.250267
 20
-31.142292
 11
-83.250267
 21
-35.542292
  0
LINE
  8
別途部材
  6
CONTINUOUS
 10
-80.416935
 20
-27.042292
 11
-80.416935
 21
-32.70896
  0
LINE
  8
別途部材
  6
CONTINUOUS
 10
-80.916935
 20
-32.70896
 11
-80.416935
 21
-32.70896
  0
LINE
  8
別途部材
  6
CONTINUOUS
 10
-83.250267
 20
-35.542292
 11
-82.750267
 21
-35.542292
  0
LINE
  8
別途部材
  6
CONTINUOUS
 10
-80.416935
 20
-27.042292
 11
-82.750267
 21
-27.042292
  0
LINE
  8
別途部材
  6
CONTINUOUS
 10
-80.916935
 20
-27.542292
 11
-82.750267
 21
-27.542292
  0
LINE
  8
別途部材
  6
CONTINUOUS
 10
-82.750267
 20
-27.542292
 11
-82.750267
 21
-35.542292
  0
LINE
  8
別途部材
  6
CONTINUOUS
 10
-82.750267
 20
-25.375627
 11
-82.750267
 21
-27.042292
  0
LINE
  8
別途部材
  6
CONTINUOUS
 10
-80.816935
 20
-31.042292
 11
-80.916935
 21
-30.942292
  0
LINE
  8
別途部材
  6
CONTINUOUS
 10
-80.816935
 20
-31.042292
 11
-80.916935
 21
-31.142292
  0
LINE
  8
別途部材
  6
CONTINUOUS
 10
-80.916935
 20
-27.542292
 11
-80.916935
 21
-30.942292
  0
LINE
  8
別途部材
  6
CONTINUOUS
 10
-80.916935
 20
-31.142292
 11
-80.916935
 21
-32.70896
  0
LINE
  8
別途部材
  6
DOT
 10
-83.250267
 20
-29.375627
 11
-82.750267
 21
-29.375627
  0
LINE
  8
別途部材
  6
DOT
 10
-83.250267
 20
-32.70896
 11
-82.750267
 21
-32.70896
  0
LINE
  8
別途部材
  6
CONTINUOUS
 10
-82.750267
 20
-19.375627
 11
-70.5836
 21
-19.375627
  0
LINE
  8
別途部材
  6
DOT
 10
-83.125267
 20
-29.375627
 11
-83.125267
 21
-32.70896
  0
LINE
  8
別途部材
  6
DOT
 10
-83.000267
 20
-29.375627
 11
-83.000267
 21
-32.70896
  0
LINE
  8
別途部材
  6
DOT
 10
-82.875267
 20
-29.375627
 11
-82.875267
 21
-32.70896
  0
LINE
  8
別途部材
  6
CONTINUOUS
 10
-70.5836
 20
-19.375627
 11
-70.5836
 21
-24.875627
  0
LINE
  8
別途部材
  6
CONTINUOUS
 10
-82.750267
 20
-19.375627
 11
-82.750267
 21
-24.875627
  0
LINE
  8
別途部材
  6
CONTINUOUS
 10
-70.5836
 20
-24.875627
 11
-82.750267
 21
-24.875627
  0
LINE
  8
別途部材
  6
CONTINUOUS
 10
-77.8336
 20
-25.275627
 11
-77.7336
 21
-25.375627
  0
LINE
  8
別途部材
  6
CONTINUOUS
 10
-77.8336
 20
-25.275627
 11
-77.9336
 21
-25.375627
  0
LINE
  8
別途部材
  6
CONTINUOUS
 10
-73.666935
 20
-25.275627
 11
-73.566935
 21
-25.375627
  0
LINE
  8
別途部材
  6
CONTINUOUS
 10
-73.666935
 20
-25.275627
 11
-73.766935
 21
-25.375627
  0
LINE
  8
別途部材
  6
CONTINUOUS
 10
-77.7336
 20
-25.375627
 11
-73.766935
 21
-25.375627
  0
LINE
  8
別途部材
  6
CONTINUOUS
 10
-70.0836
 20
-25.375627
 11
-73.566935
 21
-25.375627
  0
LINE
  8
別途部材
  6
CONTINUOUS
 10
-82.750267
 20
-25.375627
 11
-77.9336
 21
-25.375627
  0
ENDBLK
  0
BLOCK
  2
*GRP_0094
 70
    65
 10
0.0
 20
0.0
  0
LINE
  8
別途部材
  6
CONTINUOUS
 10
75.951025
 20
-20.542292
 11
75.451025
 21
-20.542292
  0
LINE
  8
別途部材
  6
CONTINUOUS
 10
75.951025
 20
-19.875627
 11
75.951025
 21
-20.542292
  0
ARC
  8
別途部材
  6
CONTINUOUS
 10
74.951029
 20
-19.87563
 40
1.0
 50
0.0
 51
90.0
  0
LINE
  8
別途部材
  6
CONTINUOUS
 10
75.451025
 20
-19.875627
 11
75.451025
 21
-20.542292
  0
ARC
  8
別途部材
  6
CONTINUOUS
 10
74.951029
 20
-19.87563
 40
0.5
 50
0.0
 51
90.0
  0
LINE
  8
別途部材
  6
CONTINUOUS
 10
74.951025
 20
-19.375627
 11
74.385808
 21
-19.375627
  0
LINE
  8
別途部材
  6
CONTINUOUS
 10
53.61769
 20
-19.942292
 11
53.61769
 21
-19.542292
  0
LINE
  8
別途部材
  6
CONTINUOUS
 10
50.951025
 20
-19.20896
 11
50.951025
 21
-19.942292
  0
ARC
  8
別途部材
  6
CONTINUOUS
 10
51.284362
 20
-19.208963
 40
0.333333
 50
90.0
 51
180.0
  0
LINE
  8
別途部材
  6
CONTINUOUS
 10
50.951025
 20
-19.942292
 11
53.61769
 21
-19.942292
  0
LINE
  8
別途部材
  6
CONTINUOUS
 10
74.951025
 20
-18.875627
 11
51.284358
 21
-18.875627
  0
LINE
  8
別途部材
  6
CONTINUOUS
 10
60.21914
 20
-19.542292
 11
53.61769
 21
-19.542292
  0
ARC
  8
別途部材
  6
CONTINUOUS
 10
60.219148
 20
-20.5423
 40
1.0
 50
0.0
 51
90.0
  0
LINE
  8
別途部材
  6
CONTINUOUS
 10
61.31914
 20
-23.20896
 11
61.21914
 21
-23.10896
  0
LINE
  8
別途部材
  6
CONTINUOUS
 10
61.31914
 20
-23.20896
 11
61.21914
 21
-23.30896
  0
LINE
  8
別途部材
  6
CONTINUOUS
 10
61.21914
 20
-20.542292
 11
61.21914
 21
-23.10896
  0
LINE
  8
別途部材
  6
CONTINUOUS
 10
61.21914
 20
-23.30896
 11
61.21914
 21
-25.375627
  0
LINE
  8
別途部材
  6
CONTINUOUS
 10
74.285808
 20
-31.042292
 11
74.385808
 21
-30.942292
  0
LINE
  8
別途部材
  6
CONTINUOUS
 10
74.285808
 20
-31.042292
 11
74.385808
 21
-31.142292
  0
LINE
  8
別途部材
  6
CONTINUOUS
 10
74.385808
 20
-19.375627
 11
74.385808
 21
-30.942292
  0
LINE
  8
別途部材
  6
CONTINUOUS
 10
74.385808
 20
-31.142292
 11
74.385808
 21
-35.542292
  0
LINE
  8
別途部材
  6
CONTINUOUS
 10
71.552475
 20
-27.042292
 11
71.552475
 21
-32.70896
  0
LINE
  8
別途部材
  6
CONTINUOUS
 10
72.052475
 20
-32.70896
 11
71.552475
 21
-32.70896
  0
LINE
  8
別途部材
  6
CONTINUOUS
 10
74.385808
 20
-35.542292
 11
73.885808
 21
-35.542292
  0
LINE
  8
別途部材
  6
CONTINUOUS
 10
71.552475
 20
-27.042292
 11
73.885808
 21
-27.042292
  0
LINE
  8
別途部材
  6
CONTINUOUS
 10
72.052475
 20
-27.542292
 11
73.885808
 21
-27.542292
  0
LINE
  8
別途部材
  6
CONTINUOUS
 10
73.885808
 20
-27.542292
 11
73.885808
 21
-35.542292
  0
LINE
  8
別途部材
  6
CONTINUOUS
 10
73.885808
 20
-25.375627
 11
73.885808
 21
-27.042292
  0
LINE
  8
別途部材
  6
CONTINUOUS
 10
71.952475
 20
-31.042292
 11
72.052475
 21
-30.942292
  0
LINE
  8
別途部材
  6
CONTINUOUS
 10
71.952475
 20
-31.042292
 11
72.052475
 21
-31.142292
  0
LINE
  8
別途部材
  6
CONTINUOUS
 10
72.052475
 20
-27.542292
 11
72.052475
 21
-30.942292
  0
LINE
  8
別途部材
  6
CONTINUOUS
 10
72.052475
 20
-31.142292
 11
72.052475
 21
-32.70896
  0
LINE
  8
別途部材
  6
DOT
 10
74.385808
 20
-29.375627
 11
73.885808
 21
-29.375627
  0
LINE
  8
別途部材
  6
DOT
 10
74.385808
 20
-32.70896
 11
73.885808
 21
-32.70896
  0
LINE
  8
別途部材
  6
CONTINUOUS
 10
73.885808
 20
-19.375627
 11
61.71914
 21
-19.375627
  0
LINE
  8
別途部材
  6
DOT
 10
74.260808
 20
-29.375627
 11
74.260808
 21
-32.70896
  0
LINE
  8
別途部材
  6
DOT
 10
74.135808
 20
-29.375627
 11
74.135808
 21
-32.70896
  0
LINE
  8
別途部材
  6
DOT
 10
74.010808
 20
-29.375627
 11
74.010808
 21
-32.70896
  0
LINE
  8
別途部材
  6
CONTINUOUS
 10
61.71914
 20
-19.375627
 11
61.71914
 21
-24.875627
  0
LINE
  8
別途部材
  6
CONTINUOUS
 10
73.885808
 20
-19.375627
 11
73.885808
 21
-24.875627
  0
LINE
  8
別途部材
  6
CONTINUOUS
 10
61.71914
 20
-24.875627
 11
73.885808
 21
-24.875627
  0
LINE
  8
別途部材
  6
CONTINUOUS
 10
68.96914
 20
-25.275627
 11
68.86914
 21
-25.375627
  0
LINE
  8
別途部材
  6
CONTINUOUS
 10
68.96914
 20
-25.275627
 11
69.06914
 21
-25.375627
  0
LINE
  8
別途部材
  6
CONTINUOUS
 10
64.802475
 20
-25.275627
 11
64.702475
 21
-25.375627
  0
LINE
  8
別途部材
  6
CONTINUOUS
 10
64.802475
 20
-25.275627
 11
64.902475
 21
-25.375627
  0
LINE
  8
別途部材
  6
CONTINUOUS
 10
68.86914
 20
-25.375627
 11
64.902475
 21
-25.375627
  0
LINE
  8
別途部材
  6
CONTINUOUS
 10
61.21914
 20
-25.375627
 11
64.702475
 21
-25.375627
  0
LINE
  8
別途部材
  6
CONTINUOUS
 10
73.885808
 20
-25.375627
 11
69.06914
 21
-25.375627
  0
ENDBLK
  0
BLOCK
  2
*GRP_0095
 70
    65
 10
0.0
 20
0.0
  0
LINE
  8
ボルト／ビス
  6
CONTINUOUS
 62
    64
 10
84.486667
 20
-64.908472
 11
84.486667
 21
-88.155372
  0
LINE
  8
ボルト／ビス
  6
CONTINUOUS
 62
    64
 10
83.32005
 20
-67.544697
 11
83.555725
 21
-67.308855
  0
LINE
  8
ボルト／ビス
  6
CONTINUOUS
 62
    64
 10
83.32005
 20
-67.544697
 11
83.32005
 21
-69.64218
  0
LINE
  8
ボルト／ビス
  6
CONTINUOUS
 62
    64
 10
83.32005
 20
-67.544697
 11
83.084375
 21
-67.308855
  0
LINE
  8
ボルト／ビス
  6
CONTINUOUS
 62
    64
 10
83.389083
 20
-65.642263
 11
83.389083
 21
-67.308855
  0
LINE
  8
ボルト／ビス
  6
CONTINUOUS
 62
    64
 10
81.820032
 20
-69.64218
 11
81.820032
 21
-70.475555
  0
LINE
  8
ボルト／ビス
  6
CONTINUOUS
 62
    64
 10
83.153307
 20
-77.308897
 11
83.389083
 21
-77.073222
  0
LINE
  8
ボルト／ビス
  6
CONTINUOUS
 62
    64
 10
83.389083
 20
-70.975648
 11
83.389083
 21
-77.073222
  0
LINE
  8
ボルト／ビス
  6
CONTINUOUS
 62
    64
 10
83.153307
 20
-80.441997
 11
81.859243
 21
-85.271663
  0
LINE
  8
ボルト／ビス
  6
CONTINUOUS
 62
    64
 10
83.153307
 20
-70.975648
 11
83.153307
 21
-80.441997
  0
LINE
  8
ボルト／ビス
  6
CONTINUOUS
 62
    64
 10
83.32005
 20
-67.544697
 11
83.555725
 21
-67.308855
  0
LINE
  8
ボルト／ビス
  6
CONTINUOUS
 62
    64
 10
85.633132
 20
-67.544697
 11
85.868808
 21
-67.308855
  0
LINE
  8
ボルト／ビス
  6
CONTINUOUS
 62
    64
 10
85.633132
 20
-67.544697
 11
85.633132
 21
-69.64218
  0
LINE
  8
ボルト／ビス
  6
CONTINUOUS
 62
    64
 10
85.633132
 20
-67.544697
 11
85.397458
 21
-67.308855
  0
LINE
  8
ボルト／ビス
  6
CONTINUOUS
 62
    64
 10
85.584308
 20
-65.642263
 11
85.584308
 21
-67.308855
  0
LINE
  8
ボルト／ビス
  6
CONTINUOUS
 62
    64
 10
87.1534
 20
-69.64218
 11
87.1534
 21
-70.475555
  0
LINE
  8
ボルト／ビス
  6
CONTINUOUS
 62
    64
 10
85.819993
 20
-77.308897
 11
85.584308
 21
-77.073222
  0
LINE
  8
ボルト／ビス
  6
CONTINUOUS
 62
    64
 10
85.584308
 20
-70.975648
 11
85.584308
 21
-77.073222
  0
LINE
  8
ボルト／ビス
  6
CONTINUOUS
 62
    64
 10
85.819993
 20
-80.441997
 11
87.114092
 21
-85.271663
  0
LINE
  8
ボルト／ビス
  6
CONTINUOUS
 62
    64
 10
85.819993
 20
-70.975648
 11
85.819993
 21
-80.441997
  0
LINE
  8
ボルト／ビス
  6
CONTINUOUS
 62
    64
 10
85.819993
 20
-65.877938
 11
85.584308
 21
-65.642263
  0
LINE
  8
ボルト／ビス
  6
CONTINUOUS
 62
    64
 10
85.819993
 20
-67.308855
 11
85.819993
 21
-65.877938
  0
LINE
  8
ボルト／ビス
  6
CONTINUOUS
 62
    64
 10
85.584308
 20
-65.642263
 11
83.389083
 21
-65.642263
  0
LINE
  8
ボルト／ビス
  6
CONTINUOUS
 62
    64
 10
83.389083
 20
-65.642263
 11
83.153307
 21
-65.877938
  0
LINE
  8
ボルト／ビス
  6
CONTINUOUS
 62
    64
 10
85.819993
 20
-65.877938
 11
83.153307
 21
-65.877938
  0
LINE
  8
ボルト／ビス
  6
CONTINUOUS
 62
    64
 10
83.153307
 20
-67.308855
 11
83.153307
 21
-65.877938
  0
LINE
  8
ボルト／ビス
  6
CONTINUOUS
 62
    64
 10
81.553375
 20
-67.544697
 11
81.78905
 21
-67.308855
  0
LINE
  8
ボルト／ビス
  6
CONTINUOUS
 62
    64
 10
81.553375
 20
-67.544697
 11
81.553375
 21
-69.64218
  0
LINE
  8
ボルト／ビス
  6
CONTINUOUS
 62
    64
 10
81.78905
 20
-67.308855
 11
87.184282
 21
-67.308855
  0
LINE
  8
ボルト／ビス
  6
CONTINUOUS
 62
    64
 10
87.419958
 20
-67.544697
 11
87.184282
 21
-67.308855
  0
LINE
  8
ボルト／ビス
  6
CONTINUOUS
 62
    64
 10
87.419958
 20
-67.544697
 11
87.419958
 21
-69.64218
  0
LINE
  8
ボルト／ビス
  6
CONTINUOUS
 62
    64
 10
81.553375
 20
-69.64218
 11
87.419958
 21
-69.64218
  0
LINE
  8
ボルト／ビス
  6
CONTINUOUS
 62
    64
 10
87.736725
 20
-70.475555
 11
87.736725
 21
-70.975648
  0
LINE
  8
ボルト／ビス
  6
CONTINUOUS
 62
    64
 10
87.736725
 20
-70.475555
 11
81.236667
 21
-70.475555
  0
LINE
  8
ボルト／ビス
  6
CONTINUOUS
 62
    64
 10
81.236667
 20
-70.475555
 11
81.236667
 21
-70.975648
  0
LINE
  8
ボルト／ビス
  6
CONTINUOUS
 62
    64
 10
87.736725
 20
-70.975648
 11
81.236667
 21
-70.975648
  0
LINE
  8
ボルト／ビス
  6
CONTINUOUS
 62
    64
 10
84.486667
 20
-80.661488
 11
85.815308
 21
-85.619712
  0
LINE
  8
ボルト／ビス
  6
CONTINUOUS
 62
    64
 10
87.114092
 20
-85.271663
 11
85.815308
 21
-85.619712
  0
LINE
  8
ボルト／ビス
  6
CONTINUOUS
 62
    64
 10
84.486667
 20
-80.661488
 11
83.158117
 21
-85.619712
  0
LINE
  8
ボルト／ビス
  6
CONTINUOUS
 62
    64
 10
81.859243
 20
-85.271663
 11
83.158117
 21
-85.619712
  0
LINE
  8
ボルト／ビス
  6
CONTINUOUS
 62
    64
 10
83.153307
 20
-86.308847
 11
83.583308
 21
-83.870147
  0
LINE
  8
ボルト／ビス
  6
CONTINUOUS
 62
    64
 10
85.819993
 20
-86.308847
 11
85.390025
 21
-83.870147
  0
LINE
  8
ボルト／ビス
  6
CONTINUOUS
 62
    64
 10
83.153307
 20
-86.308847
 11
85.819993
 21
-86.308847
  0
LINE
  8
ボルト／ビス
  6
CONTINUOUS
 62
    64
 10
83.583308
 20
-83.870147
 11
85.390025
 21
-83.870147
  0
ENDBLK
  0
BLOCK
  2
*GRP_0096
 70
    65
 10
0.0
 20
0.0
  0
LINE
  8
ボルト／ビス
  6
CONTINUOUS
 62
    64
 10
-93.351127
 20
-64.908472
 11
-93.351127
 21
-88.155372
  0
LINE
  8
ボルト／ビス
  6
CONTINUOUS
 62
    64
 10
-94.517745
 20
-67.544697
 11
-94.28207
 21
-67.308855
  0
LINE
  8
ボルト／ビス
  6
CONTINUOUS
 62
    64
 10
-94.517745
 20
-67.544697
 11
-94.517745
 21
-69.64218
  0
LINE
  8
ボルト／ビス
  6
CONTINUOUS
 62
    64
 10
-94.517745
 20
-67.544697
 11
-94.75342
 21
-67.308855
  0
LINE
  8
ボルト／ビス
  6
CONTINUOUS
 62
    64
 10
-94.448712
 20
-65.642263
 11
-94.448712
 21
-67.308855
  0
LINE
  8
ボルト／ビス
  6
CONTINUOUS
 62
    64
 10
-96.017763
 20
-69.64218
 11
-96.017763
 21
-70.475555
  0
LINE
  8
ボルト／ビス
  6
CONTINUOUS
 62
    64
 10
-94.684487
 20
-77.308897
 11
-94.448712
 21
-77.073222
  0
LINE
  8
ボルト／ビス
  6
CONTINUOUS
 62
    64
 10
-94.448712
 20
-70.975648
 11
-94.448712
 21
-77.073222
  0
LINE
  8
ボルト／ビス
  6
CONTINUOUS
 62
    64
 10
-94.684487
 20
-80.441997
 11
-95.978553
 21
-85.271663
  0
LINE
  8
ボルト／ビス
  6
CONTINUOUS
 62
    64
 10
-94.684487
 20
-70.975648
 11
-94.684487
 21
-80.441997
  0
LINE
  8
ボルト／ビス
  6
CONTINUOUS
 62
    64
 10
-94.517745
 20
-67.544697
 11
-94.28207
 21
-67.308855
  0
LINE
  8
ボルト／ビス
  6
CONTINUOUS
 62
    64
 10
-92.204662
 20
-67.544697
 11
-91.968987
 21
-67.308855
  0
LINE
  8
ボルト／ビス
  6
CONTINUOUS
 62
    64
 10
-92.204662
 20
-67.544697
 11
-92.204662
 21
-69.64218
  0
LINE
  8
ボルト／ビス
  6
CONTINUOUS
 62
    64
 10
-92.204662
 20
-67.544697
 11
-92.440337
 21
-67.308855
  0
LINE
  8
ボルト／ビス
  6
CONTINUOUS
 62
    64
 10
-92.253488
 20
-65.642263
 11
-92.253488
 21
-67.308855
  0
LINE
  8
ボルト／ビス
  6
CONTINUOUS
 62
    64
 10
-90.684395
 20
-69.64218
 11
-90.684395
 21
-70.475555
  0
LINE
  8
ボルト／ビス
  6
CONTINUOUS
 62
    64
 10
-92.017803
 20
-77.308897
 11
-92.253488
 21
-77.073222
  0
LINE
  8
ボルト／ビス
  6
CONTINUOUS
 62
    64
 10
-92.253488
 20
-70.975648
 11
-92.253488
 21
-77.073222
  0
LINE
  8
ボルト／ビス
  6
CONTINUOUS
 62
    64
 10
-92.017803
 20
-80.441997
 11
-90.723703
 21
-85.271663
  0
LINE
  8
ボルト／ビス
  6
CONTINUOUS
 62
    64
 10
-92.017803
 20
-70.975648
 11
-92.017803
 21
-80.441997
  0
LINE
  8
ボルト／ビス
  6
CONTINUOUS
 62
    64
 10
-92.017803
 20
-65.877938
 11
-92.253488
 21
-65.642263
  0
LINE
  8
ボルト／ビス
  6
CONTINUOUS
 62
    64
 10
-92.017803
 20
-67.308855
 11
-92.017803
 21
-65.877938
  0
LINE
  8
ボルト／ビス
  6
CONTINUOUS
 62
    64
 10
-92.253488
 20
-65.642263
 11
-94.448712
 21
-65.642263
  0
LINE
  8
ボルト／ビス
  6
CONTINUOUS
 62
    64
 10
-94.448712
 20
-65.642263
 11
-94.684487
 21
-65.877938
  0
LINE
  8
ボルト／ビス
  6
CONTINUOUS
 62
    64
 10
-92.017803
 20
-65.877938
 11
-94.684487
 21
-65.877938
  0
LINE
  8
ボルト／ビス
  6
CONTINUOUS
 62
    64
 10
-94.684487
 20
-67.308855
 11
-94.684487
 21
-65.877938
  0
LINE
  8
ボルト／ビス
  6
CONTINUOUS
 62
    64
 10
-96.28442
 20
-67.544697
 11
-96.048745
 21
-67.308855
  0
LINE
  8
ボルト／ビス
  6
CONTINUOUS
 62
    64
 10
-96.28442
 20
-67.544697
 11
-96.28442
 21
-69.64218
  0
LINE
  8
ボルト／ビス
  6
CONTINUOUS
 62
    64
 10
-96.048745
 20
-67.308855
 11
-90.653513
 21
-67.308855
  0
LINE
  8
ボルト／ビス
  6
CONTINUOUS
 62
    64
 10
-90.417838
 20
-67.544697
 11
-90.653513
 21
-67.308855
  0
LINE
  8
ボルト／ビス
  6
CONTINUOUS
 62
    64
 10
-90.417838
 20
-67.544697
 11
-90.417838
 21
-69.64218
  0
LINE
  8
ボルト／ビス
  6
CONTINUOUS
 62
    64
 10
-96.28442
 20
-69.64218
 11
-90.417838
 21
-69.64218
  0
LINE
  8
ボルト／ビス
  6
CONTINUOUS
 62
    64
 10
-90.10107
 20
-70.475555
 11
-90.10107
 21
-70.975648
  0
LINE
  8
ボルト／ビス
  6
CONTINUOUS
 62
    64
 10
-90.10107
 20
-70.475555
 11
-96.601127
 21
-70.475555
  0
LINE
  8
ボルト／ビス
  6
CONTINUOUS
 62
    64
 10
-96.601127
 20
-70.475555
 11
-96.601127
 21
-70.975648
  0
LINE
  8
ボルト／ビス
  6
CONTINUOUS
 62
    64
 10
-90.10107
 20
-70.975648
 11
-96.601127
 21
-70.975648
  0
LINE
  8
ボルト／ビス
  6
CONTINUOUS
 62
    64
 10
-93.351127
 20
-80.661488
 11
-92.022487
 21
-85.619712
  0
LINE
  8
ボルト／ビス
  6
CONTINUOUS
 62
    64
 10
-90.723703
 20
-85.271663
 11
-92.022487
 21
-85.619712
  0
LINE
  8
ボルト／ビス
  6
CONTINUOUS
 62
    64
 10
-93.351127
 20
-80.661488
 11
-94.679677
 21
-85.619712
  0
LINE
  8
ボルト／ビス
  6
CONTINUOUS
 62
    64
 10
-95.978553
 20
-85.271663
 11
-94.679677
 21
-85.619712
  0
LINE
  8
ボルト／ビス
  6
CONTINUOUS
 62
    64
 10
-94.684487
 20
-86.308847
 11
-94.254487
 21
-83.870147
  0
LINE
  8
ボルト／ビス
  6
CONTINUOUS
 62
    64
 10
-92.017803
 20
-86.308847
 11
-92.44777
 21
-83.870147
  0
LINE
  8
ボルト／ビス
  6
CONTINUOUS
 62
    64
 10
-94.684487
 20
-86.308847
 11
-92.017803
 21
-86.308847
  0
LINE
  8
ボルト／ビス
  6
CONTINUOUS
 62
    64
 10
-94.254487
 20
-83.870147
 11
-92.44777
 21
-83.870147
  0
ENDBLK
  0
BLOCK
  2
*GRP_0097
 70
    65
 10
0.0
 20
0.0
  0
LINE
  8
曲げ物
  6
CONTINUOUS
 10
-79.750267
 20
-28.54231
 11
-69.01745
 21
-28.54231
  0
LINE
  8
曲げ物
  6
CONTINUOUS
 10
-69.01745
 20
-27.875642
 11
-69.01745
 21
-28.54231
  0
LINE
  8
曲げ物
  6
CONTINUOUS
 10
-79.750267
 20
-28.54231
 11
-79.750267
 21
-32.54231
  0
LINE
  8
曲げ物
  6
CONTINUOUS
 10
-79.750267
 20
-32.54231
 11
-80.416935
 21
-32.54231
  0
ARC
  8
曲げ物
  6
CONTINUOUS
 10
-79.750266
 20
-28.542318
 40
0.666667
 50
90.0
 51
180.0
  0
LINE
  8
曲げ物
  6
CONTINUOUS
 10
-69.01745
 20
-27.875642
 11
-79.750267
 21
-27.875642
  0
LINE
  8
曲げ物
  6
CONTINUOUS
 10
-80.416935
 20
-32.54231
 11
-80.416935
 21
-28.54231
  0
ENDBLK
  0
BLOCK
  2
*GRP_0098
 70
    65
 10
0.0
 20
0.0
  0
LINE
  8
曲げ物
  6
CONTINUOUS
 10
70.885808
 20
-28.54231
 11
60.15299
 21
-28.54231
  0
LINE
  8
曲げ物
  6
CONTINUOUS
 10
60.15299
 20
-27.875642
 11
60.15299
 21
-28.54231
  0
LINE
  8
曲げ物
  6
CONTINUOUS
 10
70.885808
 20
-28.54231
 11
70.885808
 21
-32.54231
  0
LINE
  8
曲げ物
  6
CONTINUOUS
 10
70.885808
 20
-32.54231
 11
71.552475
 21
-32.54231
  0
ARC
  8
曲げ物
  6
CONTINUOUS
 10
70.885806
 20
-28.542318
 40
0.666667
 50
0.0
 51
90.0
  0
LINE
  8
曲げ物
  6
CONTINUOUS
 10
60.15299
 20
-27.875642
 11
70.885808
 21
-27.875642
  0
LINE
  8
曲げ物
  6
CONTINUOUS
 10
71.552475
 20
-32.54231
 11
71.552475
 21
-28.54231
  0
ENDBLK
  0
BLOCK
  2
*GRP_0099
 70
    65
 10
0.0
 20
0.0
  0
ARC
  8
St
  6
CONTINUOUS
 62
   127
 10
70.086668
 20
-53.108977
 40
1.066667
 50
360.0
 51
450.0
  0
LINE
  8
St
  6
CONTINUOUS
 62
   127
 10
83.81969
 20
-52.042313
 11
53.819982
 21
-52.042313
  0
LINE
  8
St
  6
CONTINUOUS
 62
   127
 10
83.81969
 20
-53.108978
 11
53.819982
 21
-53.108978
  0
LINE
  8
St
  6
CONTINUOUS
 62
   127
 10
53.819982
 20
-52.042313
 11
53.819982
 21
-53.108978
  0
LINE
  8
St
  6
CONTINUOUS
 10
56.421912
 20
-52.042313
 11
57.488578
 21
-53.108978
  0
LINE
  8
St
  6
CONTINUOUS
 10
56.18621
 20
-52.042313
 11
57.252875
 21
-53.108978
  0
LINE
  8
St
  6
CONTINUOUS
 10
77.497703
 20
-52.042313
 11
78.564367
 21
-53.108978
  0
LINE
  8
St
  6
CONTINUOUS
 10
77.262
 20
-52.042313
 11
78.328665
 21
-53.108978
  0
LINE
  8
St
  6
CONTINUOUS
 62
   127
 10
71.153335
 20
-68.708978
 11
70.08667
 21
-68.708978
  0
LINE
  8
St
  6
CONTINUOUS
 62
   127
 10
70.08667
 20
-53.108978
 11
70.08667
 21
-68.708978
  0
LINE
  8
St
  6
CONTINUOUS
 62
   127
 10
71.153335
 20
-53.108978
 11
71.153335
 21
-68.708978
  0
LINE
  8
St
  6
CONTINUOUS
 10
83.81969
 20
-52.042313
 11
83.81969
 21
-53.108978
  0
LINE
  8
St
  6
CONTINUOUS
 10
55.902422
 20
-52.0423
 11
55.902422
 21
-53.108968
  0
LINE
  8
St
  6
CONTINUOUS
 10
54.402422
 20
-52.0423
 11
54.402422
 21
-53.108968
  0
LINE
  8
St
  6
CONTINUOUS
 10
54.402422
 20
-52.308968
 11
55.902422
 21
-52.308968
  0
LINE
  8
St
  6
CONTINUOUS
 10
54.402422
 20
-52.575633
 11
55.902422
 21
-52.575633
  0
LINE
  8
St
  6
CONTINUOUS
 10
54.402422
 20
-52.8423
 11
55.902422
 21
-52.8423
  0
LINE
  8
St
  6
CONTINUOUS
 10
55.152422
 20
-54.125925
 11
55.152422
 21
-50.96838
  0
LINE
  8
St
  6
CONTINUOUS
 10
82.903023
 20
-52.0423
 11
82.903023
 21
-53.108968
  0
LINE
  8
St
  6
CONTINUOUS
 10
81.403023
 20
-52.0423
 11
81.403023
 21
-53.108968
  0
LINE
  8
St
  6
CONTINUOUS
 10
81.403023
 20
-52.308968
 11
82.903023
 21
-52.308968
  0
LINE
  8
St
  6
CONTINUOUS
 10
81.403023
 20
-52.575633
 11
82.903023
 21
-52.575633
  0
LINE
  8
St
  6
CONTINUOUS
 10
81.403023
 20
-52.8423
 11
82.903023
 21
-52.8423
  0
LINE
  8
St
  6
CONTINUOUS
 10
82.153023
 20
-54.125925
 11
82.153023
 21
-50.96838
  0
LINE
  8
St
  6
CONTINUOUS
 10
70.08667
 20
-65.375648
 11
71.153335
 21
-65.375648
  0
LINE
  8
St
  6
CONTINUOUS
 10
70.08667
 20
-62.042313
 11
71.153335
 21
-62.042313
  0
LINE
  8
St
  6
CONTINUOUS
 10
70.353338
 20
-62.042313
 11
70.353338
 21
-65.375648
  0
LINE
  8
St
  6
CONTINUOUS
 10
70.620003
 20
-62.042313
 11
70.620003
 21
-65.375648
  0
LINE
  8
St
  6
CONTINUOUS
 10
70.88667
 20
-62.042313
 11
70.88667
 21
-65.375648
  0
LINE
  8
St
  6
CONTINUOUS
 10
69.109245
 20
-63.70898
 11
72.089072
 21
-63.70898
  0
ENDBLK
  0
BLOCK
  2
*GRP_0100
 70
    65
 10
0.0
 20
0.0
  0
ARC
  8
St
  6
CONTINUOUS
 62
   127
 10
-78.951128
 20
-53.108977
 40
1.066667
 50
90.0
 51
180.0
  0
LINE
  8
St
  6
CONTINUOUS
 62
   127
 10
-92.68415
 20
-52.042313
 11
-62.684443
 21
-52.042313
  0
LINE
  8
St
  6
CONTINUOUS
 62
   127
 10
-92.68415
 20
-53.108978
 11
-62.684443
 21
-53.108978
  0
LINE
  8
St
  6
CONTINUOUS
 62
   127
 10
-62.684443
 20
-52.042313
 11
-62.684443
 21
-53.108978
  0
LINE
  8
St
  6
CONTINUOUS
 10
-65.286373
 20
-52.042313
 11
-66.353038
 21
-53.108978
  0
LINE
  8
St
  6
CONTINUOUS
 10
-65.05067
 20
-52.042313
 11
-66.117335
 21
-53.108978
  0
LINE
  8
St
  6
CONTINUOUS
 10
-86.362162
 20
-52.042313
 11
-87.428827
 21
-53.108978
  0
LINE
  8
St
  6
CONTINUOUS
 10
-86.12646
 20
-52.042313
 11
-87.193125
 21
-53.108978
  0
LINE
  8
St
  6
CONTINUOUS
 62
   127
 10
-80.017795
 20
-68.708978
 11
-78.95113
 21
-68.708978
  0
LINE
  8
St
  6
CONTINUOUS
 62
   127
 10
-78.95113
 20
-53.108978
 11
-78.95113
 21
-68.708978
  0
LINE
  8
St
  6
CONTINUOUS
 62
   127
 10
-80.017795
 20
-53.108978
 11
-80.017795
 21
-68.708978
  0
LINE
  8
St
  6
CONTINUOUS
 10
-92.68415
 20
-52.042313
 11
-92.68415
 21
-53.108978
  0
LINE
  8
St
  6
CONTINUOUS
 10
-64.766882
 20
-52.0423
 11
-64.766882
 21
-53.108968
  0
LINE
  8
St
  6
CONTINUOUS
 10
-63.266882
 20
-52.0423
 11
-63.266882
 21
-53.108968
  0
LINE
  8
St
  6
CONTINUOUS
 10
-63.266882
 20
-52.308968
 11
-64.766882
 21
-52.308968
  0
LINE
  8
St
  6
CONTINUOUS
 10
-63.266882
 20
-52.575633
 11
-64.766882
 21
-52.575633
  0
LINE
  8
St
  6
CONTINUOUS
 10
-63.266882
 20
-52.8423
 11
-64.766882
 21
-52.8423
  0
LINE
  8
St
  6
CONTINUOUS
 10
-64.016882
 20
-54.125925
 11
-64.016882
 21
-50.96838
  0
LINE
  8
St
  6
CONTINUOUS
 10
-91.767483
 20
-52.0423
 11
-91.767483
 21
-53.108968
  0
LINE
  8
St
  6
CONTINUOUS
 10
-90.267483
 20
-52.0423
 11
-90.267483
 21
-53.108968
  0
LINE
  8
St
  6
CONTINUOUS
 10
-90.267483
 20
-52.308968
 11
-91.767483
 21
-52.308968
  0
LINE
  8
St
  6
CONTINUOUS
 10
-90.267483
 20
-52.575633
 11
-91.767483
 21
-52.575633
  0
LINE
  8
St
  6
CONTINUOUS
 10
-90.267483
 20
-52.8423
 11
-91.767483
 21
-52.8423
  0
LINE
  8
St
  6
CONTINUOUS
 10
-91.017483
 20
-54.125925
 11
-91.017483
 21
-50.96838
  0
LINE
  8
St
  6
CONTINUOUS
 10
-78.95113
 20
-65.375648
 11
-80.017795
 21
-65.375648
  0
LINE
  8
St
  6
CONTINUOUS
 10
-78.95113
 20
-62.042313
 11
-80.017795
 21
-62.042313
  0
LINE
  8
St
  6
CONTINUOUS
 10
-79.217797
 20
-62.042313
 11
-79.217797
 21
-65.375648
  0
LINE
  8
St
  6
CONTINUOUS
 10
-79.484462
 20
-62.042313
 11
-79.484462
 21
-65.375648
  0
LINE
  8
St
  6
CONTINUOUS
 10
-79.75113
 20
-62.042313
 11
-79.75113
 21
-65.375648
  0
LINE
  8
St
  6
CONTINUOUS
 10
-77.973705
 20
-63.70898
 11
-80.953532
 21
-63.70898
  0
ENDBLK
  0
BLOCK
  2
*GRP_0101
 70
    65
 10
0.0
 20
0.0
  0
ARC
  8
St
  6
CONTINUOUS
 62
   127
 10
-81.084469
 20
-70.975645
 40
1.066667
 50
-90.0
 51
0.0
  0
LINE
  8
St
  6
CONTINUOUS
 10
-109.231665
 20
-70.975645
 11
-110.29833
 21
-72.042313
  0
LINE
  8
St
  6
CONTINUOUS
 10
-109.46737
 20
-70.975645
 11
-110.534035
 21
-72.042313
  0
LINE
  8
St
  6
CONTINUOUS
 62
   127
 10
-81.084462
 20
-70.975645
 11
-113.351127
 21
-70.975645
  0
LINE
  8
St
  6
CONTINUOUS
 10
-113.351127
 20
-70.975645
 11
-113.351127
 21
-72.042313
  0
LINE
  8
St
  6
CONTINUOUS
 62
   127
 10
-81.084462
 20
-72.042313
 11
-113.351127
 21
-72.042313
  0
LINE
  8
St
  6
CONTINUOUS
 10
-88.149472
 20
-72.042313
 11
-87.082808
 21
-70.975645
  0
LINE
  8
St
  6
CONTINUOUS
 10
-88.385178
 20
-72.042313
 11
-87.318512
 21
-70.975645
  0
LINE
  8
St
  6
CONTINUOUS
 10
-81.084462
 20
-60.626205
 11
-80.017795
 21
-59.559535
  0
LINE
  8
St
  6
CONTINUOUS
 10
-81.084462
 20
-60.3905
 11
-80.017795
 21
-59.32383
  0
LINE
  8
St
  6
CONTINUOUS
 10
-81.084462
 20
-58.708978
 11
-80.017795
 21
-58.708978
  0
LINE
  8
St
  6
CONTINUOUS
 62
   127
 10
-80.017795
 20
-70.975645
 11
-80.017795
 21
-58.708978
  0
LINE
  8
St
  6
CONTINUOUS
 62
   127
 10
-81.084462
 20
-70.975645
 11
-81.084462
 21
-58.708978
  0
LINE
  8
St
  6
DOT
 10
-78.402088
 20
-63.708978
 11
-82.618335
 21
-63.708978
  0
LINE
  8
St
  6
DOT
 62
   127
 10
-97.27286
 20
-72.90744
 11
-97.27286
 21
-72.907438
  0
LINE
  8
St
  6
DOT
 10
-90.017795
 20
-70.975645
 11
-90.017795
 21
-72.042313
  0
LINE
  8
St
  6
DOT
 10
-96.68446
 20
-70.975645
 11
-96.68446
 21
-72.042313
  0
LINE
  8
St
  6
DOT
 10
-101.68446
 20
-70.975645
 11
-101.68446
 21
-72.042313
  0
LINE
  8
St
  6
DOT
 10
-105.017795
 20
-70.975645
 11
-105.017795
 21
-72.042313
  0
LINE
  8
St
  6
DOT
 10
-93.351127
 20
-69.621
 11
-93.351127
 21
-73.4472
  0
LINE
  8
St
  6
DOT
 62
   127
 10
-96.68446
 20
-71.242313
 11
-90.017795
 21
-71.242313
  0
LINE
  8
St
  6
DOT
 62
   127
 10
-96.68446
 20
-71.508978
 11
-90.017795
 21
-71.508978
  0
LINE
  8
St
  6
DOT
 62
   127
 10
-96.68446
 20
-71.775645
 11
-90.017795
 21
-71.775645
  0
LINE
  8
St
  6
DOT
 10
-101.68446
 20
-71.242313
 11
-105.017795
 21
-71.242313
  0
LINE
  8
St
  6
DOT
 10
-101.68446
 20
-71.508978
 11
-105.017795
 21
-71.508978
  0
LINE
  8
St
  6
DOT
 10
-101.68446
 20
-71.775645
 11
-105.017795
 21
-71.775645
  0
LINE
  8
St
  6
DOT
 10
-103.351127
 20
-69.621
 11
-103.351127
 21
-73.4472
  0
LINE
  8
St
  6
DOT
 10
-80.017795
 20
-70.975645
 11
-81.084462
 21
-70.975645
  0
LINE
  8
St
  6
DOT
 10
-80.017795
 20
-60.375642
 11
-81.084462
 21
-60.375642
  0
LINE
  8
St
  6
DOT
 10
-81.084462
 20
-64.708978
 11
-80.017795
 21
-64.708978
  0
LINE
  8
St
  6
DOT
 10
-81.084462
 20
-62.708978
 11
-80.017795
 21
-62.708978
  0
LINE
  8
St
  6
DOT
 62
   127
 10
-80.817795
 20
-70.975645
 11
-80.817795
 21
-60.375642
  0
LINE
  8
St
  6
DOT
 62
   127
 10
-80.55113
 20
-70.975645
 11
-80.55113
 21
-60.375642
  0
LINE
  8
St
  6
DOT
 62
   127
 10
-80.284462
 20
-70.975645
 11
-80.284462
 21
-60.375642
  0
ENDBLK
  0
BLOCK
  2
*GRP_0102
 70
    65
 10
0.0
 20
0.0
  0
ARC
  8
St
  6
CONTINUOUS
 62
   127
 10
72.220009
 20
-70.975645
 40
1.066667
 50
180.0
 51
270.0
  0
LINE
  8
St
  6
CONTINUOUS
 10
100.367205
 20
-70.975645
 11
101.43387
 21
-72.042313
  0
LINE
  8
St
  6
CONTINUOUS
 10
100.60291
 20
-70.975645
 11
101.669575
 21
-72.042313
  0
LINE
  8
St
  6
CONTINUOUS
 62
   127
 10
72.220003
 20
-70.975645
 11
104.486667
 21
-70.975645
  0
LINE
  8
St
  6
CONTINUOUS
 10
104.486667
 20
-70.975645
 11
104.486667
 21
-72.042313
  0
LINE
  8
St
  6
CONTINUOUS
 62
   127
 10
72.220003
 20
-72.042313
 11
104.486667
 21
-72.042313
  0
LINE
  8
St
  6
CONTINUOUS
 10
79.285013
 20
-72.042313
 11
78.218347
 21
-70.975645
  0
LINE
  8
St
  6
CONTINUOUS
 10
79.520717
 20
-72.042313
 11
78.454053
 21
-70.975645
  0
LINE
  8
St
  6
CONTINUOUS
 10
72.220003
 20
-60.626205
 11
71.153335
 21
-59.559535
  0
LINE
  8
St
  6
CONTINUOUS
 10
72.220003
 20
-60.3905
 11
71.153335
 21
-59.32383
  0
LINE
  8
St
  6
CONTINUOUS
 10
72.220003
 20
-58.708978
 11
71.153335
 21
-58.708978
  0
LINE
  8
St
  6
CONTINUOUS
 62
   127
 10
71.153335
 20
-70.975645
 11
71.153335
 21
-58.708978
  0
LINE
  8
St
  6
CONTINUOUS
 62
   127
 10
72.220003
 20
-70.975645
 11
72.220003
 21
-58.708978
  0
LINE
  8
St
  6
DOT
 10
69.537628
 20
-63.708978
 11
73.753875
 21
-63.708978
  0
LINE
  8
St
  6
DOT
 62
   127
 10
88.4084
 20
-72.90744
 11
88.4084
 21
-72.907438
  0
LINE
  8
St
  6
DOT
 10
81.153335
 20
-70.975645
 11
81.153335
 21
-72.042313
  0
LINE
  8
St
  6
DOT
 10
87.82
 20
-70.975645
 11
87.82
 21
-72.042313
  0
LINE
  8
St
  6
DOT
 10
92.82
 20
-70.975645
 11
92.82
 21
-72.042313
  0
LINE
  8
St
  6
DOT
 10
96.153335
 20
-70.975645
 11
96.153335
 21
-72.042313
  0
LINE
  8
St
  6
DOT
 10
84.486667
 20
-69.621
 11
84.486667
 21
-73.4472
  0
LINE
  8
St
  6
DOT
 62
   127
 10
87.82
 20
-71.242313
 11
81.153335
 21
-71.242313
  0
LINE
  8
St
  6
DOT
 62
   127
 10
87.82
 20
-71.508978
 11
81.153335
 21
-71.508978
  0
LINE
  8
St
  6
DOT
 62
   127
 10
87.82
 20
-71.775645
 11
81.153335
 21
-71.775645
  0
LINE
  8
St
  6
DOT
 10
92.82
 20
-71.242313
 11
96.153335
 21
-71.242313
  0
LINE
  8
St
  6
DOT
 10
92.82
 20
-71.508978
 11
96.153335
 21
-71.508978
  0
LINE
  8
St
  6
DOT
 10
92.82
 20
-71.775645
 11
96.153335
 21
-71.775645
  0
LINE
  8
St
  6
DOT
 10
94.486667
 20
-69.621
 11
94.486667
 21
-73.4472
  0
LINE
  8
St
  6
DOT
 10
71.153335
 20
-70.975645
 11
72.220003
 21
-70.975645
  0
LINE
  8
St
  6
DOT
 10
71.153335
 20
-60.375642
 11
72.220003
 21
-60.375642
  0
LINE
  8
St
  6
DOT
 10
72.220003
 20
-64.708978
 11
71.153335
 21
-64.708978
  0
LINE
  8
St
  6
DOT
 10
72.220003
 20
-62.708978
 11
71.153335
 21
-62.708978
  0
LINE
  8
St
  6
DOT
 62
   127
 10
71.953335
 20
-70.975645
 11
71.953335
 21
-60.375642
  0
LINE
  8
St
  6
DOT
 62
   127
 10
71.68667
 20
-70.975645
 11
71.68667
 21
-60.375642
  0
LINE
  8
St
  6
DOT
 62
   127
 10
71.420003
 20
-70.975645
 11
71.420003
 21
-60.375642
  0
ENDBLK
  0
BLOCK
  2
*GRP_0103
 70
    65
 10
0.0
 20
0.0
  0
LINE
  8
補助線
  6
DOT
 62
    64
 10
-11.098898
 20
-33.708978
 11
-14.565563
 21
-33.708978
  0
LINE
  8
補助線
  6
DOT
 62
    64
 10
-12.83223
 20
-31.975645
 11
-12.83223
 21
-35.44231
  0
ENDBLK
  0
BLOCK
  2
*GRP_0104
 70
    65
 10
0.0
 20
0.0
  0
LINE
  8
補助線
  6
DOT
 62
    64
 10
2.234438
 20
-33.708978
 11
5.701102
 21
-33.708978
  0
LINE
  8
補助線
  6
DOT
 62
    64
 10
3.96777
 20
-31.975645
 11
3.96777
 21
-35.44231
  0
ENDBLK
  0
BLOCK
  2
*GRP_0105
 70
    65
 10
0.0
 20
0.0
  0
LINE
  8
補助線
  6
BYBLOCK
 62
    64
 10
-16.698898
 20
-33.708978
 11
-20.165563
 21
-33.708978
  0
LINE
  8
補助線
  6
BYBLOCK
 62
    64
 10
-18.43223
 20
-31.975645
 11
-18.43223
 21
-35.44231
  0
ENDBLK
  0
BLOCK
  2
*GRP_0106
 70
    65
 10
0.0
 20
0.0
  0
LINE
  8
補助線
  6
BYBLOCK
 62
    64
 10
7.834438
 20
-33.708978
 11
11.301102
 21
-33.708978
  0
LINE
  8
補助線
  6
BYBLOCK
 62
    64
 10
9.56777
 20
-31.975645
 11
9.56777
 21
-35.44231
  0
ENDBLK
  0
BLOCK
  2
*GRP_0107
 70
    65
 10
0.0
 20
0.0
  0
LINE
  8
補助線
  6
BYBLOCK
 62
    64
 10
-11.0989
 20
-33.708978
 11
-14.565565
 21
-33.708978
  0
LINE
  8
補助線
  6
BYBLOCK
 62
    64
 10
-12.832233
 20
-31.975645
 11
-12.832233
 21
-35.44231
  0
ENDBLK
  0
BLOCK
  2
*GRP_0108
 70
    65
 10
0.0
 20
0.0
  0
LINE
  8
補助線
  6
BYBLOCK
 62
    64
 10
5.701105
 20
-33.708978
 11
2.23444
 21
-33.708978
  0
LINE
  8
補助線
  6
BYBLOCK
 62
    64
 10
3.967772
 20
-31.975645
 11
3.967772
 21
-35.44231
  0
ENDBLK
  0
BLOCK
  2
*GRP_0109
 70
    65
 10
0.0
 20
0.0
  0
LINE
  8
補助線
  6
BYBLOCK
 62
    64
 10
-16.69889
 20
-93.206865
 11
-20.165555
 21
-93.206865
  0
LINE
  8
補助線
  6
BYBLOCK
 62
    64
 10
-18.432222
 20
-91.473532
 11
-18.432222
 21
-94.940197
  0
ENDBLK
  0
BLOCK
  2
*GRP_0110
 70
    65
 10
0.0
 20
0.0
  0
LINE
  8
補助線
  6
BYBLOCK
 62
    64
 10
7.834445
 20
-93.206865
 11
11.30111
 21
-93.206865
  0
LINE
  8
補助線
  6
BYBLOCK
 62
    64
 10
9.567778
 20
-91.473532
 11
9.567778
 21
-94.940197
  0
ENDBLK
  0
BLOCK
  2
*GRP_0111
 70
    65
 10
0.0
 20
0.0
  0
LINE
  8
補助線
  6
BYBLOCK
 62
    64
 10
-11.098892
 20
-93.206865
 11
-14.565557
 21
-93.206865
  0
LINE
  8
補助線
  6
BYBLOCK
 62
    64
 10
-12.832225
 20
-91.473532
 11
-12.832225
 21
-94.940197
  0
ENDBLK
  0
BLOCK
  2
*GRP_0112
 70
    65
 10
0.0
 20
0.0
  0
LINE
  8
補助線
  6
BYBLOCK
 62
    64
 10
5.701113
 20
-93.206865
 11
2.234447
 21
-93.206865
  0
LINE
  8
補助線
  6
BYBLOCK
 62
    64
 10
3.96778
 20
-91.473532
 11
3.96778
 21
-94.940197
  0
ENDBLK
  0
BLOCK
  2
*GRP_0113
 70
    65
 10
0.0
 20
0.0
  0
LINE
  8
ボルト／ビス
  6
CONTINUOUS
 62
    64
 10
36.752078
 20
-48.875688
 11
36.752078
 21
-50.209012
  0
LINE
  8
ボルト／ビス
  6
CONTINUOUS
 62
    64
 10
38.652127
 20
-48.875688
 11
38.818752
 21
-49.042345
  0
LINE
  8
ボルト／ビス
  6
CONTINUOUS
 62
    64
 10
38.652127
 20
-50.209012
 11
38.818752
 21
-50.042313
  0
LINE
  8
ボルト／ビス
  6
CONTINUOUS
 62
    64
 10
38.818752
 20
-49.042345
 11
38.818752
 21
-50.042313
  0
LINE
  8
ボルト／ビス
  6
CONTINUOUS
 62
    64
 10
38.652127
 20
-48.875688
 11
38.652127
 21
-50.209012
  0
LINE
  8
ボルト／ビス
  6
CONTINUOUS
 62
    64
 10
36.752078
 20
-49.042345
 11
38.818752
 21
-49.042345
  0
LINE
  8
ボルト／ビス
  6
CONTINUOUS
 62
    64
 10
36.752078
 20
-50.042313
 11
38.818752
 21
-50.042313
  0
LINE
  8
ボルト／ビス
  6
CONTINUOUS
 62
    64
 10
36.752078
 20
-50.209012
 11
38.652127
 21
-50.209012
  0
LINE
  8
ボルト／ビス
  6
CONTINUOUS
 62
    64
 10
36.752078
 20
-48.875688
 11
38.652127
 21
-48.875688
  0
LINE
  8
ボルト／ビス
  6
CONTINUOUS
 62
    64
 10
35.152078
 20
-49.542345
 11
39.818752
 21
-49.542345
  0
LINE
  8
ボルト／ビス
  6
CONTINUOUS
 62
    64
 10
36.152078
 20
-48.542313
 11
36.752078
 21
-48.875688
  0
LINE
  8
ボルト／ビス
  6
CONTINUOUS
 62
    64
 10
36.152078
 20
-48.542313
 11
36.152078
 21
-50.542345
  0
LINE
  8
ボルト／ビス
  6
CONTINUOUS
 62
    64
 10
36.152078
 20
-50.542345
 11
36.752078
 21
-50.209012
  0
ENDBLK
  0
BLOCK
  2
*GRP_0114
 70
    65
 10
0.0
 20
0.0
  0
ARC
  8
St
  6
CONTINUOUS
 62
   127
 10
36.652104
 20
-47.54233
 40
0.5
 50
90.0
 51
180.0
  0
LINE
  8
St
  6
CONTINUOUS
 62
   127
 10
36.152078
 20
-52.042345
 11
36.68546
 21
-52.042345
  0
LINE
  8
St
  6
CONTINUOUS
 62
   127
 10
36.68546
 20
-52.042345
 11
36.68546
 21
-47.57568
  0
LINE
  8
St
  6
CONTINUOUS
 62
   127
 10
36.152078
 20
-52.042345
 11
36.152078
 21
-47.042345
  0
ARC
  8
St
  6
CONTINUOUS
 62
   127
 10
47.78595
 20
-47.54233
 40
0.5
 50
0.0
 51
90.0
  0
LINE
  8
St
  6
CONTINUOUS
 62
   127
 10
48.285925
 20
-51.042345
 11
48.285925
 21
-47.042345
  0
LINE
  8
St
  6
CONTINUOUS
 62
   127
 10
48.285925
 20
-51.042345
 11
47.752625
 21
-51.042345
  0
LINE
  8
St
  6
CONTINUOUS
 62
   127
 10
47.752625
 20
-51.042345
 11
47.752625
 21
-47.57568
  0
LINE
  8
St
  6
CONTINUOUS
 10
36.68546
 20
-47.57568
 11
47.752625
 21
-47.57568
  0
LINE
  8
St
  6
CONTINUOUS
 62
   127
 10
36.152078
 20
-47.042345
 11
48.285925
 21
-47.042345
  0
ENDBLK
  0
BLOCK
  2
*GRP_0115
 70
    65
 10
0.0
 20
0.0
  0
LINE
  8
ボルト／ビス
  6
CONTINUOUS
 62
    64
 10
49.553053
 20
-44.175658
 11
49.553053
 21
-42.842325
  0
LINE
  8
ボルト／ビス
  6
CONTINUOUS
 62
    64
 10
48.953053
 20
-44.50899
 11
49.553053
 21
-44.175658
  0
LINE
  8
ボルト／ビス
  6
CONTINUOUS
 62
    64
 10
48.953053
 20
-44.50899
 11
48.953053
 21
-42.50899
  0
LINE
  8
ボルト／ビス
  6
CONTINUOUS
 62
    64
 10
48.953053
 20
-42.50899
 11
49.553053
 21
-42.842325
  0
LINE
  8
ボルト／ビス
  6
CONTINUOUS
 62
    64
 10
48.458542
 20
-43.50899
 11
51.91273
 21
-43.50899
  0
LINE
  8
ボルト／ビス
  6
CONTINUOUS
 62
    64
 10
51.453053
 20
-44.175658
 11
51.61972
 21
-44.00899
  0
LINE
  8
ボルト／ビス
  6
CONTINUOUS
 62
    64
 10
51.453053
 20
-42.842325
 11
51.61972
 21
-43.00899
  0
LINE
  8
ボルト／ビス
  6
CONTINUOUS
 62
    64
 10
51.61972
 20
-44.00899
 11
51.61972
 21
-43.00899
  0
LINE
  8
ボルト／ビス
  6
CONTINUOUS
 62
    64
 10
51.453053
 20
-44.175658
 11
51.453053
 21
-42.842325
  0
LINE
  8
ボルト／ビス
  6
CONTINUOUS
 62
    64
 10
49.553053
 20
-44.00899
 11
51.61972
 21
-44.00899
  0
LINE
  8
ボルト／ビス
  6
CONTINUOUS
 62
    64
 10
49.553053
 20
-43.00899
 11
51.61972
 21
-43.00899
  0
LINE
  8
ボルト／ビス
  6
CONTINUOUS
 62
    64
 10
49.553053
 20
-42.842325
 11
51.453053
 21
-42.842325
  0
LINE
  8
ボルト／ビス
  6
CONTINUOUS
 62
    64
 10
49.553053
 20
-44.175658
 11
51.453053
 21
-44.175658
  0
ENDBLK
  0
BLOCK
  2
*GRP_0116
 70
    65
 10
0.0
 20
0.0
  0
LINE
  8
曲げ物
  6
CONTINUOUS
 10
53.286385
 20
-36.842322
 11
53.286385
 21
-40.175655
  0
LINE
  8
曲げ物
  6
CONTINUOUS
 10
53.286385
 20
-40.175655
 11
52.753053
 21
-40.175655
  0
LINE
  8
曲げ物
  6
CONTINUOUS
 10
52.753053
 20
-37.375655
 11
52.753053
 21
-40.175655
  0
LINE
  8
曲げ物
  6
CONTINUOUS
 10
48.953053
 20
-36.842322
 11
53.286385
 21
-36.842322
  0
LINE
  8
曲げ物
  6
CONTINUOUS
 10
49.486385
 20
-37.375655
 11
52.753053
 21
-37.375655
  0
LINE
  8
曲げ物
  6
CONTINUOUS
 62
   111
 10
36.78546
 20
-47.575645
 11
37.318793
 21
-47.575645
  0
LINE
  8
曲げ物
  6
CONTINUOUS
 62
   111
 10
48.953053
 20
-51.50898
 11
37.318793
 21
-51.50898
  0
LINE
  8
曲げ物
  6
CONTINUOUS
 62
   111
 10
37.318793
 20
-47.575645
 11
37.318793
 21
-51.50898
  0
LINE
  8
曲げ物
  6
CONTINUOUS
 62
   111
 10
49.486385
 20
-52.042313
 11
36.78546
 21
-52.042313
  0
LINE
  8
曲げ物
  6
CONTINUOUS
 62
   111
 10
36.78546
 20
-47.575645
 11
36.78546
 21
-52.042313
  0
LINE
  8
曲げ物
  6
CONTINUOUS
 62
   111
 10
48.953053
 20
-36.842322
 11
48.953053
 21
-51.50898
  0
LINE
  8
曲げ物
  6
CONTINUOUS
 62
   111
 10
49.486385
 20
-37.375655
 11
49.486385
 21
-52.042313
  0
ENDBLK
  0
BLOCK
  2
*GRP_0117
 70
    65
 10
0.0
 20
0.0
  0
LINE
  8
ボルト／ビス
  6
CONTINUOUS
 62
    64
 10
17.868745
 20
-48.875688
 11
17.868745
 21
-50.209012
  0
LINE
  8
ボルト／ビス
  6
CONTINUOUS
 62
    64
 10
15.968695
 20
-48.875688
 11
15.80207
 21
-49.042345
  0
LINE
  8
ボルト／ビス
  6
CONTINUOUS
 62
    64
 10
15.968695
 20
-50.209012
 11
15.80207
 21
-50.042313
  0
LINE
  8
ボルト／ビス
  6
CONTINUOUS
 62
    64
 10
15.80207
 20
-49.042345
 11
15.80207
 21
-50.042313
  0
LINE
  8
ボルト／ビス
  6
CONTINUOUS
 62
    64
 10
15.968695
 20
-48.875688
 11
15.968695
 21
-50.209012
  0
LINE
  8
ボルト／ビス
  6
CONTINUOUS
 62
    64
 10
17.868745
 20
-49.042345
 11
15.80207
 21
-49.042345
  0
LINE
  8
ボルト／ビス
  6
CONTINUOUS
 62
    64
 10
17.868745
 20
-50.042313
 11
15.80207
 21
-50.042313
  0
LINE
  8
ボルト／ビス
  6
CONTINUOUS
 62
    64
 10
17.868745
 20
-50.209012
 11
15.968695
 21
-50.209012
  0
LINE
  8
ボルト／ビス
  6
CONTINUOUS
 62
    64
 10
17.868745
 20
-48.875688
 11
15.968695
 21
-48.875688
  0
LINE
  8
ボルト／ビス
  6
CONTINUOUS
 62
    64
 10
19.468745
 20
-49.542345
 11
14.80207
 21
-49.542345
  0
LINE
  8
ボルト／ビス
  6
CONTINUOUS
 62
    64
 10
18.468745
 20
-48.542313
 11
17.868745
 21
-48.875688
  0
LINE
  8
ボルト／ビス
  6
CONTINUOUS
 62
    64
 10
18.468745
 20
-48.542313
 11
18.468745
 21
-50.542345
  0
LINE
  8
ボルト／ビス
  6
CONTINUOUS
 62
    64
 10
18.468745
 20
-50.542345
 11
17.868745
 21
-50.209012
  0
ENDBLK
  0
BLOCK
  2
*GRP_0118
 70
    65
 10
0.0
 20
0.0
  0
LINE
  8
ボルト／ビス
  6
CONTINUOUS
 62
    64
 10
5.06777
 20
-44.175658
 11
5.06777
 21
-42.842325
  0
LINE
  8
ボルト／ビス
  6
CONTINUOUS
 62
    64
 10
5.66777
 20
-44.50899
 11
5.06777
 21
-44.175658
  0
LINE
  8
ボルト／ビス
  6
CONTINUOUS
 62
    64
 10
5.66777
 20
-44.50899
 11
5.66777
 21
-42.50899
  0
LINE
  8
ボルト／ビス
  6
CONTINUOUS
 62
    64
 10
5.66777
 20
-42.50899
 11
5.06777
 21
-42.842325
  0
LINE
  8
ボルト／ビス
  6
CONTINUOUS
 62
    64
 10
6.16228
 20
-43.50899
 11
2.708093
 21
-43.50899
  0
LINE
  8
ボルト／ビス
  6
CONTINUOUS
 62
    64
 10
3.16777
 20
-44.175658
 11
3.001102
 21
-44.00899
  0
LINE
  8
ボルト／ビス
  6
CONTINUOUS
 62
    64
 10
3.16777
 20
-42.842325
 11
3.001102
 21
-43.00899
  0
LINE
  8
ボルト／ビス
  6
CONTINUOUS
 62
    64
 10
3.001102
 20
-44.00899
 11
3.001102
 21
-43.00899
  0
LINE
  8
ボルト／ビス
  6
CONTINUOUS
 62
    64
 10
3.16777
 20
-44.175658
 11
3.16777
 21
-42.842325
  0
LINE
  8
ボルト／ビス
  6
CONTINUOUS
 62
    64
 10
5.06777
 20
-44.00899
 11
3.001102
 21
-44.00899
  0
LINE
  8
ボルト／ビス
  6
CONTINUOUS
 62
    64
 10
5.06777
 20
-43.00899
 11
3.001102
 21
-43.00899
  0
LINE
  8
ボルト／ビス
  6
CONTINUOUS
 62
    64
 10
5.06777
 20
-42.842325
 11
3.16777
 21
-42.842325
  0
LINE
  8
ボルト／ビス
  6
CONTINUOUS
 62
    64
 10
5.06777
 20
-44.175658
 11
3.16777
 21
-44.175658
  0
ENDBLK
  0
BLOCK
  2
*GRP_0119
 70
    65
 10
0.0
 20
0.0
  0
ARC
  8
St
  6
CONTINUOUS
 62
   127
 10
17.968718
 20
-47.54233
 40
0.5
 50
0.0
 51
90.0
  0
LINE
  8
St
  6
CONTINUOUS
 62
   127
 10
18.468745
 20
-52.042345
 11
17.935362
 21
-52.042345
  0
LINE
  8
St
  6
CONTINUOUS
 62
   127
 10
17.935362
 20
-52.042345
 11
17.935362
 21
-47.57568
  0
LINE
  8
St
  6
CONTINUOUS
 62
   127
 10
18.468745
 20
-52.042345
 11
18.468745
 21
-47.042345
  0
ARC
  8
St
  6
CONTINUOUS
 62
   127
 10
6.834873
 20
-47.54233
 40
0.5
 50
90.0
 51
180.0
  0
LINE
  8
St
  6
CONTINUOUS
 62
   127
 10
6.334898
 20
-51.042345
 11
6.334898
 21
-47.042345
  0
LINE
  8
St
  6
CONTINUOUS
 62
   127
 10
6.334898
 20
-51.042345
 11
6.868197
 21
-51.042345
  0
LINE
  8
St
  6
CONTINUOUS
 62
   127
 10
6.868197
 20
-51.042345
 11
6.868197
 21
-47.57568
  0
LINE
  8
St
  6
CONTINUOUS
 10
17.935362
 20
-47.57568
 11
6.868197
 21
-47.57568
  0
LINE
  8
St
  6
CONTINUOUS
 62
   127
 10
18.468745
 20
-47.042345
 11
6.334898
 21
-47.042345
  0
ENDBLK
  0
BLOCK
  2
*GRP_0120
 70
    65
 10
0.0
 20
0.0
  0
LINE
  8
曲げ物
  6
CONTINUOUS
 62
   111
 10
17.835362
 20
-47.575645
 11
17.30203
 21
-47.575645
  0
LINE
  8
曲げ物
  6
CONTINUOUS
 62
   111
 10
5.66777
 20
-51.50898
 11
17.30203
 21
-51.50898
  0
LINE
  8
曲げ物
  6
CONTINUOUS
 62
   111
 10
17.30203
 20
-47.575645
 11
17.30203
 21
-51.50898
  0
LINE
  8
曲げ物
  6
CONTINUOUS
 62
   111
 10
5.134438
 20
-52.042313
 11
17.835362
 21
-52.042313
  0
LINE
  8
曲げ物
  6
CONTINUOUS
 62
   111
 10
17.835362
 20
-47.575645
 11
17.835362
 21
-52.042313
  0
LINE
  8
曲げ物
  6
CONTINUOUS
 62
   111
 10
5.66777
 20
-51.50898
 11
5.66777
 21
-38.70898
  0
LINE
  8
曲げ物
  6
CONTINUOUS
 10
5.66777
 20
-38.70898
 11
5.134438
 21
-38.70898
  0
LINE
  8
曲げ物
  6
CONTINUOUS
 62
   111
 10
5.134438
 20
-52.042313
 11
5.134438
 21
-38.70898
  0
ENDBLK
  0
BLOCK
  2
*GRP_0121
 70
    65
 10
0.0
 20
0.0
  0
LINE
  8
ボルト／ビス
  6
CONTINUOUS
 62
    64
 10
-45.616537
 20
-48.875688
 11
-45.616537
 21
-50.209012
  0
LINE
  8
ボルト／ビス
  6
CONTINUOUS
 62
    64
 10
-47.516587
 20
-48.875688
 11
-47.683212
 21
-49.042345
  0
LINE
  8
ボルト／ビス
  6
CONTINUOUS
 62
    64
 10
-47.516587
 20
-50.209012
 11
-47.683212
 21
-50.042313
  0
LINE
  8
ボルト／ビス
  6
CONTINUOUS
 62
    64
 10
-47.683212
 20
-49.042345
 11
-47.683212
 21
-50.042313
  0
LINE
  8
ボルト／ビス
  6
CONTINUOUS
 62
    64
 10
-47.516587
 20
-48.875688
 11
-47.516587
 21
-50.209012
  0
LINE
  8
ボルト／ビス
  6
CONTINUOUS
 62
    64
 10
-45.616537
 20
-49.042345
 11
-47.683212
 21
-49.042345
  0
LINE
  8
ボルト／ビス
  6
CONTINUOUS
 62
    64
 10
-45.616537
 20
-50.042313
 11
-47.683212
 21
-50.042313
  0
LINE
  8
ボルト／ビス
  6
CONTINUOUS
 62
    64
 10
-45.616537
 20
-50.209012
 11
-47.516587
 21
-50.209012
  0
LINE
  8
ボルト／ビス
  6
CONTINUOUS
 62
    64
 10
-45.616537
 20
-48.875688
 11
-47.516587
 21
-48.875688
  0
LINE
  8
ボルト／ビス
  6
CONTINUOUS
 62
    64
 10
-44.016537
 20
-49.542345
 11
-48.683212
 21
-49.542345
  0
LINE
  8
ボルト／ビス
  6
CONTINUOUS
 62
    64
 10
-45.016537
 20
-48.542313
 11
-45.616537
 21
-48.875688
  0
LINE
  8
ボルト／ビス
  6
CONTINUOUS
 62
    64
 10
-45.016537
 20
-48.542313
 11
-45.016537
 21
-50.542345
  0
LINE
  8
ボルト／ビス
  6
CONTINUOUS
 62
    64
 10
-45.016537
 20
-50.542345
 11
-45.616537
 21
-50.209012
  0
ENDBLK
  0
BLOCK
  2
*GRP_0122
 70
    65
 10
0.0
 20
0.0
  0
LINE
  8
ボルト／ビス
  6
CONTINUOUS
 62
    64
 10
-58.417512
 20
-44.175658
 11
-58.417512
 21
-42.842325
  0
LINE
  8
ボルト／ビス
  6
CONTINUOUS
 62
    64
 10
-57.817512
 20
-44.50899
 11
-58.417512
 21
-44.175658
  0
LINE
  8
ボルト／ビス
  6
CONTINUOUS
 62
    64
 10
-57.817512
 20
-44.50899
 11
-57.817512
 21
-42.50899
  0
LINE
  8
ボルト／ビス
  6
CONTINUOUS
 62
    64
 10
-57.817512
 20
-42.50899
 11
-58.417512
 21
-42.842325
  0
LINE
  8
ボルト／ビス
  6
CONTINUOUS
 62
    64
 10
-57.323002
 20
-43.50899
 11
-60.77719
 21
-43.50899
  0
LINE
  8
ボルト／ビス
  6
CONTINUOUS
 62
    64
 10
-60.317512
 20
-44.175658
 11
-60.48418
 21
-44.00899
  0
LINE
  8
ボルト／ビス
  6
CONTINUOUS
 62
    64
 10
-60.317512
 20
-42.842325
 11
-60.48418
 21
-43.00899
  0
LINE
  8
ボルト／ビス
  6
CONTINUOUS
 62
    64
 10
-60.48418
 20
-44.00899
 11
-60.48418
 21
-43.00899
  0
LINE
  8
ボルト／ビス
  6
CONTINUOUS
 62
    64
 10
-60.317512
 20
-44.175658
 11
-60.317512
 21
-42.842325
  0
LINE
  8
ボルト／ビス
  6
CONTINUOUS
 62
    64
 10
-58.417512
 20
-44.00899
 11
-60.48418
 21
-44.00899
  0
LINE
  8
ボルト／ビス
  6
CONTINUOUS
 62
    64
 10
-58.417512
 20
-43.00899
 11
-60.48418
 21
-43.00899
  0
LINE
  8
ボルト／ビス
  6
CONTINUOUS
 62
    64
 10
-58.417512
 20
-42.842325
 11
-60.317512
 21
-42.842325
  0
LINE
  8
ボルト／ビス
  6
CONTINUOUS
 62
    64
 10
-58.417512
 20
-44.175658
 11
-60.317512
 21
-44.175658
  0
ENDBLK
  0
BLOCK
  2
*GRP_0123
 70
    65
 10
0.0
 20
0.0
  0
LINE
  8
ボルト／ビス
  6
CONTINUOUS
 62
    64
 10
-26.733205
 20
-48.875688
 11
-26.733205
 21
-50.209012
  0
LINE
  8
ボルト／ビス
  6
CONTINUOUS
 62
    64
 10
-24.833155
 20
-48.875688
 11
-24.66653
 21
-49.042345
  0
LINE
  8
ボルト／ビス
  6
CONTINUOUS
 62
    64
 10
-24.833155
 20
-50.209012
 11
-24.66653
 21
-50.042313
  0
LINE
  8
ボルト／ビス
  6
CONTINUOUS
 62
    64
 10
-24.66653
 20
-49.042345
 11
-24.66653
 21
-50.042313
  0
LINE
  8
ボルト／ビス
  6
CONTINUOUS
 62
    64
 10
-24.833155
 20
-48.875688
 11
-24.833155
 21
-50.209012
  0
LINE
  8
ボルト／ビス
  6
CONTINUOUS
 62
    64
 10
-26.733205
 20
-49.042345
 11
-24.66653
 21
-49.042345
  0
LINE
  8
ボルト／ビス
  6
CONTINUOUS
 62
    64
 10
-26.733205
 20
-50.042313
 11
-24.66653
 21
-50.042313
  0
LINE
  8
ボルト／ビス
  6
CONTINUOUS
 62
    64
 10
-26.733205
 20
-50.209012
 11
-24.833155
 21
-50.209012
  0
LINE
  8
ボルト／ビス
  6
CONTINUOUS
 62
    64
 10
-26.733205
 20
-48.875688
 11
-24.833155
 21
-48.875688
  0
LINE
  8
ボルト／ビス
  6
CONTINUOUS
 62
    64
 10
-28.333205
 20
-49.542345
 11
-23.66653
 21
-49.542345
  0
LINE
  8
ボルト／ビス
  6
CONTINUOUS
 62
    64
 10
-27.333205
 20
-48.542313
 11
-26.733205
 21
-48.875688
  0
LINE
  8
ボルト／ビス
  6
CONTINUOUS
 62
    64
 10
-27.333205
 20
-48.542313
 11
-27.333205
 21
-50.542345
  0
LINE
  8
ボルト／ビス
  6
CONTINUOUS
 62
    64
 10
-27.333205
 20
-50.542345
 11
-26.733205
 21
-50.209012
  0
ENDBLK
  0
BLOCK
  2
*GRP_0124
 70
    65
 10
0.0
 20
0.0
  0
LINE
  8
ボルト／ビス
  6
CONTINUOUS
 62
    64
 10
-13.93223
 20
-44.175658
 11
-13.93223
 21
-42.842325
  0
LINE
  8
ボルト／ビス
  6
CONTINUOUS
 62
    64
 10
-14.53223
 20
-44.50899
 11
-13.93223
 21
-44.175658
  0
LINE
  8
ボルト／ビス
  6
CONTINUOUS
 62
    64
 10
-14.53223
 20
-44.50899
 11
-14.53223
 21
-42.50899
  0
LINE
  8
ボルト／ビス
  6
CONTINUOUS
 62
    64
 10
-14.53223
 20
-42.50899
 11
-13.93223
 21
-42.842325
  0
LINE
  8
ボルト／ビス
  6
CONTINUOUS
 62
    64
 10
-15.02674
 20
-43.50899
 11
-11.572552
 21
-43.50899
  0
LINE
  8
ボルト／ビス
  6
CONTINUOUS
 62
    64
 10
-12.03223
 20
-44.175658
 11
-11.865563
 21
-44.00899
  0
LINE
  8
ボルト／ビス
  6
CONTINUOUS
 62
    64
 10
-12.03223
 20
-42.842325
 11
-11.865563
 21
-43.00899
  0
LINE
  8
ボルト／ビス
  6
CONTINUOUS
 62
    64
 10
-11.865563
 20
-44.00899
 11
-11.865563
 21
-43.00899
  0
LINE
  8
ボルト／ビス
  6
CONTINUOUS
 62
    64
 10
-12.03223
 20
-44.175658
 11
-12.03223
 21
-42.842325
  0
LINE
  8
ボルト／ビス
  6
CONTINUOUS
 62
    64
 10
-13.93223
 20
-44.00899
 11
-11.865563
 21
-44.00899
  0
LINE
  8
ボルト／ビス
  6
CONTINUOUS
 62
    64
 10
-13.93223
 20
-43.00899
 11
-11.865563
 21
-43.00899
  0
LINE
  8
ボルト／ビス
  6
CONTINUOUS
 62
    64
 10
-13.93223
 20
-42.842325
 11
-12.03223
 21
-42.842325
  0
LINE
  8
ボルト／ビス
  6
CONTINUOUS
 62
    64
 10
-13.93223
 20
-44.175658
 11
-12.03223
 21
-44.175658
  0
ENDBLK
  0
BLOCK
  2
*GRP_0125
 70
    65
 10
0.0
 20
0.0
  0
LINE
  8
曲げ物
  6
CONTINUOUS
 10
-62.150845
 20
-36.842322
 11
-62.150845
 21
-40.175655
  0
LINE
  8
曲げ物
  6
CONTINUOUS
 10
-62.150845
 20
-40.175655
 11
-61.617512
 21
-40.175655
  0
LINE
  8
曲げ物
  6
CONTINUOUS
 10
-61.617512
 20
-37.375655
 11
-61.617512
 21
-40.175655
  0
LINE
  8
曲げ物
  6
CONTINUOUS
 10
-57.817512
 20
-36.842322
 11
-62.150845
 21
-36.842322
  0
LINE
  8
曲げ物
  6
CONTINUOUS
 10
-58.350845
 20
-37.375655
 11
-61.617512
 21
-37.375655
  0
LINE
  8
曲げ物
  6
CONTINUOUS
 62
   111
 10
-45.64992
 20
-47.575645
 11
-46.183252
 21
-47.575645
  0
LINE
  8
曲げ物
  6
CONTINUOUS
 62
   111
 10
-57.817512
 20
-51.50898
 11
-46.183252
 21
-51.50898
  0
LINE
  8
曲げ物
  6
CONTINUOUS
 62
   111
 10
-46.183252
 20
-47.575645
 11
-46.183252
 21
-51.50898
  0
LINE
  8
曲げ物
  6
CONTINUOUS
 62
   111
 10
-58.350845
 20
-52.042313
 11
-45.64992
 21
-52.042313
  0
LINE
  8
曲げ物
  6
CONTINUOUS
 62
   111
 10
-45.64992
 20
-47.575645
 11
-45.64992
 21
-52.042313
  0
LINE
  8
曲げ物
  6
CONTINUOUS
 62
   111
 10
-57.817512
 20
-36.842322
 11
-57.817512
 21
-51.50898
  0
LINE
  8
曲げ物
  6
CONTINUOUS
 62
   111
 10
-58.350845
 20
-37.375655
 11
-58.350845
 21
-52.042313
  0
ENDBLK
  0
BLOCK
  2
*GRP_0126
 70
    65
 10
0.0
 20
0.0
  0
LINE
  8
曲げ物
  6
CONTINUOUS
 62
   111
 10
-26.699823
 20
-47.575645
 11
-26.16649
 21
-47.575645
  0
LINE
  8
曲げ物
  6
CONTINUOUS
 62
   111
 10
-14.53223
 20
-51.50898
 11
-26.16649
 21
-51.50898
  0
LINE
  8
曲げ物
  6
CONTINUOUS
 62
   111
 10
-26.16649
 20
-47.575645
 11
-26.16649
 21
-51.50898
  0
LINE
  8
曲げ物
  6
CONTINUOUS
 62
   111
 10
-13.998898
 20
-52.042313
 11
-26.699823
 21
-52.042313
  0
LINE
  8
曲げ物
  6
CONTINUOUS
 62
   111
 10
-26.699823
 20
-47.575645
 11
-26.699823
 21
-52.042313
  0
LINE
  8
曲げ物
  6
CONTINUOUS
 62
   111
 10
-14.53223
 20
-51.50898
 11
-14.53223
 21
-38.70898
  0
LINE
  8
曲げ物
  6
CONTINUOUS
 10
-14.53223
 20
-38.70898
 11
-13.998898
 21
-38.70898
  0
LINE
  8
曲げ物
  6
CONTINUOUS
 62
   111
 10
-13.998898
 20
-52.042313
 11
-13.998898
 21
-38.70898
  0
ENDBLK
  0
BLOCK
  2
*GRP_0127
 70
    65
 10
0.0
 20
0.0
  0
ARC
  8
St
  6
CONTINUOUS
 62
   127
 10
-45.516564
 20
-47.54233
 40
0.5
 50
0.0
 51
90.0
  0
LINE
  8
St
  6
CONTINUOUS
 62
   127
 10
-45.016537
 20
-52.042345
 11
-45.54992
 21
-52.042345
  0
LINE
  8
St
  6
CONTINUOUS
 62
   127
 10
-45.54992
 20
-52.042345
 11
-45.54992
 21
-47.57568
  0
LINE
  8
St
  6
CONTINUOUS
 62
   127
 10
-45.016537
 20
-52.042345
 11
-45.016537
 21
-47.042345
  0
ARC
  8
St
  6
CONTINUOUS
 62
   127
 10
-56.65041
 20
-47.54233
 40
0.5
 50
90.0
 51
180.0
  0
LINE
  8
St
  6
CONTINUOUS
 62
   127
 10
-57.150385
 20
-51.042345
 11
-57.150385
 21
-47.042345
  0
LINE
  8
St
  6
CONTINUOUS
 62
   127
 10
-57.150385
 20
-51.042345
 11
-56.617085
 21
-51.042345
  0
LINE
  8
St
  6
CONTINUOUS
 62
   127
 10
-56.617085
 20
-51.042345
 11
-56.617085
 21
-47.57568
  0
LINE
  8
St
  6
CONTINUOUS
 10
-45.54992
 20
-47.57568
 11
-56.617085
 21
-47.57568
  0
LINE
  8
St
  6
CONTINUOUS
 62
   127
 10
-45.016537
 20
-47.042345
 11
-57.150385
 21
-47.042345
  0
ENDBLK
  0
BLOCK
  2
*GRP_0128
 70
    65
 10
0.0
 20
0.0
  0
ARC
  8
St
  6
CONTINUOUS
 62
   127
 10
-26.833178
 20
-47.54233
 40
0.5
 50
90.0
 51
180.0
  0
LINE
  8
St
  6
CONTINUOUS
 62
   127
 10
-27.333205
 20
-52.042345
 11
-26.799823
 21
-52.042345
  0
LINE
  8
St
  6
CONTINUOUS
 62
   127
 10
-26.799823
 20
-52.042345
 11
-26.799823
 21
-47.57568
  0
LINE
  8
St
  6
CONTINUOUS
 62
   127
 10
-27.333205
 20
-52.042345
 11
-27.333205
 21
-47.042345
  0
ARC
  8
St
  6
CONTINUOUS
 62
   127
 10
-15.699333
 20
-47.54233
 40
0.5
 50
0.0
 51
90.0
  0
LINE
  8
St
  6
CONTINUOUS
 62
   127
 10
-15.199358
 20
-51.042345
 11
-15.199358
 21
-47.042345
  0
LINE
  8
St
  6
CONTINUOUS
 62
   127
 10
-15.199358
 20
-51.042345
 11
-15.732658
 21
-51.042345
  0
LINE
  8
St
  6
CONTINUOUS
 62
   127
 10
-15.732658
 20
-51.042345
 11
-15.732658
 21
-47.57568
  0
LINE
  8
St
  6
CONTINUOUS
 10
-26.799823
 20
-47.57568
 11
-15.732658
 21
-47.57568
  0
LINE
  8
St
  6
CONTINUOUS
 62
   127
 10
-27.333205
 20
-47.042345
 11
-15.199358
 21
-47.042345
  0
ENDBLK
  0
BLOCK
  2
*GRP_0129
 70
    65
 10
0.0
 20
0.0
  0
LINE
  8
寸法
  6
CONTINUOUS
 10
39.817128
 20
-39.527578
 11
49.14508
 21
-45.611385
  0
ENDBLK
  0
BLOCK
  2
*GRP_0130
 70
    65
 10
0.0
 20
0.0
  0
POLYLINE
  8
寸法
  6
CONTINUOUS
 66
     1
  0
VERTEX
  8
寸法
 10
20.828632
 20
-49.714067
  0
VERTEX
  8
寸法
 10
16.94367
 20
-57.9909
  0
VERTEX
  8
寸法
 10
20.04746
 20
-57.9909
  0
SEQEND
  0
ENDBLK
  0
BLOCK
  2
*GRP_0131
 70
    65
 10
0.0
 20
0.0
  0
POLYLINE
  8
寸法
  6
CONTINUOUS
 66
     1
  0
VERTEX
  8
寸法
 10
-59.406492
 20
-49.640758
  0
VERTEX
  8
寸法
 10
-54.130475
 20
-58.56486
  0
VERTEX
  8
寸法
 10
-50.75572
 20
-58.56486
  0
SEQEND
  0
ENDBLK
  0
BLOCK
  2
*DIM_0132
 70
    65
 10
0.0
 20
0.0
  0
LINE
  8
寸法
  6
CONTINUOUS
 10
-58.350845
 20
-32.375655
 11
-58.350845
 21
66.87609
  0
LINE
  8
寸法
  6
CONTINUOUS
 10
-45.016537
 20
-42.042345
 11
-45.016537
 21
66.87609
  0
LINE
  8
寸法
  6
CONTINUOUS
 10
-58.350845
 20
66.87609
 11
-45.016537
 21
66.87609
  0
POINT
  8
寸法
 10
-58.350845
 20
66.87609
  0
POINT
  8
寸法
 10
-45.016537
 20
66.87609
  0
TEXT
  7
TextStyle03
  8
寸法
  6
CONTINUOUS
 10
-53.825
 20
67.25
  1
40
 40
4.0
 72
     5
 11
-49.575
 21
67.25
  0
ENDBLK
  0
BLOCK
  2
*DIM_0133
 70
    65
 10
0.0
 20
0.0
  0
LINE
  8
寸法
  6
CONTINUOUS
 10
49.486385
 20
-32.375655
 11
49.486385
 21
66.87609
  0
LINE
  8
寸法
  6
CONTINUOUS
 10
36.152078
 20
66.87609
 11
49.486385
 21
66.87609
  0
POINT
  8
寸法
 10
49.486385
 20
66.87609
  0
TEXT
  7
TextStyle03
  8
寸法
  6
CONTINUOUS
 10
40.675
 20
67.25
  1
40
 40
4.0
 72
     5
 11
44.925
 21
67.25
  0
ENDBLK
  0
BLOCK
  2
*DIM_0134
 70
    65
 10
0.0
 20
0.0
  0
LINE
  8
寸法
  6
CONTINUOUS
 10
36.152078
 20
-42.042345
 11
36.152078
 21
66.87609
  0
LINE
  8
寸法
  6
CONTINUOUS
 10
-45.016537
 20
66.87609
 11
36.152078
 21
66.87609
  0
POINT
  8
寸法
 10
36.152078
 20
66.87609
  0
TEXT
  7
TextStyle03
  8
寸法
  6
CONTINUOUS
 10
-13.2
 20
67.25
  1
有効開口
 40
4.0
 72
     5
 11
4.3
 21
67.25
  0
ENDBLK
  0
ENDSEC
  0
SECTION
  2
ENTITIES
  0
POLYLINE
  8
通り芯
  6
CONTINUOUS
 66
     1
 70
     1
  0
VERTEX
  8
通り芯
 10
-210.0
 20
-148.5
  0
VERTEX
  8
通り芯
 10
210.0
 20
-148.5
  0
VERTEX
  8
通り芯
 10
210.0
 20
148.5
  0
VERTEX
  8
通り芯
 10
-210.0
 20
148.5
  0
SEQEND
  0
LINE
  8
通り芯
  6
CONTINUOUS
 10
-79.667025
 20
-26.375635
 11
-79.667025
 21
-27.042285
  0
LINE
  8
通り芯
  6
CONTINUOUS
 10
-79.667035
 20
-26.375635
 11
-79.667018
 21
-27.042285
  0
INSERT
  2
*GRP_0002
  8
型材
  6
DOT
 10
0.0
 20
0.0
  0
INSERT
  2
*GRP_0003
  8
型材
  6
DOT
 10
0.0
 20
0.0
  0
INSERT
  2
*GRP_0001
  8
型材断面
  6
CONTINUOUS
 10
0.0
 20
0.0
  0
INSERT
  2
*GRP_0004
  8
型材断面
  6
CONTINUOUS
 10
0.0
 20
0.0
  0
INSERT
  2
*GRP_0005
  8
型材断面
  6
CONTINUOUS
 10
0.0
 20
0.0
  0
LINE
  8
型材断面
  6
CONTINUOUS
 10
94.308312
 20
-69.574097
 11
94.308312
 21
-69.574095
  0
INSERT
  2
*GRP_0006
  8
型材断面
  6
CONTINUOUS
 10
0.0
 20
0.0
  0
INSERT
  2
*GRP_0007
  8
型材断面
  6
CONTINUOUS
 10
0.0
 20
0.0
  0
LINE
  8
型材断面
  6
CONTINUOUS
 10
94.308312
 20
-72.90743
 11
94.308312
 21
-72.907427
  0
LINE
  8
型材断面
  6
CONTINUOUS
 10
94.308312
 20
-72.90743
 11
94.308312
 21
-72.907427
  0
LINE
  8
型材断面
  6
CONTINUOUS
 10
62.81987
 20
-75.375645
 11
112.81991
 21
-75.375645
  0
LINE
  8
型材断面
  6
CONTINUOUS
 10
112.819908
 20
-72.042313
 11
62.81987
 21
-72.042313
  0
ARC
  8
型材断面
  6
CONTINUOUS
 10
112.819907
 20
-75.375645
 40
3.333333
 50
0.0
 51
90.0
  0
LINE
  8
型材断面
  6
CONTINUOUS
 10
112.80915
 20
-79.79054
 11
108.394255
 21
-75.375645
  0
LINE
  8
型材断面
  6
CONTINUOUS
 10
112.80915
 20
-82.147563
 11
106.03723
 21
-75.375645
  0
LINE
  8
型材断面
  6
CONTINUOUS
 10
112.80915
 20
-84.504585
 11
103.68021
 21
-75.375645
  0
LINE
  8
型材断面
  6
CONTINUOUS
 10
-103.172772
 20
-69.574097
 11
-103.172772
 21
-69.574095
  0
LINE
  8
型材断面
  6
CONTINUOUS
 10
-64.017665
 20
-52.042307
 11
-64.017665
 21
-90.116137
  0
LINE
  8
型材断面
  6
CONTINUOUS
 10
-60.350997
 20
-52.042307
 11
-60.350997
 21
-90.116137
  0
LINE
  8
型材断面
  6
CONTINUOUS
 10
-103.172772
 20
-72.90743
 11
-103.172772
 21
-72.907427
  0
LINE
  8
型材断面
  6
CONTINUOUS
 10
-103.172772
 20
-72.90743
 11
-103.172772
 21
-72.907427
  0
LINE
  8
型材断面
  6
CONTINUOUS
 10
-71.68433
 20
-75.375645
 11
-121.68437
 21
-75.375645
  0
LINE
  8
型材断面
  6
CONTINUOUS
 10
-121.684368
 20
-72.042313
 11
-71.68433
 21
-72.042313
  0
ARC
  8
型材断面
  6
CONTINUOUS
 10
-121.684367
 20
-75.375645
 40
3.333333
 50
90.0
 51
180.0
  0
LINE
  8
型材断面
  6
CONTINUOUS
 10
-121.67361
 20
-79.79054
 11
-117.258715
 21
-75.375645
  0
LINE
  8
型材断面
  6
CONTINUOUS
 10
-121.67361
 20
-82.147563
 11
-114.90169
 21
-75.375645
  0
LINE
  8
型材断面
  6
CONTINUOUS
 10
-121.67361
 20
-84.504585
 11
-112.54467
 21
-75.375645
  0
LINE
  8
型材断面
  6
DASHDOT
 10
59.485875
 20
5.756055
 11
59.485875
 21
-23.375648
  0
LINE
  8
型材断面
  6
DASHDOT
 10
-68.350335
 20
5.756055
 11
-68.350335
 21
-23.375648
  0
LINE
  8
型材断面
  6
DOT
 10
-69.017468
 20
-42.07053
 11
-68.35086
 21
-41.95753
  0
LINE
  8
型材断面
  6
DOT
 10
-68.35086
 20
-39.375677
 11
-69.017468
 21
-39.375677
  0
LINE
  8
型材断面
  6
DOT
 10
-66.850925
 20
-39.375677
 11
-65.684192
 21
-39.375677
  0
LINE
  8
型材断面
  6
DOT
 10
-65.684192
 20
-39.375677
 11
-65.684192
 21
-41.505567
  0
LINE
  8
型材断面
  6
DOT
 10
-68.850815
 20
-42.04228
 11
-68.850815
 21
-39.375677
  0
LINE
  8
型材断面
  6
DOT
 10
-68.684162
 20
-42.01403
 11
-68.684162
 21
-39.375677
  0
LINE
  8
型材断面
  6
DOT
 10
-68.517512
 20
-41.98578
 11
-68.517512
 21
-39.375677
  0
INSERT
  2
*HAT_0007
  8
型材断面
 10
0.0
 20
0.0
  0
LINE
  8
型材断面
  6
DOT
 10
60.153008
 20
-42.07053
 11
59.4864
 21
-41.95753
  0
LINE
  8
型材断面
  6
DOT
 10
59.4864
 20
-39.375677
 11
60.153008
 21
-39.375677
  0
LINE
  8
型材断面
  6
DOT
 10
57.986465
 20
-39.375677
 11
56.819732
 21
-39.375677
  0
LINE
  8
型材断面
  6
DOT
 10
56.819732
 20
-39.375677
 11
56.819732
 21
-41.505567
  0
LINE
  8
型材断面
  6
DOT
 10
59.986355
 20
-42.04228
 11
59.986355
 21
-39.375677
  0
LINE
  8
型材断面
  6
DOT
 10
59.819702
 20
-42.01403
 11
59.819702
 21
-39.375677
  0
LINE
  8
型材断面
  6
DOT
 10
59.653053
 20
-41.98578
 11
59.653053
 21
-39.375677
  0
INSERT
  2
*HAT_0008
  8
型材断面
 10
0.0
 20
0.0
  0
LINE
  8
型材断面
  6
CONTINUOUS
 10
-60.6842
 20
-31.042357
 11
51.81974
 21
-31.042357
  0
LINE
  8
型材断面
  6
CONTINUOUS
 10
-60.6842
 20
-31.042357
 11
51.81974
 21
-31.042357
  0
LINE
  8
型材断面
  6
CONTINUOUS
 10
-59.9503
 20
-18.875627
 11
51.08584
 21
-18.875627
  0
LINE
  8
型材断面
  6
CONTINUOUS
 10
50.951025
 20
-19.942292
 11
-59.815485
 21
-19.942292
  0
LINE
  8
型材断面
  6
CONTINUOUS
 62
    47
 10
-125.0177
 20
-75.375645
 11
-125.0177
 21
-101.39646
  0
LINE
  8
型材断面
  6
CONTINUOUS
 62
    47
 10
-121.68437
 20
-75.375645
 11
-121.68437
 21
-101.39646
  0
LINE
  8
型材断面
  6
CONTINUOUS
 10
-72.52547
 20
-75.375645
 11
-98.546285
 21
-101.39646
  0
LINE
  8
型材断面
  6
CONTINUOUS
 10
-74.882492
 20
-75.375645
 11
-100.903308
 21
-101.39646
  0
LINE
  8
型材断面
  6
CONTINUOUS
 10
-77.239515
 20
-75.375645
 11
-103.260335
 21
-101.39646
  0
LINE
  8
型材断面
  6
CONTINUOUS
 10
-71.68433
 20
-52.575627
 11
-71.68433
 21
-101.39646
  0
LINE
  8
型材断面
  6
CONTINUOUS
 10
-64.017665
 20
-52.042307
 11
-64.017665
 21
-101.39646
  0
LINE
  8
型材断面
  6
CONTINUOUS
 10
-63.68433
 20
-52.042307
 11
-63.68433
 21
-101.39646
  0
LINE
  8
型材断面
  6
CONTINUOUS
 10
-63.68433
 20
-52.042307
 11
-63.68433
 21
-101.39646
  0
LINE
  8
型材断面
  6
CONTINUOUS
 10
-60.017665
 20
-52.042307
 11
-60.017665
 21
-101.39646
  0
LINE
  8
型材断面
  6
CONTINUOUS
 10
-60.350997
 20
-52.042307
 11
-60.350997
 21
-101.39646
  0
LINE
  8
型材断面
  6
CONTINUOUS
 10
-60.017665
 20
-52.042307
 11
-60.017665
 21
-101.39646
  0
LINE
  8
型材断面
  6
CONTINUOUS
 10
51.153205
 20
-52.042307
 11
51.153205
 21
-101.39646
  0
LINE
  8
型材断面
  6
CONTINUOUS
 10
51.486537
 20
-52.042307
 11
51.486537
 21
-101.39646
  0
LINE
  8
型材断面
  6
CONTINUOUS
 10
54.81987
 20
-52.042307
 11
54.81987
 21
-101.39646
  0
LINE
  8
型材断面
  6
CONTINUOUS
 10
55.153205
 20
-52.042307
 11
55.153205
 21
-101.39646
  0
LINE
  8
型材断面
  6
CONTINUOUS
 10
62.81987
 20
-52.575627
 11
62.81987
 21
-101.39646
  0
LINE
  8
型材断面
  6
CONTINUOUS
 10
63.66101
 20
-75.375645
 11
89.681825
 21
-101.39646
  0
LINE
  8
型材断面
  6
CONTINUOUS
 10
66.018032
 20
-75.375645
 11
92.038847
 21
-101.39646
  0
LINE
  8
型材断面
  6
CONTINUOUS
 10
68.375055
 20
-75.375645
 11
94.395875
 21
-101.39646
  0
LINE
  8
型材断面
  6
CONTINUOUS
 62
    47
 10
112.81991
 20
-75.375645
 11
112.81991
 21
-101.39646
  0
LINE
  8
型材断面
  6
CONTINUOUS
 62
    47
 10
116.15324
 20
-75.375645
 11
116.15324
 21
-101.39646
  0
LINE
  8
型材断面
  6
CONTINUOUS
 10
-126.709055
 20
114.633237
 11
-166.709055
 21
114.633237
  0
LINE
  8
型材断面
  6
CONTINUOUS
 10
-126.709055
 20
108.633237
 11
-166.709055
 21
108.633237
  0
LINE
  8
型材断面
  6
CONTINUOUS
 10
-166.709055
 20
108.633237
 11
-166.709055
 21
114.633237
  0
LINE
  8
型材断面
  6
CONTINUOUS
 10
-156.709055
 20
108.633237
 11
-156.709055
 21
114.633237
  0
LINE
  8
型材断面
  6
CONTINUOUS
 10
-146.709055
 20
108.633237
 11
-146.709055
 21
114.633237
  0
LINE
  8
型材断面
  6
CONTINUOUS
 10
-136.709055
 20
108.633237
 11
-136.709055
 21
114.633237
  0
LINE
  8
型材断面
  6
CONTINUOUS
 10
-126.709055
 20
108.633237
 11
-126.709055
 21
114.633237
  0
POLYLINE
  8
型材断面
  6
CONTINUOUS
 66
     1
 70
     1
  0
VERTEX
  8
型材断面
 10
-138.80759
 20
119.482913
  0
VERTEX
  8
型材断面
 10
-157.618665
 20
119.482913
  0
VERTEX
  8
型材断面
 10
-157.618665
 20
115.344475
  0
VERTEX
  8
型材断面
 10
-138.80759
 20
115.344475
  0
SEQEND
  0
POLYLINE
  8
型材断面
  6
CONTINUOUS
 66
     1
 70
     1
  0
VERTEX
  8
型材断面
 10
-138.80759
 20
107.981285
  0
VERTEX
  8
型材断面
 10
-157.618665
 20
107.981285
  0
VERTEX
  8
型材断面
 10
-157.618665
 20
103.842848
  0
VERTEX
  8
型材断面
 10
-138.80759
 20
103.842848
  0
SEQEND
  0
LINE
  8
型材断面
  6
CONTINUOUS
 10
-126.709055
 20
93.027375
 11
-166.709055
 21
93.027375
  0
LINE
  8
型材断面
  6
CONTINUOUS
 10
-126.709055
 20
84.027375
 11
-166.709055
 21
84.027375
  0
LINE
  8
型材断面
  6
CONTINUOUS
 10
-166.709055
 20
84.027375
 11
-166.709055
 21
93.027375
  0
LINE
  8
型材断面
  6
CONTINUOUS
 10
-156.709055
 20
84.027375
 11
-156.709055
 21
93.027375
  0
LINE
  8
型材断面
  6
CONTINUOUS
 10
-146.709055
 20
84.027375
 11
-146.709055
 21
93.027375
  0
LINE
  8
型材断面
  6
CONTINUOUS
 10
-136.709055
 20
84.027375
 11
-136.709055
 21
93.027375
  0
LINE
  8
型材断面
  6
CONTINUOUS
 10
-126.709055
 20
84.027375
 11
-126.709055
 21
93.027375
  0
LINE
  8
型材断面
  6
CONTINUOUS
 10
-126.709055
 20
84.027375
 11
-166.709055
 21
84.027375
  0
POLYLINE
  8
型材断面
  6
CONTINUOUS
 66
     1
 70
     1
  0
VERTEX
  8
型材断面
 10
-138.80759
 20
97.912882
  0
VERTEX
  8
型材断面
 10
-157.618665
 20
97.912882
  0
VERTEX
  8
型材断面
 10
-157.618665
 20
93.774445
  0
VERTEX
  8
型材断面
 10
-138.80759
 20
93.774445
  0
SEQEND
  0
POLYLINE
  8
型材断面
  6
CONTINUOUS
 66
     1
 70
     1
  0
VERTEX
  8
型材断面
 10
-138.80759
 20
83.347738
  0
VERTEX
  8
型材断面
 10
-157.618665
 20
83.347738
  0
VERTEX
  8
型材断面
 10
-157.618665
 20
79.2093
  0
VERTEX
  8
型材断面
 10
-138.80759
 20
79.2093
  0
SEQEND
  0
LINE
  8
型材断面
  6
CONTINUOUS
 10
-126.709055
 20
67.229327
 11
-166.709055
 21
67.229327
  0
LINE
  8
型材断面
  6
CONTINUOUS
 10
-126.709055
 20
54.229327
 11
-166.709055
 21
54.229327
  0
LINE
  8
型材断面
  6
CONTINUOUS
 10
-166.709055
 20
54.229327
 11
-166.709055
 21
67.229327
  0
LINE
  8
型材断面
  6
CONTINUOUS
 10
-156.709055
 20
54.229327
 11
-156.709055
 21
67.229327
  0
LINE
  8
型材断面
  6
CONTINUOUS
 10
-146.709055
 20
54.229327
 11
-146.709055
 21
67.229327
  0
LINE
  8
型材断面
  6
CONTINUOUS
 10
-136.709055
 20
54.229327
 11
-136.709055
 21
67.229327
  0
LINE
  8
型材断面
  6
CONTINUOUS
 10
-126.709055
 20
54.229327
 11
-126.709055
 21
67.229327
  0
POLYLINE
  8
型材断面
  6
CONTINUOUS
 66
     1
 70
     1
  0
VERTEX
  8
型材断面
 10
-138.80759
 20
72.061093
  0
VERTEX
  8
型材断面
 10
-157.618665
 20
72.061093
  0
VERTEX
  8
型材断面
 10
-157.618665
 20
67.922655
  0
VERTEX
  8
型材断面
 10
-138.80759
 20
67.922655
  0
SEQEND
  0
POLYLINE
  8
型材断面
  6
CONTINUOUS
 66
     1
 70
     1
  0
VERTEX
  8
型材断面
 10
-138.80759
 20
53.57575
  0
VERTEX
  8
型材断面
 10
-157.618665
 20
53.57575
  0
VERTEX
  8
型材断面
 10
-157.618665
 20
49.437313
  0
VERTEX
  8
型材断面
 10
-138.80759
 20
49.437313
  0
SEQEND
  0
LINE
  8
型材断面
  6
CONTINUOUS
 10
-178.153235
 20
123.032777
 11
-137.29372
 21
123.032777
  0
LINE
  8
型材断面
  6
CONTINUOUS
 10
-178.153235
 20
122.532777
 11
-137.29372
 21
122.532777
  0
POLYLINE
  8
型材断面
  6
DOT
 66
     1
 70
     1
  0
VERTEX
  8
型材断面
 10
-122.325
 20
129.50321
  0
VERTEX
  8
型材断面
 10
-181.447008
 20
129.50321
  0
VERTEX
  8
型材断面
 10
-181.447008
 20
44.261055
  0
VERTEX
  8
型材断面
 10
-122.325
 20
44.261055
  0
SEQEND
  0
INSERT
  2
*GRP_0008
  8
型材断面
  6
DASHDOT
 62
    47
 10
0.0
 20
0.0
  0
INSERT
  2
*GRP_0009
  8
型材断面
  6
CONTINUOUS
 10
0.0
 20
0.0
  0
INSERT
  2
*GRP_0010
  8
型材断面
  6
DOT
 10
0.0
 20
0.0
  0
LINE
  8
型材断面
  6
CONTINUOUS
 10
-68.35086
 20
-35.042322
 11
-13.998905
 21
-35.042322
  0
LINE
  8
型材断面
  6
CONTINUOUS
 10
-68.35086
 20
-37.375655
 11
-13.998905
 21
-37.375655
  0
LINE
  8
型材断面
  6
CONTINUOUS
 10
59.4864
 20
-35.042322
 11
5.134445
 21
-35.042322
  0
LINE
  8
型材断面
  6
CONTINUOUS
 10
59.4864
 20
-37.375655
 11
5.134445
 21
-37.375655
  0
INSERT
  2
*GRP_0011
  8
型材断面
  6
CONTINUOUS
 10
0.0
 20
0.0
  0
INSERT
  2
*GRP_0012
  8
型材断面
  6
CONTINUOUS
 10
0.0
 20
0.0
  0
INSERT
  2
*GRP_0013
  8
型材断面
  6
DOT
 10
0.0
 20
0.0
  0
LINE
  8
型材断面
  6
CONTINUOUS
 10
-27.765555
 20
-94.5402
 11
18.901113
 21
-94.5402
  0
LINE
  8
型材断面
  6
CONTINUOUS
 10
-27.765555
 20
-96.873532
 11
18.901113
 21
-96.873532
  0
LINE
  8
型材断面
  6
CONTINUOUS
 10
-27.765555
 20
-79.44017
 11
18.901113
 21
-79.44017
  0
LINE
  8
型材断面
  6
CONTINUOUS
 10
-27.765555
 20
-78.373505
 11
18.901113
 21
-78.373505
  0
INSERT
  2
*GRP_0014
  8
型材断面
  6
CONTINUOUS
 10
0.0
 20
0.0
  0
LINE
  8
型材断面
  6
DOT
 10
139.095543
 20
14.090907
 11
138.428935
 21
14.203908
  0
LINE
  8
型材断面
  6
DOT
 10
138.428935
 20
16.78576
 11
139.095543
 21
16.78576
  0
LINE
  8
型材断面
  6
DOT
 10
136.929
 20
16.78576
 11
135.762268
 21
16.78576
  0
LINE
  8
型材断面
  6
DOT
 10
135.762268
 20
16.78576
 11
135.762268
 21
14.65587
  0
LINE
  8
型材断面
  6
DOT
 10
138.92889
 20
14.119158
 11
138.92889
 21
16.78576
  0
LINE
  8
型材断面
  6
DOT
 10
138.762238
 20
14.147408
 11
138.762238
 21
16.78576
  0
LINE
  8
型材断面
  6
DOT
 10
138.595587
 20
14.175657
 11
138.595587
 21
16.78576
  0
INSERT
  2
*HAT_0009
  8
型材断面
 10
0.0
 20
0.0
  0
LINE
  8
型材断面
  6
CONTINUOUS
 10
138.262268
 20
23.785763
 11
138.262268
 21
18.785782
  0
LINE
  8
型材断面
  6
CONTINUOUS
 10
130.762275
 20
25.119125
 11
107.983223
 21
25.119125
  0
LINE
  8
型材断面
  6
CONTINUOUS
 10
138.262268
 20
21.119115
 11
107.983223
 21
21.119115
  0
LINE
  8
型材断面
  6
DOT
 10
138.262268
 20
19.45246
 11
107.983223
 21
19.45246
  0
LINE
  8
型材断面
  6
CONTINUOUS
 10
138.262268
 20
18.785782
 11
107.983223
 21
18.785782
  0
LINE
  8
型材断面
  6
CONTINUOUS
 10
128.42892
 20
4.119125
 11
107.983223
 21
4.119125
  0
LINE
  8
型材断面
  6
DASHDOT
 10
138.42841
 20
23.785763
 11
138.42841
 21
31.452355
  0
LINE
  8
ガラス
  6
CONTINUOUS
 10
-63.01701
 20
-24.775642
 11
-63.01701
 21
-26.775642
  0
LINE
  8
ガラス
  6
CONTINUOUS
 10
-65.01701
 20
-26.775642
 11
-63.01701
 21
-24.775642
  0
LINE
  8
ガラス
  6
CONTINUOUS
 10
-65.01701
 20
-24.775642
 11
-63.01701
 21
-26.775642
  0
LINE
  8
ガラス
  6
CONTINUOUS
 10
-65.01701
 20
-29.04231
 11
-65.01701
 21
-22.775642
  0
LINE
  8
ガラス
  6
CONTINUOUS
 10
54.153515
 20
-24.775642
 11
54.153515
 21
-26.775642
  0
LINE
  8
ガラス
  6
CONTINUOUS
 10
56.153515
 20
-26.775642
 11
54.153515
 21
-24.775642
  0
LINE
  8
ガラス
  6
CONTINUOUS
 10
56.153515
 20
-24.775642
 11
54.153515
 21
-26.775642
  0
LINE
  8
ガラス
  6
CONTINUOUS
 10
56.153515
 20
-29.04231
 11
56.153515
 21
-22.775642
  0
LINE
  8
ガラス
  6
CONTINUOUS
 10
2.901113
 20
-24.775633
 11
2.901113
 21
-26.775633
  0
LINE
  8
ガラス
  6
CONTINUOUS
 10
0.901113
 20
-26.775633
 11
2.901113
 21
-24.775633
  0
LINE
  8
ガラス
  6
CONTINUOUS
 10
0.901113
 20
-24.775633
 11
2.901113
 21
-26.775633
  0
LINE
  8
ガラス
  6
CONTINUOUS
 10
0.901113
 20
-29.0423
 11
0.901113
 21
-22.775633
  0
LINE
  8
ガラス
  6
CONTINUOUS
 10
-11.765572
 20
-24.775633
 11
-11.765572
 21
-26.775633
  0
LINE
  8
ガラス
  6
CONTINUOUS
 10
-9.765572
 20
-26.775633
 11
-11.765572
 21
-24.775633
  0
LINE
  8
ガラス
  6
CONTINUOUS
 10
-9.765572
 20
-24.775633
 11
-11.765572
 21
-26.775633
  0
LINE
  8
ガラス
  6
CONTINUOUS
 10
-9.765572
 20
-29.0423
 11
-9.765572
 21
-22.775633
  0
LINE
  8
ガラス
  6
CONTINUOUS
 10
56.153515
 20
-29.04231
 11
0.901113
 21
-29.04231
  0
LINE
  8
ガラス
  6
CONTINUOUS
 10
-9.765572
 20
-29.04231
 11
-65.01701
 21
-29.04231
  0
LINE
  8
ガラス
  6
CONTINUOUS
 10
56.153515
 20
-28.875642
 11
0.901113
 21
-28.875642
  0
LINE
  8
ガラス
  6
CONTINUOUS
 10
-9.765572
 20
-28.875642
 11
-65.01701
 21
-28.875642
  0
LINE
  8
ガラス
  6
CONTINUOUS
 10
56.153515
 20
-26.775642
 11
0.901113
 21
-26.775642
  0
LINE
  8
ガラス
  6
CONTINUOUS
 10
-9.765572
 20
-26.775642
 11
-65.01701
 21
-26.775642
  0
LINE
  8
ガラス
  6
CONTINUOUS
 10
56.153515
 20
-26.94231
 11
0.901113
 21
-26.94231
  0
LINE
  8
ガラス
  6
CONTINUOUS
 10
-9.765572
 20
-26.94231
 11
-65.01701
 21
-26.94231
  0
LINE
  8
ガラス
  6
CONTINUOUS
 10
56.153515
 20
-24.775642
 11
0.901113
 21
-24.775642
  0
LINE
  8
ガラス
  6
CONTINUOUS
 10
-9.765572
 20
-24.775642
 11
-65.01701
 21
-24.775642
  0
LINE
  8
ガラス
  6
CONTINUOUS
 10
56.153515
 20
-24.608975
 11
0.901113
 21
-24.608975
  0
LINE
  8
ガラス
  6
CONTINUOUS
 10
-9.765572
 20
-24.608975
 11
-65.01701
 21
-24.608975
  0
LINE
  8
ガラス
  6
CONTINUOUS
 10
56.153515
 20
-22.775642
 11
0.901113
 21
-22.775642
  0
LINE
  8
ガラス
  6
CONTINUOUS
 10
-9.765572
 20
-22.775642
 11
-65.01701
 21
-22.775642
  0
LINE
  8
ガラス
  6
CONTINUOUS
 10
56.153515
 20
-22.94231
 11
0.901113
 21
-22.94231
  0
LINE
  8
ガラス
  6
CONTINUOUS
 10
-9.765572
 20
-22.94231
 11
-65.01701
 21
-22.94231
  0
LINE
  8
ガラス
  6
CONTINUOUS
 10
2.90112
 20
-84.27352
 11
2.90112
 21
-86.27352
  0
LINE
  8
ガラス
  6
CONTINUOUS
 10
0.90112
 20
-86.27352
 11
2.90112
 21
-84.27352
  0
LINE
  8
ガラス
  6
CONTINUOUS
 10
0.90112
 20
-84.27352
 11
2.90112
 21
-86.27352
  0
LINE
  8
ガラス
  6
CONTINUOUS
 10
0.90112
 20
-88.540187
 11
0.90112
 21
-82.27352
  0
LINE
  8
ガラス
  6
CONTINUOUS
 10
-11.765565
 20
-84.27352
 11
-11.765565
 21
-86.27352
  0
LINE
  8
ガラス
  6
CONTINUOUS
 10
-9.765565
 20
-86.27352
 11
-11.765565
 21
-84.27352
  0
LINE
  8
ガラス
  6
CONTINUOUS
 10
-9.765565
 20
-84.27352
 11
-11.765565
 21
-86.27352
  0
LINE
  8
ガラス
  6
CONTINUOUS
 10
-9.765565
 20
-88.540187
 11
-9.765565
 21
-82.27352
  0
LINE
  8
ガラス
  6
CONTINUOUS
 10
-27.765555
 20
-88.540187
 11
-9.765565
 21
-88.540187
  0
LINE
  8
ガラス
  6
CONTINUOUS
 10
-27.765555
 20
-88.37352
 11
-9.765565
 21
-88.37352
  0
LINE
  8
ガラス
  6
CONTINUOUS
 10
-27.765555
 20
-86.27352
 11
-9.765565
 21
-86.27352
  0
LINE
  8
ガラス
  6
CONTINUOUS
 10
-27.765555
 20
-86.440187
 11
-9.765565
 21
-86.440187
  0
LINE
  8
ガラス
  6
CONTINUOUS
 10
-27.765555
 20
-84.27352
 11
-9.765565
 21
-84.27352
  0
LINE
  8
ガラス
  6
CONTINUOUS
 10
-27.765555
 20
-84.106852
 11
-9.765565
 21
-84.106852
  0
LINE
  8
ガラス
  6
CONTINUOUS
 10
-27.765555
 20
-82.27352
 11
-9.765565
 21
-82.27352
  0
LINE
  8
ガラス
  6
CONTINUOUS
 10
-27.765555
 20
-82.440187
 11
-9.765565
 21
-82.440187
  0
LINE
  8
ガラス
  6
CONTINUOUS
 10
18.90111
 20
-88.540187
 11
0.90112
 21
-88.540187
  0
LINE
  8
ガラス
  6
CONTINUOUS
 10
18.90111
 20
-88.37352
 11
0.90112
 21
-88.37352
  0
LINE
  8
ガラス
  6
CONTINUOUS
 10
18.90111
 20
-86.27352
 11
0.90112
 21
-86.27352
  0
LINE
  8
ガラス
  6
CONTINUOUS
 10
18.90111
 20
-86.440187
 11
0.90112
 21
-86.440187
  0
LINE
  8
ガラス
  6
CONTINUOUS
 10
18.90111
 20
-84.27352
 11
0.90112
 21
-84.27352
  0
LINE
  8
ガラス
  6
CONTINUOUS
 10
18.90111
 20
-84.106852
 11
0.90112
 21
-84.106852
  0
LINE
  8
ガラス
  6
CONTINUOUS
 10
18.90111
 20
-82.27352
 11
0.90112
 21
-82.27352
  0
LINE
  8
ガラス
  6
CONTINUOUS
 10
18.90111
 20
-82.440187
 11
0.90112
 21
-82.440187
  0
INSERT
  2
*GRP_0015
  8
ゴム等
  6
CONTINUOUS
 10
0.0
 20
0.0
  0
INSERT
  2
*GRP_0016
  8
ゴム等
  6
CONTINUOUS
 10
0.0
 20
0.0
  0
INSERT
  2
*GRP_0017
  8
ゴム等
  6
CONTINUOUS
 10
0.0
 20
0.0
  0
INSERT
  2
*GRP_0018
  8
ゴム等
  6
CONTINUOUS
 10
0.0
 20
0.0
  0
INSERT
  2
*GRP_0019
  8
ゴム等
  6
CONTINUOUS
 10
0.0
 20
0.0
  0
INSERT
  2
*GRP_0020
  8
ゴム等
  6
CONTINUOUS
 10
0.0
 20
0.0
  0
INSERT
  2
*GRP_0021
  8
ボルト／ビス
  6
CONTINUOUS
 62
    64
 10
0.0
 20
0.0
  0
INSERT
  2
*GRP_0022
  8
ボルト／ビス
  6
CONTINUOUS
 62
    64
 10
0.0
 20
0.0
  0
INSERT
  2
*GRP_0023
  8
ボルト／ビス
  6
CONTINUOUS
 62
    64
 10
0.0
 20
0.0
  0
INSERT
  2
*GRP_0024
  8
ボルト／ビス
  6
CONTINUOUS
 62
    64
 10
0.0
 20
0.0
  0
INSERT
  2
*GRP_0025
  8
ボルト／ビス
  6
CONTINUOUS
 62
    64
 10
0.0
 20
0.0
  0
INSERT
  2
*GRP_0026
  8
ボルト／ビス
  6
CONTINUOUS
 62
    64
 10
0.0
 20
0.0
  0
INSERT
  2
*GRP_0027
  8
ボルト／ビス
  6
CONTINUOUS
 62
    64
 10
0.0
 20
0.0
  0
INSERT
  2
*GRP_0028
  8
ボルト／ビス
  6
CONTINUOUS
 62
    64
 10
0.0
 20
0.0
  0
INSERT
  2
*GRP_0029
  8
ボルト／ビス
  6
CONTINUOUS
 62
    64
 10
0.0
 20
0.0
  0
INSERT
  2
*GRP_0030
  8
ボルト／ビス
  6
CONTINUOUS
 62
    64
 10
0.0
 20
0.0
  0
INSERT
  2
*GRP_0031
  8
ボルト／ビス
  6
CONTINUOUS
 10
0.0
 20
0.0
  0
INSERT
  2
*GRP_0032
  8
ボルト／ビス
  6
CONTINUOUS
 62
    64
 10
0.0
 20
0.0
  0
INSERT
  2
*GRP_0033
  8
ボルト／ビス
  6
CONTINUOUS
 10
0.0
 20
0.0
  0
INSERT
  2
*GRP_0034
  8
ボルト／ビス
  6
CONTINUOUS
 62
    64
 10
0.0
 20
0.0
  0
INSERT
  2
*GRP_0035
  8
ボルト／ビス
  6
DOT
 62
    64
 10
0.0
 20
0.0
  0
INSERT
  2
*GRP_0036
  8
ボルト／ビス
  6
DOT
 62
    64
 10
0.0
 20
0.0
  0
INSERT
  2
*GRP_0037
  8
ボルト／ビス
  6
CONTINUOUS
 62
    64
 10
0.0
 20
0.0
  0
INSERT
  2
*GRP_0038
  8
ボルト／ビス
  6
CONTINUOUS
 62
    64
 10
0.0
 20
0.0
  0
INSERT
  2
*GRP_0039
  8
ボルト／ビス
  6
CONTINUOUS
 62
    64
 10
0.0
 20
0.0
  0
INSERT
  2
*GRP_0040
  8
ボルト／ビス
  6
CONTINUOUS
 62
    64
 10
0.0
 20
0.0
  0
INSERT
  2
*GRP_0041
  8
ボルト／ビス
  6
CONTINUOUS
 62
    64
 10
0.0
 20
0.0
  0
INSERT
  2
*GRP_0042
  8
ボルト／ビス
  6
CONTINUOUS
 62
    64
 10
0.0
 20
0.0
  0
INSERT
  2
*GRP_0043
  8
ボルト／ビス
  6
CONTINUOUS
 62
    64
 10
0.0
 20
0.0
  0
INSERT
  2
*GRP_0044
  8
ボルト／ビス
  6
CONTINUOUS
 62
    64
 10
0.0
 20
0.0
  0
INSERT
  2
*GRP_0045
  8
ボルト／ビス
  6
CONTINUOUS
 62
    64
 10
0.0
 20
0.0
  0
INSERT
  2
*GRP_0046
  8
ボルト／ビス
  6
CONTINUOUS
 62
    64
 10
0.0
 20
0.0
  0
INSERT
  2
*GRP_0113
  8
ボルト／ビス
  6
CONTINUOUS
 10
0.0
 20
0.0
  0
INSERT
  2
*GRP_0115
  8
ボルト／ビス
  6
CONTINUOUS
 62
    64
 10
0.0
 20
0.0
  0
INSERT
  2
*GRP_0117
  8
ボルト／ビス
  6
CONTINUOUS
 10
0.0
 20
0.0
  0
INSERT
  2
*GRP_0118
  8
ボルト／ビス
  6
CONTINUOUS
 62
    64
 10
0.0
 20
0.0
  0
INSERT
  2
*GRP_0121
  8
ボルト／ビス
  6
CONTINUOUS
 10
0.0
 20
0.0
  0
INSERT
  2
*GRP_0122
  8
ボルト／ビス
  6
CONTINUOUS
 62
    64
 10
0.0
 20
0.0
  0
INSERT
  2
*GRP_0123
  8
ボルト／ビス
  6
CONTINUOUS
 10
0.0
 20
0.0
  0
INSERT
  2
*GRP_0124
  8
ボルト／ビス
  6
CONTINUOUS
 62
    64
 10
0.0
 20
0.0
  0
TEXT
  7
TextStyle03
  8
文字
  6
CONTINUOUS
 10
53.55
 20
126.675
  1
シリーズ：ＴＦ２ＦＫ
 40
5.0
 72
     5
 11
109.175
 21
126.675
  0
TEXT
  7
TextStyle03
  8
文字
  6
CONTINUOUS
 10
53.55
 20
121.05
  1
　　　　　（固定）
 40
5.0
 72
     5
 11
103.55
 21
121.05
  0
TEXT
  7
TextStyle03
  8
文字
  6
CONTINUOUS
 10
53.55
 20
115.425
  1

 40
5.0
 41
1.125
  0
TEXT
  7
TextStyle03
  8
文字
  6
CONTINUOUS
 10
53.55
 20
109.8
  1
図面名　：全体納まり断面図　落下防止網仕様
 40
5.0
 72
     5
 11
171.05
 21
109.8
  0
TEXT
  7
TextStyle03
  8
文字
  6
CONTINUOUS
 10
-131.8
 20
-50.2
  1
規格水切
 40
3.0
 72
     5
 11
-118.675
 21
-50.2
  0
TEXT
  7
TextStyle03
  8
文字
  6
CONTINUOUS
 10
134.55
 20
-66.675
  1
排水パイプ(オプション)
 40
3.0
 72
     5
 11
171.4875
 21
-66.675
  0
TEXT
  7
TextStyle03
  8
文字
  6
CONTINUOUS
 10
134.55
 20
-70.05
  1
□10×10×1 L=60
 40
3.0
 72
     5
 11
161.3625
 21
-70.05
  0
TEXT
  7
TextStyle03
  8
文字
  6
CONTINUOUS
 10
-156.3
 20
115.925
  1
可動装置側
 40
3.0
 72
     5
 11
-139.8
 21
115.925
  0
TEXT
  7
TextStyle03
  8
文字
  6
CONTINUOUS
 10
-156.3
 20
104.425
  1
可動装置側
 40
3.0
 72
     5
 11
-139.8
 21
104.425
  0
TEXT
  7
TextStyle03
  8
文字
  6
CONTINUOUS
 10
-156.3
 20
94.35
  1
可動装置側
 40
3.0
 72
     5
 11
-139.8
 21
94.35
  0
TEXT
  7
TextStyle03
  8
文字
  6
CONTINUOUS
 10
-156.3
 20
79.8
  1
可動装置側
 40
3.0
 72
     5
 11
-139.8
 21
79.8
  0
TEXT
  7
TextStyle03
  8
文字
  6
CONTINUOUS
 10
-156.3
 20
68.525
  1
可動装置側
 40
3.0
 72
     5
 11
-139.8
 21
68.525
  0
TEXT
  7
TextStyle03
  8
文字
  6
CONTINUOUS
 10
-156.3
 20
50.05
  1
可動装置側
 40
3.0
 72
     5
 11
-139.8
 21
50.05
  0
TEXT
  7
TextStyle03
  8
文字
  6
CONTINUOUS
 10
-164.725
 20
111.025
  1
小
 40
3.0
 72
     5
 11
-161.725
 21
111.025
  0
TEXT
  7
TextStyle03
  8
文字
  6
CONTINUOUS
 10
-154.725
 20
111.025
  1
小
 40
3.0
 72
     5
 11
-151.725
 21
111.025
  0
TEXT
  7
TextStyle03
  8
文字
  6
CONTINUOUS
 10
-144.725
 20
111.025
  1
小
 40
3.0
 72
     5
 11
-141.725
 21
111.025
  0
TEXT
  7
TextStyle03
  8
文字
  6
CONTINUOUS
 10
-164.725
 20
88.6
  1
小
 40
3.0
 72
     5
 11
-161.725
 21
88.6
  0
TEXT
  7
TextStyle03
  8
文字
  6
CONTINUOUS
 10
-154.725
 20
88.6
  1
小
 40
3.0
 72
     5
 11
-151.725
 21
88.6
  0
TEXT
  7
TextStyle03
  8
文字
  6
CONTINUOUS
 10
-144.725
 20
88.6
  1
小
 40
3.0
 72
     5
 11
-141.725
 21
88.6
  0
TEXT
  7
TextStyle03
  8
文字
  6
CONTINUOUS
 10
-176.875
 20
123.95
  1
Ｌ型タイプ 中桟フレーム
 40
3.0
 72
     5
 11
-138.4375
 21
123.95
  0
TEXT
  7
TextStyle03
  8
文字
  6
CONTINUOUS
 10
-164.725
 20
60.075
  1
大
 40
3.0
 72
     5
 11
-161.725
 21
60.075
  0
TEXT
  7
TextStyle03
  8
文字
  6
CONTINUOUS
 10
-154.725
 20
60.075
  1
大
 40
3.0
 72
     5
 11
-151.725
 21
60.075
  0
TEXT
  7
TextStyle03
  8
文字
  6
CONTINUOUS
 10
-144.725
 20
60.075
  1
大
 40
3.0
 72
     5
 11
-141.725
 21
60.075
  0
TEXT
  7
TextStyle03
  8
文字
  6
CONTINUOUS
 10
16.925
 20
-103.65
  1
SUS-1.5t　2B
 40
3.0
 72
     5
 11
36.9875
 21
-103.65
  0
TEXT
  7
TextStyle03
  8
文字
  6
CONTINUOUS
 10
16.925
 20
-107.025
  1
ジョイント
 40
3.0
 72
     5
 11
33.425
 21
-107.025
  0
TEXT
  7
TextStyle03
  8
文字
  6
CONTINUOUS
 10
-21.225
 20
-118.125
  1
※中桟はＬ型のみ使用
 40
3.0
 72
     5
 11
12.15
 21
-118.125
  0
TEXT
  7
TextStyle03
  8
文字
  6
CONTINUOUS
 10
-18.35
 20
-69.725
  1
中桟フレーム（大）
 40
3.0
 72
     5
 11
11.65
 21
-69.725
  0
TEXT
  7
TextStyle03
  8
文字
  6
CONTINUOUS
 10
-18.825
 20
-109.75
  1
中桟フレーム（小）
 40
3.0
 72
     5
 11
11.175
 21
-109.75
  0
POLYLINE
  8
文字
  6
CONTINUOUS
 66
     1
 70
     1
  0
VERTEX
  8
文字
 10
172.810947
 20
43.274098
  0
VERTEX
  8
文字
 10
103.234592
 20
43.274098
  0
VERTEX
  8
文字
 10
103.234592
 20
-5.169253
  0
VERTEX
  8
文字
 10
172.810947
 20
-5.169253
  0
SEQEND
  0
TEXT
  7
TextStyle03
  8
文字
  6
CONTINUOUS
 10
105.4
 20
37.875
  1
中桟フレーム（大）端部断面
 40
3.0
 72
     5
 11
148.9
 21
37.875
  0
TEXT
  7
TextStyle03
  8
文字
  6
CONTINUOUS
 10
16.2
 20
-41.025
  1
St-1.6t
 40
3.0
 72
     5
 11
27.825
 21
-41.025
  0
TEXT
  7
TextStyle03
  8
文字
  6
CONTINUOUS
 10
16.2
 20
-44.4
  1
(ｶﾞﾙﾊﾞﾘｳﾑ鋼板)
 40
3.0
 72
     5
 11
39.6375
 21
-44.4
  0
TEXT
  7
TextStyle03
  8
文字
  6
CONTINUOUS
 10
20.525
 20
-59.125
  1
落下防止網
 40
3.0
 72
     5
 11
37.025
 21
-59.125
  0
TEXT
  7
TextStyle03
  8
文字
  6
CONTINUOUS
 10
20.525
 20
-62.5
  1
(溶融亜鉛メッキ)
 40
3.0
 72
     5
 11
47.3375
 21
-62.5
  0
TEXT
  7
TextStyle03
  8
文字
  6
CONTINUOUS
 10
20.525
 20
-65.875
  1
φ-4　P＝100
 40
3.0
 72
     5
 11
40.5875
 21
-65.875
  0
TEXT
  7
TextStyle03
  8
文字
  6
CONTINUOUS
 10
-50.025
 20
-59.7
  1
耐火材：
 40
3.0
 72
     5
 11
-36.9
 21
-59.7
  0
TEXT
  7
TextStyle03
  8
文字
  6
CONTINUOUS
 10
-50.025
 20
-63.075
  1
St-1.6t(ｱﾛｲ鋼板)
 40
3.0
 72
     5
 11
-23.2125
 21
-63.075
  0
INSERT
  2
*GRP_0047
  8
寸法
  6
CONTINUOUS
 10
0.0
 20
0.0
  0
INSERT
  2
*DIM_0048
  8
寸法
  6
CONTINUOUS
 10
0.0
 20
0.0
  0
INSERT
  2
*DIM_0049
  8
寸法
  6
CONTINUOUS
 10
0.0
 20
0.0
  0
INSERT
  2
*DIM_0050
  8
寸法
  6
CONTINUOUS
 10
0.0
 20
0.0
  0
INSERT
  2
*DIM_0051
  8
寸法
  6
CONTINUOUS
 10
0.0
 20
0.0
  0
INSERT
  2
*DIM_0052
  8
寸法
  6
CONTINUOUS
 10
0.0
 20
0.0
  0
INSERT
  2
*DIM_0053
  8
寸法
  6
CONTINUOUS
 10
0.0
 20
0.0
  0
INSERT
  2
*DIM_0054
  8
寸法
  6
CONTINUOUS
 10
0.0
 20
0.0
  0
INSERT
  2
*DIM_0055
  8
寸法
  6
CONTINUOUS
 10
0.0
 20
0.0
  0
INSERT
  2
*DIM_0056
  8
寸法
  6
CONTINUOUS
 10
0.0
 20
0.0
  0
INSERT
  2
*DIM_0057
  8
寸法
  6
CONTINUOUS
 10
0.0
 20
0.0
  0
INSERT
  2
*DIM_0058
  8
寸法
  6
CONTINUOUS
 10
0.0
 20
0.0
  0
INSERT
  2
*DIM_0059
  8
寸法
  6
CONTINUOUS
 10
0.0
 20
0.0
  0
INSERT
  2
*DIM_0060
  8
寸法
  6
CONTINUOUS
 10
0.0
 20
0.0
  0
INSERT
  2
*DIM_0061
  8
寸法
  6
CONTINUOUS
 10
0.0
 20
0.0
  0
INSERT
  2
*DIM_0062
  8
寸法
  6
CONTINUOUS
 10
0.0
 20
0.0
  0
INSERT
  2
*DIM_0063
  8
寸法
  6
CONTINUOUS
 10
0.0
 20
0.0
  0
INSERT
  2
*DIM_0064
  8
寸法
  6
CONTINUOUS
 10
0.0
 20
0.0
  0
INSERT
  2
*DIM_0065
  8
寸法
  6
CONTINUOUS
 10
0.0
 20
0.0
  0
INSERT
  2
*DIM_0066
  8
寸法
  6
CONTINUOUS
 10
0.0
 20
0.0
  0
INSERT
  2
*DIM_0067
  8
寸法
  6
CONTINUOUS
 10
0.0
 20
0.0
  0
INSERT
  2
*DIM_0068
  8
寸法
  6
CONTINUOUS
 10
0.0
 20
0.0
  0
INSERT
  2
*GRP_0069
  8
寸法
  6
CONTINUOUS
 10
0.0
 20
0.0
  0
INSERT
  2
*DIM_0070
  8
寸法
  6
CONTINUOUS
 10
0.0
 20
0.0
  0
INSERT
  2
*DIM_0071
  8
寸法
  6
CONTINUOUS
 10
0.0
 20
0.0
  0
INSERT
  2
*DIM_0072
  8
寸法
  6
CONTINUOUS
 10
0.0
 20
0.0
  0
INSERT
  2
*DIM_0073
  8
寸法
  6
CONTINUOUS
 10
0.0
 20
0.0
  0
INSERT
  2
*DIM_0074
  8
寸法
  6
CONTINUOUS
 10
0.0
 20
0.0
  0
INSERT
  2
*DIM_0075
  8
寸法
  6
CONTINUOUS
 10
0.0
 20
0.0
  0
INSERT
  2
*DIM_0076
  8
寸法
  6
CONTINUOUS
 10
0.0
 20
0.0
  0
INSERT
  2
*DIM_0077
  8
寸法
  6
CONTINUOUS
 10
0.0
 20
0.0
  0
INSERT
  2
*GRP_0078
  8
寸法
  6
CONTINUOUS
 10
0.0
 20
0.0
  0
INSERT
  2
*GRP_0079
  8
寸法
  6
CONTINUOUS
 10
0.0
 20
0.0
  0
INSERT
  2
*GRP_0080
  8
寸法
  6
CONTINUOUS
 10
0.0
 20
0.0
  0
INSERT
  2
*GRP_0081
  8
寸法
  6
CONTINUOUS
 10
0.0
 20
0.0
  0
INSERT
  2
*GRP_0082
  8
寸法
  6
CONTINUOUS
 10
0.0
 20
0.0
  0
INSERT
  2
*GRP_0083
  8
寸法
  6
CONTINUOUS
 10
0.0
 20
0.0
  0
INSERT
  2
*GRP_0084
  8
寸法
  6
CONTINUOUS
 10
0.0
 20
0.0
  0
INSERT
  2
*GRP_0085
  8
寸法
  6
CONTINUOUS
 10
0.0
 20
0.0
  0
INSERT
  2
*GRP_0086
  8
寸法
  6
CONTINUOUS
 10
0.0
 20
0.0
  0
INSERT
  2
*DIM_0087
  8
寸法
  6
CONTINUOUS
 10
0.0
 20
0.0
  0
INSERT
  2
*DIM_0088
  8
寸法
  6
CONTINUOUS
 10
0.0
 20
0.0
  0
INSERT
  2
*DIM_0089
  8
寸法
  6
CONTINUOUS
 10
0.0
 20
0.0
  0
INSERT
  2
*DIM_0090
  8
寸法
  6
CONTINUOUS
 10
0.0
 20
0.0
  0
INSERT
  2
*DIM_0091
  8
寸法
  6
CONTINUOUS
 10
0.0
 20
0.0
  0
INSERT
  2
*GRP_0092
  8
寸法
  6
CONTINUOUS
 10
0.0
 20
0.0
  0
INSERT
  2
*GRP_0129
  8
寸法
  6
CONTINUOUS
 10
0.0
 20
0.0
  0
POLYLINE
  8
寸法
  6
CONTINUOUS
 66
     1
  0
VERTEX
  8
寸法
 10
42.641755
 20
-47.319745
  0
VERTEX
  8
寸法
 10
39.817128
 20
-39.527578
  0
VERTEX
  8
寸法
 10
28.382565
 20
-39.527578
  0
SEQEND
  0
INSERT
  2
*GRP_0130
  8
寸法
  6
CONTINUOUS
 10
0.0
 20
0.0
  0
INSERT
  2
*GRP_0131
  8
寸法
  6
CONTINUOUS
 10
0.0
 20
0.0
  0
INSERT
  2
*DIM_0132
  8
寸法
  6
CONTINUOUS
 10
0.0
 20
0.0
  0
INSERT
  2
*DIM_0133
  8
寸法
  6
CONTINUOUS
 10
0.0
 20
0.0
  0
INSERT
  2
*DIM_0134
  8
寸法
  6
CONTINUOUS
 10
0.0
 20
0.0
  0
INSERT
  2
*HAT_0010
  8
ﾊｯﾁﾝｸﾞ
 10
0.0
 20
0.0
  0
INSERT
  2
*HAT_0011
  8
ﾊｯﾁﾝｸﾞ
 10
0.0
 20
0.0
  0
INSERT
  2
*HAT_0012
  8
ﾊｯﾁﾝｸﾞ
 10
0.0
 20
0.0
  0
INSERT
  2
*HAT_0013
  8
ﾊｯﾁﾝｸﾞ
 10
0.0
 20
0.0
  0
INSERT
  2
*HAT_0014
  8
ﾊｯﾁﾝｸﾞ
 10
0.0
 20
0.0
  0
INSERT
  2
*HAT_0015
  8
ﾊｯﾁﾝｸﾞ
 10
0.0
 20
0.0
  0
INSERT
  2
*GRP_0093
  8
別途部材
  6
CONTINUOUS
 10
0.0
 20
0.0
  0
INSERT
  2
*GRP_0094
  8
別途部材
  6
CONTINUOUS
 10
0.0
 20
0.0
  0
INSERT
  2
*GRP_0095
  8
別途部材
  6
CONTINUOUS
 10
0.0
 20
0.0
  0
INSERT
  2
*GRP_0096
  8
別途部材
  6
CONTINUOUS
 10
0.0
 20
0.0
  0
CIRCLE
  8
別途部材
  6
CONTINUOUS
 62
    96
 10
42.819208
 20
-50.842313
 40
0.666667
  0
LINE
  8
別途部材
  6
CONTINUOUS
 10
43.485875
 20
-50.175648
 11
43.485875
 21
-48.842322
  0
CIRCLE
  8
別途部材
  6
CONTINUOUS
 62
    96
 10
11.801615
 20
-50.842313
 40
0.666667
  0
LINE
  8
別途部材
  6
CONTINUOUS
 10
11.134948
 20
-50.175648
 11
11.134948
 21
-48.842322
  0
LINE
  8
別途部材
  6
CONTINUOUS
 62
    96
 10
11.134948
 20
-48.842322
 11
25.135412
 21
-48.842322
  0
LINE
  8
別途部材
  6
CONTINUOUS
 62
    96
 10
11.134948
 20
-50.175648
 11
25.135412
 21
-50.175648
  0
LINE
  8
別途部材
  6
CONTINUOUS
 62
    96
 10
43.485875
 20
-50.175648
 11
29.48541
 21
-50.175648
  0
LINE
  8
別途部材
  6
CONTINUOUS
 62
    96
 10
43.485875
 20
-48.842322
 11
29.48541
 21
-48.842322
  0
CIRCLE
  8
別途部材
  6
CONTINUOUS
 62
    96
 10
-51.683667
 20
-50.842313
 40
0.666667
  0
LINE
  8
別途部材
  6
CONTINUOUS
 10
-52.350335
 20
-50.175648
 11
-52.350335
 21
-48.842322
  0
CIRCLE
  8
別途部材
  6
CONTINUOUS
 62
    96
 10
-20.666075
 20
-50.842313
 40
0.666667
  0
LINE
  8
別途部材
  6
CONTINUOUS
 10
-19.999407
 20
-50.175648
 11
-19.999407
 21
-48.842322
  0
LINE
  8
別途部材
  6
CONTINUOUS
 62
    96
 10
-19.999407
 20
-48.842322
 11
-33.999873
 21
-48.842322
  0
LINE
  8
別途部材
  6
CONTINUOUS
 62
    96
 10
-19.999407
 20
-50.175648
 11
-33.999873
 21
-50.175648
  0
LINE
  8
別途部材
  6
CONTINUOUS
 62
    96
 10
-52.350335
 20
-50.175648
 11
-38.34987
 21
-50.175648
  0
LINE
  8
別途部材
  6
CONTINUOUS
 62
    96
 10
-52.350335
 20
-48.842322
 11
-38.34987
 21
-48.842322
  0
INSERT
  2
*GRP_0097
  8
曲げ物
  6
DASHDOT
 10
0.0
 20
0.0
  0
INSERT
  2
*GRP_0098
  8
曲げ物
  6
DASHDOT
 10
0.0
 20
0.0
  0
INSERT
  2
*GRP_0116
  8
曲げ物
  6
CONTINUOUS
 10
0.0
 20
0.0
  0
INSERT
  2
*GRP_0120
  8
曲げ物
  6
CONTINUOUS
 10
0.0
 20
0.0
  0
INSERT
  2
*GRP_0125
  8
曲げ物
  6
CONTINUOUS
 10
0.0
 20
0.0
  0
INSERT
  2
*GRP_0126
  8
曲げ物
  6
CONTINUOUS
 10
0.0
 20
0.0
  0
LINE
  8
St
  6
CONTINUOUS
 10
111.153197
 20
-70.975645
 11
111.153197
 21
-72.042313
  0
INSERT
  2
*GRP_0099
  8
St
  6
CONTINUOUS
 10
0.0
 20
0.0
  0
LINE
  8
St
  6
CONTINUOUS
 10
-120.017658
 20
-70.975645
 11
-120.017658
 21
-72.042313
  0
INSERT
  2
*GRP_0100
  8
St
  6
CONTINUOUS
 10
0.0
 20
0.0
  0
LINE
  8
St
  6
CONTINUOUS
 10
12.234438
 20
-31.042313
 11
5.134438
 21
-31.042313
  0
LINE
  8
St
  6
CONTINUOUS
 10
-13.998898
 20
-31.042313
 11
-21.098898
 21
-31.042313
  0
LINE
  8
St
  6
DOT
 10
5.134438
 20
-31.042313
 11
-14.062283
 21
-31.042313
  0
LINE
  8
St
  6
CONTINUOUS
 10
12.234438
 20
-31.042313
 11
12.234438
 21
-35.04231
  0
LINE
  8
St
  6
DOT
 10
12.234438
 20
-35.04231
 11
12.234438
 21
-36.708978
  0
LINE
  8
St
  6
CONTINUOUS
 10
-21.098898
 20
-31.042313
 11
-21.098898
 21
-35.04231
  0
LINE
  8
St
  6
DOT
 10
-21.098898
 20
-35.04231
 11
-21.098898
 21
-36.708978
  0
LINE
  8
St
  6
DOT
 10
12.234438
 20
-36.708978
 11
-21.098898
 21
-36.708978
  0
INSERT
  2
*GRP_0101
  8
St
  6
DOT
 10
0.0
 20
0.0
  0
INSERT
  2
*GRP_0102
  8
St
  6
DOT
 10
0.0
 20
0.0
  0
LINE
  8
St
  6
CONTINUOUS
 10
12.234445
 20
-90.5402
 11
5.134445
 21
-90.5402
  0
LINE
  8
St
  6
CONTINUOUS
 10
-13.99889
 20
-90.5402
 11
-21.09889
 21
-90.5402
  0
LINE
  8
St
  6
DOT
 10
5.134445
 20
-90.5402
 11
-14.062275
 21
-90.5402
  0
LINE
  8
St
  6
CONTINUOUS
 10
12.234445
 20
-90.5402
 11
12.234445
 21
-94.540197
  0
LINE
  8
St
  6
DOT
 10
12.234445
 20
-94.540197
 11
12.234445
 21
-96.206865
  0
LINE
  8
St
  6
CONTINUOUS
 10
-21.09889
 20
-90.5402
 11
-21.09889
 21
-94.540197
  0
LINE
  8
St
  6
DOT
 10
-21.09889
 20
-94.540197
 11
-21.09889
 21
-96.206865
  0
LINE
  8
St
  6
DOT
 10
12.234445
 20
-96.206865
 11
-21.09889
 21
-96.206865
  0
INSERT
  2
*GRP_0114
  8
St
  6
CONTINUOUS
 10
0.0
 20
0.0
  0
INSERT
  2
*GRP_0119
  8
St
  6
CONTINUOUS
 10
0.0
 20
0.0
  0
INSERT
  2
*GRP_0127
  8
St
  6
CONTINUOUS
 10
0.0
 20
0.0
  0
INSERT
  2
*GRP_0128
  8
St
  6
CONTINUOUS
 10
0.0
 20
0.0
  0
LINE
  8
その他部品等
  6
CONTINUOUS
 10
-98.350778
 20
-52.042307
 11
-98.350778
 21
-57.042307
  0
LINE
  8
その他部品等
  6
CONTINUOUS
 10
-95.818435
 20
-52.042307
 11
-95.818435
 21
-56.69777
  0
LINE
  8
その他部品等
  6
CONTINUOUS
 10
-93.88421
 20
-56.43461
 11
-95.818435
 21
-52.042307
  0
INSERT
  2
*HAT_0016
  8
その他部品等
 10
0.0
 20
0.0
  0
LINE
  8
その他部品等
  6
CONTINUOUS
 10
89.486318
 20
-52.042307
 11
89.486318
 21
-57.042307
  0
LINE
  8
その他部品等
  6
CONTINUOUS
 10
86.953975
 20
-52.042307
 11
86.953975
 21
-56.69777
  0
LINE
  8
その他部品等
  6
CONTINUOUS
 10
85.01975
 20
-56.43461
 11
86.953975
 21
-52.042307
  0
LINE
  8
その他部品等
  6
CONTINUOUS
 10
122.286457
 20
-81.577467
 11
116.15324
 21
-81.577467
  0
LINE
  8
その他部品等
  6
CONTINUOUS
 10
122.286457
 20
-78.9108
 11
116.15324
 21
-78.9108
  0
LINE
  8
その他部品等
  6
CONTINUOUS
 10
116.15324
 20
-76.244135
 11
121.119758
 21
-76.244135
  0
LINE
  8
その他部品等
  6
CONTINUOUS
 10
121.119758
 20
-76.244135
 11
121.119758
 21
-78.9108
  0
LINE
  8
その他部品等
  6
CONTINUOUS
 10
121.119758
 20
-76.244135
 11
116.15324
 21
-78.9108
  0
INSERT
  2
*HAT_0017
  8
その他部品等
 10
0.0
 20
0.0
  0
INSERT
  2
*HAT_0018
  8
その他部品等
 10
0.0
 20
0.0
  0
LINE
  8
その他部品等
  6
CONTINUOUS
 10
-131.150918
 20
-81.577467
 11
-125.0177
 21
-81.577467
  0
LINE
  8
その他部品等
  6
CONTINUOUS
 10
-131.150918
 20
-78.9108
 11
-125.0177
 21
-78.9108
  0
LINE
  8
その他部品等
  6
CONTINUOUS
 10
-125.0177
 20
-76.244135
 11
-129.984217
 21
-76.244135
  0
LINE
  8
その他部品等
  6
CONTINUOUS
 10
-129.984217
 20
-76.244135
 11
-129.984217
 21
-78.9108
  0
LINE
  8
その他部品等
  6
CONTINUOUS
 10
-129.984217
 20
-76.244135
 11
-125.0177
 21
-78.9108
  0
INSERT
  2
*HAT_0019
  8
その他部品等
 10
0.0
 20
0.0
  0
LINE
  8
その他部品等
  6
CONTINUOUS
 10
-63.148815
 20
-22.175615
 11
-62.03671
 21
-19.942292
  0
LINE
  8
その他部品等
  6
CONTINUOUS
 10
-62.03671
 20
-19.942292
 11
-62.03671
 21
-22.775642
  0
LINE
  8
その他部品等
  6
CONTINUOUS
 10
-59.815485
 20
-19.942292
 11
-59.815485
 21
-22.775642
  0
LINE
  8
その他部品等
  6
CONTINUOUS
 10
-63.148815
 20
-22.775642
 11
-63.148815
 21
-19.542292
  0
LINE
  8
その他部品等
  6
CONTINUOUS
 10
54.284355
 20
-22.175615
 11
53.17225
 21
-19.942292
  0
LINE
  8
その他部品等
  6
CONTINUOUS
 10
53.17225
 20
-19.942292
 11
53.17225
 21
-22.775642
  0
LINE
  8
その他部品等
  6
CONTINUOUS
 10
50.951025
 20
-19.942292
 11
50.951025
 21
-22.775642
  0
LINE
  8
その他部品等
  6
CONTINUOUS
 10
54.284355
 20
-22.775642
 11
54.284355
 21
-19.542292
  0
LINE
  8
その他部品等
  6
CONTINUOUS
 10
7.23441
 20
-22.775642
 11
7.23441
 21
-19.842278
  0
LINE
  8
その他部品等
  6
CONTINUOUS
 10
4.567742
 20
-22.775642
 11
4.567742
 21
-19.608943
  0
LINE
  8
その他部品等
  6
CONTINUOUS
 10
3.359787
 20
-22.775642
 11
3.359787
 21
-19.608943
  0
LINE
  8
その他部品等
  6
CONTINUOUS
 10
4.567742
 20
-19.608943
 11
3.359787
 21
-22.775642
  0
LINE
  8
その他部品等
  6
CONTINUOUS
 10
-16.09887
 20
-22.775642
 11
-16.09887
 21
-19.842278
  0
LINE
  8
その他部品等
  6
CONTINUOUS
 10
-13.432203
 20
-22.775642
 11
-13.432203
 21
-19.608943
  0
LINE
  8
その他部品等
  6
CONTINUOUS
 10
-12.224248
 20
-22.775642
 11
-12.224248
 21
-19.608943
  0
LINE
  8
その他部品等
  6
CONTINUOUS
 10
-13.432203
 20
-19.608943
 11
-12.224248
 21
-22.775642
  0
LINE
  8
その他部品等
  6
CONTINUOUS
 10
7.234418
 20
-82.27353
 11
7.234418
 21
-79.340165
  0
LINE
  8
その他部品等
  6
CONTINUOUS
 10
4.56775
 20
-82.27353
 11
4.56775
 21
-79.10683
  0
LINE
  8
その他部品等
  6
CONTINUOUS
 10
3.359795
 20
-82.27353
 11
3.359795
 21
-79.10683
  0
LINE
  8
その他部品等
  6
CONTINUOUS
 10
4.56775
 20
-79.10683
 11
3.359795
 21
-82.27353
  0
LINE
  8
その他部品等
  6
CONTINUOUS
 10
-16.098862
 20
-82.27353
 11
-16.098862
 21
-79.340165
  0
LINE
  8
その他部品等
  6
CONTINUOUS
 10
-13.432195
 20
-82.27353
 11
-13.432195
 21
-79.10683
  0
LINE
  8
その他部品等
  6
CONTINUOUS
 10
-12.22424
 20
-82.27353
 11
-12.22424
 21
-79.10683
  0
LINE
  8
その他部品等
  6
CONTINUOUS
 10
-13.432195
 20
-79.10683
 11
-12.22424
 21
-82.27353
  0
CIRCLE
  8
LAYER010
  6
CONTINUOUS
 62
     7
 10
-98.350782
 20
-47.042335
 40
0.11111
  0
CIRCLE
  8
LAYER010
  6
CONTINUOUS
 62
     7
 10
89.486322
 20
-47.042335
 40
0.11111
  0
ENDSEC
  0
EOF
