  0
SECTION
  2
HEADER
  9
$EXTMIN
 10
-210.0
 20
-148.5
  9
$EXTMAX
 10
210.0
 20
148.5
  9
$PDMODE
 70
    32
  9
$PDSIZE
 40
0.3
  9
$LTSCALE
 40
10.0
  0
ENDSEC
  0
SECTION
  2
TABLES
  0
TABLE
  2
LTYPE
 70
    15
  0
LTYPE
  2
CONTINUOUS
 70
    64
  3
実線
 72
    65
 73
     0
 40
0.0
  0
LTYPE
  2
DASHED
 70
    64
  3
破線A
 72
    65
 73
     2
 40
0.6
 49
0.4
 49
-0.2
  0
LTYPE
  2
DASHEDX2
 70
    64
  3
破線B
 72
    65
 73
     2
 40
1.3
 49
0.9
 49
-0.4
  0
LTYPE
  2
DASHDOT
 70
    64
  3
１点鎖線A
 72
    65
 73
     4
 40
0.5375
 49
0.375
 49
-0.05
 49
0.0625
 49
-0.05
  0
LTYPE
  2
DASHDOTX2
 70
    64
  3
１点鎖線B
 72
    65
 73
     4
 40
1.075
 49
0.75
 49
-0.1
 49
0.125
 49
-0.1
  0
LTYPE
  2
DIVIDE2
 70
    64
  3
２点鎖線A
 72
    65
 73
     6
 40
0.5125
 49
0.3
 49
-0.0375
 49
0.05
 49
-0.0375
 49
0.05
 49
-0.0375
  0
LTYPE
  2
DIVIDE
 70
    64
  3
２点鎖線B
 72
    65
 73
     6
 40
1.05
 49
0.55
 49
-0.1
 49
0.1
 49
-0.1
 49
0.1
 49
-0.1
  0
LTYPE
  2
DOT
 70
    64
  3
点線A
 72
    65
 73
     2
 40
0.1125
 49
0.0625
 49
-0.05
  0
LTYPE
  2
DOTX2
 70
    64
  3
点線B
 72
    65
 73
     2
 40
0.275
 49
0.15
 49
-0.125
  0
LTYPE
  2
CONTINUOUS
 70
    64
  3
実線
 72
    65
 73
     0
 40
0.0
  0
LTYPE
  2
CONTINUOUS
 70
    64
  3
実線
 72
    65
 73
     0
 40
0.0
  0
LTYPE
  2
CONTINUOUS
 70
    64
  3
実線
 72
    65
 73
     0
 40
0.0
  0
LTYPE
  2
CONTINUOUS
 70
    64
  3
実線
 72
    65
 73
     0
 40
0.0
  0
LTYPE
  2
CONTINUOUS
 70
    64
  3
実線
 72
    65
 73
     0
 40
0.0
  0
LTYPE
  2
CONTINUOUS
 70
    64
  3
実線
 72
    65
 73
     0
 40
0.0
  0
ENDTAB
  0
TABLE
  2
LAYER
 70
    41
  0
LAYER
  2
通り芯
 70
     0
 62
    15
  6
CONTINUOUS
  0
LAYER
  2
補助線
 70
     0
 62
    16
  6
DOT
  0
LAYER
  2
躯体
 70
     0
 62
    31
  6
CONTINUOUS
  0
LAYER
  2
型材
 70
     0
 62
    32
  6
CONTINUOUS
  0
LAYER
  2
型材断面
 70
     0
 62
    47
  6
CONTINUOUS
  0
LAYER
  2
ガラス
 70
     0
 62
    48
  6
CONTINUOUS
  0
LAYER
  2
ゴム等
 70
     0
 62
    63
  6
CONTINUOUS
  0
LAYER
  2
ボルト／ビス
 70
     0
 62
    64
  6
CONTINUOUS
  0
LAYER
  2
文字
 70
     0
 62
    79
  6
CONTINUOUS
  0
LAYER
  2
寸法
 70
     0
 62
    80
  6
CONTINUOUS
  0
LAYER
  2
ﾊｯﾁﾝｸﾞ
 70
     0
 62
    95
  6
CONTINUOUS
  0
LAYER
  2
別途部材
 70
     0
 62
    96
  6
CONTINUOUS
  0
LAYER
  2
曲げ物
 70
     0
 62
   111
  6
CONTINUOUS
  0
LAYER
  2
鉄骨等
 70
     0
 62
   112
  6
CONTINUOUS
  0
LAYER
  2
St
 70
     0
 62
   127
  6
CONTINUOUS
  0
LAYER
  2
その他部品等
 70
     0
 62
   128
  6
CONTINUOUS
  0
LAYER
  2
ｶﾞｽｹｯﾄ
 70
     0
 62
   143
  6
CONTINUOUS
  0
LAYER
  2
ｽｹｯﾁ
 70
     0
 62
    14
  6
CONTINUOUS
  0
LAYER
  2
0
 70
     0
 62
    17
  6
CONTINUOUS
  0
LAYER
  2
1
 70
     0
 62
    30
  6
CONTINUOUS
  0
LAYER
  2
4
 70
     0
 62
    33
  6
CONTINUOUS
  0
LAYER
  2
ﾚｲﾔ3
 70
     0
 62
    46
  6
CONTINUOUS
  0
LAYER
  2
外形線
 70
     0
 62
    49
  6
CONTINUOUS
  0
LAYER
  2
部品
 70
     0
 62
    14
  6
CONTINUOUS
  0
LAYER
  2
サッシ芯
 70
     0
 62
    17
  6
DASHDOTX2
  0
LAYER
  2
寸法線
 70
     0
 62
    62
  6
CONTINUOUS
  0
LAYER
  2
姿図外形線
 70
     0
 62
    65
  6
CONTINUOUS
  0
LAYER
  2
姿補助線
 70
     0
 62
    30
  6
CONTINUOUS
  0
LAYER
  2
透視線
 70
     0
 62
    78
  6
DOT
  0
LAYER
  2
用紙
 70
     0
 62
    81
  6
CONTINUOUS
  0
LAYER
  2
実線図枠
 70
     0
 62
    94
  6
CONTINUOUS
  0
LAYER
  2
補助図枠
 70
     0
 62
    97
  6
CONTINUOUS
  0
LAYER
  2
建具記号
 70
     0
 62
   110
  6
CONTINUOUS
  0
LAYER
  2
補助文字
 70
     0
 62
   113
  6
CONTINUOUS
  0
LAYER
  2
LAYER001
 70
     0
 62
     7
  6
CONTINUOUS
  0
LAYER
  2
LAYER010
 70
     0
 62
    11
  6
CONTINUOUS
  0
LAYER
  2
LAYER011
 70
     0
 62
    12
  6
CONTINUOUS
  0
LAYER
  2
LAYER013
 70
     0
 62
    14
  6
CONTINUOUS
  0
LAYER
  2
LAYER026
 70
     0
 62
    11
  6
CONTINUOUS
  0
LAYER
  2
断面線04
 70
     0
 62
     4
  6
CONTINUOUS
  0
LAYER
  2
投影線02
 70
     0
 62
    12
  6
CONTINUOUS
  0
ENDTAB
  0
TABLE
  2
STYLE
 70
    10
  0
STYLE
  2
STANDARD
 70
     0
 40
1.0
 41
1.0
 42
1.0
 50
0.0
 71
     0
  3
TXT
  4
BIGFONT
  0
STYLE
  2
TATE
 70
     4
 40
1.0
 41
1.0
 42
1.0
 50
0.0
 71
     0
  3
TXT
  4
BIGFONT
  0
STYLE
  2
TextStyle03
 70
     0
 40
1.0
 41
1.0
 42
1.0
 50
0.0
 71
     0
  3
MONOTXT
  4
BIGFONT
  0
STYLE
  2
TextStyle04
 70
     0
 40
1.0
 41
1.0
 42
1.0
 50
0.0
 71
     0
  3
MONOTXT
  4
BIGFONT
  0
STYLE
  2
TextStyle05
 70
     0
 40
1.0
 41
1.0
 42
1.0
 50
0.0
 71
     0
  3
MONOTXT
  4
BIGFONT
  0
STYLE
  2
TextStyle06
 70
     0
 40
1.0
 41
1.0
 42
1.0
 50
0.0
 71
     0
  3
MONOTXT
  4
BIGFONT
  0
STYLE
  2
TextStyle07
 70
     0
 40
1.0
 41
1.0
 42
1.0
 50
0.0
 71
     0
  3
MONOTXT
  4
BIGFONT
  0
STYLE
  2
TextStyle08
 70
     0
 40
1.0
 41
1.0
 42
1.0
 50
0.0
 71
     0
  3
MONOTXT
  4
BIGFONT
  0
STYLE
  2
TextStyle09
 70
     0
 40
1.0
 41
1.0
 42
1.0
 50
0.0
 71
     0
  3
MONOTXT
  4
BIGFONT
  0
STYLE
  2
TextStyle10
 70
     0
 40
1.0
 41
1.0
 42
1.0
 50
0.0
 71
     0
  3
MONOTXT
  4
BIGFONT
  0
ENDTAB
  0
ENDSEC
  0
SECTION
  2
BLOCKS
  0
BLOCK
  2
*HAT_0001
 70
    65
 10
0.0
 20
0.0
  0
LINE
  8
ゴム等
 10
-61.325
 20
-36.6
 11
-61.1
 21
-36.375
  0
LINE
  8
ゴム等
 10
-61.8
 20
-36.6
 11
-61.1
 21
-35.9
  0
LINE
  8
ゴム等
 10
-62.275
 20
-36.6
 11
-61.1
 21
-35.45
  0
LINE
  8
ゴム等
 10
-62.725
 20
-36.6
 11
-61.1
 21
-34.975
  0
LINE
  8
ゴム等
 10
-63.2
 20
-36.6
 11
-61.55
 21
-34.925
  0
LINE
  8
ゴム等
 10
-63.675
 20
-36.6
 11
-62.0
 21
-34.925
  0
LINE
  8
ゴム等
 10
-64.15
 20
-36.6
 11
-62.475
 21
-34.925
  0
LINE
  8
ゴム等
 10
-64.425
 20
-36.425
 11
-62.95
 21
-34.925
  0
LINE
  8
ゴム等
 10
-64.425
 20
-35.95
 11
-63.425
 21
-34.925
  0
LINE
  8
ゴム等
 10
-64.425
 20
-35.475
 11
-63.9
 21
-34.925
  0
LINE
  8
ゴム等
 10
-64.425
 20
-35.0
 11
-64.375
 21
-34.925
  0
ENDBLK
  0
BLOCK
  2
*HAT_0002
 70
    65
 10
0.0
 20
0.0
  0
LINE
  8
ゴム等
 10
52.475
 20
-36.6
 11
52.25
 21
-36.375
  0
LINE
  8
ゴム等
 10
52.95
 20
-36.6
 11
52.25
 21
-35.9
  0
LINE
  8
ゴム等
 10
53.425
 20
-36.6
 11
52.25
 21
-35.45
  0
LINE
  8
ゴム等
 10
53.875
 20
-36.6
 11
52.25
 21
-34.975
  0
LINE
  8
ゴム等
 10
54.35
 20
-36.6
 11
52.7
 21
-34.925
  0
LINE
  8
ゴム等
 10
54.825
 20
-36.6
 11
53.15
 21
-34.925
  0
LINE
  8
ゴム等
 10
55.3
 20
-36.6
 11
53.625
 21
-34.925
  0
LINE
  8
ゴム等
 10
55.575
 20
-36.425
 11
54.1
 21
-34.925
  0
LINE
  8
ゴム等
 10
55.575
 20
-35.95
 11
54.575
 21
-34.925
  0
LINE
  8
ゴム等
 10
55.575
 20
-35.475
 11
55.05
 21
-34.925
  0
LINE
  8
ゴム等
 10
55.575
 20
-35.0
 11
55.525
 21
-34.925
  0
ENDBLK
  0
BLOCK
  2
*HAT_0003
 70
    65
 10
0.0
 20
0.0
  0
LINE
  8
ゴム等
 10
-13.3
 20
-36.575
 11
-13.525
 21
-36.35
  0
LINE
  8
ゴム等
 10
-12.825
 20
-36.575
 11
-13.525
 21
-35.875
  0
LINE
  8
ゴム等
 10
-12.35
 20
-36.575
 11
-13.525
 21
-35.425
  0
LINE
  8
ゴム等
 10
-11.9
 20
-36.575
 11
-13.525
 21
-34.95
  0
LINE
  8
ゴム等
 10
-11.425
 20
-36.575
 11
-13.075
 21
-34.9
  0
LINE
  8
ゴム等
 10
-10.95
 20
-36.575
 11
-12.625
 21
-34.9
  0
LINE
  8
ゴム等
 10
-10.475
 20
-36.575
 11
-12.15
 21
-34.9
  0
LINE
  8
ゴム等
 10
-10.2
 20
-36.4
 11
-11.675
 21
-34.9
  0
LINE
  8
ゴム等
 10
-10.2
 20
-35.925
 11
-11.2
 21
-34.9
  0
LINE
  8
ゴム等
 10
-10.2
 20
-35.45
 11
-10.725
 21
-34.9
  0
LINE
  8
ゴム等
 10
-10.2
 20
-34.975
 11
-10.25
 21
-34.9
  0
ENDBLK
  0
BLOCK
  2
*HAT_0004
 70
    65
 10
0.0
 20
0.0
  0
LINE
  8
ゴム等
  6
DOT
 10
-13.075
 20
-32.625
 11
-12.35
 21
-31.875
  0
LINE
  8
ゴム等
  6
DOT
 10
-13.925
 20
-32.625
 11
-12.35
 21
-31.025
  0
LINE
  8
ゴム等
  6
DOT
 10
-14.775
 20
-32.625
 11
-12.7
 21
-30.55
  0
LINE
  8
ゴム等
  6
DOT
 10
-15.625
 20
-32.625
 11
-13.55
 21
-30.55
  0
LINE
  8
ゴム等
  6
DOT
 10
-15.675
 20
-31.825
 11
-14.4
 21
-30.55
  0
LINE
  8
ゴム等
  6
DOT
 10
-15.675
 20
-30.975
 11
-15.25
 21
-30.55
  0
ENDBLK
  0
BLOCK
  2
*HAT_0005
 70
    65
 10
0.0
 20
0.0
  0
LINE
  8
ゴム等
  6
DOT
 10
4.2
 20
-32.625
 11
3.475
 21
-31.875
  0
LINE
  8
ゴム等
  6
DOT
 10
5.05
 20
-32.625
 11
3.475
 21
-31.025
  0
LINE
  8
ゴム等
  6
DOT
 10
5.9
 20
-32.625
 11
3.825
 21
-30.55
  0
LINE
  8
ゴム等
  6
DOT
 10
6.75
 20
-32.625
 11
4.675
 21
-30.55
  0
LINE
  8
ゴム等
  6
DOT
 10
6.8
 20
-31.825
 11
5.525
 21
-30.55
  0
LINE
  8
ゴム等
  6
DOT
 10
6.8
 20
-30.975
 11
6.375
 21
-30.55
  0
ENDBLK
  0
BLOCK
  2
*HAT_0006
 70
    65
 10
0.0
 20
0.0
  0
LINE
  8
ゴム等
 10
4.425
 20
-36.575
 11
4.65
 21
-36.35
  0
LINE
  8
ゴム等
 10
3.95
 20
-36.575
 11
4.65
 21
-35.875
  0
LINE
  8
ゴム等
 10
3.475
 20
-36.575
 11
4.65
 21
-35.425
  0
LINE
  8
ゴム等
 10
3.025
 20
-36.575
 11
4.65
 21
-34.95
  0
LINE
  8
ゴム等
 10
2.55
 20
-36.575
 11
4.2
 21
-34.9
  0
LINE
  8
ゴム等
 10
2.075
 20
-36.575
 11
3.75
 21
-34.9
  0
LINE
  8
ゴム等
 10
1.6
 20
-36.575
 11
3.275
 21
-34.9
  0
LINE
  8
ゴム等
 10
1.325
 20
-36.4
 11
2.8
 21
-34.9
  0
LINE
  8
ゴム等
 10
1.325
 20
-35.925
 11
2.325
 21
-34.9
  0
LINE
  8
ゴム等
 10
1.325
 20
-35.45
 11
1.85
 21
-34.9
  0
LINE
  8
ゴム等
 10
1.325
 20
-34.975
 11
1.375
 21
-34.9
  0
ENDBLK
  0
BLOCK
  2
*HAT_0007
 70
    65
 10
0.0
 20
0.0
  0
LINE
  8
ゴム等
  6
DOT
 10
52.025
 20
-32.675
 11
52.75
 21
-31.925
  0
LINE
  8
ゴム等
  6
DOT
 10
51.175
 20
-32.675
 11
52.75
 21
-31.075
  0
LINE
  8
ゴム等
  6
DOT
 10
50.325
 20
-32.675
 11
52.4
 21
-30.6
  0
LINE
  8
ゴム等
  6
DOT
 10
49.475
 20
-32.675
 11
51.55
 21
-30.6
  0
LINE
  8
ゴム等
  6
DOT
 10
49.425
 20
-31.875
 11
50.7
 21
-30.6
  0
LINE
  8
ゴム等
  6
DOT
 10
49.425
 20
-31.025
 11
49.85
 21
-30.6
  0
ENDBLK
  0
BLOCK
  2
*HAT_0008
 70
    65
 10
0.0
 20
0.0
  0
LINE
  8
ゴム等
  6
DOT
 10
-60.9
 20
-32.675
 11
-61.625
 21
-31.925
  0
LINE
  8
ゴム等
  6
DOT
 10
-60.05
 20
-32.675
 11
-61.625
 21
-31.075
  0
LINE
  8
ゴム等
  6
DOT
 10
-59.2
 20
-32.675
 11
-61.275
 21
-30.6
  0
LINE
  8
ゴム等
  6
DOT
 10
-58.35
 20
-32.675
 11
-60.425
 21
-30.6
  0
LINE
  8
ゴム等
  6
DOT
 10
-58.3
 20
-31.875
 11
-59.575
 21
-30.6
  0
LINE
  8
ゴム等
  6
DOT
 10
-58.3
 20
-31.025
 11
-58.725
 21
-30.6
  0
ENDBLK
  0
BLOCK
  2
*HAT_0009
 70
    65
 10
0.0
 20
0.0
  0
LINE
  8
ゴム等
 10
-15.725
 20
-91.3
 11
-15.3
 21
-91.75
  0
LINE
  8
ゴム等
 10
-15.725
 20
-90.375
 11
-14.35
 21
-91.75
  0
LINE
  8
ゴム等
 10
-15.5
 20
-89.675
 11
-13.425
 21
-91.75
  0
LINE
  8
ゴム等
 10
-14.55
 20
-89.675
 11
-12.475
 21
-91.75
  0
LINE
  8
ゴム等
 10
-13.6
 20
-89.675
 11
-12.4
 21
-90.875
  0
LINE
  8
ゴム等
 10
-12.65
 20
-89.675
 11
-12.4
 21
-89.925
  0
ENDBLK
  0
BLOCK
  2
*HAT_0010
 70
    65
 10
0.0
 20
0.0
  0
LINE
  8
ゴム等
 10
3.475
 20
-91.3
 11
3.9
 21
-91.75
  0
LINE
  8
ゴム等
 10
3.475
 20
-90.375
 11
4.85
 21
-91.75
  0
LINE
  8
ゴム等
 10
3.7
 20
-89.675
 11
5.775
 21
-91.75
  0
LINE
  8
ゴム等
 10
4.65
 20
-89.675
 11
6.725
 21
-91.75
  0
LINE
  8
ゴム等
 10
5.6
 20
-89.675
 11
6.8
 21
-90.875
  0
LINE
  8
ゴム等
 10
6.55
 20
-89.675
 11
6.8
 21
-89.925
  0
ENDBLK
  0
BLOCK
  2
*HAT_0011
 70
    65
 10
0.0
 20
0.0
  0
LINE
  8
型材断面
  6
DOT
 10
136.175
 20
-3.15
 11
135.725
 21
-2.7
  0
LINE
  8
型材断面
  6
DOT
 10
137.2
 20
-3.325
 11
135.725
 21
-1.85
  0
LINE
  8
型材断面
  6
DOT
 10
138.225
 20
-3.5
 11
135.725
 21
-1.0
  0
LINE
  8
型材断面
  6
DOT
 10
138.375
 20
-2.825
 11
136.525
 21
-0.95
  0
LINE
  8
型材断面
  6
DOT
 10
138.375
 20
-1.975
 11
137.375
 21
-0.95
  0
LINE
  8
型材断面
  6
DOT
 10
138.375
 20
-1.125
 11
138.2
 21
-0.95
  0
ENDBLK
  0
BLOCK
  2
*HAT_0012
 70
    65
 10
0.0
 20
0.0
  0
LINE
  8
その他部品等
 10
-96.05
 20
-61.625
 11
-95.825
 21
-61.375
  0
LINE
  8
その他部品等
 10
-97.15
 20
-61.775
 11
-95.825
 21
-60.45
  0
LINE
  8
その他部品等
 10
-98.225
 20
-61.925
 11
-95.825
 21
-59.5
  0
LINE
  8
その他部品等
 10
-98.375
 20
-61.1
 11
-95.825
 21
-58.575
  0
LINE
  8
その他部品等
 10
-98.375
 20
-60.15
 11
-95.825
 21
-57.625
  0
LINE
  8
その他部品等
 10
-98.375
 20
-59.225
 11
-96.075
 21
-56.925
  0
LINE
  8
その他部品等
 10
-98.375
 20
-58.275
 11
-97.025
 21
-56.925
  0
LINE
  8
その他部品等
 10
-98.375
 20
-57.325
 11
-97.95
 21
-56.925
  0
LINE
  8
その他部品等
 10
-98.375
 20
-61.625
 11
-98.1
 21
-61.9
  0
LINE
  8
その他部品等
 10
-98.375
 20
-60.675
 11
-97.275
 21
-61.775
  0
LINE
  8
その他部品等
 10
-98.375
 20
-59.75
 11
-96.45
 21
-61.675
  0
LINE
  8
その他部品等
 10
-98.375
 20
-58.8
 11
-95.825
 21
-61.325
  0
LINE
  8
その他部品等
 10
-98.375
 20
-57.875
 11
-95.825
 21
-60.4
  0
LINE
  8
その他部品等
 10
-98.375
 20
-56.925
 11
-95.825
 21
-59.45
  0
LINE
  8
その他部品等
 10
-97.425
 20
-56.925
 11
-95.825
 21
-58.525
  0
LINE
  8
その他部品等
 10
-96.475
 20
-56.925
 11
-95.825
 21
-57.575
  0
ENDBLK
  0
BLOCK
  2
*HAT_0013
 70
    65
 10
0.0
 20
0.0
  0
LINE
  8
その他部品等
 10
87.2
 20
-61.625
 11
86.975
 21
-61.375
  0
LINE
  8
その他部品等
 10
88.3
 20
-61.775
 11
86.975
 21
-60.45
  0
LINE
  8
その他部品等
 10
89.375
 20
-61.925
 11
86.975
 21
-59.5
  0
LINE
  8
その他部品等
 10
89.525
 20
-61.1
 11
86.975
 21
-58.575
  0
LINE
  8
その他部品等
 10
89.525
 20
-60.15
 11
86.975
 21
-57.625
  0
LINE
  8
その他部品等
 10
89.525
 20
-59.225
 11
87.225
 21
-56.925
  0
LINE
  8
その他部品等
 10
89.525
 20
-58.275
 11
88.175
 21
-56.925
  0
LINE
  8
その他部品等
 10
89.525
 20
-57.325
 11
89.1
 21
-56.925
  0
LINE
  8
その他部品等
 10
89.525
 20
-61.625
 11
89.25
 21
-61.9
  0
LINE
  8
その他部品等
 10
89.525
 20
-60.675
 11
88.425
 21
-61.775
  0
LINE
  8
その他部品等
 10
89.525
 20
-59.75
 11
87.6
 21
-61.675
  0
LINE
  8
その他部品等
 10
89.525
 20
-58.8
 11
86.975
 21
-61.325
  0
LINE
  8
その他部品等
 10
89.525
 20
-57.875
 11
86.975
 21
-60.4
  0
LINE
  8
その他部品等
 10
89.525
 20
-56.925
 11
86.975
 21
-59.45
  0
LINE
  8
その他部品等
 10
88.575
 20
-56.925
 11
86.975
 21
-58.525
  0
LINE
  8
その他部品等
 10
87.625
 20
-56.925
 11
86.975
 21
-57.575
  0
ENDBLK
  0
BLOCK
  2
*HAT_0014
 70
    65
 10
0.0
 20
0.0
  0
LINE
  8
その他部品等
 10
116.775
 20
-86.475
 11
116.175
 21
-85.875
  0
LINE
  8
その他部品等
 10
117.7
 20
-86.475
 11
116.175
 21
-84.95
  0
LINE
  8
その他部品等
 10
118.65
 20
-86.475
 11
116.175
 21
-84.0
  0
LINE
  8
その他部品等
 10
119.575
 20
-86.475
 11
116.925
 21
-83.8
  0
LINE
  8
その他部品等
 10
120.525
 20
-86.475
 11
117.85
 21
-83.8
  0
LINE
  8
その他部品等
 10
121.475
 20
-86.475
 11
118.8
 21
-83.8
  0
LINE
  8
その他部品等
 10
122.325
 20
-86.375
 11
119.725
 21
-83.8
  0
LINE
  8
その他部品等
 10
122.325
 20
-85.425
 11
120.675
 21
-83.8
  0
LINE
  8
その他部品等
 10
122.325
 20
-84.475
 11
121.625
 21
-83.8
  0
LINE
  8
その他部品等
 10
122.325
 20
-86.25
 11
122.1
 21
-86.475
  0
LINE
  8
その他部品等
 10
122.325
 20
-85.3
 11
121.15
 21
-86.475
  0
LINE
  8
その他部品等
 10
122.325
 20
-84.375
 11
120.225
 21
-86.475
  0
LINE
  8
その他部品等
 10
121.95
 20
-83.8
 11
119.275
 21
-86.475
  0
LINE
  8
その他部品等
 10
121.0
 20
-83.8
 11
118.325
 21
-86.475
  0
LINE
  8
その他部品等
 10
120.075
 20
-83.8
 11
117.4
 21
-86.475
  0
LINE
  8
その他部品等
 10
119.125
 20
-83.8
 11
116.45
 21
-86.475
  0
LINE
  8
その他部品等
 10
118.175
 20
-83.8
 11
116.175
 21
-85.8
  0
LINE
  8
その他部品等
 10
117.225
 20
-83.8
 11
116.175
 21
-84.85
  0
LINE
  8
その他部品等
 10
116.3
 20
-83.8
 11
116.175
 21
-83.925
  0
ENDBLK
  0
BLOCK
  2
*HAT_0015
 70
    65
 10
0.0
 20
0.0
  0
LINE
  8
その他部品等
 10
-125.65
 20
-86.475
 11
-125.05
 21
-85.875
  0
LINE
  8
その他部品等
 10
-126.575
 20
-86.475
 11
-125.05
 21
-84.95
  0
LINE
  8
その他部品等
 10
-127.525
 20
-86.475
 11
-125.05
 21
-84.0
  0
LINE
  8
その他部品等
 10
-128.45
 20
-86.475
 11
-125.8
 21
-83.8
  0
LINE
  8
その他部品等
 10
-129.4
 20
-86.475
 11
-126.725
 21
-83.8
  0
LINE
  8
その他部品等
 10
-130.35
 20
-86.475
 11
-127.675
 21
-83.8
  0
LINE
  8
その他部品等
 10
-131.2
 20
-86.375
 11
-128.6
 21
-83.8
  0
LINE
  8
その他部品等
 10
-131.2
 20
-85.425
 11
-129.55
 21
-83.8
  0
LINE
  8
その他部品等
 10
-131.2
 20
-84.475
 11
-130.5
 21
-83.8
  0
LINE
  8
その他部品等
 10
-131.2
 20
-86.25
 11
-130.975
 21
-86.475
  0
LINE
  8
その他部品等
 10
-131.2
 20
-85.3
 11
-130.025
 21
-86.475
  0
LINE
  8
その他部品等
 10
-131.2
 20
-84.375
 11
-129.1
 21
-86.475
  0
LINE
  8
その他部品等
 10
-130.825
 20
-83.8
 11
-128.15
 21
-86.475
  0
LINE
  8
その他部品等
 10
-129.875
 20
-83.8
 11
-127.2
 21
-86.475
  0
LINE
  8
その他部品等
 10
-128.95
 20
-83.8
 11
-126.275
 21
-86.475
  0
LINE
  8
その他部品等
 10
-128.0
 20
-83.8
 11
-125.325
 21
-86.475
  0
LINE
  8
その他部品等
 10
-127.05
 20
-83.8
 11
-125.05
 21
-85.8
  0
LINE
  8
その他部品等
 10
-126.1
 20
-83.8
 11
-125.05
 21
-84.85
  0
LINE
  8
その他部品等
 10
-125.175
 20
-83.8
 11
-125.05
 21
-83.925
  0
ENDBLK
  0
BLOCK
  2
*GRP_0001
 70
    65
 10
0.0
 20
0.0
  0
LINE
  8
型材断面
  6
CONTINUOUS
 10
189.85
 20
133.5
 11
189.85
 21
-133.5
  0
LINE
  8
型材断面
  6
CONTINUOUS
 10
189.85
 20
-133.5
 11
-190.15
 21
-133.5
  0
LINE
  8
型材断面
  6
CONTINUOUS
 10
-190.15
 20
-133.5
 11
-190.15
 21
133.5
  0
LINE
  8
型材断面
  6
CONTINUOUS
 10
189.85
 20
133.5
 11
-190.15
 21
133.5
  0
LINE
  8
型材断面
  6
CONTINUOUS
 10
139.85
 20
-133.5
 11
139.85
 21
-118.5
  0
LINE
  8
型材断面
  6
CONTINUOUS
 10
189.85
 20
-118.5
 11
139.85
 21
-118.5
  0
ENDBLK
  0
BLOCK
  2
*GRP_0002
 70
    65
 10
0.0
 20
0.0
  0
LINE
  8
曲げ物
  6
CONTINUOUS
 10
120.48658
 20
-80.136892
 11
120.48653
 21
-100.136892
  0
LINE
  8
曲げ物
  6
DOT
 10
120.153255
 20
-80.136892
 11
120.153205
 21
-100.136892
  0
LINE
  8
曲げ物
  6
CONTINUOUS
 10
117.15324
 20
-80.136892
 11
117.153215
 21
-100.136892
  0
LINE
  8
曲げ物
  6
DOT
 10
117.48659
 20
-80.136892
 11
117.48654
 21
-100.136892
  0
LINE
  8
曲げ物
  6
CONTINUOUS
 10
120.48653
 20
-100.136892
 11
117.153215
 21
-100.136892
  0
LINE
  8
曲げ物
  6
CONTINUOUS
 10
120.48658
 20
-80.136892
 11
117.15324
 21
-80.136892
  0
ENDBLK
  0
BLOCK
  2
*GRP_0003
 70
    65
 10
0.0
 20
0.0
  0
LINE
  8
曲げ物
  6
CONTINUOUS
 10
-126.01768
 20
-80.136892
 11
-126.01773
 21
-100.136892
  0
LINE
  8
曲げ物
  6
DOT
 10
-126.351005
 20
-80.136892
 11
-126.351055
 21
-100.136892
  0
LINE
  8
曲げ物
  6
CONTINUOUS
 10
-129.35102
 20
-80.136892
 11
-129.351045
 21
-100.136892
  0
LINE
  8
曲げ物
  6
DOT
 10
-129.01767
 20
-80.136892
 11
-129.01772
 21
-100.136892
  0
LINE
  8
曲げ物
  6
CONTINUOUS
 10
-126.01773
 20
-100.136892
 11
-129.351045
 21
-100.136892
  0
LINE
  8
曲げ物
  6
CONTINUOUS
 10
-126.01768
 20
-80.136892
 11
-129.35102
 21
-80.136892
  0
ENDBLK
  0
BLOCK
  2
*GRP_0004
 70
    65
 10
0.0
 20
0.0
  0
LINE
  8
型材断面
  6
CONTINUOUS
 62
    47
 10
-131.68421
 20
-66.470225
 11
-131.68425
 21
-86.470225
  0
LINE
  8
型材断面
  6
CONTINUOUS
 10
-131.150885
 20
-83.303557
 11
-130.484217
 21
-83.303557
  0
LINE
  8
型材断面
  6
CONTINUOUS
 10
-129.984217
 20
-82.470225
 11
-130.484217
 21
-82.470225
  0
LINE
  8
型材断面
  6
CONTINUOUS
 10
-130.484217
 20
-83.303557
 11
-130.484217
 21
-82.470225
  0
LINE
  8
型材断面
  6
CONTINUOUS
 10
-129.984217
 20
-83.470225
 11
-129.984217
 21
-82.470225
  0
LINE
  8
型材断面
  6
CONTINUOUS
 10
-131.150885
 20
-83.803557
 11
-130.31755
 21
-83.803557
  0
ARC
  8
型材断面
  6
CONTINUOUS
 10
-130.317554
 20
-83.470229
 40
0.333333
 50
-90.0
 51
0.0
  0
LINE
  8
型材断面
  6
CONTINUOUS
 62
    47
 10
-131.68425
 20
-86.470225
 11
-131.150918
 21
-86.470225
  0
LINE
  8
型材断面
  6
CONTINUOUS
 10
-131.15088
 20
-66.93591
 11
-131.15091
 21
-83.303557
  0
LINE
  8
型材断面
  6
CONTINUOUS
 10
-131.150912
 20
-83.803557
 11
-131.150918
 21
-86.470225
  0
LINE
  8
型材断面
  6
CONTINUOUS
 10
-126.889207
 20
-66.354687
 11
-126.7973
 21
-67.016398
  0
LINE
  8
型材断面
  6
CONTINUOUS
 10
-126.7973
 20
-67.016398
 11
-125.542192
 21
-66.845633
  0
LINE
  8
型材断面
  6
CONTINUOUS
 10
-125.542192
 20
-66.845633
 11
-125.473405
 21
-67.340883
  0
LINE
  8
型材断面
  6
CONTINUOUS
 10
-125.473405
 20
-67.340883
 11
-127.223953
 21
-67.579053
  0
LINE
  8
型材断面
  6
CONTINUOUS
 10
-127.384455
 20
-66.423473
 11
-127.223953
 21
-67.579053
  0
LINE
  8
型材断面
  6
CONTINUOUS
 10
-107.39555
 20
-63.702488
 11
-107.30733
 21
-64.364697
  0
LINE
  8
型材断面
  6
CONTINUOUS
 10
-107.30733
 20
-64.364697
 11
-108.56244
 21
-64.535462
  0
LINE
  8
型材断面
  6
CONTINUOUS
 10
-108.56244
 20
-64.535462
 11
-108.496413
 21
-65.031088
  0
LINE
  8
型材断面
  6
CONTINUOUS
 10
-108.496413
 20
-65.031088
 11
-106.745865
 21
-64.792918
  0
LINE
  8
型材断面
  6
CONTINUOUS
 10
-106.899928
 20
-63.636463
 11
-106.745865
 21
-64.792918
  0
LINE
  8
型材断面
  6
CONTINUOUS
 10
-95.23627
 20
-62.722378
 11
-95.167483
 21
-63.217625
  0
LINE
  8
型材断面
  6
CONTINUOUS
 10
-93.350878
 20
-62.970467
 11
-95.167483
 21
-63.217625
  0
LINE
  8
型材断面
  6
CONTINUOUS
 10
-95.23627
 20
-62.722378
 11
-93.850878
 21
-62.533888
  0
LINE
  8
型材断面
  6
CONTINUOUS
 10
-93.850878
 20
-62.533888
 11
-93.850878
 21
-61.86108
  0
LINE
  8
型材断面
  6
CONTINUOUS
 10
-131.15088
 20
-66.93591
 11
-127.384455
 21
-66.423473
  0
LINE
  8
型材断面
  6
CONTINUOUS
 10
-126.889015
 20
-66.356065
 11
-107.395365
 21
-63.703867
  0
LINE
  8
型材断面
  6
CONTINUOUS
 10
-106.899928
 20
-63.636463
 11
-93.850878
 21
-61.86108
  0
LINE
  8
型材断面
  6
CONTINUOUS
 10
-93.88421
 20
-57.427368
 11
-93.350878
 21
-57.427368
  0
LINE
  8
型材断面
  6
CONTINUOUS
 62
    47
 10
-93.350878
 20
-62.936827
 11
-93.350878
 21
-57.427368
  0
LINE
  8
型材断面
  6
CONTINUOUS
 10
-93.88421
 20
-57.427368
 11
-93.88421
 21
-61.327368
  0
LINE
  8
型材断面
  6
CONTINUOUS
 10
-131.68421
 20
-66.470225
 11
-93.88421
 21
-61.327368
  0
ENDBLK
  0
BLOCK
  2
*GRP_0005
 70
    65
 10
0.0
 20
0.0
  0
LINE
  8
型材断面
  6
CONTINUOUS
 62
    47
 10
122.81975
 20
-66.470225
 11
122.81979
 21
-86.470225
  0
LINE
  8
型材断面
  6
CONTINUOUS
 10
122.286425
 20
-83.303557
 11
121.619758
 21
-83.303557
  0
LINE
  8
型材断面
  6
CONTINUOUS
 10
121.119758
 20
-82.470225
 11
121.619758
 21
-82.470225
  0
LINE
  8
型材断面
  6
CONTINUOUS
 10
121.619758
 20
-83.303557
 11
121.619758
 21
-82.470225
  0
LINE
  8
型材断面
  6
CONTINUOUS
 10
121.119758
 20
-83.470225
 11
121.119758
 21
-82.470225
  0
LINE
  8
型材断面
  6
CONTINUOUS
 10
122.286425
 20
-83.803557
 11
121.45309
 21
-83.803557
  0
ARC
  8
型材断面
  6
CONTINUOUS
 10
121.453094
 20
-83.470229
 40
0.333333
 50
180.0
 51
270.0
  0
LINE
  8
型材断面
  6
CONTINUOUS
 62
    47
 10
122.81979
 20
-86.470225
 11
122.286457
 21
-86.470225
  0
LINE
  8
型材断面
  6
CONTINUOUS
 10
122.28642
 20
-66.93591
 11
122.28645
 21
-83.303557
  0
LINE
  8
型材断面
  6
CONTINUOUS
 10
122.286453
 20
-83.803557
 11
122.286457
 21
-86.470225
  0
LINE
  8
型材断面
  6
CONTINUOUS
 10
118.024748
 20
-66.354687
 11
117.93284
 21
-67.016398
  0
LINE
  8
型材断面
  6
CONTINUOUS
 10
117.93284
 20
-67.016398
 11
116.677732
 21
-66.845633
  0
LINE
  8
型材断面
  6
CONTINUOUS
 10
116.677732
 20
-66.845633
 11
116.608945
 21
-67.340883
  0
LINE
  8
型材断面
  6
CONTINUOUS
 10
116.608945
 20
-67.340883
 11
118.359492
 21
-67.579053
  0
LINE
  8
型材断面
  6
CONTINUOUS
 10
118.519995
 20
-66.423473
 11
118.359492
 21
-67.579053
  0
LINE
  8
型材断面
  6
CONTINUOUS
 10
98.53109
 20
-63.702488
 11
98.44287
 21
-64.364697
  0
LINE
  8
型材断面
  6
CONTINUOUS
 10
98.44287
 20
-64.364697
 11
99.69798
 21
-64.535462
  0
LINE
  8
型材断面
  6
CONTINUOUS
 10
99.69798
 20
-64.535462
 11
99.631953
 21
-65.031088
  0
LINE
  8
型材断面
  6
CONTINUOUS
 10
99.631953
 20
-65.031088
 11
97.881405
 21
-64.792918
  0
LINE
  8
型材断面
  6
CONTINUOUS
 10
98.035468
 20
-63.636463
 11
97.881405
 21
-64.792918
  0
LINE
  8
型材断面
  6
CONTINUOUS
 10
86.37181
 20
-62.722378
 11
86.303023
 21
-63.217625
  0
LINE
  8
型材断面
  6
CONTINUOUS
 10
84.486418
 20
-62.970467
 11
86.303023
 21
-63.217625
  0
LINE
  8
型材断面
  6
CONTINUOUS
 10
86.37181
 20
-62.722378
 11
84.986418
 21
-62.533888
  0
LINE
  8
型材断面
  6
CONTINUOUS
 10
84.986418
 20
-62.533888
 11
84.986418
 21
-61.86108
  0
LINE
  8
型材断面
  6
CONTINUOUS
 10
122.28642
 20
-66.93591
 11
118.519995
 21
-66.423473
  0
LINE
  8
型材断面
  6
CONTINUOUS
 10
118.024555
 20
-66.356065
 11
98.530905
 21
-63.703867
  0
LINE
  8
型材断面
  6
CONTINUOUS
 10
98.035468
 20
-63.636463
 11
84.986418
 21
-61.86108
  0
LINE
  8
型材断面
  6
CONTINUOUS
 10
85.01975
 20
-57.427368
 11
84.486418
 21
-57.427368
  0
LINE
  8
型材断面
  6
CONTINUOUS
 62
    47
 10
84.486418
 20
-62.936827
 11
84.486418
 21
-57.427368
  0
LINE
  8
型材断面
  6
CONTINUOUS
 10
85.01975
 20
-57.427368
 11
85.01975
 21
-61.327368
  0
LINE
  8
型材断面
  6
CONTINUOUS
 10
122.81975
 20
-66.470225
 11
85.01975
 21
-61.327368
  0
ENDBLK
  0
BLOCK
  2
*GRP_0006
 70
    65
 10
0.0
 20
0.0
  0
LINE
  8
型材断面
  6
CONTINUOUS
 62
    47
 10
-59.017502
 20
-56.268445
 11
-59.017502
 21
-45.94458
  0
LINE
  8
型材断面
  6
CONTINUOUS
 62
    47
 10
-97.684238
 20
-52.498275
 11
-59.017502
 21
-45.94458
  0
LINE
  8
型材断面
  6
CONTINUOUS
 62
    47
 10
-97.684238
 20
-52.498275
 11
-97.684238
 21
-56.268445
  0
LINE
  8
型材断面
  6
CONTINUOUS
 62
    47
 10
-93.350865
 20
-56.93507
 11
-98.350782
 21
-56.93507
  0
LINE
  8
型材断面
  6
CONTINUOUS
 62
    47
 10
-64.884133
 20
-56.268445
 11
-59.017502
 21
-56.268445
  0
LINE
  8
型材断面
  6
CONTINUOUS
 62
    47
 10
-64.884133
 20
-56.93507
 11
-58.350845
 21
-56.93507
  0
LINE
  8
型材断面
  6
CONTINUOUS
 62
    47
 10
-65.017522
 20
-56.80174
 11
-65.017522
 21
-56.401717
  0
LINE
  8
型材断面
  6
CONTINUOUS
 62
    47
 10
-90.1508
 20
-56.268445
 11
-97.684238
 21
-56.268445
  0
LINE
  8
型材断面
  6
CONTINUOUS
 62
    47
 10
-90.1508
 20
-56.93507
 11
-92.68415
 21
-56.93507
  0
LINE
  8
型材断面
  6
CONTINUOUS
 62
    47
 10
-90.017527
 20
-56.80174
 11
-90.017527
 21
-56.401717
  0
LINE
  8
型材断面
  6
CONTINUOUS
 62
    47
 10
-98.350782
 20
-56.93507
 11
-98.350782
 21
-51.935092
  0
LINE
  8
型材断面
  6
CONTINUOUS
 62
    47
 10
-98.350782
 20
-51.935092
 11
-69.017468
 21
-46.963288
  0
LINE
  8
型材断面
  6
CONTINUOUS
 62
    47
 10
-68.35086
 20
-46.850288
 11
-59.017502
 21
-45.268412
  0
LINE
  8
型材断面
  6
CONTINUOUS
 62
    47
 10
-68.35086
 20
-44.268435
 11
-66.850925
 21
-44.268435
  0
LINE
  8
型材断面
  6
CONTINUOUS
 62
    47
 10
-66.850925
 20
-42.601765
 11
-67.25086
 21
-42.601765
  0
LINE
  8
型材断面
  6
CONTINUOUS
 62
    47
 10
-67.25086
 20
-42.601765
 11
-67.25086
 21
-43.601755
  0
LINE
  8
型材断面
  6
CONTINUOUS
 62
    47
 10
-67.25086
 20
-43.601755
 11
-68.35086
 21
-43.601755
  0
LINE
  8
型材断面
  6
CONTINUOUS
 62
    47
 10
-68.35086
 20
-44.268435
 11
-68.35086
 21
-46.850288
  0
LINE
  8
型材断面
  6
CONTINUOUS
 62
    47
 10
-66.850925
 20
-42.601765
 11
-66.850925
 21
-44.268435
  0
ARC
  8
型材断面
  6
CONTINUOUS
 62
    47
 10
-64.884133
 20
-56.401721
 40
0.133333
 50
90.001373
 51
180.002747
  0
ARC
  8
型材断面
  6
CONTINUOUS
 62
    47
 10
-64.884133
 20
-56.801744
 40
0.133333
 50
180.002747
 51
270.00412
  0
ARC
  8
型材断面
  6
CONTINUOUS
 62
    47
 10
-90.1508
 20
-56.401721
 40
0.133333
 50
0.0
 51
90.001373
  0
ARC
  8
型材断面
  6
CONTINUOUS
 62
    47
 10
-90.1508
 20
-56.801744
 40
0.133333
 50
270.00412
 51
360.0
  0
LINE
  8
型材断面
  6
CONTINUOUS
 62
    47
 10
-67.25086
 20
-29.60184
 11
-66.850925
 21
-29.60184
  0
LINE
  8
型材断面
  6
CONTINUOUS
 62
    47
 10
-67.25086
 20
-30.26852
 11
-68.35086
 21
-30.26852
  0
LINE
  8
型材断面
  6
CONTINUOUS
 62
    47
 10
-66.850925
 20
-29.60184
 11
-69.017468
 21
-29.60184
  0
LINE
  8
型材断面
  6
CONTINUOUS
 62
    47
 10
-69.017468
 20
-30.268393
 11
-69.017468
 21
-29.60184
  0
LINE
  8
型材断面
  6
CONTINUOUS
 62
    47
 10
-68.35086
 20
-30.268393
 11
-67.25086
 21
-30.268393
  0
LINE
  8
型材断面
  6
CONTINUOUS
 62
    47
 10
-68.35086
 20
-37.268433
 11
-60.6842
 21
-37.268433
  0
LINE
  8
型材断面
  6
CONTINUOUS
 62
    47
 10
-60.6842
 20
-37.268433
 11
-60.6842
 21
-35.935115
  0
LINE
  8
型材断面
  6
CONTINUOUS
 62
    47
 10
-60.6842
 20
-35.935115
 11
-61.084135
 21
-35.935115
  0
LINE
  8
型材断面
  6
CONTINUOUS
 62
    47
 10
-61.084135
 20
-36.601735
 11
-61.084135
 21
-35.935115
  0
LINE
  8
型材断面
  6
CONTINUOUS
 62
    47
 10
-66.017635
 20
-35.335135
 11
-64.684265
 21
-35.335135
  0
LINE
  8
型材断面
  6
CONTINUOUS
 62
    47
 10
-64.684265
 20
-35.335135
 11
-64.684265
 21
-36.601805
  0
LINE
  8
型材断面
  6
CONTINUOUS
 62
    47
 10
-65.184227
 20
-36.601805
 11
-65.184227
 21
-35.835135
  0
LINE
  8
型材断面
  6
CONTINUOUS
 62
    47
 10
-65.184227
 20
-35.835135
 11
-66.017635
 21
-35.835135
  0
LINE
  8
型材断面
  6
CONTINUOUS
 62
    47
 10
-66.017635
 20
-35.835135
 11
-66.017635
 21
-35.335135
  0
LINE
  8
型材断面
  6
CONTINUOUS
 62
    47
 10
-61.084135
 20
-36.601735
 11
-64.684265
 21
-36.601735
  0
LINE
  8
型材断面
  6
CONTINUOUS
 62
    47
 10
-65.184227
 20
-36.601805
 11
-68.35086
 21
-36.601805
  0
LINE
  8
型材断面
  6
CONTINUOUS
 62
    47
 10
-68.35086
 20
-43.601755
 11
-68.35086
 21
-37.268433
  0
LINE
  8
型材断面
  6
CONTINUOUS
 62
    47
 10
-68.35086
 20
-30.268393
 11
-68.35086
 21
-36.601805
  0
LINE
  8
型材断面
  6
CONTINUOUS
 10
-66.850925
 20
-31.268505
 11
-67.25086
 21
-31.268505
  0
LINE
  8
型材断面
  6
CONTINUOUS
 62
    47
 10
-67.25086
 20
-30.26852
 11
-67.25086
 21
-31.268505
  0
LINE
  8
型材断面
  6
CONTINUOUS
 62
    47
 10
-69.884167
 20
-32.368427
 11
-69.017468
 21
-32.368427
  0
LINE
  8
型材断面
  6
CONTINUOUS
 62
    47
 10
-69.884167
 20
-32.768405
 11
-69.017468
 21
-32.768405
  0
LINE
  8
型材断面
  6
CONTINUOUS
 62
    47
 10
-70.01744
 20
-32.635073
 11
-70.01744
 21
-32.501742
  0
ARC
  8
型材断面
  6
CONTINUOUS
 62
    47
 10
-69.884168
 20
-32.501746
 40
0.133333
 50
90.001373
 51
180.002747
  0
ARC
  8
型材断面
  6
CONTINUOUS
 62
    47
 10
-69.884168
 20
-32.635077
 40
0.133333
 50
180.002747
 51
270.00412
  0
LINE
  8
型材断面
  6
CONTINUOUS
 62
    47
 10
-78.88363
 20
-32.768405
 11
-80.416938
 21
-32.768405
  0
LINE
  8
型材断面
  6
CONTINUOUS
 62
    47
 10
-78.88363
 20
-32.368427
 11
-79.750353
 21
-32.368427
  0
LINE
  8
型材断面
  6
CONTINUOUS
 62
    47
 10
-78.750357
 20
-32.501742
 11
-78.750357
 21
-32.635073
  0
ARC
  8
型材断面
  6
CONTINUOUS
 62
    47
 10
-78.88363
 20
-32.635077
 40
0.133333
 50
270.00412
 51
360.0
  0
ARC
  8
型材断面
  6
CONTINUOUS
 62
    47
 10
-78.88363
 20
-32.501746
 40
0.133333
 50
0.0
 51
90.001373
  0
LINE
  8
型材断面
  6
CONTINUOUS
 62
    47
 10
-69.017468
 20
-46.963288
 11
-69.017468
 21
-32.768405
  0
LINE
  8
型材断面
  6
CONTINUOUS
 10
-69.017468
 20
-31.268393
 11
-79.750353
 21
-31.268393
  0
LINE
  8
型材断面
  6
CONTINUOUS
 62
    47
 10
-79.750353
 20
-32.368427
 11
-79.750353
 21
-31.268393
  0
LINE
  8
型材断面
  6
CONTINUOUS
 62
    47
 10
-69.017468
 20
-32.368427
 11
-69.017468
 21
-31.268393
  0
LINE
  8
型材断面
  6
CONTINUOUS
 10
-75.017003
 20
-30.368393
 11
-74.917003
 21
-30.268393
  0
LINE
  8
型材断面
  6
CONTINUOUS
 62
    47
 10
-69.017468
 20
-30.268393
 11
-74.917003
 21
-30.268393
  0
LINE
  8
型材断面
  6
CONTINUOUS
 10
-75.017003
 20
-30.368393
 11
-75.117003
 21
-30.268393
  0
LINE
  8
型材断面
  6
CONTINUOUS
 62
    47
 10
-75.117003
 20
-30.268393
 11
-80.416938
 21
-30.268393
  0
LINE
  8
型材断面
  6
CONTINUOUS
 10
-80.416938
 20
-32.768405
 11
-80.416938
 21
-30.268393
  0
LINE
  8
型材断面
  6
CONTINUOUS
 62
    47
 10
-92.68415
 20
-56.93507
 11
-92.68415
 21
-61.93507
  0
LINE
  8
型材断面
  6
CONTINUOUS
 10
-93.350878
 20
-61.93507
 11
-92.68415
 21
-61.93507
  0
LINE
  8
型材断面
  6
CONTINUOUS
 10
-93.250878
 20
-59.43507
 11
-93.350878
 21
-59.33507
  0
LINE
  8
型材断面
  6
CONTINUOUS
 10
-93.250878
 20
-59.43507
 11
-93.350878
 21
-59.53507
  0
LINE
  8
型材断面
  6
CONTINUOUS
 62
    47
 10
-93.350865
 20
-56.93507
 11
-93.350865
 21
-59.335083
  0
LINE
  8
型材断面
  6
CONTINUOUS
 62
    47
 10
-93.350865
 20
-59.535058
 11
-93.350865
 21
-61.93507
  0
LINE
  8
型材断面
  6
CONTINUOUS
 10
-59.017502
 20
-42.268412
 11
-58.350845
 21
-42.268412
  0
LINE
  8
型材断面
  6
CONTINUOUS
 62
    47
 10
-59.017502
 20
-45.268412
 11
-59.017502
 21
-42.268412
  0
LINE
  8
型材断面
  6
CONTINUOUS
 62
    47
 10
-58.350845
 20
-56.93507
 11
-58.350845
 21
-42.268412
  0
LINE
  8
型材断面
  6
CONTINUOUS
 10
-66.850925
 20
-29.60184
 11
-66.850925
 21
-31.268505
  0
CIRCLE
  8
LAYER010
  6
CONTINUOUS
 62
     7
 10
-98.350782
 20
-51.935092
 40
0.11111
  0
ENDBLK
  0
BLOCK
  2
*GRP_0007
 70
    65
 10
0.0
 20
0.0
  0
LINE
  8
型材断面
  6
CONTINUOUS
 62
    47
 10
50.153043
 20
-56.268445
 11
50.153043
 21
-45.94458
  0
LINE
  8
型材断面
  6
CONTINUOUS
 62
    47
 10
88.819778
 20
-52.498275
 11
50.153043
 21
-45.94458
  0
LINE
  8
型材断面
  6
CONTINUOUS
 62
    47
 10
88.819778
 20
-52.498275
 11
88.819778
 21
-56.268445
  0
LINE
  8
型材断面
  6
CONTINUOUS
 62
    47
 10
84.486405
 20
-56.93507
 11
89.486322
 21
-56.93507
  0
LINE
  8
型材断面
  6
CONTINUOUS
 62
    47
 10
56.019672
 20
-56.268445
 11
50.153043
 21
-56.268445
  0
LINE
  8
型材断面
  6
CONTINUOUS
 62
    47
 10
56.019672
 20
-56.93507
 11
49.486385
 21
-56.93507
  0
LINE
  8
型材断面
  6
CONTINUOUS
 62
    47
 10
56.153062
 20
-56.80174
 11
56.153062
 21
-56.401717
  0
LINE
  8
型材断面
  6
CONTINUOUS
 62
    47
 10
81.28634
 20
-56.268445
 11
88.819778
 21
-56.268445
  0
LINE
  8
型材断面
  6
CONTINUOUS
 62
    47
 10
81.28634
 20
-56.93507
 11
83.81969
 21
-56.93507
  0
LINE
  8
型材断面
  6
CONTINUOUS
 62
    47
 10
81.153067
 20
-56.80174
 11
81.153067
 21
-56.401717
  0
LINE
  8
型材断面
  6
CONTINUOUS
 62
    47
 10
89.486322
 20
-56.93507
 11
89.486322
 21
-51.935092
  0
LINE
  8
型材断面
  6
CONTINUOUS
 62
    47
 10
89.486322
 20
-51.935092
 11
60.153008
 21
-46.963288
  0
LINE
  8
型材断面
  6
CONTINUOUS
 62
    47
 10
59.4864
 20
-46.850288
 11
50.153043
 21
-45.268412
  0
LINE
  8
型材断面
  6
CONTINUOUS
 62
    47
 10
59.4864
 20
-44.268435
 11
57.986465
 21
-44.268435
  0
LINE
  8
型材断面
  6
CONTINUOUS
 62
    47
 10
57.986465
 20
-42.601765
 11
58.3864
 21
-42.601765
  0
LINE
  8
型材断面
  6
CONTINUOUS
 62
    47
 10
58.3864
 20
-42.601765
 11
58.3864
 21
-43.601755
  0
LINE
  8
型材断面
  6
CONTINUOUS
 62
    47
 10
58.3864
 20
-43.601755
 11
59.4864
 21
-43.601755
  0
LINE
  8
型材断面
  6
CONTINUOUS
 62
    47
 10
59.4864
 20
-44.268435
 11
59.4864
 21
-46.850288
  0
LINE
  8
型材断面
  6
CONTINUOUS
 62
    47
 10
57.986465
 20
-42.601765
 11
57.986465
 21
-44.268435
  0
ARC
  8
型材断面
  6
CONTINUOUS
 62
    47
 10
56.019673
 20
-56.401721
 40
0.133333
 50
359.997253
 51
449.998627
  0
ARC
  8
型材断面
  6
CONTINUOUS
 62
    47
 10
56.019673
 20
-56.801744
 40
0.133333
 50
269.99588
 51
359.997253
  0
ARC
  8
型材断面
  6
CONTINUOUS
 62
    47
 10
81.28634
 20
-56.401721
 40
0.133333
 50
89.998627
 51
180.0
  0
ARC
  8
型材断面
  6
CONTINUOUS
 62
    47
 10
81.28634
 20
-56.801744
 40
0.133333
 50
180.0
 51
269.99588
  0
LINE
  8
型材断面
  6
CONTINUOUS
 62
    47
 10
58.3864
 20
-29.60184
 11
57.986465
 21
-29.60184
  0
LINE
  8
型材断面
  6
CONTINUOUS
 62
    47
 10
58.3864
 20
-30.26852
 11
59.4864
 21
-30.26852
  0
LINE
  8
型材断面
  6
CONTINUOUS
 62
    47
 10
57.986465
 20
-29.60184
 11
60.153008
 21
-29.60184
  0
LINE
  8
型材断面
  6
CONTINUOUS
 62
    47
 10
60.153008
 20
-30.268393
 11
60.153008
 21
-29.60184
  0
LINE
  8
型材断面
  6
CONTINUOUS
 62
    47
 10
59.4864
 20
-30.268393
 11
58.3864
 21
-30.268393
  0
LINE
  8
型材断面
  6
CONTINUOUS
 62
    47
 10
59.4864
 20
-37.268433
 11
51.81974
 21
-37.268433
  0
LINE
  8
型材断面
  6
CONTINUOUS
 62
    47
 10
51.81974
 20
-37.268433
 11
51.81974
 21
-35.935115
  0
LINE
  8
型材断面
  6
CONTINUOUS
 62
    47
 10
51.81974
 20
-35.935115
 11
52.219675
 21
-35.935115
  0
LINE
  8
型材断面
  6
CONTINUOUS
 62
    47
 10
52.219675
 20
-36.601735
 11
52.219675
 21
-35.935115
  0
LINE
  8
型材断面
  6
CONTINUOUS
 62
    47
 10
57.153175
 20
-35.335135
 11
55.819805
 21
-35.335135
  0
LINE
  8
型材断面
  6
CONTINUOUS
 62
    47
 10
55.819805
 20
-35.335135
 11
55.819805
 21
-36.601805
  0
LINE
  8
型材断面
  6
CONTINUOUS
 62
    47
 10
56.319767
 20
-36.601805
 11
56.319767
 21
-35.835135
  0
LINE
  8
型材断面
  6
CONTINUOUS
 62
    47
 10
56.319767
 20
-35.835135
 11
57.153175
 21
-35.835135
  0
LINE
  8
型材断面
  6
CONTINUOUS
 62
    47
 10
57.153175
 20
-35.835135
 11
57.153175
 21
-35.335135
  0
LINE
  8
型材断面
  6
CONTINUOUS
 62
    47
 10
52.219675
 20
-36.601735
 11
55.819805
 21
-36.601735
  0
LINE
  8
型材断面
  6
CONTINUOUS
 62
    47
 10
56.319767
 20
-36.601805
 11
59.4864
 21
-36.601805
  0
LINE
  8
型材断面
  6
CONTINUOUS
 62
    47
 10
59.4864
 20
-43.601755
 11
59.4864
 21
-37.268433
  0
LINE
  8
型材断面
  6
CONTINUOUS
 62
    47
 10
59.4864
 20
-30.268393
 11
59.4864
 21
-36.601805
  0
LINE
  8
型材断面
  6
CONTINUOUS
 10
57.986465
 20
-31.268505
 11
58.3864
 21
-31.268505
  0
LINE
  8
型材断面
  6
CONTINUOUS
 62
    47
 10
58.3864
 20
-30.26852
 11
58.3864
 21
-31.268505
  0
LINE
  8
型材断面
  6
CONTINUOUS
 62
    47
 10
61.019708
 20
-32.368427
 11
60.153008
 21
-32.368427
  0
LINE
  8
型材断面
  6
CONTINUOUS
 62
    47
 10
61.019708
 20
-32.768405
 11
60.153008
 21
-32.768405
  0
LINE
  8
型材断面
  6
CONTINUOUS
 62
    47
 10
61.15298
 20
-32.635073
 11
61.15298
 21
-32.501742
  0
ARC
  8
型材断面
  6
CONTINUOUS
 62
    47
 10
61.019708
 20
-32.501746
 40
0.133333
 50
359.997253
 51
449.998627
  0
ARC
  8
型材断面
  6
CONTINUOUS
 62
    47
 10
61.019708
 20
-32.635077
 40
0.133333
 50
269.99588
 51
359.997253
  0
LINE
  8
型材断面
  6
CONTINUOUS
 62
    47
 10
70.01917
 20
-32.768405
 11
71.552477
 21
-32.768405
  0
LINE
  8
型材断面
  6
CONTINUOUS
 62
    47
 10
70.01917
 20
-32.368427
 11
70.885893
 21
-32.368427
  0
LINE
  8
型材断面
  6
CONTINUOUS
 62
    47
 10
69.885897
 20
-32.501742
 11
69.885897
 21
-32.635073
  0
ARC
  8
型材断面
  6
CONTINUOUS
 62
    47
 10
70.01917
 20
-32.635077
 40
0.133333
 50
180.0
 51
269.99588
  0
ARC
  8
型材断面
  6
CONTINUOUS
 62
    47
 10
70.01917
 20
-32.501746
 40
0.133333
 50
89.998627
 51
180.0
  0
LINE
  8
型材断面
  6
CONTINUOUS
 62
    47
 10
60.153008
 20
-46.963288
 11
60.153008
 21
-32.768405
  0
LINE
  8
型材断面
  6
CONTINUOUS
 10
60.153008
 20
-31.268393
 11
70.885893
 21
-31.268393
  0
LINE
  8
型材断面
  6
CONTINUOUS
 62
    47
 10
70.885893
 20
-32.368427
 11
70.885893
 21
-31.268393
  0
LINE
  8
型材断面
  6
CONTINUOUS
 62
    47
 10
60.153008
 20
-32.368427
 11
60.153008
 21
-31.268393
  0
LINE
  8
型材断面
  6
CONTINUOUS
 10
66.152542
 20
-30.368393
 11
66.052542
 21
-30.268393
  0
LINE
  8
型材断面
  6
CONTINUOUS
 62
    47
 10
60.153008
 20
-30.268393
 11
66.052542
 21
-30.268393
  0
LINE
  8
型材断面
  6
CONTINUOUS
 10
66.152542
 20
-30.368393
 11
66.252542
 21
-30.268393
  0
LINE
  8
型材断面
  6
CONTINUOUS
 62
    47
 10
66.252542
 20
-30.268393
 11
71.552477
 21
-30.268393
  0
LINE
  8
型材断面
  6
CONTINUOUS
 10
71.552477
 20
-32.768405
 11
71.552477
 21
-30.268393
  0
LINE
  8
型材断面
  6
CONTINUOUS
 62
    47
 10
83.81969
 20
-56.93507
 11
83.81969
 21
-61.93507
  0
LINE
  8
型材断面
  6
CONTINUOUS
 10
84.486418
 20
-61.93507
 11
83.81969
 21
-61.93507
  0
LINE
  8
型材断面
  6
CONTINUOUS
 10
84.386418
 20
-59.43507
 11
84.486418
 21
-59.33507
  0
LINE
  8
型材断面
  6
CONTINUOUS
 10
84.386418
 20
-59.43507
 11
84.486418
 21
-59.53507
  0
LINE
  8
型材断面
  6
CONTINUOUS
 62
    47
 10
84.486405
 20
-56.93507
 11
84.486405
 21
-59.335083
  0
LINE
  8
型材断面
  6
CONTINUOUS
 62
    47
 10
84.486405
 20
-59.535058
 11
84.486405
 21
-61.93507
  0
LINE
  8
型材断面
  6
CONTINUOUS
 10
50.153043
 20
-42.268412
 11
49.486385
 21
-42.268412
  0
LINE
  8
型材断面
  6
CONTINUOUS
 62
    47
 10
50.153043
 20
-45.268412
 11
50.153043
 21
-42.268412
  0
LINE
  8
型材断面
  6
CONTINUOUS
 62
    47
 10
49.486385
 20
-56.93507
 11
49.486385
 21
-42.268412
  0
LINE
  8
型材断面
  6
CONTINUOUS
 10
57.986465
 20
-29.60184
 11
57.986465
 21
-31.268505
  0
CIRCLE
  8
LAYER010
  6
CONTINUOUS
 62
     7
 10
89.486322
 20
-51.935092
 40
0.11111
  0
ENDBLK
  0
BLOCK
  2
*GRP_0008
 70
    65
 10
0.0
 20
0.0
  0
LINE
  8
断面線04
  6
CONTINUOUS
 62
    47
 10
7.734438
 20
-39.935085
 11
7.401095
 21
-41.60175
  0
LINE
  8
断面線04
  6
CONTINUOUS
 62
    47
 10
-8.83223
 20
-36.60175
 11
-8.83223
 21
-35.835085
  0
ARC
  8
断面線04
  6
CONTINUOUS
 62
    47
 10
-7.06558
 20
-30.701751
 40
0.1
 50
90.0
 51
180.0
  0
LINE
  8
断面線04
  6
CONTINUOUS
 62
    47
 10
-7.165563
 20
-31.168418
 11
-7.165563
 21
-30.70175
  0
ARC
  8
断面線04
  6
CONTINUOUS
 62
    47
 10
-7.06558
 20
-31.168417
 40
0.1
 50
180.0
 51
270.0
  0
ARC
  8
断面線04
  6
CONTINUOUS
 62
    47
 10
-8.098913
 20
-35.435084
 40
0.1
 50
0.0
 51
90.0
  0
LINE
  8
断面線04
  6
CONTINUOUS
 62
    47
 10
-7.998905
 20
-35.735085
 11
-7.998905
 21
-35.435085
  0
LINE
  8
断面線04
  6
CONTINUOUS
 62
    47
 10
-8.098905
 20
-35.835085
 11
-8.83223
 21
-35.835085
  0
ARC
  8
断面線04
  6
CONTINUOUS
 62
    47
 10
-8.098913
 20
-35.735084
 40
0.1
 50
270.0
 51
360.0
  0
LINE
  8
断面線04
  6
CONTINUOUS
 62
    47
 10
-8.098905
 20
-35.335085
 11
-9.23223
 21
-35.335085
  0
LINE
  8
断面線04
  6
CONTINUOUS
 62
    47
 10
-9.33223
 20
-36.60175
 11
-9.33223
 21
-35.435085
  0
ARC
  8
断面線04
  6
CONTINUOUS
 62
    47
 10
-9.232246
 20
-35.435084
 40
0.1
 50
90.0
 51
180.0
  0
LINE
  8
断面線04
  6
CONTINUOUS
 62
    47
 10
-8.83223
 20
-36.60175
 11
-6.43223
 21
-36.60175
  0
LINE
  8
断面線04
  6
CONTINUOUS
 62
    47
 10
-13.598905
 20
-36.60175
 11
-13.598905
 21
-36.035085
  0
ARC
  8
断面線04
  6
CONTINUOUS
 62
    47
 10
-13.698913
 20
-36.035084
 40
0.1
 50
0.0
 51
90.0
  0
LINE
  8
断面線04
  6
CONTINUOUS
 62
    47
 10
-13.698905
 20
-35.935085
 11
-13.898905
 21
-35.935085
  0
ARC
  8
断面線04
  6
CONTINUOUS
 62
    47
 10
-13.898913
 20
-36.035084
 40
0.1
 50
90.0
 51
180.0
  0
LINE
  8
断面線04
  6
CONTINUOUS
 62
    47
 10
-16.93223
 20
-42.268418
 11
-16.93223
 21
-39.935085
  0
LINE
  8
断面線04
  6
CONTINUOUS
 62
    47
 10
-13.998905
 20
-41.60175
 11
-16.265563
 21
-41.60175
  0
LINE
  8
断面線04
  6
CONTINUOUS
 62
    47
 10
-9.33223
 20
-36.60175
 11
-13.598905
 21
-36.60175
  0
LINE
  8
断面線04
  6
CONTINUOUS
 62
    47
 10
-7.065563
 20
-30.60175
 11
-4.43223
 21
-30.60175
  0
LINE
  8
断面線04
  6
CONTINUOUS
 62
    47
 10
-6.43223
 20
-36.60175
 11
-6.43223
 21
-31.268418
  0
LINE
  8
断面線04
  6
CONTINUOUS
 62
    47
 10
-7.065563
 20
-31.268418
 11
-6.43223
 21
-31.268418
  0
LINE
  8
断面線04
  6
CONTINUOUS
 62
    47
 10
-0.03223
 20
-36.60175
 11
-0.03223
 21
-35.835085
  0
ARC
  8
断面線04
  6
CONTINUOUS
 62
    47
 10
-1.798913
 20
-30.701751
 40
0.1
 50
0.0
 51
90.0
  0
LINE
  8
断面線04
  6
CONTINUOUS
 62
    47
 10
-1.698905
 20
-31.168418
 11
-1.698905
 21
-30.70175
  0
ARC
  8
断面線04
  6
CONTINUOUS
 62
    47
 10
-1.798913
 20
-31.168417
 40
0.1
 50
270.0
 51
360.0
  0
ARC
  8
断面線04
  6
CONTINUOUS
 62
    47
 10
-0.76558
 20
-35.435084
 40
0.1
 50
90.0
 51
180.0
  0
LINE
  8
断面線04
  6
CONTINUOUS
 62
    47
 10
-0.865563
 20
-35.735085
 11
-0.865563
 21
-35.435085
  0
LINE
  8
断面線04
  6
CONTINUOUS
 62
    47
 10
-0.765563
 20
-35.835085
 11
-0.03223
 21
-35.835085
  0
ARC
  8
断面線04
  6
CONTINUOUS
 62
    47
 10
-0.76558
 20
-35.735084
 40
0.1
 50
180.0
 51
270.0
  0
LINE
  8
断面線04
  6
CONTINUOUS
 62
    47
 10
-0.765563
 20
-35.335085
 11
0.36777
 21
-35.335085
  0
LINE
  8
断面線04
  6
CONTINUOUS
 62
    47
 10
0.46777
 20
-36.60175
 11
0.46777
 21
-35.435085
  0
ARC
  8
断面線04
  6
CONTINUOUS
 62
    47
 10
0.367754
 20
-35.435084
 40
0.1
 50
0.0
 51
90.0
  0
LINE
  8
断面線04
  6
CONTINUOUS
 62
    47
 10
-0.03223
 20
-36.60175
 11
-2.43223
 21
-36.60175
  0
LINE
  8
断面線04
  6
CONTINUOUS
 62
    47
 10
4.734438
 20
-36.60175
 11
4.734438
 21
-36.035085
  0
ARC
  8
断面線04
  6
CONTINUOUS
 62
    47
 10
4.83442
 20
-36.035084
 40
0.1
 50
90.0
 51
180.0
  0
LINE
  8
断面線04
  6
CONTINUOUS
 62
    47
 10
4.834438
 20
-35.935085
 11
5.034438
 21
-35.935085
  0
ARC
  8
断面線04
  6
CONTINUOUS
 62
    47
 10
5.03442
 20
-36.035084
 40
0.1
 50
0.0
 51
90.0
  0
LINE
  8
断面線04
  6
CONTINUOUS
 62
    47
 10
5.134438
 20
-41.60175
 11
7.401095
 21
-41.60175
  0
LINE
  8
断面線04
  6
CONTINUOUS
 62
    47
 10
0.46777
 20
-36.60175
 11
4.734438
 21
-36.60175
  0
LINE
  8
断面線04
  6
CONTINUOUS
 62
    47
 10
-1.798905
 20
-30.60175
 11
-4.43223
 21
-30.60175
  0
LINE
  8
断面線04
  6
CONTINUOUS
 62
    47
 10
-2.43223
 20
-36.60175
 11
-2.43223
 21
-31.268418
  0
LINE
  8
断面線04
  6
CONTINUOUS
 62
    47
 10
-1.798905
 20
-31.268418
 11
-2.43223
 21
-31.268418
  0
LINE
  8
断面線04
  6
CONTINUOUS
 62
    47
 10
8.06777
 20
-39.935085
 11
7.734438
 21
-39.935085
  0
LINE
  8
断面線04
  6
CONTINUOUS
 62
    47
 10
-16.598905
 20
-39.935085
 11
-16.265563
 21
-41.60175
  0
LINE
  8
断面線04
  6
CONTINUOUS
 62
    47
 10
-16.93223
 20
-39.935085
 11
-16.598905
 21
-39.935085
  0
LINE
  8
断面線04
  6
CONTINUOUS
 62
    47
 10
-13.998905
 20
-36.035085
 11
-13.998905
 21
-41.60175
  0
LINE
  8
断面線04
  6
CONTINUOUS
 62
    47
 10
5.134438
 20
-36.035085
 11
5.134438
 21
-41.60175
  0
LINE
  8
断面線04
  6
CONTINUOUS
 62
    47
 10
8.06777
 20
-39.935085
 11
8.06777
 21
-42.268418
  0
LINE
  8
断面線04
  6
CONTINUOUS
 62
    47
 10
-13.998905
 20
-56.935085
 11
5.134438
 21
-56.935085
  0
LINE
  8
断面線04
  6
CONTINUOUS
 62
    47
 10
-13.998905
 20
-56.935085
 11
-13.998905
 21
-42.268418
  0
LINE
  8
断面線04
  6
CONTINUOUS
 62
    47
 10
5.134438
 20
-56.935085
 11
5.134438
 21
-42.268418
  0
LINE
  8
断面線04
  6
CONTINUOUS
 62
    47
 10
-16.93223
 20
-42.268418
 11
-13.998905
 21
-42.268418
  0
LINE
  8
断面線04
  6
CONTINUOUS
 62
    47
 10
5.134438
 20
-42.268418
 11
8.06777
 21
-42.268418
  0
ARC
  8
断面線04
  6
CONTINUOUS
 62
    47
 10
-12.268798
 20
-39.215764
 40
0.25
 50
312.542364
 51
492.542397
  0
ARC
  8
断面線04
  6
CONTINUOUS
 62
    47
 10
-12.832244
 20
-38.601783
 40
0.583333
 50
47.457615
 51
312.542407
  0
ARC
  8
断面線04
  6
CONTINUOUS
 62
    47
 10
-12.832244
 20
-38.601783
 40
1.083333
 50
252.079761
 51
312.542389
  0
ARC
  8
断面線04
  6
CONTINUOUS
 62
    47
 10
-12.268798
 20
-37.987802
 40
0.25
 50
227.457603
 51
407.457636
  0
LINE
  8
断面線04
  6
CONTINUOUS
 62
    47
 10
-5.598905
 20
-37.435085
 11
-12.832237
 21
-37.435085
  0
ARC
  8
断面線04
  6
CONTINUOUS
 62
    47
 10
-12.832244
 20
-38.601783
 40
1.083333
 50
47.457611
 51
90.000025
  0
LINE
  8
断面線04
  6
CONTINUOUS
 62
    47
 10
-12.832237
 20
-37.51845
 11
-12.832237
 21
-37.435085
  0
ARC
  8
断面線04
  6
CONTINUOUS
 62
    47
 10
3.404312
 20
-39.215764
 40
0.25
 50
47.457603
 51
227.457636
  0
ARC
  8
断面線04
  6
CONTINUOUS
 62
    47
 10
3.967758
 20
-38.601783
 40
0.583333
 50
227.457593
 51
492.542385
  0
ARC
  8
断面線04
  6
CONTINUOUS
 62
    47
 10
3.404312
 20
-37.987802
 40
0.25
 50
132.542364
 51
312.542397
  0
ARC
  8
断面線04
  6
CONTINUOUS
 62
    47
 10
3.967758
 20
-38.601783
 40
1.083333
 50
89.999975
 51
132.542389
  0
ARC
  8
断面線04
  6
CONTINUOUS
 62
    47
 10
3.967758
 20
-38.601783
 40
1.083333
 50
227.457611
 51
287.920239
  0
LINE
  8
断面線04
  6
CONTINUOUS
 62
    47
 10
3.96777
 20
-37.51845
 11
3.96777
 21
-37.435085
  0
LINE
  8
断面線04
  6
CONTINUOUS
 62
    47
 10
-3.265563
 20
-37.435085
 11
3.96777
 21
-37.435085
  0
LINE
  8
断面線04
  6
CONTINUOUS
 62
    47
 10
-3.265563
 20
-31.935085
 11
-5.598905
 21
-31.935085
  0
ARC
  8
断面線04
  6
CONTINUOUS
 62
    47
 10
-11.833013
 20
-55.304149
 40
0.25
 50
357.542364
 51
537.542397
  0
ARC
  8
断面線04
  6
CONTINUOUS
 62
    47
 10
-12.66558
 20
-55.268416
 40
0.583333
 50
92.457615
 51
357.542407
  0
ARC
  8
断面線04
  6
CONTINUOUS
 62
    47
 10
-12.701313
 20
-54.435849
 40
0.25
 50
272.457576
 51
452.457618
  0
ARC
  8
断面線04
  6
CONTINUOUS
 62
    47
 10
-12.66558
 20
-55.268416
 40
1.083333
 50
332.513353
 51
357.542389
  0
ARC
  8
断面線04
  6
CONTINUOUS
 62
    47
 10
2.968521
 20
-55.304149
 40
0.25
 50
2.457603
 51
182.457636
  0
ARC
  8
断面線04
  6
CONTINUOUS
 62
    47
 10
3.801088
 20
-55.268416
 40
0.583333
 50
182.457593
 51
447.542385
  0
ARC
  8
断面線04
  6
CONTINUOUS
 62
    47
 10
3.836821
 20
-54.435849
 40
0.25
 50
87.542382
 51
267.542424
  0
ARC
  8
断面線04
  6
CONTINUOUS
 62
    47
 10
3.801088
 20
-55.268416
 40
1.083333
 50
182.457611
 51
207.486647
  0
ARC
  8
断面線04
  6
CONTINUOUS
 62
    47
 10
3.801088
 20
-55.268416
 40
1.083333
 50
62.513336
 51
87.542389
  0
ARC
  8
断面線04
  6
CONTINUOUS
 62
    47
 10
-12.66558
 20
-55.268416
 40
1.083333
 50
92.457611
 51
117.486331
  0
LINE
  8
断面線04
  6
CONTINUOUS
 62
    47
 10
-3.598895
 20
-34.45536
 11
-3.598895
 21
-34.95536
  0
LINE
  8
断面線04
  6
CONTINUOUS
 62
    47
 10
-5.265563
 20
-34.95536
 11
-5.265563
 21
-34.45536
  0
LINE
  8
断面線04
  6
CONTINUOUS
 62
    47
 10
-5.265563
 20
-34.95536
 11
-5.598905
 21
-34.95536
  0
LINE
  8
断面線04
  6
CONTINUOUS
 62
    47
 10
-5.265563
 20
-34.45536
 11
-5.598905
 21
-34.45536
  0
LINE
  8
断面線04
  6
CONTINUOUS
 62
    47
 10
-3.598895
 20
-34.45536
 11
-3.265563
 21
-34.45536
  0
LINE
  8
断面線04
  6
CONTINUOUS
 62
    47
 10
-3.598895
 20
-34.95536
 11
-3.265563
 21
-34.95536
  0
LINE
  8
断面線04
  6
CONTINUOUS
 62
    47
 10
-3.265563
 20
-37.435085
 11
-3.265563
 21
-34.95536
  0
LINE
  8
断面線04
  6
CONTINUOUS
 62
    47
 10
-3.265563
 20
-34.45536
 11
-3.265563
 21
-31.935085
  0
LINE
  8
断面線04
  6
CONTINUOUS
 62
    47
 10
-5.598905
 20
-37.435085
 11
-5.598905
 21
-34.95536
  0
LINE
  8
断面線04
  6
CONTINUOUS
 62
    47
 10
-5.598905
 20
-34.45536
 11
-5.598905
 21
-31.935085
  0
LINE
  8
断面線04
  6
CONTINUOUS
 62
    47
 10
-3.098895
 20
-54.435085
 11
-3.598895
 21
-54.435085
  0
LINE
  8
断面線04
  6
CONTINUOUS
 62
    47
 10
-5.765563
 20
-54.435085
 11
-5.265563
 21
-54.435085
  0
LINE
  8
断面線04
  6
CONTINUOUS
 62
    47
 10
-3.598895
 20
-54.435085
 11
-3.598895
 21
-55.768418
  0
LINE
  8
断面線04
  6
CONTINUOUS
 62
    47
 10
-3.598895
 20
-55.768418
 11
-5.265563
 21
-55.768418
  0
LINE
  8
断面線04
  6
CONTINUOUS
 62
    47
 10
-5.265563
 20
-54.435085
 11
-5.265563
 21
-55.768418
  0
LINE
  8
断面線04
  6
CONTINUOUS
 62
    47
 10
-5.765563
 20
-54.435085
 11
-5.765563
 21
-55.768418
  0
LINE
  8
断面線04
  6
CONTINUOUS
 62
    47
 10
-11.70452
 20
-55.768418
 11
-5.765563
 21
-55.768418
  0
LINE
  8
断面線04
  6
CONTINUOUS
 62
    47
 10
-3.098895
 20
-54.435085
 11
-3.098895
 21
-55.768418
  0
LINE
  8
断面線04
  6
CONTINUOUS
 62
    47
 10
2.840055
 20
-55.768418
 11
-3.098895
 21
-55.768418
  0
LINE
  8
断面線04
  6
CONTINUOUS
 62
    47
 10
-13.16557
 20
-54.307367
 11
-13.16557
 21
-41.935085
  0
LINE
  8
断面線04
  6
CONTINUOUS
 62
    47
 10
-7.93223
 20
-41.935085
 11
-13.16557
 21
-41.935085
  0
LINE
  8
断面線04
  6
CONTINUOUS
 62
    47
 10
-0.93223
 20
-41.935085
 11
4.301105
 21
-41.935085
  0
LINE
  8
断面線04
  6
CONTINUOUS
 62
    47
 10
4.301105
 20
-54.307367
 11
4.301105
 21
-41.935085
  0
LINE
  8
断面線04
  6
CONTINUOUS
 62
    47
 10
-13.16557
 20
-39.63256
 11
-13.16557
 21
-41.268418
  0
LINE
  8
断面線04
  6
CONTINUOUS
 62
    47
 10
-13.16557
 20
-41.268418
 11
-7.93223
 21
-41.268418
  0
LINE
  8
断面線04
  6
CONTINUOUS
 62
    47
 10
-7.93223
 20
-41.935085
 11
-7.93223
 21
-41.268418
  0
LINE
  8
断面線04
  6
CONTINUOUS
 62
    47
 10
4.301105
 20
-39.63256
 11
4.301105
 21
-41.268418
  0
LINE
  8
断面線04
  6
CONTINUOUS
 62
    47
 10
4.301105
 20
-41.268418
 11
-0.93223
 21
-41.268418
  0
LINE
  8
断面線04
  6
CONTINUOUS
 62
    47
 10
-0.93223
 20
-41.935085
 11
-0.93223
 21
-41.268418
  0
ENDBLK
  0
BLOCK
  2
*GRP_0009
 70
    65
 10
0.0
 20
0.0
  0
LINE
  8
型材断面
  6
DOT
 10
-7.93223
 20
-30.60175
 11
-7.93223
 21
-35.935085
  0
LINE
  8
型材断面
  6
DOT
 10
-15.798895
 20
-30.60175
 11
-7.93223
 21
-30.60175
  0
ARC
  8
型材断面
  6
DOT
 10
-16.098902
 20
-30.035085
 40
0.1
 50
90.0
 51
180.0
  0
LINE
  8
型材断面
  6
DOT
 10
-15.798895
 20
-30.60175
 11
-15.798895
 21
-30.835085
  0
ARC
  8
型材断面
  6
DOT
 10
-15.898902
 20
-30.835085
 40
0.1
 50
270.0
 51
360.0
  0
LINE
  8
型材断面
  6
DOT
 10
-16.098895
 20
-30.935085
 11
-15.898895
 21
-30.935085
  0
LINE
  8
型材断面
  6
DOT
 10
-16.198895
 20
-30.835085
 11
-16.198895
 21
-30.035085
  0
ARC
  8
型材断面
  6
DOT
 10
-16.098902
 20
-30.835085
 40
0.1
 50
180.0
 51
270.0
  0
LINE
  8
型材断面
  6
DOT
 10
-16.098895
 20
-29.935085
 11
-7.365563
 21
-29.935085
  0
LINE
  8
型材断面
  6
DOT
 10
-7.265563
 20
-30.035085
 11
-7.265563
 21
-31.435085
  0
ARC
  8
型材断面
  6
DOT
 10
-7.365569
 20
-30.035085
 40
0.1
 50
0.0
 51
90.0
  0
LINE
  8
型材断面
  6
DOT
 10
-7.265563
 20
-31.935085
 11
-7.265563
 21
-36.50175
  0
ARC
  8
型材断面
  6
DOT
 10
-7.365569
 20
-36.501751
 40
0.1
 50
270.0
 51
360.0
  0
LINE
  8
型材断面
  6
DOT
 10
-8.73223
 20
-36.60175
 11
-7.365563
 21
-36.60175
  0
ARC
  8
型材断面
  6
DOT
 10
-8.732236
 20
-36.501751
 40
0.1
 50
180.0
 51
270.0
  0
LINE
  8
型材断面
  6
DOT
 10
-8.83223
 20
-36.035085
 11
-8.83223
 21
-36.50175
  0
LINE
  8
型材断面
  6
DOT
 10
-8.73223
 20
-35.935085
 11
-7.93223
 21
-35.935085
  0
ARC
  8
型材断面
  6
DOT
 10
-8.732236
 20
-36.035085
 40
0.1
 50
90.0
 51
180.0
  0
LINE
  8
型材断面
  6
DOT
 10
-6.765563
 20
-31.435085
 11
-7.265563
 21
-31.435085
  0
ARC
  8
型材断面
  6
DOT
 10
-6.765569
 20
-31.535085
 40
0.1
 50
0.0
 51
90.0
  0
LINE
  8
型材断面
  6
DOT
 10
-6.665563
 20
-31.535085
 11
-6.665563
 21
-31.835085
  0
LINE
  8
型材断面
  6
DOT
 10
-6.765563
 20
-31.935085
 11
-7.265563
 21
-31.935085
  0
ARC
  8
型材断面
  6
DOT
 10
-6.765569
 20
-31.835085
 40
0.1
 50
270.0
 51
360.0
  0
ENDBLK
  0
BLOCK
  2
*GRP_0010
 70
    65
 10
0.0
 20
0.0
  0
LINE
  8
型材断面
  6
DOT
 10
-0.93223
 20
-30.60175
 11
-0.93223
 21
-35.935085
  0
LINE
  8
型材断面
  6
DOT
 10
6.934435
 20
-30.60175
 11
-0.93223
 21
-30.60175
  0
ARC
  8
型材断面
  6
DOT
 10
7.234439
 20
-30.035085
 40
0.1
 50
0.0
 51
90.0
  0
LINE
  8
型材断面
  6
DOT
 10
6.934435
 20
-30.60175
 11
6.934435
 21
-30.835085
  0
ARC
  8
型材断面
  6
DOT
 10
7.034439
 20
-30.835085
 40
0.1
 50
180.0
 51
270.0
  0
LINE
  8
型材断面
  6
DOT
 10
7.234435
 20
-30.935085
 11
7.034435
 21
-30.935085
  0
LINE
  8
型材断面
  6
DOT
 10
7.334435
 20
-30.835085
 11
7.334435
 21
-30.035085
  0
ARC
  8
型材断面
  6
DOT
 10
7.234439
 20
-30.835085
 40
0.1
 50
270.0
 51
360.0
  0
LINE
  8
型材断面
  6
DOT
 10
7.234435
 20
-29.935085
 11
-1.498898
 21
-29.935085
  0
LINE
  8
型材断面
  6
DOT
 10
-1.598898
 20
-30.035085
 11
-1.598898
 21
-31.435085
  0
ARC
  8
型材断面
  6
DOT
 10
-1.498894
 20
-30.035085
 40
0.1
 50
90.0
 51
180.0
  0
LINE
  8
型材断面
  6
DOT
 10
-1.598898
 20
-31.935085
 11
-1.598898
 21
-36.50175
  0
ARC
  8
型材断面
  6
DOT
 10
-1.498894
 20
-36.501751
 40
0.1
 50
180.0
 51
270.0
  0
LINE
  8
型材断面
  6
DOT
 10
-0.13223
 20
-36.60175
 11
-1.498898
 21
-36.60175
  0
ARC
  8
型材断面
  6
DOT
 10
-0.132228
 20
-36.501751
 40
0.1
 50
270.0
 51
360.0
  0
LINE
  8
型材断面
  6
DOT
 10
-0.03223
 20
-36.035085
 11
-0.03223
 21
-36.50175
  0
LINE
  8
型材断面
  6
DOT
 10
-0.13223
 20
-35.935085
 11
-0.93223
 21
-35.935085
  0
ARC
  8
型材断面
  6
DOT
 10
-0.132228
 20
-36.035085
 40
0.1
 50
0.0
 51
90.0
  0
LINE
  8
型材断面
  6
DOT
 10
-2.098898
 20
-31.435085
 11
-1.598898
 21
-31.435085
  0
ARC
  8
型材断面
  6
DOT
 10
-2.098894
 20
-31.535085
 40
0.1
 50
90.0
 51
180.0
  0
LINE
  8
型材断面
  6
DOT
 10
-2.198898
 20
-31.535085
 11
-2.198898
 21
-31.835085
  0
LINE
  8
型材断面
  6
DOT
 10
-2.098898
 20
-31.935085
 11
-1.598898
 21
-31.935085
  0
ARC
  8
型材断面
  6
DOT
 10
-2.098894
 20
-31.835085
 40
0.1
 50
180.0
 51
270.0
  0
ENDBLK
  0
BLOCK
  2
*GRP_0011
 70
    65
 10
0.0
 20
0.0
  0
POLYLINE
  8
ガラス
  6
CONTINUOUS
 66
     1
 70
     4
  0
VERTEX
  8
ガラス
 10
-63.3
 20
-45.2
 70
     8
  0
VERTEX
  8
ガラス
 10
-63.25
 20
-45.2
 70
     8
  0
VERTEX
  8
ガラス
 10
-63.225
 20
-45.175
 70
     8
  0
VERTEX
  8
ガラス
 10
-63.2
 20
-45.175
 70
     8
  0
VERTEX
  8
ガラス
 10
-63.175
 20
-45.175
 70
     8
  0
VERTEX
  8
ガラス
 10
-63.15
 20
-45.175
 70
     8
  0
VERTEX
  8
ガラス
 10
-63.1
 20
-45.175
 70
     8
  0
VERTEX
  8
ガラス
 10
-63.075
 20
-45.175
 70
     8
  0
VERTEX
  8
ガラス
 10
-63.05
 20
-45.175
 70
     8
  0
VERTEX
  8
ガラス
 10
-63.025
 20
-45.175
 70
     8
  0
VERTEX
  8
ガラス
 10
-63.0
 20
-45.175
 70
     8
  0
VERTEX
  8
ガラス
 10
-62.95
 20
-45.175
 70
     8
  0
VERTEX
  8
ガラス
 10
-62.925
 20
-45.175
 70
     8
  0
VERTEX
  8
ガラス
 10
-62.9
 20
-45.175
 70
     8
  0
VERTEX
  8
ガラス
 10
-62.875
 20
-45.175
 70
     8
  0
VERTEX
  8
ガラス
 10
-62.85
 20
-45.175
 70
     8
  0
VERTEX
  8
ガラス
 10
-62.825
 20
-45.175
 70
     8
  0
VERTEX
  8
ガラス
 10
-62.8
 20
-45.175
 70
     8
  0
VERTEX
  8
ガラス
 10
-62.75
 20
-45.2
 70
     8
  0
VERTEX
  8
ガラス
 10
-62.725
 20
-45.2
 70
     8
  0
VERTEX
  8
ガラス
 10
-62.7
 20
-45.2
 70
     8
  0
VERTEX
  8
ガラス
 10
-62.675
 20
-45.225
 70
     8
  0
VERTEX
  8
ガラス
 10
-62.65
 20
-45.225
 70
     8
  0
VERTEX
  8
ガラス
 10
-62.625
 20
-45.25
 70
     8
  0
VERTEX
  8
ガラス
 10
-62.6
 20
-45.25
 70
     8
  0
VERTEX
  8
ガラス
 10
-62.575
 20
-45.275
 70
     8
  0
VERTEX
  8
ガラス
 10
-62.55
 20
-45.275
 70
     8
  0
VERTEX
  8
ガラス
 10
-62.55
 20
-45.3
 70
     8
  0
VERTEX
  8
ガラス
 10
-62.525
 20
-45.325
 70
     8
  0
VERTEX
  8
ガラス
 10
-62.5
 20
-45.35
 70
     8
  0
VERTEX
  8
ガラス
 10
-62.475
 20
-45.35
 70
     8
  0
VERTEX
  8
ガラス
 10
-62.45
 20
-45.375
 70
     8
  0
VERTEX
  8
ガラス
 10
-62.425
 20
-45.4
 70
     8
  0
VERTEX
  8
ガラス
 10
-62.4
 20
-45.425
 70
     8
  0
VERTEX
  8
ガラス
 10
-62.375
 20
-45.45
 70
     8
  0
VERTEX
  8
ガラス
 10
-62.375
 20
-45.475
 70
     8
  0
VERTEX
  8
ガラス
 10
-62.35
 20
-45.5
 70
     8
  0
VERTEX
  8
ガラス
 10
-62.325
 20
-45.5
 70
     8
  0
VERTEX
  8
ガラス
 10
-62.3
 20
-45.525
 70
     8
  0
VERTEX
  8
ガラス
 10
-62.275
 20
-45.55
 70
     8
  0
VERTEX
  8
ガラス
 10
-62.275
 20
-45.575
 70
     8
  0
SEQEND
  0
POLYLINE
  8
ガラス
  6
CONTINUOUS
 66
     1
 70
     4
  0
VERTEX
  8
ガラス
 10
-62.275
 20
-45.575
 70
     8
  0
VERTEX
  8
ガラス
 10
-62.275
 20
-45.575
 70
     8
  0
VERTEX
  8
ガラス
 10
-62.3
 20
-45.575
 70
     8
  0
VERTEX
  8
ガラス
 10
-62.325
 20
-45.6
 70
     8
  0
VERTEX
  8
ガラス
 10
-62.35
 20
-45.6
 70
     8
  0
VERTEX
  8
ガラス
 10
-62.375
 20
-45.6
 70
     8
  0
VERTEX
  8
ガラス
 10
-62.375
 20
-45.6
 70
     8
  0
VERTEX
  8
ガラス
 10
-62.4
 20
-45.6
 70
     8
  0
VERTEX
  8
ガラス
 10
-62.425
 20
-45.6
 70
     8
  0
VERTEX
  8
ガラス
 10
-62.45
 20
-45.6
 70
     8
  0
VERTEX
  8
ガラス
 10
-62.475
 20
-45.6
 70
     8
  0
VERTEX
  8
ガラス
 10
-62.5
 20
-45.6
 70
     8
  0
VERTEX
  8
ガラス
 10
-62.5
 20
-45.625
 70
     8
  0
VERTEX
  8
ガラス
 10
-62.525
 20
-45.625
 70
     8
  0
VERTEX
  8
ガラス
 10
-62.55
 20
-45.625
 70
     8
  0
VERTEX
  8
ガラス
 10
-62.575
 20
-45.625
 70
     8
  0
VERTEX
  8
ガラス
 10
-62.6
 20
-45.625
 70
     8
  0
VERTEX
  8
ガラス
 10
-62.6
 20
-45.625
 70
     8
  0
VERTEX
  8
ガラス
 10
-62.625
 20
-45.625
 70
     8
  0
VERTEX
  8
ガラス
 10
-62.65
 20
-45.65
 70
     8
  0
VERTEX
  8
ガラス
 10
-62.675
 20
-45.65
 70
     8
  0
VERTEX
  8
ガラス
 10
-62.675
 20
-45.65
 70
     8
  0
VERTEX
  8
ガラス
 10
-62.7
 20
-45.65
 70
     8
  0
VERTEX
  8
ガラス
 10
-62.725
 20
-45.65
 70
     8
  0
VERTEX
  8
ガラス
 10
-62.75
 20
-45.675
 70
     8
  0
VERTEX
  8
ガラス
 10
-62.775
 20
-45.675
 70
     8
  0
VERTEX
  8
ガラス
 10
-62.775
 20
-45.675
 70
     8
  0
VERTEX
  8
ガラス
 10
-62.8
 20
-45.675
 70
     8
  0
VERTEX
  8
ガラス
 10
-62.825
 20
-45.7
 70
     8
  0
VERTEX
  8
ガラス
 10
-62.85
 20
-45.7
 70
     8
  0
VERTEX
  8
ガラス
 10
-62.85
 20
-45.7
 70
     8
  0
VERTEX
  8
ガラス
 10
-62.875
 20
-45.725
 70
     8
  0
VERTEX
  8
ガラス
 10
-62.9
 20
-45.725
 70
     8
  0
VERTEX
  8
ガラス
 10
-62.925
 20
-45.725
 70
     8
  0
VERTEX
  8
ガラス
 10
-62.95
 20
-45.725
 70
     8
  0
VERTEX
  8
ガラス
 10
-62.95
 20
-45.75
 70
     8
  0
VERTEX
  8
ガラス
 10
-62.975
 20
-45.75
 70
     8
  0
VERTEX
  8
ガラス
 10
-63.0
 20
-45.75
 70
     8
  0
VERTEX
  8
ガラス
 10
-63.025
 20
-45.775
 70
     8
  0
VERTEX
  8
ガラス
 10
-63.025
 20
-45.775
 70
     8
  0
VERTEX
  8
ガラス
 10
-63.05
 20
-45.775
 70
     8
  0
SEQEND
  0
ARC
  8
ガラス
  6
CONTINUOUS
 10
-63.160286
 20
-45.474925
 40
0.318378
 50
112.264588
 51
292.264588
  0
ENDBLK
  0
BLOCK
  2
*GRP_0012
 70
    65
 10
0.0
 20
0.0
  0
POLYLINE
  8
ガラス
  6
CONTINUOUS
 66
     1
 70
     4
  0
VERTEX
  8
ガラス
 10
-67.35
 20
-45.875
 70
     8
  0
VERTEX
  8
ガラス
 10
-67.325
 20
-45.875
 70
     8
  0
VERTEX
  8
ガラス
 10
-67.3
 20
-45.875
 70
     8
  0
VERTEX
  8
ガラス
 10
-67.275
 20
-45.875
 70
     8
  0
VERTEX
  8
ガラス
 10
-67.225
 20
-45.875
 70
     8
  0
VERTEX
  8
ガラス
 10
-67.2
 20
-45.875
 70
     8
  0
VERTEX
  8
ガラス
 10
-67.175
 20
-45.875
 70
     8
  0
VERTEX
  8
ガラス
 10
-67.15
 20
-45.85
 70
     8
  0
VERTEX
  8
ガラス
 10
-67.125
 20
-45.85
 70
     8
  0
VERTEX
  8
ガラス
 10
-67.075
 20
-45.85
 70
     8
  0
VERTEX
  8
ガラス
 10
-67.05
 20
-45.85
 70
     8
  0
VERTEX
  8
ガラス
 10
-67.025
 20
-45.85
 70
     8
  0
VERTEX
  8
ガラス
 10
-67.0
 20
-45.85
 70
     8
  0
VERTEX
  8
ガラス
 10
-66.975
 20
-45.85
 70
     8
  0
VERTEX
  8
ガラス
 10
-66.925
 20
-45.85
 70
     8
  0
VERTEX
  8
ガラス
 10
-66.9
 20
-45.875
 70
     8
  0
VERTEX
  8
ガラス
 10
-66.875
 20
-45.875
 70
     8
  0
VERTEX
  8
ガラス
 10
-66.85
 20
-45.875
 70
     8
  0
VERTEX
  8
ガラス
 10
-66.825
 20
-45.875
 70
     8
  0
VERTEX
  8
ガラス
 10
-66.8
 20
-45.9
 70
     8
  0
VERTEX
  8
ガラス
 10
-66.775
 20
-45.9
 70
     8
  0
VERTEX
  8
ガラス
 10
-66.75
 20
-45.9
 70
     8
  0
VERTEX
  8
ガラス
 10
-66.725
 20
-45.925
 70
     8
  0
VERTEX
  8
ガラス
 10
-66.7
 20
-45.925
 70
     8
  0
VERTEX
  8
ガラス
 10
-66.675
 20
-45.95
 70
     8
  0
VERTEX
  8
ガラス
 10
-66.65
 20
-45.95
 70
     8
  0
VERTEX
  8
ガラス
 10
-66.625
 20
-45.975
 70
     8
  0
VERTEX
  8
ガラス
 10
-66.6
 20
-46.0
 70
     8
  0
VERTEX
  8
ガラス
 10
-66.575
 20
-46.0
 70
     8
  0
VERTEX
  8
ガラス
 10
-66.55
 20
-46.025
 70
     8
  0
VERTEX
  8
ガラス
 10
-66.525
 20
-46.05
 70
     8
  0
VERTEX
  8
ガラス
 10
-66.525
 20
-46.075
 70
     8
  0
VERTEX
  8
ガラス
 10
-66.5
 20
-46.1
 70
     8
  0
VERTEX
  8
ガラス
 10
-66.475
 20
-46.1
 70
     8
  0
VERTEX
  8
ガラス
 10
-66.45
 20
-46.125
 70
     8
  0
VERTEX
  8
ガラス
 10
-66.425
 20
-46.15
 70
     8
  0
VERTEX
  8
ガラス
 10
-66.4
 20
-46.175
 70
     8
  0
VERTEX
  8
ガラス
 10
-66.4
 20
-46.2
 70
     8
  0
VERTEX
  8
ガラス
 10
-66.375
 20
-46.225
 70
     8
  0
VERTEX
  8
ガラス
 10
-66.35
 20
-46.25
 70
     8
  0
VERTEX
  8
ガラス
 10
-66.325
 20
-46.275
 70
     8
  0
SEQEND
  0
POLYLINE
  8
ガラス
  6
CONTINUOUS
 66
     1
 70
     4
  0
VERTEX
  8
ガラス
 10
-66.325
 20
-46.275
 70
     8
  0
VERTEX
  8
ガラス
 10
-66.35
 20
-46.275
 70
     8
  0
VERTEX
  8
ガラス
 10
-66.375
 20
-46.275
 70
     8
  0
VERTEX
  8
ガラス
 10
-66.4
 20
-46.275
 70
     8
  0
VERTEX
  8
ガラス
 10
-66.4
 20
-46.275
 70
     8
  0
VERTEX
  8
ガラス
 10
-66.425
 20
-46.275
 70
     8
  0
VERTEX
  8
ガラス
 10
-66.45
 20
-46.275
 70
     8
  0
VERTEX
  8
ガラス
 10
-66.475
 20
-46.3
 70
     8
  0
VERTEX
  8
ガラス
 10
-66.5
 20
-46.3
 70
     8
  0
VERTEX
  8
ガラス
 10
-66.5
 20
-46.3
 70
     8
  0
VERTEX
  8
ガラス
 10
-66.525
 20
-46.3
 70
     8
  0
VERTEX
  8
ガラス
 10
-66.55
 20
-46.3
 70
     8
  0
VERTEX
  8
ガラス
 10
-66.575
 20
-46.3
 70
     8
  0
VERTEX
  8
ガラス
 10
-66.6
 20
-46.3
 70
     8
  0
VERTEX
  8
ガラス
 10
-66.625
 20
-46.3
 70
     8
  0
VERTEX
  8
ガラス
 10
-66.625
 20
-46.3
 70
     8
  0
VERTEX
  8
ガラス
 10
-66.65
 20
-46.325
 70
     8
  0
VERTEX
  8
ガラス
 10
-66.675
 20
-46.325
 70
     8
  0
VERTEX
  8
ガラス
 10
-66.7
 20
-46.325
 70
     8
  0
VERTEX
  8
ガラス
 10
-66.725
 20
-46.325
 70
     8
  0
VERTEX
  8
ガラス
 10
-66.725
 20
-46.325
 70
     8
  0
VERTEX
  8
ガラス
 10
-66.75
 20
-46.35
 70
     8
  0
VERTEX
  8
ガラス
 10
-66.775
 20
-46.35
 70
     8
  0
VERTEX
  8
ガラス
 10
-66.8
 20
-46.35
 70
     8
  0
VERTEX
  8
ガラス
 10
-66.8
 20
-46.35
 70
     8
  0
VERTEX
  8
ガラス
 10
-66.825
 20
-46.35
 70
     8
  0
VERTEX
  8
ガラス
 10
-66.85
 20
-46.375
 70
     8
  0
VERTEX
  8
ガラス
 10
-66.875
 20
-46.375
 70
     8
  0
VERTEX
  8
ガラス
 10
-66.9
 20
-46.375
 70
     8
  0
VERTEX
  8
ガラス
 10
-66.9
 20
-46.375
 70
     8
  0
VERTEX
  8
ガラス
 10
-66.925
 20
-46.4
 70
     8
  0
VERTEX
  8
ガラス
 10
-66.95
 20
-46.4
 70
     8
  0
VERTEX
  8
ガラス
 10
-66.975
 20
-46.4
 70
     8
  0
VERTEX
  8
ガラス
 10
-66.975
 20
-46.425
 70
     8
  0
VERTEX
  8
ガラス
 10
-67.0
 20
-46.425
 70
     8
  0
VERTEX
  8
ガラス
 10
-67.025
 20
-46.425
 70
     8
  0
VERTEX
  8
ガラス
 10
-67.05
 20
-46.45
 70
     8
  0
VERTEX
  8
ガラス
 10
-67.05
 20
-46.45
 70
     8
  0
VERTEX
  8
ガラス
 10
-67.075
 20
-46.45
 70
     8
  0
VERTEX
  8
ガラス
 10
-67.1
 20
-46.475
 70
     8
  0
VERTEX
  8
ガラス
 10
-67.125
 20
-46.475
 70
     8
  0
SEQEND
  0
ARC
  8
ガラス
  6
CONTINUOUS
 10
-67.225136
 20
-46.163861
 40
0.318378
 50
112.264588
 51
292.264588
  0
ENDBLK
  0
BLOCK
  2
*GRP_0013
 70
    65
 10
0.0
 20
0.0
  0
POLYLINE
  8
ガラス
  6
CONTINUOUS
 66
     1
 70
     4
  0
VERTEX
  8
ガラス
 10
-72.225
 20
-46.7
 70
     8
  0
VERTEX
  8
ガラス
 10
-72.2
 20
-46.7
 70
     8
  0
VERTEX
  8
ガラス
 10
-72.175
 20
-46.7
 70
     8
  0
VERTEX
  8
ガラス
 10
-72.125
 20
-46.7
 70
     8
  0
VERTEX
  8
ガラス
 10
-72.1
 20
-46.7
 70
     8
  0
VERTEX
  8
ガラス
 10
-72.075
 20
-46.7
 70
     8
  0
VERTEX
  8
ガラス
 10
-72.05
 20
-46.7
 70
     8
  0
VERTEX
  8
ガラス
 10
-72.0
 20
-46.675
 70
     8
  0
VERTEX
  8
ガラス
 10
-71.975
 20
-46.675
 70
     8
  0
VERTEX
  8
ガラス
 10
-71.95
 20
-46.675
 70
     8
  0
VERTEX
  8
ガラス
 10
-71.925
 20
-46.675
 70
     8
  0
VERTEX
  8
ガラス
 10
-71.9
 20
-46.675
 70
     8
  0
VERTEX
  8
ガラス
 10
-71.85
 20
-46.675
 70
     8
  0
VERTEX
  8
ガラス
 10
-71.825
 20
-46.675
 70
     8
  0
VERTEX
  8
ガラス
 10
-71.8
 20
-46.675
 70
     8
  0
VERTEX
  8
ガラス
 10
-71.775
 20
-46.7
 70
     8
  0
VERTEX
  8
ガラス
 10
-71.75
 20
-46.7
 70
     8
  0
VERTEX
  8
ガラス
 10
-71.725
 20
-46.7
 70
     8
  0
VERTEX
  8
ガラス
 10
-71.7
 20
-46.7
 70
     8
  0
VERTEX
  8
ガラス
 10
-71.675
 20
-46.725
 70
     8
  0
VERTEX
  8
ガラス
 10
-71.65
 20
-46.725
 70
     8
  0
VERTEX
  8
ガラス
 10
-71.625
 20
-46.725
 70
     8
  0
VERTEX
  8
ガラス
 10
-71.6
 20
-46.75
 70
     8
  0
VERTEX
  8
ガラス
 10
-71.575
 20
-46.75
 70
     8
  0
VERTEX
  8
ガラス
 10
-71.55
 20
-46.775
 70
     8
  0
VERTEX
  8
ガラス
 10
-71.525
 20
-46.775
 70
     8
  0
VERTEX
  8
ガラス
 10
-71.5
 20
-46.8
 70
     8
  0
VERTEX
  8
ガラス
 10
-71.475
 20
-46.825
 70
     8
  0
VERTEX
  8
ガラス
 10
-71.45
 20
-46.825
 70
     8
  0
VERTEX
  8
ガラス
 10
-71.425
 20
-46.85
 70
     8
  0
VERTEX
  8
ガラス
 10
-71.4
 20
-46.875
 70
     8
  0
VERTEX
  8
ガラス
 10
-71.375
 20
-46.9
 70
     8
  0
VERTEX
  8
ガラス
 10
-71.35
 20
-46.925
 70
     8
  0
VERTEX
  8
ガラス
 10
-71.35
 20
-46.925
 70
     8
  0
VERTEX
  8
ガラス
 10
-71.325
 20
-46.95
 70
     8
  0
VERTEX
  8
ガラス
 10
-71.3
 20
-46.975
 70
     8
  0
VERTEX
  8
ガラス
 10
-71.275
 20
-47.0
 70
     8
  0
VERTEX
  8
ガラス
 10
-71.25
 20
-47.025
 70
     8
  0
VERTEX
  8
ガラス
 10
-71.225
 20
-47.05
 70
     8
  0
VERTEX
  8
ガラス
 10
-71.225
 20
-47.075
 70
     8
  0
VERTEX
  8
ガラス
 10
-71.2
 20
-47.1
 70
     8
  0
SEQEND
  0
POLYLINE
  8
ガラス
  6
CONTINUOUS
 66
     1
 70
     4
  0
VERTEX
  8
ガラス
 10
-71.2
 20
-47.1
 70
     8
  0
VERTEX
  8
ガラス
 10
-71.225
 20
-47.1
 70
     8
  0
VERTEX
  8
ガラス
 10
-71.225
 20
-47.1
 70
     8
  0
VERTEX
  8
ガラス
 10
-71.25
 20
-47.1
 70
     8
  0
VERTEX
  8
ガラス
 10
-71.275
 20
-47.1
 70
     8
  0
VERTEX
  8
ガラス
 10
-71.3
 20
-47.1
 70
     8
  0
VERTEX
  8
ガラス
 10
-71.325
 20
-47.1
 70
     8
  0
VERTEX
  8
ガラス
 10
-71.35
 20
-47.1
 70
     8
  0
VERTEX
  8
ガラス
 10
-71.35
 20
-47.125
 70
     8
  0
VERTEX
  8
ガラス
 10
-71.375
 20
-47.125
 70
     8
  0
VERTEX
  8
ガラス
 10
-71.4
 20
-47.125
 70
     8
  0
VERTEX
  8
ガラス
 10
-71.425
 20
-47.125
 70
     8
  0
VERTEX
  8
ガラス
 10
-71.45
 20
-47.125
 70
     8
  0
VERTEX
  8
ガラス
 10
-71.45
 20
-47.125
 70
     8
  0
VERTEX
  8
ガラス
 10
-71.475
 20
-47.125
 70
     8
  0
VERTEX
  8
ガラス
 10
-71.5
 20
-47.125
 70
     8
  0
VERTEX
  8
ガラス
 10
-71.525
 20
-47.15
 70
     8
  0
VERTEX
  8
ガラス
 10
-71.55
 20
-47.15
 70
     8
  0
VERTEX
  8
ガラス
 10
-71.55
 20
-47.15
 70
     8
  0
VERTEX
  8
ガラス
 10
-71.575
 20
-47.15
 70
     8
  0
VERTEX
  8
ガラス
 10
-71.6
 20
-47.15
 70
     8
  0
VERTEX
  8
ガラス
 10
-71.625
 20
-47.175
 70
     8
  0
VERTEX
  8
ガラス
 10
-71.65
 20
-47.175
 70
     8
  0
VERTEX
  8
ガラス
 10
-71.65
 20
-47.175
 70
     8
  0
VERTEX
  8
ガラス
 10
-71.675
 20
-47.175
 70
     8
  0
VERTEX
  8
ガラス
 10
-71.7
 20
-47.175
 70
     8
  0
VERTEX
  8
ガラス
 10
-71.725
 20
-47.2
 70
     8
  0
VERTEX
  8
ガラス
 10
-71.725
 20
-47.2
 70
     8
  0
VERTEX
  8
ガラス
 10
-71.75
 20
-47.2
 70
     8
  0
VERTEX
  8
ガラス
 10
-71.775
 20
-47.2
 70
     8
  0
VERTEX
  8
ガラス
 10
-71.8
 20
-47.225
 70
     8
  0
VERTEX
  8
ガラス
 10
-71.8
 20
-47.225
 70
     8
  0
VERTEX
  8
ガラス
 10
-71.825
 20
-47.225
 70
     8
  0
VERTEX
  8
ガラス
 10
-71.85
 20
-47.25
 70
     8
  0
VERTEX
  8
ガラス
 10
-71.875
 20
-47.25
 70
     8
  0
VERTEX
  8
ガラス
 10
-71.9
 20
-47.25
 70
     8
  0
VERTEX
  8
ガラス
 10
-71.9
 20
-47.275
 70
     8
  0
VERTEX
  8
ガラス
 10
-71.925
 20
-47.275
 70
     8
  0
VERTEX
  8
ガラス
 10
-71.95
 20
-47.275
 70
     8
  0
VERTEX
  8
ガラス
 10
-71.975
 20
-47.3
 70
     8
  0
VERTEX
  8
ガラス
 10
-71.975
 20
-47.3
 70
     8
  0
SEQEND
  0
ARC
  8
ガラス
  6
CONTINUOUS
 10
-72.091449
 20
-46.988634
 40
0.318378
 50
112.264588
 51
292.264588
  0
ENDBLK
  0
BLOCK
  2
*GRP_0014
 70
    65
 10
0.0
 20
0.0
  0
POLYLINE
  8
ガラス
  6
CONTINUOUS
 66
     1
 70
     4
  0
VERTEX
  8
ガラス
 10
-59.8
 20
-37.575
 70
     8
  0
VERTEX
  8
ガラス
 10
-59.8
 20
-37.55
 70
     8
  0
VERTEX
  8
ガラス
 10
-59.775
 20
-37.525
 70
     8
  0
VERTEX
  8
ガラス
 10
-59.775
 20
-37.475
 70
     8
  0
VERTEX
  8
ガラス
 10
-59.775
 20
-37.45
 70
     8
  0
VERTEX
  8
ガラス
 10
-59.775
 20
-37.425
 70
     8
  0
VERTEX
  8
ガラス
 10
-59.775
 20
-37.4
 70
     8
  0
VERTEX
  8
ガラス
 10
-59.775
 20
-37.375
 70
     8
  0
VERTEX
  8
ガラス
 10
-59.775
 20
-37.325
 70
     8
  0
VERTEX
  8
ガラス
 10
-59.775
 20
-37.3
 70
     8
  0
VERTEX
  8
ガラス
 10
-59.775
 20
-37.275
 70
     8
  0
VERTEX
  8
ガラス
 10
-59.775
 20
-37.25
 70
     8
  0
VERTEX
  8
ガラス
 10
-59.775
 20
-37.225
 70
     8
  0
VERTEX
  8
ガラス
 10
-59.775
 20
-37.175
 70
     8
  0
VERTEX
  8
ガラス
 10
-59.775
 20
-37.15
 70
     8
  0
VERTEX
  8
ガラス
 10
-59.775
 20
-37.125
 70
     8
  0
VERTEX
  8
ガラス
 10
-59.775
 20
-37.1
 70
     8
  0
VERTEX
  8
ガラス
 10
-59.775
 20
-37.075
 70
     8
  0
VERTEX
  8
ガラス
 10
-59.8
 20
-37.05
 70
     8
  0
VERTEX
  8
ガラス
 10
-59.8
 20
-37.025
 70
     8
  0
VERTEX
  8
ガラス
 10
-59.8
 20
-37.0
 70
     8
  0
VERTEX
  8
ガラス
 10
-59.825
 20
-36.975
 70
     8
  0
VERTEX
  8
ガラス
 10
-59.825
 20
-36.95
 70
     8
  0
VERTEX
  8
ガラス
 10
-59.85
 20
-36.925
 70
     8
  0
VERTEX
  8
ガラス
 10
-59.85
 20
-36.9
 70
     8
  0
VERTEX
  8
ガラス
 10
-59.875
 20
-36.875
 70
     8
  0
VERTEX
  8
ガラス
 10
-59.9
 20
-36.85
 70
     8
  0
VERTEX
  8
ガラス
 10
-59.9
 20
-36.825
 70
     8
  0
VERTEX
  8
ガラス
 10
-59.925
 20
-36.8
 70
     8
  0
VERTEX
  8
ガラス
 10
-59.95
 20
-36.775
 70
     8
  0
VERTEX
  8
ガラス
 10
-59.95
 20
-36.75
 70
     8
  0
VERTEX
  8
ガラス
 10
-59.975
 20
-36.725
 70
     8
  0
VERTEX
  8
ガラス
 10
-60.0
 20
-36.725
 70
     8
  0
VERTEX
  8
ガラス
 10
-60.025
 20
-36.7
 70
     8
  0
VERTEX
  8
ガラス
 10
-60.05
 20
-36.675
 70
     8
  0
VERTEX
  8
ガラス
 10
-60.075
 20
-36.65
 70
     8
  0
VERTEX
  8
ガラス
 10
-60.1
 20
-36.625
 70
     8
  0
VERTEX
  8
ガラス
 10
-60.125
 20
-36.6
 70
     8
  0
VERTEX
  8
ガラス
 10
-60.125
 20
-36.6
 70
     8
  0
VERTEX
  8
ガラス
 10
-60.15
 20
-36.575
 70
     8
  0
VERTEX
  8
ガラス
 10
-60.175
 20
-36.55
 70
     8
  0
SEQEND
  0
POLYLINE
  8
ガラス
  6
CONTINUOUS
 66
     1
 70
     4
  0
VERTEX
  8
ガラス
 10
-60.175
 20
-36.55
 70
     8
  0
VERTEX
  8
ガラス
 10
-60.175
 20
-36.575
 70
     8
  0
VERTEX
  8
ガラス
 10
-60.2
 20
-36.6
 70
     8
  0
VERTEX
  8
ガラス
 10
-60.2
 20
-36.6
 70
     8
  0
VERTEX
  8
ガラス
 10
-60.2
 20
-36.625
 70
     8
  0
VERTEX
  8
ガラス
 10
-60.2
 20
-36.65
 70
     8
  0
VERTEX
  8
ガラス
 10
-60.2
 20
-36.675
 70
     8
  0
VERTEX
  8
ガラス
 10
-60.2
 20
-36.7
 70
     8
  0
VERTEX
  8
ガラス
 10
-60.2
 20
-36.725
 70
     8
  0
VERTEX
  8
ガラス
 10
-60.2
 20
-36.725
 70
     8
  0
VERTEX
  8
ガラス
 10
-60.2
 20
-36.75
 70
     8
  0
VERTEX
  8
ガラス
 10
-60.2
 20
-36.775
 70
     8
  0
VERTEX
  8
ガラス
 10
-60.225
 20
-36.8
 70
     8
  0
VERTEX
  8
ガラス
 10
-60.225
 20
-36.825
 70
     8
  0
VERTEX
  8
ガラス
 10
-60.225
 20
-36.825
 70
     8
  0
VERTEX
  8
ガラス
 10
-60.225
 20
-36.85
 70
     8
  0
VERTEX
  8
ガラス
 10
-60.225
 20
-36.875
 70
     8
  0
VERTEX
  8
ガラス
 10
-60.225
 20
-36.9
 70
     8
  0
VERTEX
  8
ガラス
 10
-60.225
 20
-36.925
 70
     8
  0
VERTEX
  8
ガラス
 10
-60.25
 20
-36.925
 70
     8
  0
VERTEX
  8
ガラス
 10
-60.25
 20
-36.95
 70
     8
  0
VERTEX
  8
ガラス
 10
-60.25
 20
-36.975
 70
     8
  0
VERTEX
  8
ガラス
 10
-60.25
 20
-37.0
 70
     8
  0
VERTEX
  8
ガラス
 10
-60.25
 20
-37.025
 70
     8
  0
VERTEX
  8
ガラス
 10
-60.275
 20
-37.025
 70
     8
  0
VERTEX
  8
ガラス
 10
-60.275
 20
-37.05
 70
     8
  0
VERTEX
  8
ガラス
 10
-60.275
 20
-37.075
 70
     8
  0
VERTEX
  8
ガラス
 10
-60.275
 20
-37.1
 70
     8
  0
VERTEX
  8
ガラス
 10
-60.3
 20
-37.1
 70
     8
  0
VERTEX
  8
ガラス
 10
-60.3
 20
-37.125
 70
     8
  0
VERTEX
  8
ガラス
 10
-60.3
 20
-37.15
 70
     8
  0
VERTEX
  8
ガラス
 10
-60.325
 20
-37.175
 70
     8
  0
VERTEX
  8
ガラス
 10
-60.325
 20
-37.175
 70
     8
  0
VERTEX
  8
ガラス
 10
-60.325
 20
-37.2
 70
     8
  0
VERTEX
  8
ガラス
 10
-60.325
 20
-37.225
 70
     8
  0
VERTEX
  8
ガラス
 10
-60.35
 20
-37.25
 70
     8
  0
VERTEX
  8
ガラス
 10
-60.35
 20
-37.275
 70
     8
  0
VERTEX
  8
ガラス
 10
-60.35
 20
-37.275
 70
     8
  0
VERTEX
  8
ガラス
 10
-60.375
 20
-37.3
 70
     8
  0
VERTEX
  8
ガラス
 10
-60.375
 20
-37.325
 70
     8
  0
VERTEX
  8
ガラス
 10
-60.375
 20
-37.35
 70
     8
  0
SEQEND
  0
ARC
  8
ガラス
  6
CONTINUOUS
 10
-60.075644
 20
-37.446646
 40
0.318378
 50
157.735412
 51
337.735412
  0
ENDBLK
  0
BLOCK
  2
*GRP_0015
 70
    65
 10
0.0
 20
0.0
  0
POLYLINE
  8
ガラス
  6
CONTINUOUS
 66
     1
 70
     4
  0
VERTEX
  8
ガラス
 10
-59.8
 20
-42.825
 70
     8
  0
VERTEX
  8
ガラス
 10
-59.8
 20
-42.775
 70
     8
  0
VERTEX
  8
ガラス
 10
-59.775
 20
-42.75
 70
     8
  0
VERTEX
  8
ガラス
 10
-59.775
 20
-42.725
 70
     8
  0
VERTEX
  8
ガラス
 10
-59.775
 20
-42.7
 70
     8
  0
VERTEX
  8
ガラス
 10
-59.775
 20
-42.65
 70
     8
  0
VERTEX
  8
ガラス
 10
-59.775
 20
-42.625
 70
     8
  0
VERTEX
  8
ガラス
 10
-59.775
 20
-42.6
 70
     8
  0
VERTEX
  8
ガラス
 10
-59.775
 20
-42.575
 70
     8
  0
VERTEX
  8
ガラス
 10
-59.775
 20
-42.55
 70
     8
  0
VERTEX
  8
ガラス
 10
-59.775
 20
-42.5
 70
     8
  0
VERTEX
  8
ガラス
 10
-59.775
 20
-42.475
 70
     8
  0
VERTEX
  8
ガラス
 10
-59.775
 20
-42.45
 70
     8
  0
VERTEX
  8
ガラス
 10
-59.775
 20
-42.425
 70
     8
  0
VERTEX
  8
ガラス
 10
-59.775
 20
-42.4
 70
     8
  0
VERTEX
  8
ガラス
 10
-59.775
 20
-42.375
 70
     8
  0
VERTEX
  8
ガラス
 10
-59.775
 20
-42.325
 70
     8
  0
VERTEX
  8
ガラス
 10
-59.775
 20
-42.3
 70
     8
  0
VERTEX
  8
ガラス
 10
-59.8
 20
-42.275
 70
     8
  0
VERTEX
  8
ガラス
 10
-59.8
 20
-42.25
 70
     8
  0
VERTEX
  8
ガラス
 10
-59.8
 20
-42.225
 70
     8
  0
VERTEX
  8
ガラス
 10
-59.825
 20
-42.2
 70
     8
  0
VERTEX
  8
ガラス
 10
-59.825
 20
-42.175
 70
     8
  0
VERTEX
  8
ガラス
 10
-59.85
 20
-42.15
 70
     8
  0
VERTEX
  8
ガラス
 10
-59.85
 20
-42.125
 70
     8
  0
VERTEX
  8
ガラス
 10
-59.875
 20
-42.1
 70
     8
  0
VERTEX
  8
ガラス
 10
-59.9
 20
-42.075
 70
     8
  0
VERTEX
  8
ガラス
 10
-59.9
 20
-42.05
 70
     8
  0
VERTEX
  8
ガラス
 10
-59.925
 20
-42.05
 70
     8
  0
VERTEX
  8
ガラス
 10
-59.95
 20
-42.025
 70
     8
  0
VERTEX
  8
ガラス
 10
-59.95
 20
-42.0
 70
     8
  0
VERTEX
  8
ガラス
 10
-59.975
 20
-41.975
 70
     8
  0
VERTEX
  8
ガラス
 10
-60.0
 20
-41.95
 70
     8
  0
VERTEX
  8
ガラス
 10
-60.025
 20
-41.925
 70
     8
  0
VERTEX
  8
ガラス
 10
-60.05
 20
-41.9
 70
     8
  0
VERTEX
  8
ガラス
 10
-60.075
 20
-41.9
 70
     8
  0
VERTEX
  8
ガラス
 10
-60.1
 20
-41.875
 70
     8
  0
VERTEX
  8
ガラス
 10
-60.125
 20
-41.85
 70
     8
  0
VERTEX
  8
ガラス
 10
-60.125
 20
-41.825
 70
     8
  0
VERTEX
  8
ガラス
 10
-60.15
 20
-41.8
 70
     8
  0
VERTEX
  8
ガラス
 10
-60.175
 20
-41.775
 70
     8
  0
SEQEND
  0
POLYLINE
  8
ガラス
  6
CONTINUOUS
 66
     1
 70
     4
  0
VERTEX
  8
ガラス
 10
-60.175
 20
-41.775
 70
     8
  0
VERTEX
  8
ガラス
 10
-60.175
 20
-41.8
 70
     8
  0
VERTEX
  8
ガラス
 10
-60.2
 20
-41.825
 70
     8
  0
VERTEX
  8
ガラス
 10
-60.2
 20
-41.85
 70
     8
  0
VERTEX
  8
ガラス
 10
-60.2
 20
-41.875
 70
     8
  0
VERTEX
  8
ガラス
 10
-60.2
 20
-41.875
 70
     8
  0
VERTEX
  8
ガラス
 10
-60.2
 20
-41.9
 70
     8
  0
VERTEX
  8
ガラス
 10
-60.2
 20
-41.925
 70
     8
  0
VERTEX
  8
ガラス
 10
-60.2
 20
-41.95
 70
     8
  0
VERTEX
  8
ガラス
 10
-60.2
 20
-41.975
 70
     8
  0
VERTEX
  8
ガラス
 10
-60.2
 20
-42.0
 70
     8
  0
VERTEX
  8
ガラス
 10
-60.2
 20
-42.0
 70
     8
  0
VERTEX
  8
ガラス
 10
-60.225
 20
-42.025
 70
     8
  0
VERTEX
  8
ガラス
 10
-60.225
 20
-42.05
 70
     8
  0
VERTEX
  8
ガラス
 10
-60.225
 20
-42.075
 70
     8
  0
VERTEX
  8
ガラス
 10
-60.225
 20
-42.1
 70
     8
  0
VERTEX
  8
ガラス
 10
-60.225
 20
-42.1
 70
     8
  0
VERTEX
  8
ガラス
 10
-60.225
 20
-42.125
 70
     8
  0
VERTEX
  8
ガラス
 10
-60.225
 20
-42.15
 70
     8
  0
VERTEX
  8
ガラス
 10
-60.25
 20
-42.175
 70
     8
  0
VERTEX
  8
ガラス
 10
-60.25
 20
-42.2
 70
     8
  0
VERTEX
  8
ガラス
 10
-60.25
 20
-42.2
 70
     8
  0
VERTEX
  8
ガラス
 10
-60.25
 20
-42.225
 70
     8
  0
VERTEX
  8
ガラス
 10
-60.25
 20
-42.25
 70
     8
  0
VERTEX
  8
ガラス
 10
-60.275
 20
-42.275
 70
     8
  0
VERTEX
  8
ガラス
 10
-60.275
 20
-42.275
 70
     8
  0
VERTEX
  8
ガラス
 10
-60.275
 20
-42.3
 70
     8
  0
VERTEX
  8
ガラス
 10
-60.275
 20
-42.325
 70
     8
  0
VERTEX
  8
ガラス
 10
-60.3
 20
-42.35
 70
     8
  0
VERTEX
  8
ガラス
 10
-60.3
 20
-42.375
 70
     8
  0
VERTEX
  8
ガラス
 10
-60.3
 20
-42.375
 70
     8
  0
VERTEX
  8
ガラス
 10
-60.325
 20
-42.4
 70
     8
  0
VERTEX
  8
ガラス
 10
-60.325
 20
-42.425
 70
     8
  0
VERTEX
  8
ガラス
 10
-60.325
 20
-42.45
 70
     8
  0
VERTEX
  8
ガラス
 10
-60.325
 20
-42.45
 70
     8
  0
VERTEX
  8
ガラス
 10
-60.35
 20
-42.475
 70
     8
  0
VERTEX
  8
ガラス
 10
-60.35
 20
-42.5
 70
     8
  0
VERTEX
  8
ガラス
 10
-60.35
 20
-42.525
 70
     8
  0
VERTEX
  8
ガラス
 10
-60.375
 20
-42.525
 70
     8
  0
VERTEX
  8
ガラス
 10
-60.375
 20
-42.55
 70
     8
  0
VERTEX
  8
ガラス
 10
-60.375
 20
-42.575
 70
     8
  0
SEQEND
  0
ARC
  8
ガラス
  6
CONTINUOUS
 10
-60.075644
 20
-42.682051
 40
0.318378
 50
157.735412
 51
337.735412
  0
ENDBLK
  0
BLOCK
  2
*GRP_0016
 70
    65
 10
0.0
 20
0.0
  0
POLYLINE
  8
ガラス
  6
CONTINUOUS
 66
     1
 70
     4
  0
VERTEX
  8
ガラス
 10
54.4
 20
-45.2
 70
     8
  0
VERTEX
  8
ガラス
 10
54.375
 20
-45.2
 70
     8
  0
VERTEX
  8
ガラス
 10
54.35
 20
-45.175
 70
     8
  0
VERTEX
  8
ガラス
 10
54.3
 20
-45.175
 70
     8
  0
VERTEX
  8
ガラス
 10
54.275
 20
-45.175
 70
     8
  0
VERTEX
  8
ガラス
 10
54.25
 20
-45.175
 70
     8
  0
VERTEX
  8
ガラス
 10
54.225
 20
-45.175
 70
     8
  0
VERTEX
  8
ガラス
 10
54.2
 20
-45.175
 70
     8
  0
VERTEX
  8
ガラス
 10
54.15
 20
-45.175
 70
     8
  0
VERTEX
  8
ガラス
 10
54.125
 20
-45.175
 70
     8
  0
VERTEX
  8
ガラス
 10
54.1
 20
-45.175
 70
     8
  0
VERTEX
  8
ガラス
 10
54.075
 20
-45.175
 70
     8
  0
VERTEX
  8
ガラス
 10
54.05
 20
-45.175
 70
     8
  0
VERTEX
  8
ガラス
 10
54.0
 20
-45.175
 70
     8
  0
VERTEX
  8
ガラス
 10
53.975
 20
-45.175
 70
     8
  0
VERTEX
  8
ガラス
 10
53.95
 20
-45.175
 70
     8
  0
VERTEX
  8
ガラス
 10
53.925
 20
-45.175
 70
     8
  0
VERTEX
  8
ガラス
 10
53.9
 20
-45.175
 70
     8
  0
VERTEX
  8
ガラス
 10
53.875
 20
-45.2
 70
     8
  0
VERTEX
  8
ガラス
 10
53.85
 20
-45.2
 70
     8
  0
VERTEX
  8
ガラス
 10
53.825
 20
-45.2
 70
     8
  0
VERTEX
  8
ガラス
 10
53.8
 20
-45.225
 70
     8
  0
VERTEX
  8
ガラス
 10
53.775
 20
-45.225
 70
     8
  0
VERTEX
  8
ガラス
 10
53.75
 20
-45.25
 70
     8
  0
VERTEX
  8
ガラス
 10
53.725
 20
-45.25
 70
     8
  0
VERTEX
  8
ガラス
 10
53.7
 20
-45.275
 70
     8
  0
VERTEX
  8
ガラス
 10
53.675
 20
-45.275
 70
     8
  0
VERTEX
  8
ガラス
 10
53.65
 20
-45.3
 70
     8
  0
VERTEX
  8
ガラス
 10
53.625
 20
-45.325
 70
     8
  0
VERTEX
  8
ガラス
 10
53.6
 20
-45.35
 70
     8
  0
VERTEX
  8
ガラス
 10
53.575
 20
-45.35
 70
     8
  0
VERTEX
  8
ガラス
 10
53.55
 20
-45.375
 70
     8
  0
VERTEX
  8
ガラス
 10
53.55
 20
-45.4
 70
     8
  0
VERTEX
  8
ガラス
 10
53.525
 20
-45.425
 70
     8
  0
VERTEX
  8
ガラス
 10
53.5
 20
-45.45
 70
     8
  0
VERTEX
  8
ガラス
 10
53.475
 20
-45.475
 70
     8
  0
VERTEX
  8
ガラス
 10
53.45
 20
-45.5
 70
     8
  0
VERTEX
  8
ガラス
 10
53.425
 20
-45.5
 70
     8
  0
VERTEX
  8
ガラス
 10
53.425
 20
-45.525
 70
     8
  0
VERTEX
  8
ガラス
 10
53.4
 20
-45.55
 70
     8
  0
VERTEX
  8
ガラス
 10
53.375
 20
-45.575
 70
     8
  0
SEQEND
  0
POLYLINE
  8
ガラス
  6
CONTINUOUS
 66
     1
 70
     4
  0
VERTEX
  8
ガラス
 10
53.375
 20
-45.575
 70
     8
  0
VERTEX
  8
ガラス
 10
53.4
 20
-45.575
 70
     8
  0
VERTEX
  8
ガラス
 10
53.425
 20
-45.575
 70
     8
  0
VERTEX
  8
ガラス
 10
53.425
 20
-45.6
 70
     8
  0
VERTEX
  8
ガラス
 10
53.45
 20
-45.6
 70
     8
  0
VERTEX
  8
ガラス
 10
53.475
 20
-45.6
 70
     8
  0
VERTEX
  8
ガラス
 10
53.5
 20
-45.6
 70
     8
  0
VERTEX
  8
ガラス
 10
53.525
 20
-45.6
 70
     8
  0
VERTEX
  8
ガラス
 10
53.525
 20
-45.6
 70
     8
  0
VERTEX
  8
ガラス
 10
53.55
 20
-45.6
 70
     8
  0
VERTEX
  8
ガラス
 10
53.575
 20
-45.6
 70
     8
  0
VERTEX
  8
ガラス
 10
53.6
 20
-45.6
 70
     8
  0
VERTEX
  8
ガラス
 10
53.625
 20
-45.625
 70
     8
  0
VERTEX
  8
ガラス
 10
53.65
 20
-45.625
 70
     8
  0
VERTEX
  8
ガラス
 10
53.65
 20
-45.625
 70
     8
  0
VERTEX
  8
ガラス
 10
53.675
 20
-45.625
 70
     8
  0
VERTEX
  8
ガラス
 10
53.7
 20
-45.625
 70
     8
  0
VERTEX
  8
ガラス
 10
53.725
 20
-45.625
 70
     8
  0
VERTEX
  8
ガラス
 10
53.75
 20
-45.625
 70
     8
  0
VERTEX
  8
ガラス
 10
53.75
 20
-45.65
 70
     8
  0
VERTEX
  8
ガラス
 10
53.775
 20
-45.65
 70
     8
  0
VERTEX
  8
ガラス
 10
53.8
 20
-45.65
 70
     8
  0
VERTEX
  8
ガラス
 10
53.825
 20
-45.65
 70
     8
  0
VERTEX
  8
ガラス
 10
53.825
 20
-45.65
 70
     8
  0
VERTEX
  8
ガラス
 10
53.85
 20
-45.675
 70
     8
  0
VERTEX
  8
ガラス
 10
53.875
 20
-45.675
 70
     8
  0
VERTEX
  8
ガラス
 10
53.9
 20
-45.675
 70
     8
  0
VERTEX
  8
ガラス
 10
53.925
 20
-45.675
 70
     8
  0
VERTEX
  8
ガラス
 10
53.925
 20
-45.7
 70
     8
  0
VERTEX
  8
ガラス
 10
53.95
 20
-45.7
 70
     8
  0
VERTEX
  8
ガラス
 10
53.975
 20
-45.7
 70
     8
  0
VERTEX
  8
ガラス
 10
54.0
 20
-45.725
 70
     8
  0
VERTEX
  8
ガラス
 10
54.0
 20
-45.725
 70
     8
  0
VERTEX
  8
ガラス
 10
54.025
 20
-45.725
 70
     8
  0
VERTEX
  8
ガラス
 10
54.05
 20
-45.725
 70
     8
  0
VERTEX
  8
ガラス
 10
54.075
 20
-45.75
 70
     8
  0
VERTEX
  8
ガラス
 10
54.075
 20
-45.75
 70
     8
  0
VERTEX
  8
ガラス
 10
54.1
 20
-45.75
 70
     8
  0
VERTEX
  8
ガラス
 10
54.125
 20
-45.775
 70
     8
  0
VERTEX
  8
ガラス
 10
54.15
 20
-45.775
 70
     8
  0
VERTEX
  8
ガラス
 10
54.175
 20
-45.775
 70
     8
  0
SEQEND
  0
ARC
  8
ガラス
  6
CONTINUOUS
 10
54.295826
 20
-45.474925
 40
0.318378
 50
247.735412
 51
427.735412
  0
ENDBLK
  0
BLOCK
  2
*GRP_0017
 70
    65
 10
0.0
 20
0.0
  0
POLYLINE
  8
ガラス
  6
CONTINUOUS
 66
     1
 70
     4
  0
VERTEX
  8
ガラス
 10
58.475
 20
-45.875
 70
     8
  0
VERTEX
  8
ガラス
 10
58.45
 20
-45.875
 70
     8
  0
VERTEX
  8
ガラス
 10
58.4
 20
-45.875
 70
     8
  0
VERTEX
  8
ガラス
 10
58.375
 20
-45.875
 70
     8
  0
VERTEX
  8
ガラス
 10
58.35
 20
-45.875
 70
     8
  0
VERTEX
  8
ガラス
 10
58.325
 20
-45.875
 70
     8
  0
VERTEX
  8
ガラス
 10
58.275
 20
-45.875
 70
     8
  0
VERTEX
  8
ガラス
 10
58.25
 20
-45.85
 70
     8
  0
VERTEX
  8
ガラス
 10
58.225
 20
-45.85
 70
     8
  0
VERTEX
  8
ガラス
 10
58.2
 20
-45.85
 70
     8
  0
VERTEX
  8
ガラス
 10
58.175
 20
-45.85
 70
     8
  0
VERTEX
  8
ガラス
 10
58.125
 20
-45.85
 70
     8
  0
VERTEX
  8
ガラス
 10
58.1
 20
-45.85
 70
     8
  0
VERTEX
  8
ガラス
 10
58.075
 20
-45.85
 70
     8
  0
VERTEX
  8
ガラス
 10
58.05
 20
-45.85
 70
     8
  0
VERTEX
  8
ガラス
 10
58.025
 20
-45.875
 70
     8
  0
VERTEX
  8
ガラス
 10
58.0
 20
-45.875
 70
     8
  0
VERTEX
  8
ガラス
 10
57.975
 20
-45.875
 70
     8
  0
VERTEX
  8
ガラス
 10
57.925
 20
-45.875
 70
     8
  0
VERTEX
  8
ガラス
 10
57.9
 20
-45.9
 70
     8
  0
VERTEX
  8
ガラス
 10
57.875
 20
-45.9
 70
     8
  0
VERTEX
  8
ガラス
 10
57.85
 20
-45.9
 70
     8
  0
VERTEX
  8
ガラス
 10
57.825
 20
-45.925
 70
     8
  0
VERTEX
  8
ガラス
 10
57.8
 20
-45.925
 70
     8
  0
VERTEX
  8
ガラス
 10
57.775
 20
-45.95
 70
     8
  0
VERTEX
  8
ガラス
 10
57.75
 20
-45.95
 70
     8
  0
VERTEX
  8
ガラス
 10
57.725
 20
-45.975
 70
     8
  0
VERTEX
  8
ガラス
 10
57.725
 20
-46.0
 70
     8
  0
VERTEX
  8
ガラス
 10
57.7
 20
-46.0
 70
     8
  0
VERTEX
  8
ガラス
 10
57.675
 20
-46.025
 70
     8
  0
VERTEX
  8
ガラス
 10
57.65
 20
-46.05
 70
     8
  0
VERTEX
  8
ガラス
 10
57.625
 20
-46.075
 70
     8
  0
VERTEX
  8
ガラス
 10
57.6
 20
-46.1
 70
     8
  0
VERTEX
  8
ガラス
 10
57.575
 20
-46.1
 70
     8
  0
VERTEX
  8
ガラス
 10
57.55
 20
-46.125
 70
     8
  0
VERTEX
  8
ガラス
 10
57.55
 20
-46.15
 70
     8
  0
VERTEX
  8
ガラス
 10
57.525
 20
-46.175
 70
     8
  0
VERTEX
  8
ガラス
 10
57.5
 20
-46.2
 70
     8
  0
VERTEX
  8
ガラス
 10
57.475
 20
-46.225
 70
     8
  0
VERTEX
  8
ガラス
 10
57.45
 20
-46.25
 70
     8
  0
VERTEX
  8
ガラス
 10
57.45
 20
-46.275
 70
     8
  0
SEQEND
  0
POLYLINE
  8
ガラス
  6
CONTINUOUS
 66
     1
 70
     4
  0
VERTEX
  8
ガラス
 10
57.45
 20
-46.275
 70
     8
  0
VERTEX
  8
ガラス
 10
57.45
 20
-46.275
 70
     8
  0
VERTEX
  8
ガラス
 10
57.475
 20
-46.275
 70
     8
  0
VERTEX
  8
ガラス
 10
57.5
 20
-46.275
 70
     8
  0
VERTEX
  8
ガラス
 10
57.525
 20
-46.275
 70
     8
  0
VERTEX
  8
ガラス
 10
57.55
 20
-46.275
 70
     8
  0
VERTEX
  8
ガラス
 10
57.55
 20
-46.275
 70
     8
  0
VERTEX
  8
ガラス
 10
57.575
 20
-46.3
 70
     8
  0
VERTEX
  8
ガラス
 10
57.6
 20
-46.3
 70
     8
  0
VERTEX
  8
ガラス
 10
57.625
 20
-46.3
 70
     8
  0
VERTEX
  8
ガラス
 10
57.65
 20
-46.3
 70
     8
  0
VERTEX
  8
ガラス
 10
57.675
 20
-46.3
 70
     8
  0
VERTEX
  8
ガラス
 10
57.675
 20
-46.3
 70
     8
  0
VERTEX
  8
ガラス
 10
57.7
 20
-46.3
 70
     8
  0
VERTEX
  8
ガラス
 10
57.725
 20
-46.3
 70
     8
  0
VERTEX
  8
ガラス
 10
57.75
 20
-46.3
 70
     8
  0
VERTEX
  8
ガラス
 10
57.775
 20
-46.325
 70
     8
  0
VERTEX
  8
ガラス
 10
57.775
 20
-46.325
 70
     8
  0
VERTEX
  8
ガラス
 10
57.8
 20
-46.325
 70
     8
  0
VERTEX
  8
ガラス
 10
57.825
 20
-46.325
 70
     8
  0
VERTEX
  8
ガラス
 10
57.85
 20
-46.325
 70
     8
  0
VERTEX
  8
ガラス
 10
57.875
 20
-46.35
 70
     8
  0
VERTEX
  8
ガラス
 10
57.875
 20
-46.35
 70
     8
  0
VERTEX
  8
ガラス
 10
57.9
 20
-46.35
 70
     8
  0
VERTEX
  8
ガラス
 10
57.925
 20
-46.35
 70
     8
  0
VERTEX
  8
ガラス
 10
57.95
 20
-46.35
 70
     8
  0
VERTEX
  8
ガラス
 10
57.95
 20
-46.375
 70
     8
  0
VERTEX
  8
ガラス
 10
57.975
 20
-46.375
 70
     8
  0
VERTEX
  8
ガラス
 10
58.0
 20
-46.375
 70
     8
  0
VERTEX
  8
ガラス
 10
58.025
 20
-46.375
 70
     8
  0
VERTEX
  8
ガラス
 10
58.025
 20
-46.4
 70
     8
  0
VERTEX
  8
ガラス
 10
58.05
 20
-46.4
 70
     8
  0
VERTEX
  8
ガラス
 10
58.075
 20
-46.4
 70
     8
  0
VERTEX
  8
ガラス
 10
58.1
 20
-46.425
 70
     8
  0
VERTEX
  8
ガラス
 10
58.125
 20
-46.425
 70
     8
  0
VERTEX
  8
ガラス
 10
58.125
 20
-46.425
 70
     8
  0
VERTEX
  8
ガラス
 10
58.15
 20
-46.45
 70
     8
  0
VERTEX
  8
ガラス
 10
58.175
 20
-46.45
 70
     8
  0
VERTEX
  8
ガラス
 10
58.2
 20
-46.45
 70
     8
  0
VERTEX
  8
ガラス
 10
58.2
 20
-46.475
 70
     8
  0
VERTEX
  8
ガラス
 10
58.225
 20
-46.475
 70
     8
  0
SEQEND
  0
ARC
  8
ガラス
  6
CONTINUOUS
 10
58.360676
 20
-46.163861
 40
0.318378
 50
247.735412
 51
427.735412
  0
ENDBLK
  0
BLOCK
  2
*GRP_0018
 70
    65
 10
0.0
 20
0.0
  0
POLYLINE
  8
ガラス
  6
CONTINUOUS
 66
     1
 70
     4
  0
VERTEX
  8
ガラス
 10
63.325
 20
-46.7
 70
     8
  0
VERTEX
  8
ガラス
 10
63.3
 20
-46.7
 70
     8
  0
VERTEX
  8
ガラス
 10
63.275
 20
-46.7
 70
     8
  0
VERTEX
  8
ガラス
 10
63.25
 20
-46.7
 70
     8
  0
VERTEX
  8
ガラス
 10
63.2
 20
-46.7
 70
     8
  0
VERTEX
  8
ガラス
 10
63.175
 20
-46.7
 70
     8
  0
VERTEX
  8
ガラス
 10
63.15
 20
-46.7
 70
     8
  0
VERTEX
  8
ガラス
 10
63.125
 20
-46.675
 70
     8
  0
VERTEX
  8
ガラス
 10
63.1
 20
-46.675
 70
     8
  0
VERTEX
  8
ガラス
 10
63.05
 20
-46.675
 70
     8
  0
VERTEX
  8
ガラス
 10
63.025
 20
-46.675
 70
     8
  0
VERTEX
  8
ガラス
 10
63.0
 20
-46.675
 70
     8
  0
VERTEX
  8
ガラス
 10
62.975
 20
-46.675
 70
     8
  0
VERTEX
  8
ガラス
 10
62.95
 20
-46.675
 70
     8
  0
VERTEX
  8
ガラス
 10
62.925
 20
-46.675
 70
     8
  0
VERTEX
  8
ガラス
 10
62.875
 20
-46.7
 70
     8
  0
VERTEX
  8
ガラス
 10
62.85
 20
-46.7
 70
     8
  0
VERTEX
  8
ガラス
 10
62.825
 20
-46.7
 70
     8
  0
VERTEX
  8
ガラス
 10
62.8
 20
-46.7
 70
     8
  0
VERTEX
  8
ガラス
 10
62.775
 20
-46.725
 70
     8
  0
VERTEX
  8
ガラス
 10
62.75
 20
-46.725
 70
     8
  0
VERTEX
  8
ガラス
 10
62.725
 20
-46.725
 70
     8
  0
VERTEX
  8
ガラス
 10
62.7
 20
-46.75
 70
     8
  0
VERTEX
  8
ガラス
 10
62.675
 20
-46.75
 70
     8
  0
VERTEX
  8
ガラス
 10
62.65
 20
-46.775
 70
     8
  0
VERTEX
  8
ガラス
 10
62.625
 20
-46.775
 70
     8
  0
VERTEX
  8
ガラス
 10
62.6
 20
-46.8
 70
     8
  0
VERTEX
  8
ガラス
 10
62.575
 20
-46.825
 70
     8
  0
VERTEX
  8
ガラス
 10
62.55
 20
-46.825
 70
     8
  0
VERTEX
  8
ガラス
 10
62.525
 20
-46.85
 70
     8
  0
VERTEX
  8
ガラス
 10
62.525
 20
-46.875
 70
     8
  0
VERTEX
  8
ガラス
 10
62.5
 20
-46.9
 70
     8
  0
VERTEX
  8
ガラス
 10
62.475
 20
-46.925
 70
     8
  0
VERTEX
  8
ガラス
 10
62.45
 20
-46.925
 70
     8
  0
VERTEX
  8
ガラス
 10
62.425
 20
-46.95
 70
     8
  0
VERTEX
  8
ガラス
 10
62.4
 20
-46.975
 70
     8
  0
VERTEX
  8
ガラス
 10
62.375
 20
-47.0
 70
     8
  0
VERTEX
  8
ガラス
 10
62.375
 20
-47.025
 70
     8
  0
VERTEX
  8
ガラス
 10
62.35
 20
-47.05
 70
     8
  0
VERTEX
  8
ガラス
 10
62.325
 20
-47.075
 70
     8
  0
VERTEX
  8
ガラス
 10
62.3
 20
-47.1
 70
     8
  0
SEQEND
  0
POLYLINE
  8
ガラス
  6
CONTINUOUS
 66
     1
 70
     4
  0
VERTEX
  8
ガラス
 10
62.3
 20
-47.1
 70
     8
  0
VERTEX
  8
ガラス
 10
62.325
 20
-47.1
 70
     8
  0
VERTEX
  8
ガラス
 10
62.35
 20
-47.1
 70
     8
  0
VERTEX
  8
ガラス
 10
62.375
 20
-47.1
 70
     8
  0
VERTEX
  8
ガラス
 10
62.375
 20
-47.1
 70
     8
  0
VERTEX
  8
ガラス
 10
62.4
 20
-47.1
 70
     8
  0
VERTEX
  8
ガラス
 10
62.425
 20
-47.1
 70
     8
  0
VERTEX
  8
ガラス
 10
62.45
 20
-47.1
 70
     8
  0
VERTEX
  8
ガラス
 10
62.475
 20
-47.125
 70
     8
  0
VERTEX
  8
ガラス
 10
62.5
 20
-47.125
 70
     8
  0
VERTEX
  8
ガラス
 10
62.5
 20
-47.125
 70
     8
  0
VERTEX
  8
ガラス
 10
62.525
 20
-47.125
 70
     8
  0
VERTEX
  8
ガラス
 10
62.55
 20
-47.125
 70
     8
  0
VERTEX
  8
ガラス
 10
62.575
 20
-47.125
 70
     8
  0
VERTEX
  8
ガラス
 10
62.6
 20
-47.125
 70
     8
  0
VERTEX
  8
ガラス
 10
62.6
 20
-47.125
 70
     8
  0
VERTEX
  8
ガラス
 10
62.625
 20
-47.15
 70
     8
  0
VERTEX
  8
ガラス
 10
62.65
 20
-47.15
 70
     8
  0
VERTEX
  8
ガラス
 10
62.675
 20
-47.15
 70
     8
  0
VERTEX
  8
ガラス
 10
62.7
 20
-47.15
 70
     8
  0
VERTEX
  8
ガラス
 10
62.7
 20
-47.15
 70
     8
  0
VERTEX
  8
ガラス
 10
62.725
 20
-47.175
 70
     8
  0
VERTEX
  8
ガラス
 10
62.75
 20
-47.175
 70
     8
  0
VERTEX
  8
ガラス
 10
62.775
 20
-47.175
 70
     8
  0
VERTEX
  8
ガラス
 10
62.8
 20
-47.175
 70
     8
  0
VERTEX
  8
ガラス
 10
62.8
 20
-47.175
 70
     8
  0
VERTEX
  8
ガラス
 10
62.825
 20
-47.2
 70
     8
  0
VERTEX
  8
ガラス
 10
62.85
 20
-47.2
 70
     8
  0
VERTEX
  8
ガラス
 10
62.875
 20
-47.2
 70
     8
  0
VERTEX
  8
ガラス
 10
62.875
 20
-47.2
 70
     8
  0
VERTEX
  8
ガラス
 10
62.9
 20
-47.225
 70
     8
  0
VERTEX
  8
ガラス
 10
62.925
 20
-47.225
 70
     8
  0
VERTEX
  8
ガラス
 10
62.95
 20
-47.225
 70
     8
  0
VERTEX
  8
ガラス
 10
62.95
 20
-47.25
 70
     8
  0
VERTEX
  8
ガラス
 10
62.975
 20
-47.25
 70
     8
  0
VERTEX
  8
ガラス
 10
63.0
 20
-47.25
 70
     8
  0
VERTEX
  8
ガラス
 10
63.025
 20
-47.275
 70
     8
  0
VERTEX
  8
ガラス
 10
63.025
 20
-47.275
 70
     8
  0
VERTEX
  8
ガラス
 10
63.05
 20
-47.275
 70
     8
  0
VERTEX
  8
ガラス
 10
63.075
 20
-47.3
 70
     8
  0
VERTEX
  8
ガラス
 10
63.1
 20
-47.3
 70
     8
  0
SEQEND
  0
ARC
  8
ガラス
  6
CONTINUOUS
 10
63.226989
 20
-46.988634
 40
0.318378
 50
247.735412
 51
427.735412
  0
ENDBLK
  0
BLOCK
  2
*GRP_0019
 70
    65
 10
0.0
 20
0.0
  0
POLYLINE
  8
ガラス
  6
CONTINUOUS
 66
     1
 70
     4
  0
VERTEX
  8
ガラス
 10
50.9
 20
-37.575
 70
     8
  0
VERTEX
  8
ガラス
 10
50.9
 20
-37.55
 70
     8
  0
VERTEX
  8
ガラス
 10
50.9
 20
-37.525
 70
     8
  0
VERTEX
  8
ガラス
 10
50.9
 20
-37.475
 70
     8
  0
VERTEX
  8
ガラス
 10
50.9
 20
-37.45
 70
     8
  0
VERTEX
  8
ガラス
 10
50.9
 20
-37.425
 70
     8
  0
VERTEX
  8
ガラス
 10
50.875
 20
-37.4
 70
     8
  0
VERTEX
  8
ガラス
 10
50.875
 20
-37.375
 70
     8
  0
VERTEX
  8
ガラス
 10
50.875
 20
-37.325
 70
     8
  0
VERTEX
  8
ガラス
 10
50.875
 20
-37.3
 70
     8
  0
VERTEX
  8
ガラス
 10
50.875
 20
-37.275
 70
     8
  0
VERTEX
  8
ガラス
 10
50.875
 20
-37.25
 70
     8
  0
VERTEX
  8
ガラス
 10
50.875
 20
-37.225
 70
     8
  0
VERTEX
  8
ガラス
 10
50.875
 20
-37.175
 70
     8
  0
VERTEX
  8
ガラス
 10
50.875
 20
-37.15
 70
     8
  0
VERTEX
  8
ガラス
 10
50.875
 20
-37.125
 70
     8
  0
VERTEX
  8
ガラス
 10
50.9
 20
-37.1
 70
     8
  0
VERTEX
  8
ガラス
 10
50.9
 20
-37.075
 70
     8
  0
VERTEX
  8
ガラス
 10
50.9
 20
-37.05
 70
     8
  0
VERTEX
  8
ガラス
 10
50.9
 20
-37.025
 70
     8
  0
VERTEX
  8
ガラス
 10
50.925
 20
-37.0
 70
     8
  0
VERTEX
  8
ガラス
 10
50.925
 20
-36.975
 70
     8
  0
VERTEX
  8
ガラス
 10
50.95
 20
-36.95
 70
     8
  0
VERTEX
  8
ガラス
 10
50.95
 20
-36.925
 70
     8
  0
VERTEX
  8
ガラス
 10
50.975
 20
-36.9
 70
     8
  0
VERTEX
  8
ガラス
 10
50.975
 20
-36.875
 70
     8
  0
VERTEX
  8
ガラス
 10
51.0
 20
-36.85
 70
     8
  0
VERTEX
  8
ガラス
 10
51.025
 20
-36.825
 70
     8
  0
VERTEX
  8
ガラス
 10
51.025
 20
-36.8
 70
     8
  0
VERTEX
  8
ガラス
 10
51.05
 20
-36.775
 70
     8
  0
VERTEX
  8
ガラス
 10
51.075
 20
-36.75
 70
     8
  0
VERTEX
  8
ガラス
 10
51.1
 20
-36.725
 70
     8
  0
VERTEX
  8
ガラス
 10
51.1
 20
-36.725
 70
     8
  0
VERTEX
  8
ガラス
 10
51.125
 20
-36.7
 70
     8
  0
VERTEX
  8
ガラス
 10
51.15
 20
-36.675
 70
     8
  0
VERTEX
  8
ガラス
 10
51.175
 20
-36.65
 70
     8
  0
VERTEX
  8
ガラス
 10
51.2
 20
-36.625
 70
     8
  0
VERTEX
  8
ガラス
 10
51.225
 20
-36.6
 70
     8
  0
VERTEX
  8
ガラス
 10
51.25
 20
-36.6
 70
     8
  0
VERTEX
  8
ガラス
 10
51.275
 20
-36.575
 70
     8
  0
VERTEX
  8
ガラス
 10
51.3
 20
-36.55
 70
     8
  0
SEQEND
  0
POLYLINE
  8
ガラス
  6
CONTINUOUS
 66
     1
 70
     4
  0
VERTEX
  8
ガラス
 10
51.3
 20
-36.55
 70
     8
  0
VERTEX
  8
ガラス
 10
51.3
 20
-36.575
 70
     8
  0
VERTEX
  8
ガラス
 10
51.3
 20
-36.6
 70
     8
  0
VERTEX
  8
ガラス
 10
51.3
 20
-36.6
 70
     8
  0
VERTEX
  8
ガラス
 10
51.3
 20
-36.625
 70
     8
  0
VERTEX
  8
ガラス
 10
51.3
 20
-36.65
 70
     8
  0
VERTEX
  8
ガラス
 10
51.3
 20
-36.675
 70
     8
  0
VERTEX
  8
ガラス
 10
51.3
 20
-36.7
 70
     8
  0
VERTEX
  8
ガラス
 10
51.325
 20
-36.725
 70
     8
  0
VERTEX
  8
ガラス
 10
51.325
 20
-36.725
 70
     8
  0
VERTEX
  8
ガラス
 10
51.325
 20
-36.75
 70
     8
  0
VERTEX
  8
ガラス
 10
51.325
 20
-36.775
 70
     8
  0
VERTEX
  8
ガラス
 10
51.325
 20
-36.8
 70
     8
  0
VERTEX
  8
ガラス
 10
51.325
 20
-36.825
 70
     8
  0
VERTEX
  8
ガラス
 10
51.325
 20
-36.825
 70
     8
  0
VERTEX
  8
ガラス
 10
51.325
 20
-36.85
 70
     8
  0
VERTEX
  8
ガラス
 10
51.35
 20
-36.875
 70
     8
  0
VERTEX
  8
ガラス
 10
51.35
 20
-36.9
 70
     8
  0
VERTEX
  8
ガラス
 10
51.35
 20
-36.925
 70
     8
  0
VERTEX
  8
ガラス
 10
51.35
 20
-36.925
 70
     8
  0
VERTEX
  8
ガラス
 10
51.35
 20
-36.95
 70
     8
  0
VERTEX
  8
ガラス
 10
51.35
 20
-36.975
 70
     8
  0
VERTEX
  8
ガラス
 10
51.375
 20
-37.0
 70
     8
  0
VERTEX
  8
ガラス
 10
51.375
 20
-37.025
 70
     8
  0
VERTEX
  8
ガラス
 10
51.375
 20
-37.025
 70
     8
  0
VERTEX
  8
ガラス
 10
51.375
 20
-37.05
 70
     8
  0
VERTEX
  8
ガラス
 10
51.4
 20
-37.075
 70
     8
  0
VERTEX
  8
ガラス
 10
51.4
 20
-37.1
 70
     8
  0
VERTEX
  8
ガラス
 10
51.4
 20
-37.1
 70
     8
  0
VERTEX
  8
ガラス
 10
51.4
 20
-37.125
 70
     8
  0
VERTEX
  8
ガラス
 10
51.425
 20
-37.15
 70
     8
  0
VERTEX
  8
ガラス
 10
51.425
 20
-37.175
 70
     8
  0
VERTEX
  8
ガラス
 10
51.425
 20
-37.175
 70
     8
  0
VERTEX
  8
ガラス
 10
51.45
 20
-37.2
 70
     8
  0
VERTEX
  8
ガラス
 10
51.45
 20
-37.225
 70
     8
  0
VERTEX
  8
ガラス
 10
51.45
 20
-37.25
 70
     8
  0
VERTEX
  8
ガラス
 10
51.45
 20
-37.275
 70
     8
  0
VERTEX
  8
ガラス
 10
51.475
 20
-37.275
 70
     8
  0
VERTEX
  8
ガラス
 10
51.475
 20
-37.3
 70
     8
  0
VERTEX
  8
ガラス
 10
51.475
 20
-37.325
 70
     8
  0
VERTEX
  8
ガラス
 10
51.5
 20
-37.35
 70
     8
  0
SEQEND
  0
ARC
  8
ガラス
  6
CONTINUOUS
 10
51.211184
 20
-37.446646
 40
0.318378
 50
202.264588
 51
382.264588
  0
ENDBLK
  0
BLOCK
  2
*GRP_0020
 70
    65
 10
0.0
 20
0.0
  0
POLYLINE
  8
ガラス
  6
CONTINUOUS
 66
     1
 70
     4
  0
VERTEX
  8
ガラス
 10
50.9
 20
-42.825
 70
     8
  0
VERTEX
  8
ガラス
 10
50.9
 20
-42.775
 70
     8
  0
VERTEX
  8
ガラス
 10
50.9
 20
-42.75
 70
     8
  0
VERTEX
  8
ガラス
 10
50.9
 20
-42.725
 70
     8
  0
VERTEX
  8
ガラス
 10
50.9
 20
-42.7
 70
     8
  0
VERTEX
  8
ガラス
 10
50.9
 20
-42.65
 70
     8
  0
VERTEX
  8
ガラス
 10
50.875
 20
-42.625
 70
     8
  0
VERTEX
  8
ガラス
 10
50.875
 20
-42.6
 70
     8
  0
VERTEX
  8
ガラス
 10
50.875
 20
-42.575
 70
     8
  0
VERTEX
  8
ガラス
 10
50.875
 20
-42.55
 70
     8
  0
VERTEX
  8
ガラス
 10
50.875
 20
-42.5
 70
     8
  0
VERTEX
  8
ガラス
 10
50.875
 20
-42.475
 70
     8
  0
VERTEX
  8
ガラス
 10
50.875
 20
-42.45
 70
     8
  0
VERTEX
  8
ガラス
 10
50.875
 20
-42.425
 70
     8
  0
VERTEX
  8
ガラス
 10
50.875
 20
-42.4
 70
     8
  0
VERTEX
  8
ガラス
 10
50.875
 20
-42.375
 70
     8
  0
VERTEX
  8
ガラス
 10
50.9
 20
-42.325
 70
     8
  0
VERTEX
  8
ガラス
 10
50.9
 20
-42.3
 70
     8
  0
VERTEX
  8
ガラス
 10
50.9
 20
-42.275
 70
     8
  0
VERTEX
  8
ガラス
 10
50.9
 20
-42.25
 70
     8
  0
VERTEX
  8
ガラス
 10
50.925
 20
-42.225
 70
     8
  0
VERTEX
  8
ガラス
 10
50.925
 20
-42.2
 70
     8
  0
VERTEX
  8
ガラス
 10
50.95
 20
-42.175
 70
     8
  0
VERTEX
  8
ガラス
 10
50.95
 20
-42.15
 70
     8
  0
VERTEX
  8
ガラス
 10
50.975
 20
-42.125
 70
     8
  0
VERTEX
  8
ガラス
 10
50.975
 20
-42.1
 70
     8
  0
VERTEX
  8
ガラス
 10
51.0
 20
-42.075
 70
     8
  0
VERTEX
  8
ガラス
 10
51.025
 20
-42.05
 70
     8
  0
VERTEX
  8
ガラス
 10
51.025
 20
-42.05
 70
     8
  0
VERTEX
  8
ガラス
 10
51.05
 20
-42.025
 70
     8
  0
VERTEX
  8
ガラス
 10
51.075
 20
-42.0
 70
     8
  0
VERTEX
  8
ガラス
 10
51.1
 20
-41.975
 70
     8
  0
VERTEX
  8
ガラス
 10
51.1
 20
-41.95
 70
     8
  0
VERTEX
  8
ガラス
 10
51.125
 20
-41.925
 70
     8
  0
VERTEX
  8
ガラス
 10
51.15
 20
-41.9
 70
     8
  0
VERTEX
  8
ガラス
 10
51.175
 20
-41.9
 70
     8
  0
VERTEX
  8
ガラス
 10
51.2
 20
-41.875
 70
     8
  0
VERTEX
  8
ガラス
 10
51.225
 20
-41.85
 70
     8
  0
VERTEX
  8
ガラス
 10
51.25
 20
-41.825
 70
     8
  0
VERTEX
  8
ガラス
 10
51.275
 20
-41.8
 70
     8
  0
VERTEX
  8
ガラス
 10
51.3
 20
-41.775
 70
     8
  0
SEQEND
  0
POLYLINE
  8
ガラス
  6
CONTINUOUS
 66
     1
 70
     4
  0
VERTEX
  8
ガラス
 10
51.3
 20
-41.775
 70
     8
  0
VERTEX
  8
ガラス
 10
51.3
 20
-41.8
 70
     8
  0
VERTEX
  8
ガラス
 10
51.3
 20
-41.825
 70
     8
  0
VERTEX
  8
ガラス
 10
51.3
 20
-41.85
 70
     8
  0
VERTEX
  8
ガラス
 10
51.3
 20
-41.875
 70
     8
  0
VERTEX
  8
ガラス
 10
51.3
 20
-41.875
 70
     8
  0
VERTEX
  8
ガラス
 10
51.3
 20
-41.9
 70
     8
  0
VERTEX
  8
ガラス
 10
51.3
 20
-41.925
 70
     8
  0
VERTEX
  8
ガラス
 10
51.325
 20
-41.95
 70
     8
  0
VERTEX
  8
ガラス
 10
51.325
 20
-41.975
 70
     8
  0
VERTEX
  8
ガラス
 10
51.325
 20
-42.0
 70
     8
  0
VERTEX
  8
ガラス
 10
51.325
 20
-42.0
 70
     8
  0
VERTEX
  8
ガラス
 10
51.325
 20
-42.025
 70
     8
  0
VERTEX
  8
ガラス
 10
51.325
 20
-42.05
 70
     8
  0
VERTEX
  8
ガラス
 10
51.325
 20
-42.075
 70
     8
  0
VERTEX
  8
ガラス
 10
51.325
 20
-42.1
 70
     8
  0
VERTEX
  8
ガラス
 10
51.35
 20
-42.1
 70
     8
  0
VERTEX
  8
ガラス
 10
51.35
 20
-42.125
 70
     8
  0
VERTEX
  8
ガラス
 10
51.35
 20
-42.15
 70
     8
  0
VERTEX
  8
ガラス
 10
51.35
 20
-42.175
 70
     8
  0
VERTEX
  8
ガラス
 10
51.35
 20
-42.2
 70
     8
  0
VERTEX
  8
ガラス
 10
51.35
 20
-42.2
 70
     8
  0
VERTEX
  8
ガラス
 10
51.375
 20
-42.225
 70
     8
  0
VERTEX
  8
ガラス
 10
51.375
 20
-42.25
 70
     8
  0
VERTEX
  8
ガラス
 10
51.375
 20
-42.275
 70
     8
  0
VERTEX
  8
ガラス
 10
51.375
 20
-42.275
 70
     8
  0
VERTEX
  8
ガラス
 10
51.4
 20
-42.3
 70
     8
  0
VERTEX
  8
ガラス
 10
51.4
 20
-42.325
 70
     8
  0
VERTEX
  8
ガラス
 10
51.4
 20
-42.35
 70
     8
  0
VERTEX
  8
ガラス
 10
51.4
 20
-42.375
 70
     8
  0
VERTEX
  8
ガラス
 10
51.425
 20
-42.375
 70
     8
  0
VERTEX
  8
ガラス
 10
51.425
 20
-42.4
 70
     8
  0
VERTEX
  8
ガラス
 10
51.425
 20
-42.425
 70
     8
  0
VERTEX
  8
ガラス
 10
51.45
 20
-42.45
 70
     8
  0
VERTEX
  8
ガラス
 10
51.45
 20
-42.45
 70
     8
  0
VERTEX
  8
ガラス
 10
51.45
 20
-42.475
 70
     8
  0
VERTEX
  8
ガラス
 10
51.45
 20
-42.5
 70
     8
  0
VERTEX
  8
ガラス
 10
51.475
 20
-42.525
 70
     8
  0
VERTEX
  8
ガラス
 10
51.475
 20
-42.525
 70
     8
  0
VERTEX
  8
ガラス
 10
51.475
 20
-42.55
 70
     8
  0
VERTEX
  8
ガラス
 10
51.5
 20
-42.575
 70
     8
  0
SEQEND
  0
ARC
  8
ガラス
  6
CONTINUOUS
 10
51.211184
 20
-42.682051
 40
0.318378
 50
202.264588
 51
382.264588
  0
ENDBLK
  0
BLOCK
  2
*GRP_0021
 70
    65
 10
0.0
 20
0.0
  0
LINE
  8
ゴム等
  6
CONTINUOUS
 10
-64.417468
 20
-34.935067
 11
-61.084135
 21
-34.935067
  0
LINE
  8
ゴム等
  6
CONTINUOUS
 10
-61.084135
 20
-34.935067
 11
-61.084135
 21
-36.601735
  0
LINE
  8
ゴム等
  6
CONTINUOUS
 10
-61.084135
 20
-36.601735
 11
-64.417468
 21
-36.601735
  0
LINE
  8
ゴム等
  6
CONTINUOUS
 10
-64.417468
 20
-34.935067
 11
-64.417468
 21
-36.601735
  0
INSERT
  2
*HAT_0001
  8
ゴム等
 10
0.0
 20
0.0
  0
ENDBLK
  0
BLOCK
  2
*GRP_0022
 70
    65
 10
0.0
 20
0.0
  0
LINE
  8
ゴム等
  6
CONTINUOUS
 10
55.553008
 20
-34.935067
 11
52.219675
 21
-34.935067
  0
LINE
  8
ゴム等
  6
CONTINUOUS
 10
52.219675
 20
-34.935067
 11
52.219675
 21
-36.601735
  0
LINE
  8
ゴム等
  6
CONTINUOUS
 10
52.219675
 20
-36.601735
 11
55.553008
 21
-36.601735
  0
LINE
  8
ゴム等
  6
CONTINUOUS
 10
55.553008
 20
-34.935067
 11
55.553008
 21
-36.601735
  0
INSERT
  2
*HAT_0002
  8
ゴム等
 10
0.0
 20
0.0
  0
ENDBLK
  0
BLOCK
  2
*GRP_0023
 70
    65
 10
0.0
 20
0.0
  0
LINE
  8
ゴム等
  6
CONTINUOUS
 10
-10.265572
 20
-34.935083
 11
-13.598905
 21
-34.935083
  0
LINE
  8
ゴム等
  6
CONTINUOUS
 10
-13.598905
 20
-34.935083
 11
-13.598905
 21
-36.60175
  0
LINE
  8
ゴム等
  6
CONTINUOUS
 10
-13.598905
 20
-36.60175
 11
-10.265572
 21
-36.60175
  0
LINE
  8
ゴム等
  6
CONTINUOUS
 10
-10.265572
 20
-34.935083
 11
-10.265572
 21
-36.60175
  0
INSERT
  2
*HAT_0003
  8
ゴム等
 10
0.0
 20
0.0
  0
ENDBLK
  0
BLOCK
  2
*GRP_0024
 70
    65
 10
0.0
 20
0.0
  0
LINE
  8
ゴム等
  6
DOT
 10
-15.798895
 20
-30.60175
 11
-15.798895
 21
-32.668418
  0
LINE
  8
ゴム等
  6
DOT
 10
-15.798895
 20
-32.668418
 11
-12.465563
 21
-32.668418
  0
LINE
  8
ゴム等
  6
DOT
 10
-12.465563
 20
-32.668418
 11
-12.465563
 21
-30.60175
  0
LINE
  8
ゴム等
  6
DOT
 10
-15.798895
 20
-30.60175
 11
-12.465563
 21
-30.60175
  0
INSERT
  2
*HAT_0004
  8
ゴム等
 10
0.0
 20
0.0
  0
ENDBLK
  0
BLOCK
  2
*GRP_0025
 70
    65
 10
0.0
 20
0.0
  0
LINE
  8
ゴム等
  6
DOT
 10
6.934435
 20
-30.60175
 11
6.934435
 21
-32.668418
  0
LINE
  8
ゴム等
  6
DOT
 10
6.934435
 20
-32.668418
 11
3.601102
 21
-32.668418
  0
LINE
  8
ゴム等
  6
DOT
 10
3.601102
 20
-32.668418
 11
3.601102
 21
-30.60175
  0
LINE
  8
ゴム等
  6
DOT
 10
6.934435
 20
-30.60175
 11
3.601102
 21
-30.60175
  0
INSERT
  2
*HAT_0005
  8
ゴム等
 10
0.0
 20
0.0
  0
ENDBLK
  0
BLOCK
  2
*GRP_0026
 70
    65
 10
0.0
 20
0.0
  0
LINE
  8
ゴム等
  6
CONTINUOUS
 10
1.401113
 20
-34.935083
 11
4.734445
 21
-34.935083
  0
LINE
  8
ゴム等
  6
CONTINUOUS
 10
4.734445
 20
-34.935083
 11
4.734445
 21
-36.60175
  0
LINE
  8
ゴム等
  6
CONTINUOUS
 10
4.734445
 20
-36.60175
 11
1.401113
 21
-36.60175
  0
LINE
  8
ゴム等
  6
CONTINUOUS
 10
1.401113
 20
-34.935083
 11
1.401113
 21
-36.60175
  0
INSERT
  2
*HAT_0006
  8
ゴム等
 10
0.0
 20
0.0
  0
ENDBLK
  0
BLOCK
  2
*GRP_0027
 70
    65
 10
0.0
 20
0.0
  0
LINE
  8
ボルト／ビス
  6
CONTINUOUS
 62
    64
 10
-93.88421
 20
-58.26157
 11
-94.233598
 21
-58.292137
  0
ARC
  8
ボルト／ビス
  6
CONTINUOUS
 62
    64
 10
-94.18421
 20
-58.856651
 40
0.566667
 50
94.999989
 51
180.0
  0
LINE
  8
ボルト／ビス
  6
CONTINUOUS
 62
    64
 10
-94.750878
 20
-58.856647
 11
-94.750878
 21
-59.428237
  0
LINE
  8
ボルト／ビス
  6
CONTINUOUS
 62
    64
 10
-93.88421
 20
-60.594905
 11
-94.233598
 21
-60.564337
  0
ARC
  8
ボルト／ビス
  6
CONTINUOUS
 62
    64
 10
-94.18421
 20
-59.999829
 40
0.566667
 50
180.0
 51
265.000011
  0
LINE
  8
ボルト／ビス
  6
CONTINUOUS
 62
    64
 10
-94.750878
 20
-59.999827
 11
-94.750878
 21
-59.428237
  0
LINE
  8
ボルト／ビス
  6
CONTINUOUS
 62
    64
 10
-94.622575
 20
-58.629357
 11
-94.703295
 21
-58.629357
  0
LINE
  8
ボルト／ビス
  6
CONTINUOUS
 62
    64
 10
-94.40588
 20
-59.194905
 11
-94.40588
 21
-59.428237
  0
LINE
  8
ボルト／ビス
  6
CONTINUOUS
 62
    64
 10
-94.622575
 20
-59.06157
 11
-94.622575
 21
-58.629357
  0
LINE
  8
ボルト／ビス
  6
CONTINUOUS
 62
    64
 10
-94.40588
 20
-59.194905
 11
-94.489243
 21
-59.194905
  0
ARC
  8
ボルト／ビス
  6
CONTINUOUS
 62
    64
 10
-94.489242
 20
-59.061573
 40
0.133333
 50
180.0
 51
270.0
  0
LINE
  8
ボルト／ビス
  6
CONTINUOUS
 62
    64
 10
-94.622575
 20
-60.227117
 11
-94.703295
 21
-60.227117
  0
LINE
  8
ボルト／ビス
  6
CONTINUOUS
 62
    64
 10
-94.40588
 20
-59.66157
 11
-94.40588
 21
-59.428237
  0
LINE
  8
ボルト／ビス
  6
CONTINUOUS
 62
    64
 10
-94.622575
 20
-59.794905
 11
-94.622575
 21
-60.227117
  0
LINE
  8
ボルト／ビス
  6
CONTINUOUS
 62
    64
 10
-94.40588
 20
-59.66157
 11
-94.489243
 21
-59.66157
  0
ARC
  8
ボルト／ビス
  6
CONTINUOUS
 62
    64
 10
-94.489242
 20
-59.794906
 40
0.133333
 50
90.0
 51
180.0
  0
LINE
  8
ボルト／ビス
  6
CONTINUOUS
 62
    64
 10
-93.88421
 20
-58.26157
 11
-93.88421
 21
-60.594905
  0
LINE
  8
ボルト／ビス
  6
CONTINUOUS
 62
    64
 10
-90.717543
 20
-58.76157
 11
-90.550878
 21
-58.928237
  0
LINE
  8
ボルト／ビス
  6
CONTINUOUS
 62
    64
 10
-90.717543
 20
-60.094905
 11
-90.550878
 21
-59.928237
  0
LINE
  8
ボルト／ビス
  6
CONTINUOUS
 62
    64
 10
-90.717543
 20
-58.76157
 11
-90.717543
 21
-60.094905
  0
LINE
  8
ボルト／ビス
  6
CONTINUOUS
 62
    64
 10
-90.550878
 20
-58.928237
 11
-90.550878
 21
-59.928237
  0
LINE
  8
ボルト／ビス
  6
CONTINUOUS
 62
    64
 10
-95.408005
 20
-59.428237
 11
-90.02592
 21
-59.428237
  0
LINE
  8
ボルト／ビス
  6
CONTINUOUS
 62
    64
 10
-93.88421
 20
-58.76157
 11
-90.717543
 21
-58.76157
  0
LINE
  8
ボルト／ビス
  6
CONTINUOUS
 62
    64
 10
-93.88421
 20
-60.094905
 11
-90.717543
 21
-60.094905
  0
LINE
  8
ボルト／ビス
  6
CONTINUOUS
 62
    64
 10
-93.88421
 20
-59.928237
 11
-90.550878
 21
-59.928237
  0
LINE
  8
ボルト／ビス
  6
CONTINUOUS
 62
    64
 10
-93.88421
 20
-58.928237
 11
-90.550878
 21
-58.928237
  0
ENDBLK
  0
BLOCK
  2
*GRP_0028
 70
    65
 10
0.0
 20
0.0
  0
LINE
  8
ボルト／ビス
  6
CONTINUOUS
 62
    64
 10
85.01975
 20
-58.26157
 11
85.369138
 21
-58.292137
  0
ARC
  8
ボルト／ビス
  6
CONTINUOUS
 62
    64
 10
85.31975
 20
-58.856651
 40
0.566667
 50
0.0
 51
85.000011
  0
LINE
  8
ボルト／ビス
  6
CONTINUOUS
 62
    64
 10
85.886418
 20
-58.856647
 11
85.886418
 21
-59.428237
  0
LINE
  8
ボルト／ビス
  6
CONTINUOUS
 62
    64
 10
85.01975
 20
-60.594905
 11
85.369138
 21
-60.564337
  0
ARC
  8
ボルト／ビス
  6
CONTINUOUS
 62
    64
 10
85.31975
 20
-59.999829
 40
0.566667
 50
274.999989
 51
360.0
  0
LINE
  8
ボルト／ビス
  6
CONTINUOUS
 62
    64
 10
85.886418
 20
-59.999827
 11
85.886418
 21
-59.428237
  0
LINE
  8
ボルト／ビス
  6
CONTINUOUS
 62
    64
 10
85.758115
 20
-58.629357
 11
85.838835
 21
-58.629357
  0
LINE
  8
ボルト／ビス
  6
CONTINUOUS
 62
    64
 10
85.54142
 20
-59.194905
 11
85.54142
 21
-59.428237
  0
LINE
  8
ボルト／ビス
  6
CONTINUOUS
 62
    64
 10
85.758115
 20
-59.06157
 11
85.758115
 21
-58.629357
  0
LINE
  8
ボルト／ビス
  6
CONTINUOUS
 62
    64
 10
85.54142
 20
-59.194905
 11
85.624783
 21
-59.194905
  0
ARC
  8
ボルト／ビス
  6
CONTINUOUS
 62
    64
 10
85.624782
 20
-59.061573
 40
0.133333
 50
270.0
 51
360.0
  0
LINE
  8
ボルト／ビス
  6
CONTINUOUS
 62
    64
 10
85.758115
 20
-60.227117
 11
85.838835
 21
-60.227117
  0
LINE
  8
ボルト／ビス
  6
CONTINUOUS
 62
    64
 10
85.54142
 20
-59.66157
 11
85.54142
 21
-59.428237
  0
LINE
  8
ボルト／ビス
  6
CONTINUOUS
 62
    64
 10
85.758115
 20
-59.794905
 11
85.758115
 21
-60.227117
  0
LINE
  8
ボルト／ビス
  6
CONTINUOUS
 62
    64
 10
85.54142
 20
-59.66157
 11
85.624783
 21
-59.66157
  0
ARC
  8
ボルト／ビス
  6
CONTINUOUS
 62
    64
 10
85.624782
 20
-59.794906
 40
0.133333
 50
0.0
 51
90.0
  0
LINE
  8
ボルト／ビス
  6
CONTINUOUS
 62
    64
 10
85.01975
 20
-58.26157
 11
85.01975
 21
-60.594905
  0
LINE
  8
ボルト／ビス
  6
CONTINUOUS
 62
    64
 10
81.853082
 20
-58.76157
 11
81.686418
 21
-58.928237
  0
LINE
  8
ボルト／ビス
  6
CONTINUOUS
 62
    64
 10
81.853082
 20
-60.094905
 11
81.686418
 21
-59.928237
  0
LINE
  8
ボルト／ビス
  6
CONTINUOUS
 62
    64
 10
81.853082
 20
-58.76157
 11
81.853082
 21
-60.094905
  0
LINE
  8
ボルト／ビス
  6
CONTINUOUS
 62
    64
 10
81.686418
 20
-58.928237
 11
81.686418
 21
-59.928237
  0
LINE
  8
ボルト／ビス
  6
CONTINUOUS
 62
    64
 10
86.543545
 20
-59.428237
 11
81.16146
 21
-59.428237
  0
LINE
  8
ボルト／ビス
  6
CONTINUOUS
 62
    64
 10
85.01975
 20
-58.76157
 11
81.853082
 21
-58.76157
  0
LINE
  8
ボルト／ビス
  6
CONTINUOUS
 62
    64
 10
85.01975
 20
-60.094905
 11
81.853082
 21
-60.094905
  0
LINE
  8
ボルト／ビス
  6
CONTINUOUS
 62
    64
 10
85.01975
 20
-59.928237
 11
81.686418
 21
-59.928237
  0
LINE
  8
ボルト／ビス
  6
CONTINUOUS
 62
    64
 10
85.01975
 20
-58.928237
 11
81.686418
 21
-58.928237
  0
ENDBLK
  0
BLOCK
  2
*GRP_0029
 70
    65
 10
0.0
 20
0.0
  0
LINE
  8
ボルト／ビス
  6
DOT
 62
    64
 10
-69.017468
 20
-40.001745
 11
-68.117468
 21
-39.26841
  0
LINE
  8
ボルト／ビス
  6
DOT
 62
    64
 10
-69.017468
 20
-37.201745
 11
-68.117468
 21
-37.935077
  0
LINE
  8
ボルト／ビス
  6
DOT
 62
    64
 10
-69.017468
 20
-37.201745
 11
-69.017468
 21
-40.001745
  0
LINE
  8
ボルト／ビス
  6
DOT
 62
    64
 10
-68.117468
 20
-37.935077
 11
-68.117468
 21
-39.26841
  0
LINE
  8
ボルト／ビス
  6
DOT
 62
    64
 10
-70.42349
 20
-38.601745
 11
-50.684657
 21
-38.601745
  0
LINE
  8
ボルト／ビス
  6
DOT
 62
    64
 10
-52.517468
 20
-37.935077
 11
-52.3508
 21
-38.101745
  0
LINE
  8
ボルト／ビス
  6
DOT
 62
    64
 10
-52.517468
 20
-39.26841
 11
-52.3508
 21
-39.101745
  0
LINE
  8
ボルト／ビス
  6
DOT
 62
    64
 10
-52.3508
 20
-39.101745
 11
-52.3508
 21
-38.101745
  0
LINE
  8
ボルト／ビス
  6
DOT
 62
    64
 10
-52.517468
 20
-39.26841
 11
-52.517468
 21
-37.935077
  0
LINE
  8
ボルト／ビス
  6
DOT
 62
    64
 10
-68.117468
 20
-38.101745
 11
-52.3508
 21
-38.101745
  0
LINE
  8
ボルト／ビス
  6
DOT
 62
    64
 10
-68.117468
 20
-39.101745
 11
-52.3508
 21
-39.101745
  0
LINE
  8
ボルト／ビス
  6
DOT
 62
    64
 10
-68.117468
 20
-37.935077
 11
-52.517468
 21
-37.935077
  0
LINE
  8
ボルト／ビス
  6
DOT
 62
    64
 10
-68.117468
 20
-39.26841
 11
-52.517468
 21
-39.26841
  0
ENDBLK
  0
BLOCK
  2
*GRP_0030
 70
    65
 10
0.0
 20
0.0
  0
LINE
  8
ボルト／ビス
  6
DOT
 62
    64
 10
60.153008
 20
-40.001745
 11
59.253008
 21
-39.26841
  0
LINE
  8
ボルト／ビス
  6
DOT
 62
    64
 10
60.153008
 20
-37.201745
 11
59.253008
 21
-37.935077
  0
LINE
  8
ボルト／ビス
  6
DOT
 62
    64
 10
60.153008
 20
-37.201745
 11
60.153008
 21
-40.001745
  0
LINE
  8
ボルト／ビス
  6
DOT
 62
    64
 10
59.253008
 20
-37.935077
 11
59.253008
 21
-39.26841
  0
LINE
  8
ボルト／ビス
  6
DOT
 62
    64
 10
61.55903
 20
-38.601745
 11
41.820197
 21
-38.601745
  0
LINE
  8
ボルト／ビス
  6
DOT
 62
    64
 10
43.653008
 20
-37.935077
 11
43.48634
 21
-38.101745
  0
LINE
  8
ボルト／ビス
  6
DOT
 62
    64
 10
43.653008
 20
-39.26841
 11
43.48634
 21
-39.101745
  0
LINE
  8
ボルト／ビス
  6
DOT
 62
    64
 10
43.48634
 20
-39.101745
 11
43.48634
 21
-38.101745
  0
LINE
  8
ボルト／ビス
  6
DOT
 62
    64
 10
43.653008
 20
-39.26841
 11
43.653008
 21
-37.935077
  0
LINE
  8
ボルト／ビス
  6
DOT
 62
    64
 10
59.253008
 20
-38.101745
 11
43.48634
 21
-38.101745
  0
LINE
  8
ボルト／ビス
  6
DOT
 62
    64
 10
59.253008
 20
-39.101745
 11
43.48634
 21
-39.101745
  0
LINE
  8
ボルト／ビス
  6
DOT
 62
    64
 10
59.253008
 20
-37.935077
 11
43.653008
 21
-37.935077
  0
LINE
  8
ボルト／ビス
  6
DOT
 62
    64
 10
59.253008
 20
-39.26841
 11
43.653008
 21
-39.26841
  0
ENDBLK
  0
BLOCK
  2
*GRP_0031
 70
    65
 10
0.0
 20
0.0
  0
POLYLINE
  8
ボルト／ビス
  6
CONTINUOUS
 62
    64
 66
     1
  0
VERTEX
  8
ボルト／ビス
 10
55.985602
 20
-58.6684
  0
VERTEX
  8
ボルト／ビス
 10
55.981603
 20
-58.684725
  0
VERTEX
  8
ボルト／ビス
 10
55.969602
 20
-58.7009
  0
VERTEX
  8
ボルト／ビス
 10
55.949725
 20
-58.71678
  0
VERTEX
  8
ボルト／ビス
 10
55.922172
 20
-58.73218
  0
VERTEX
  8
ボルト／ビス
 10
55.887203
 20
-58.746953
  0
VERTEX
  8
ボルト／ビス
 10
55.845175
 20
-58.76098
  0
VERTEX
  8
ボルト／ビス
 10
55.796445
 20
-58.774125
  0
VERTEX
  8
ボルト／ビス
 10
55.741525
 20
-58.786252
  0
VERTEX
  8
ボルト／ビス
 10
55.680925
 20
-58.797225
  0
VERTEX
  8
ボルト／ビス
 10
55.615245
 20
-58.80698
  0
VERTEX
  8
ボルト／ビス
 10
55.545103
 20
-58.81538
  0
VERTEX
  8
ボルト／ビス
 10
55.471185
 20
-58.82238
  0
VERTEX
  8
ボルト／ビス
 10
55.394175
 20
-58.82788
  0
VERTEX
  8
ボルト／ビス
 10
55.314862
 20
-58.831852
  0
VERTEX
  8
ボルト／ビス
 10
55.233945
 20
-58.834253
  0
VERTEX
  8
ボルト／ビス
 10
55.152285
 20
-58.835052
  0
VERTEX
  8
ボルト／ビス
 10
55.070605
 20
-58.834253
  0
VERTEX
  8
ボルト／ビス
 10
54.989705
 20
-58.831852
  0
VERTEX
  8
ボルト／ビス
 10
54.910385
 20
-58.82788
  0
VERTEX
  8
ボルト／ビス
 10
54.833385
 20
-58.82238
  0
VERTEX
  8
ボルト／ビス
 10
54.759462
 20
-58.81538
  0
VERTEX
  8
ボルト／ビス
 10
54.689305
 20
-58.80698
  0
VERTEX
  8
ボルト／ビス
 10
54.623632
 20
-58.797225
  0
VERTEX
  8
ボルト／ビス
 10
54.563033
 20
-58.786252
  0
VERTEX
  8
ボルト／ビス
 10
54.508105
 20
-58.774125
  0
VERTEX
  8
ボルト／ビス
 10
54.459385
 20
-58.76098
  0
VERTEX
  8
ボルト／ビス
 10
54.417362
 20
-58.746953
  0
VERTEX
  8
ボルト／ビス
 10
54.382385
 20
-58.73218
  0
VERTEX
  8
ボルト／ビス
 10
54.354835
 20
-58.71678
  0
VERTEX
  8
ボルト／ビス
 10
54.334963
 20
-58.7009
  0
VERTEX
  8
ボルト／ビス
 10
54.322945
 20
-58.684725
  0
VERTEX
  8
ボルト／ビス
 10
54.318963
 20
-58.6684
  0
SEQEND
  0
LINE
  8
ボルト／ビス
  6
CONTINUOUS
 62
    64
 10
55.985602
 20
-58.6684
 11
56.152275
 21
-58.22566
  0
LINE
  8
ボルト／ビス
  6
CONTINUOUS
 62
    64
 10
54.322945
 20
-58.684725
 11
54.152285
 21
-58.22566
  0
LINE
  8
ボルト／ビス
  6
CONTINUOUS
 62
    64
 10
54.152285
 20
-58.001725
 11
54.152285
 21
-58.22566
  0
LINE
  8
ボルト／ビス
  6
CONTINUOUS
 62
    64
 10
56.152275
 20
-58.001725
 11
56.152275
 21
-58.22566
  0
ARC
  8
ボルト／ビス
  6
CONTINUOUS
 62
    64
 10
55.152279
 20
-58.55841
 40
0.033333
 50
9.840875
 51
170.159125
  0
LINE
  8
ボルト／ビス
  6
CONTINUOUS
 62
    64
 10
55.220472
 20
-58.7565
 11
55.545103
 21
-58.81538
  0
LINE
  8
ボルト／ビス
  6
CONTINUOUS
 62
    64
 10
55.084085
 20
-58.7565
 11
54.759462
 21
-58.81538
  0
LINE
  8
ボルト／ビス
  6
CONTINUOUS
 62
    64
 10
55.185132
 20
-58.5527
 11
55.220472
 21
-58.7565
  0
LINE
  8
ボルト／ビス
  6
CONTINUOUS
 62
    64
 10
55.119425
 20
-58.5527
 11
55.084085
 21
-58.7565
  0
LINE
  8
ボルト／ビス
  6
CONTINUOUS
 62
    64
 10
56.152275
 20
-58.001725
 11
54.152285
 21
-58.001725
  0
LINE
  8
ボルト／ビス
  6
CONTINUOUS
 62
    64
 10
55.818945
 20
-55.16842
 11
55.652275
 21
-55.001745
  0
LINE
  8
ボルト／ビス
  6
CONTINUOUS
 62
    64
 10
54.652285
 20
-55.001745
 11
54.485605
 21
-55.16842
  0
LINE
  8
ボルト／ビス
  6
CONTINUOUS
 62
    64
 10
54.652285
 20
-58.001725
 11
54.652285
 21
-55.001745
  0
LINE
  8
ボルト／ビス
  6
CONTINUOUS
 62
    64
 10
54.652285
 20
-55.001745
 11
55.652275
 21
-55.001745
  0
LINE
  8
ボルト／ビス
  6
CONTINUOUS
 62
    64
 10
55.652275
 20
-58.001725
 11
55.652275
 21
-55.001745
  0
LINE
  8
ボルト／ビス
  6
CONTINUOUS
 62
    64
 10
55.818945
 20
-58.001725
 11
55.818945
 21
-55.16842
  0
LINE
  8
ボルト／ビス
  6
CONTINUOUS
 62
    64
 10
55.818945
 20
-55.16842
 11
54.485605
 21
-55.16842
  0
LINE
  8
ボルト／ビス
  6
CONTINUOUS
 62
    64
 10
54.485605
 20
-58.001725
 11
54.485605
 21
-55.16842
  0
LINE
  8
ボルト／ビス
  6
CONTINUOUS
 62
    64
 10
55.152285
 20
-60.304645
 11
55.152285
 21
-54.416072
  0
ENDBLK
  0
BLOCK
  2
*GRP_0032
 70
    65
 10
0.0
 20
0.0
  0
POLYLINE
  8
ボルト／ビス
  6
CONTINUOUS
 62
    64
 66
     1
  0
VERTEX
  8
ボルト／ビス
 10
82.986335
 20
-58.6684
  0
VERTEX
  8
ボルト／ビス
 10
82.982332
 20
-58.684725
  0
VERTEX
  8
ボルト／ビス
 10
82.970333
 20
-58.7009
  0
VERTEX
  8
ボルト／ビス
 10
82.950462
 20
-58.71678
  0
VERTEX
  8
ボルト／ビス
 10
82.922905
 20
-58.73218
  0
VERTEX
  8
ボルト／ビス
 10
82.887935
 20
-58.746953
  0
VERTEX
  8
ボルト／ビス
 10
82.845905
 20
-58.76098
  0
VERTEX
  8
ボルト／ビス
 10
82.797183
 20
-58.774125
  0
VERTEX
  8
ボルト／ビス
 10
82.742262
 20
-58.786252
  0
VERTEX
  8
ボルト／ビス
 10
82.681662
 20
-58.797225
  0
VERTEX
  8
ボルト／ビス
 10
82.615983
 20
-58.80698
  0
VERTEX
  8
ボルト／ビス
 10
82.545832
 20
-58.81538
  0
VERTEX
  8
ボルト／ビス
 10
82.471923
 20
-58.82238
  0
VERTEX
  8
ボルト／ビス
 10
82.394905
 20
-58.82788
  0
VERTEX
  8
ボルト／ビス
 10
82.315592
 20
-58.831852
  0
VERTEX
  8
ボルト／ビス
 10
82.234683
 20
-58.834253
  0
VERTEX
  8
ボルト／ビス
 10
82.153023
 20
-58.835052
  0
VERTEX
  8
ボルト／ビス
 10
82.071342
 20
-58.834253
  0
VERTEX
  8
ボルト／ビス
 10
81.990443
 20
-58.831852
  0
VERTEX
  8
ボルト／ビス
 10
81.911123
 20
-58.82788
  0
VERTEX
  8
ボルト／ビス
 10
81.834123
 20
-58.82238
  0
VERTEX
  8
ボルト／ビス
 10
81.760193
 20
-58.81538
  0
VERTEX
  8
ボルト／ビス
 10
81.690042
 20
-58.80698
  0
VERTEX
  8
ボルト／ビス
 10
81.624365
 20
-58.797225
  0
VERTEX
  8
ボルト／ビス
 10
81.563765
 20
-58.786252
  0
VERTEX
  8
ボルト／ビス
 10
81.508842
 20
-58.774125
  0
VERTEX
  8
ボルト／ビス
 10
81.460123
 20
-58.76098
  0
VERTEX
  8
ボルト／ビス
 10
81.418095
 20
-58.746953
  0
VERTEX
  8
ボルト／ビス
 10
81.383122
 20
-58.73218
  0
VERTEX
  8
ボルト／ビス
 10
81.355565
 20
-58.71678
  0
VERTEX
  8
ボルト／ビス
 10
81.335693
 20
-58.7009
  0
VERTEX
  8
ボルト／ビス
 10
81.323682
 20
-58.684725
  0
VERTEX
  8
ボルト／ビス
 10
81.319695
 20
-58.6684
  0
SEQEND
  0
LINE
  8
ボルト／ビス
  6
CONTINUOUS
 62
    64
 10
82.986335
 20
-58.6684
 11
83.153005
 21
-58.22566
  0
LINE
  8
ボルト／ビス
  6
CONTINUOUS
 62
    64
 10
81.323682
 20
-58.684725
 11
81.153023
 21
-58.22566
  0
LINE
  8
ボルト／ビス
  6
CONTINUOUS
 62
    64
 10
81.153023
 20
-58.001725
 11
81.153023
 21
-58.22566
  0
LINE
  8
ボルト／ビス
  6
CONTINUOUS
 62
    64
 10
83.153005
 20
-58.001725
 11
83.153005
 21
-58.22566
  0
ARC
  8
ボルト／ビス
  6
CONTINUOUS
 62
    64
 10
82.153014
 20
-58.55841
 40
0.033333
 50
9.840875
 51
170.159125
  0
LINE
  8
ボルト／ビス
  6
CONTINUOUS
 62
    64
 10
82.221205
 20
-58.7565
 11
82.545832
 21
-58.81538
  0
LINE
  8
ボルト／ビス
  6
CONTINUOUS
 62
    64
 10
82.084822
 20
-58.7565
 11
81.760193
 21
-58.81538
  0
LINE
  8
ボルト／ビス
  6
CONTINUOUS
 62
    64
 10
82.185865
 20
-58.5527
 11
82.221205
 21
-58.7565
  0
LINE
  8
ボルト／ビス
  6
CONTINUOUS
 62
    64
 10
82.120162
 20
-58.5527
 11
82.084822
 21
-58.7565
  0
LINE
  8
ボルト／ビス
  6
CONTINUOUS
 62
    64
 10
83.153005
 20
-58.001725
 11
81.153023
 21
-58.001725
  0
LINE
  8
ボルト／ビス
  6
CONTINUOUS
 62
    64
 10
82.819683
 20
-55.16842
 11
82.653005
 21
-55.001745
  0
LINE
  8
ボルト／ビス
  6
CONTINUOUS
 62
    64
 10
81.653023
 20
-55.001745
 11
81.486342
 21
-55.16842
  0
LINE
  8
ボルト／ビス
  6
CONTINUOUS
 62
    64
 10
81.653023
 20
-58.001725
 11
81.653023
 21
-55.001745
  0
LINE
  8
ボルト／ビス
  6
CONTINUOUS
 62
    64
 10
81.653023
 20
-55.001745
 11
82.653005
 21
-55.001745
  0
LINE
  8
ボルト／ビス
  6
CONTINUOUS
 62
    64
 10
82.653005
 20
-58.001725
 11
82.653005
 21
-55.001745
  0
LINE
  8
ボルト／ビス
  6
CONTINUOUS
 62
    64
 10
82.819683
 20
-58.001725
 11
82.819683
 21
-55.16842
  0
LINE
  8
ボルト／ビス
  6
CONTINUOUS
 62
    64
 10
82.819683
 20
-55.16842
 11
81.486342
 21
-55.16842
  0
LINE
  8
ボルト／ビス
  6
CONTINUOUS
 62
    64
 10
81.486342
 20
-58.001725
 11
81.486342
 21
-55.16842
  0
LINE
  8
ボルト／ビス
  6
CONTINUOUS
 62
    64
 10
82.153023
 20
-60.304645
 11
82.153023
 21
-54.416072
  0
ENDBLK
  0
BLOCK
  2
*GRP_0033
 70
    65
 10
0.0
 20
0.0
  0
LINE
  8
ボルト／ビス
  6
CONTINUOUS
 62
    64
 10
74.870003
 20
-70.686615
 11
74.718235
 21
-71.10359
  0
ARC
  8
ボルト／ビス
  6
CONTINUOUS
 62
    64
 10
73.50528
 20
-70.47813
 40
1.364723
 50
0.0
 51
27.277966
  0
LINE
  8
ボルト／ビス
  6
CONTINUOUS
 62
    64
 10
74.870003
 20
-66.516863
 11
74.718235
 21
-66.099888
  0
ARC
  8
ボルト／ビス
  6
CONTINUOUS
 62
    64
 10
73.50528
 20
-66.725351
 40
1.364723
 50
332.722034
 51
360.0
  0
ARC
  8
ボルト／ビス
  6
CONTINUOUS
 62
    64
 10
69.638759
 20
-68.601741
 40
5.231244
 50
346.165046
 51
373.834954
  0
LINE
  8
ボルト／ビス
  6
CONTINUOUS
 62
    64
 10
73.153335
 20
-71.10359
 11
74.718235
 21
-71.10359
  0
LINE
  8
ボルト／ビス
  6
CONTINUOUS
 62
    64
 10
73.153335
 20
-66.099888
 11
74.718235
 21
-66.099888
  0
LINE
  8
ボルト／ビス
  6
CONTINUOUS
 62
    64
 10
74.870003
 20
-66.516863
 11
74.870003
 21
-70.686615
  0
LINE
  8
ボルト／ビス
  6
CONTINUOUS
 62
    64
 10
74.718235
 20
-67.350813
 11
73.153335
 21
-67.350813
  0
LINE
  8
ボルト／ビス
  6
CONTINUOUS
 62
    64
 10
74.718235
 20
-69.852665
 11
73.153335
 21
-69.852665
  0
LINE
  8
ボルト／ビス
  6
CONTINUOUS
 62
    64
 10
73.153335
 20
-66.099888
 11
73.153335
 21
-71.10359
  0
LINE
  8
ボルト／ビス
  6
CONTINUOUS
 62
    64
 10
72.553335
 20
-71.518405
 11
72.220003
 21
-71.518405
  0
LINE
  8
ボルト／ビス
  6
CONTINUOUS
 62
    64
 10
72.553335
 20
-65.685073
 11
72.220003
 21
-65.685073
  0
LINE
  8
ボルト／ビス
  6
CONTINUOUS
 62
    64
 10
72.553335
 20
-71.518405
 11
72.553335
 21
-65.685073
  0
LINE
  8
ボルト／ビス
  6
CONTINUOUS
 62
    64
 10
72.220003
 20
-71.518405
 11
72.220003
 21
-65.685073
  0
LINE
  8
ボルト／ビス
  6
CONTINUOUS
 62
    64
 10
73.153335
 20
-68.601738
 11
72.553335
 21
-68.601738
  0
LINE
  8
ボルト／ビス
  6
CONTINUOUS
 62
    64
 10
73.153335
 20
-65.968405
 11
72.553335
 21
-65.968405
  0
LINE
  8
ボルト／ビス
  6
CONTINUOUS
 62
    64
 10
73.153335
 20
-71.235073
 11
72.553335
 21
-71.235073
  0
LINE
  8
ボルト／ビス
  6
CONTINUOUS
 62
    64
 10
73.153335
 20
-65.968405
 11
73.153335
 21
-71.235073
  0
LINE
  8
ボルト／ビス
  6
CONTINUOUS
 62
    64
 10
76.536667
 20
-68.601738
 11
63.153335
 21
-68.601738
  0
LINE
  8
ボルト／ビス
  6
CONTINUOUS
 62
    64
 10
64.820003
 20
-67.535073
 11
64.820003
 21
-69.668405
  0
LINE
  8
ボルト／ビス
  6
CONTINUOUS
 62
    64
 10
65.220003
 20
-67.268405
 11
64.820003
 21
-67.535073
  0
LINE
  8
ボルト／ビス
  6
CONTINUOUS
 62
    64
 10
65.220003
 20
-69.935073
 11
64.820003
 21
-69.668405
  0
LINE
  8
ボルト／ビス
  6
CONTINUOUS
 62
    64
 10
64.820003
 20
-67.535073
 11
64.820003
 21
-69.668405
  0
LINE
  8
ボルト／ビス
  6
CONTINUOUS
 62
    64
 10
65.220003
 20
-67.268405
 11
65.220003
 21
-69.935073
  0
LINE
  8
ボルト／ビス
  6
CONTINUOUS
 62
    64
 10
72.220003
 20
-67.268405
 11
65.220003
 21
-67.268405
  0
LINE
  8
ボルト／ビス
  6
CONTINUOUS
 62
    64
 10
72.220003
 20
-69.935073
 11
65.220003
 21
-69.935073
  0
LINE
  8
ボルト／ビス
  6
CONTINUOUS
 62
    64
 10
72.220003
 20
-67.535073
 11
64.820003
 21
-67.535073
  0
LINE
  8
ボルト／ビス
  6
CONTINUOUS
 62
    64
 10
72.220003
 20
-69.668405
 11
64.820003
 21
-69.668405
  0
ENDBLK
  0
BLOCK
  2
*GRP_0034
 70
    65
 10
0.0
 20
0.0
  0
LINE
  8
ボルト／ビス
  6
CONTINUOUS
 62
    64
 10
67.436667
 20
-70.686612
 11
67.588433
 21
-71.103587
  0
ARC
  8
ボルト／ビス
  6
CONTINUOUS
 62
    64
 10
68.80139
 20
-70.478129
 40
1.364723
 50
152.722034
 51
180.0
  0
LINE
  8
ボルト／ビス
  6
CONTINUOUS
 62
    64
 10
67.436667
 20
-66.51686
 11
67.588433
 21
-66.099885
  0
ARC
  8
ボルト／ビス
  6
CONTINUOUS
 62
    64
 10
68.80139
 20
-66.72535
 40
1.364723
 50
180.0
 51
207.277966
  0
ARC
  8
ボルト／ビス
  6
CONTINUOUS
 62
    64
 10
72.667911
 20
-68.601739
 40
5.231244
 50
166.165046
 51
193.834954
  0
LINE
  8
ボルト／ビス
  6
CONTINUOUS
 62
    64
 10
69.153335
 20
-71.103587
 11
67.588433
 21
-71.103587
  0
LINE
  8
ボルト／ビス
  6
CONTINUOUS
 62
    64
 10
69.153335
 20
-66.099885
 11
67.588433
 21
-66.099885
  0
LINE
  8
ボルト／ビス
  6
CONTINUOUS
 62
    64
 10
67.436667
 20
-66.51686
 11
67.436667
 21
-70.686612
  0
LINE
  8
ボルト／ビス
  6
CONTINUOUS
 62
    64
 10
67.588433
 20
-67.35081
 11
69.153335
 21
-67.35081
  0
LINE
  8
ボルト／ビス
  6
CONTINUOUS
 62
    64
 10
67.588433
 20
-69.852663
 11
69.153335
 21
-69.852663
  0
LINE
  8
ボルト／ビス
  6
CONTINUOUS
 62
    64
 10
69.153335
 20
-66.099885
 11
69.153335
 21
-71.103587
  0
LINE
  8
ボルト／ビス
  6
CONTINUOUS
 62
    64
 10
69.753335
 20
-71.518402
 11
70.086667
 21
-71.518402
  0
LINE
  8
ボルト／ビス
  6
CONTINUOUS
 62
    64
 10
69.753335
 20
-65.68507
 11
70.086667
 21
-65.68507
  0
LINE
  8
ボルト／ビス
  6
CONTINUOUS
 62
    64
 10
69.753335
 20
-71.518402
 11
69.753335
 21
-65.68507
  0
LINE
  8
ボルト／ビス
  6
CONTINUOUS
 62
    64
 10
70.086667
 20
-71.518402
 11
70.086667
 21
-65.68507
  0
LINE
  8
ボルト／ビス
  6
CONTINUOUS
 62
    64
 10
69.153335
 20
-68.601735
 11
69.753335
 21
-68.601735
  0
LINE
  8
ボルト／ビス
  6
CONTINUOUS
 62
    64
 10
69.153335
 20
-65.968402
 11
69.753335
 21
-65.968402
  0
LINE
  8
ボルト／ビス
  6
CONTINUOUS
 62
    64
 10
69.153335
 20
-71.23507
 11
69.753335
 21
-71.23507
  0
LINE
  8
ボルト／ビス
  6
CONTINUOUS
 62
    64
 10
69.153335
 20
-65.968402
 11
69.153335
 21
-71.23507
  0
ENDBLK
  0
BLOCK
  2
*GRP_0035
 70
    65
 10
0.0
 20
0.0
  0
POLYLINE
  8
ボルト／ビス
  6
CONTINUOUS
 62
    64
 66
     1
  0
VERTEX
  8
ボルト／ビス
 10
-64.850062
 20
-58.6684
  0
VERTEX
  8
ボルト／ビス
 10
-64.846062
 20
-58.684725
  0
VERTEX
  8
ボルト／ビス
 10
-64.834062
 20
-58.7009
  0
VERTEX
  8
ボルト／ビス
 10
-64.814185
 20
-58.71678
  0
VERTEX
  8
ボルト／ビス
 10
-64.786632
 20
-58.73218
  0
VERTEX
  8
ボルト／ビス
 10
-64.751663
 20
-58.746953
  0
VERTEX
  8
ボルト／ビス
 10
-64.709635
 20
-58.76098
  0
VERTEX
  8
ボルト／ビス
 10
-64.660905
 20
-58.774125
  0
VERTEX
  8
ボルト／ビス
 10
-64.605985
 20
-58.786252
  0
VERTEX
  8
ボルト／ビス
 10
-64.545385
 20
-58.797225
  0
VERTEX
  8
ボルト／ビス
 10
-64.479705
 20
-58.80698
  0
VERTEX
  8
ボルト／ビス
 10
-64.409562
 20
-58.81538
  0
VERTEX
  8
ボルト／ビス
 10
-64.335645
 20
-58.82238
  0
VERTEX
  8
ボルト／ビス
 10
-64.258635
 20
-58.82788
  0
VERTEX
  8
ボルト／ビス
 10
-64.179323
 20
-58.831852
  0
VERTEX
  8
ボルト／ビス
 10
-64.098405
 20
-58.834253
  0
VERTEX
  8
ボルト／ビス
 10
-64.016745
 20
-58.835052
  0
VERTEX
  8
ボルト／ビス
 10
-63.935065
 20
-58.834253
  0
VERTEX
  8
ボルト／ビス
 10
-63.854165
 20
-58.831852
  0
VERTEX
  8
ボルト／ビス
 10
-63.774845
 20
-58.82788
  0
VERTEX
  8
ボルト／ビス
 10
-63.697845
 20
-58.82238
  0
VERTEX
  8
ボルト／ビス
 10
-63.623923
 20
-58.81538
  0
VERTEX
  8
ボルト／ビス
 10
-63.553765
 20
-58.80698
  0
VERTEX
  8
ボルト／ビス
 10
-63.488093
 20
-58.797225
  0
VERTEX
  8
ボルト／ビス
 10
-63.427492
 20
-58.786252
  0
VERTEX
  8
ボルト／ビス
 10
-63.372565
 20
-58.774125
  0
VERTEX
  8
ボルト／ビス
 10
-63.323845
 20
-58.76098
  0
VERTEX
  8
ボルト／ビス
 10
-63.281822
 20
-58.746953
  0
VERTEX
  8
ボルト／ビス
 10
-63.246845
 20
-58.73218
  0
VERTEX
  8
ボルト／ビス
 10
-63.219295
 20
-58.71678
  0
VERTEX
  8
ボルト／ビス
 10
-63.199423
 20
-58.7009
  0
VERTEX
  8
ボルト／ビス
 10
-63.187405
 20
-58.684725
  0
VERTEX
  8
ボルト／ビス
 10
-63.183422
 20
-58.6684
  0
SEQEND
  0
LINE
  8
ボルト／ビス
  6
CONTINUOUS
 62
    64
 10
-64.850062
 20
-58.6684
 11
-65.016735
 21
-58.22566
  0
LINE
  8
ボルト／ビス
  6
CONTINUOUS
 62
    64
 10
-63.187405
 20
-58.684725
 11
-63.016745
 21
-58.22566
  0
LINE
  8
ボルト／ビス
  6
CONTINUOUS
 62
    64
 10
-63.016745
 20
-58.001725
 11
-63.016745
 21
-58.22566
  0
LINE
  8
ボルト／ビス
  6
CONTINUOUS
 62
    64
 10
-65.016735
 20
-58.001725
 11
-65.016735
 21
-58.22566
  0
ARC
  8
ボルト／ビス
  6
CONTINUOUS
 62
    64
 10
-64.016739
 20
-58.55841
 40
0.033333
 50
9.840875
 51
170.159125
  0
LINE
  8
ボルト／ビス
  6
CONTINUOUS
 62
    64
 10
-64.084933
 20
-58.7565
 11
-64.409562
 21
-58.81538
  0
LINE
  8
ボルト／ビス
  6
CONTINUOUS
 62
    64
 10
-63.948545
 20
-58.7565
 11
-63.623923
 21
-58.81538
  0
LINE
  8
ボルト／ビス
  6
CONTINUOUS
 62
    64
 10
-64.049593
 20
-58.5527
 11
-64.084933
 21
-58.7565
  0
LINE
  8
ボルト／ビス
  6
CONTINUOUS
 62
    64
 10
-63.983885
 20
-58.5527
 11
-63.948545
 21
-58.7565
  0
LINE
  8
ボルト／ビス
  6
CONTINUOUS
 62
    64
 10
-65.016735
 20
-58.001725
 11
-63.016745
 21
-58.001725
  0
LINE
  8
ボルト／ビス
  6
CONTINUOUS
 62
    64
 10
-64.683405
 20
-55.16842
 11
-64.516735
 21
-55.001745
  0
LINE
  8
ボルト／ビス
  6
CONTINUOUS
 62
    64
 10
-63.516745
 20
-55.001745
 11
-63.350065
 21
-55.16842
  0
LINE
  8
ボルト／ビス
  6
CONTINUOUS
 62
    64
 10
-63.516745
 20
-58.001725
 11
-63.516745
 21
-55.001745
  0
LINE
  8
ボルト／ビス
  6
CONTINUOUS
 62
    64
 10
-63.516745
 20
-55.001745
 11
-64.516735
 21
-55.001745
  0
LINE
  8
ボルト／ビス
  6
CONTINUOUS
 62
    64
 10
-64.516735
 20
-58.001725
 11
-64.516735
 21
-55.001745
  0
LINE
  8
ボルト／ビス
  6
CONTINUOUS
 62
    64
 10
-64.683405
 20
-58.001725
 11
-64.683405
 21
-55.16842
  0
LINE
  8
ボルト／ビス
  6
CONTINUOUS
 62
    64
 10
-64.683405
 20
-55.16842
 11
-63.350065
 21
-55.16842
  0
LINE
  8
ボルト／ビス
  6
CONTINUOUS
 62
    64
 10
-63.350065
 20
-58.001725
 11
-63.350065
 21
-55.16842
  0
LINE
  8
ボルト／ビス
  6
CONTINUOUS
 62
    64
 10
-64.016745
 20
-60.304645
 11
-64.016745
 21
-54.416072
  0
ENDBLK
  0
BLOCK
  2
*GRP_0036
 70
    65
 10
0.0
 20
0.0
  0
POLYLINE
  8
ボルト／ビス
  6
CONTINUOUS
 62
    64
 66
     1
  0
VERTEX
  8
ボルト／ビス
 10
-91.850795
 20
-58.6684
  0
VERTEX
  8
ボルト／ビス
 10
-91.846792
 20
-58.684725
  0
VERTEX
  8
ボルト／ビス
 10
-91.834793
 20
-58.7009
  0
VERTEX
  8
ボルト／ビス
 10
-91.814923
 20
-58.71678
  0
VERTEX
  8
ボルト／ビス
 10
-91.787365
 20
-58.73218
  0
VERTEX
  8
ボルト／ビス
 10
-91.752395
 20
-58.746953
  0
VERTEX
  8
ボルト／ビス
 10
-91.710365
 20
-58.76098
  0
VERTEX
  8
ボルト／ビス
 10
-91.661643
 20
-58.774125
  0
VERTEX
  8
ボルト／ビス
 10
-91.606722
 20
-58.786252
  0
VERTEX
  8
ボルト／ビス
 10
-91.546122
 20
-58.797225
  0
VERTEX
  8
ボルト／ビス
 10
-91.480443
 20
-58.80698
  0
VERTEX
  8
ボルト／ビス
 10
-91.410293
 20
-58.81538
  0
VERTEX
  8
ボルト／ビス
 10
-91.336383
 20
-58.82238
  0
VERTEX
  8
ボルト／ビス
 10
-91.259365
 20
-58.82788
  0
VERTEX
  8
ボルト／ビス
 10
-91.180052
 20
-58.831852
  0
VERTEX
  8
ボルト／ビス
 10
-91.099143
 20
-58.834253
  0
VERTEX
  8
ボルト／ビス
 10
-91.017483
 20
-58.835052
  0
VERTEX
  8
ボルト／ビス
 10
-90.935803
 20
-58.834253
  0
VERTEX
  8
ボルト／ビス
 10
-90.854903
 20
-58.831852
  0
VERTEX
  8
ボルト／ビス
 10
-90.775583
 20
-58.82788
  0
VERTEX
  8
ボルト／ビス
 10
-90.698582
 20
-58.82238
  0
VERTEX
  8
ボルト／ビス
 10
-90.624652
 20
-58.81538
  0
VERTEX
  8
ボルト／ビス
 10
-90.554503
 20
-58.80698
  0
VERTEX
  8
ボルト／ビス
 10
-90.488825
 20
-58.797225
  0
VERTEX
  8
ボルト／ビス
 10
-90.428225
 20
-58.786252
  0
VERTEX
  8
ボルト／ビス
 10
-90.373303
 20
-58.774125
  0
VERTEX
  8
ボルト／ビス
 10
-90.324582
 20
-58.76098
  0
VERTEX
  8
ボルト／ビス
 10
-90.282555
 20
-58.746953
  0
VERTEX
  8
ボルト／ビス
 10
-90.247583
 20
-58.73218
  0
VERTEX
  8
ボルト／ビス
 10
-90.220025
 20
-58.71678
  0
VERTEX
  8
ボルト／ビス
 10
-90.200152
 20
-58.7009
  0
VERTEX
  8
ボルト／ビス
 10
-90.188142
 20
-58.684725
  0
VERTEX
  8
ボルト／ビス
 10
-90.184155
 20
-58.6684
  0
SEQEND
  0
LINE
  8
ボルト／ビス
  6
CONTINUOUS
 62
    64
 10
-91.850795
 20
-58.6684
 11
-92.017465
 21
-58.22566
  0
LINE
  8
ボルト／ビス
  6
CONTINUOUS
 62
    64
 10
-90.188142
 20
-58.684725
 11
-90.017483
 21
-58.22566
  0
LINE
  8
ボルト／ビス
  6
CONTINUOUS
 62
    64
 10
-90.017483
 20
-58.001725
 11
-90.017483
 21
-58.22566
  0
LINE
  8
ボルト／ビス
  6
CONTINUOUS
 62
    64
 10
-92.017465
 20
-58.001725
 11
-92.017465
 21
-58.22566
  0
ARC
  8
ボルト／ビス
  6
CONTINUOUS
 62
    64
 10
-91.017474
 20
-58.55841
 40
0.033333
 50
9.840875
 51
170.159125
  0
LINE
  8
ボルト／ビス
  6
CONTINUOUS
 62
    64
 10
-91.085665
 20
-58.7565
 11
-91.410293
 21
-58.81538
  0
LINE
  8
ボルト／ビス
  6
CONTINUOUS
 62
    64
 10
-90.949283
 20
-58.7565
 11
-90.624652
 21
-58.81538
  0
LINE
  8
ボルト／ビス
  6
CONTINUOUS
 62
    64
 10
-91.050325
 20
-58.5527
 11
-91.085665
 21
-58.7565
  0
LINE
  8
ボルト／ビス
  6
CONTINUOUS
 62
    64
 10
-90.984623
 20
-58.5527
 11
-90.949283
 21
-58.7565
  0
LINE
  8
ボルト／ビス
  6
CONTINUOUS
 62
    64
 10
-92.017465
 20
-58.001725
 11
-90.017483
 21
-58.001725
  0
LINE
  8
ボルト／ビス
  6
CONTINUOUS
 62
    64
 10
-91.684142
 20
-55.16842
 11
-91.517465
 21
-55.001745
  0
LINE
  8
ボルト／ビス
  6
CONTINUOUS
 62
    64
 10
-90.517483
 20
-55.001745
 11
-90.350803
 21
-55.16842
  0
LINE
  8
ボルト／ビス
  6
CONTINUOUS
 62
    64
 10
-90.517483
 20
-58.001725
 11
-90.517483
 21
-55.001745
  0
LINE
  8
ボルト／ビス
  6
CONTINUOUS
 62
    64
 10
-90.517483
 20
-55.001745
 11
-91.517465
 21
-55.001745
  0
LINE
  8
ボルト／ビス
  6
CONTINUOUS
 62
    64
 10
-91.517465
 20
-58.001725
 11
-91.517465
 21
-55.001745
  0
LINE
  8
ボルト／ビス
  6
CONTINUOUS
 62
    64
 10
-91.684142
 20
-58.001725
 11
-91.684142
 21
-55.16842
  0
LINE
  8
ボルト／ビス
  6
CONTINUOUS
 62
    64
 10
-91.684142
 20
-55.16842
 11
-90.350803
 21
-55.16842
  0
LINE
  8
ボルト／ビス
  6
CONTINUOUS
 62
    64
 10
-90.350803
 20
-58.001725
 11
-90.350803
 21
-55.16842
  0
LINE
  8
ボルト／ビス
  6
CONTINUOUS
 62
    64
 10
-91.017483
 20
-60.304645
 11
-91.017483
 21
-54.416072
  0
ENDBLK
  0
BLOCK
  2
*GRP_0037
 70
    65
 10
0.0
 20
0.0
  0
LINE
  8
ボルト／ビス
  6
CONTINUOUS
 62
    64
 10
-83.734462
 20
-70.686615
 11
-83.582695
 21
-71.10359
  0
ARC
  8
ボルト／ビス
  6
CONTINUOUS
 62
    64
 10
-82.36974
 20
-70.47813
 40
1.364723
 50
152.722034
 51
180.0
  0
LINE
  8
ボルト／ビス
  6
CONTINUOUS
 62
    64
 10
-83.734462
 20
-66.516863
 11
-83.582695
 21
-66.099888
  0
ARC
  8
ボルト／ビス
  6
CONTINUOUS
 62
    64
 10
-82.36974
 20
-66.725351
 40
1.364723
 50
180.0
 51
207.277966
  0
ARC
  8
ボルト／ビス
  6
CONTINUOUS
 62
    64
 10
-78.503219
 20
-68.601741
 40
5.231244
 50
166.165046
 51
193.834954
  0
LINE
  8
ボルト／ビス
  6
CONTINUOUS
 62
    64
 10
-82.017795
 20
-71.10359
 11
-83.582695
 21
-71.10359
  0
LINE
  8
ボルト／ビス
  6
CONTINUOUS
 62
    64
 10
-82.017795
 20
-66.099888
 11
-83.582695
 21
-66.099888
  0
LINE
  8
ボルト／ビス
  6
CONTINUOUS
 62
    64
 10
-83.734462
 20
-66.516863
 11
-83.734462
 21
-70.686615
  0
LINE
  8
ボルト／ビス
  6
CONTINUOUS
 62
    64
 10
-83.582695
 20
-67.350813
 11
-82.017795
 21
-67.350813
  0
LINE
  8
ボルト／ビス
  6
CONTINUOUS
 62
    64
 10
-83.582695
 20
-69.852665
 11
-82.017795
 21
-69.852665
  0
LINE
  8
ボルト／ビス
  6
CONTINUOUS
 62
    64
 10
-82.017795
 20
-66.099888
 11
-82.017795
 21
-71.10359
  0
LINE
  8
ボルト／ビス
  6
CONTINUOUS
 62
    64
 10
-81.417795
 20
-71.518405
 11
-81.084462
 21
-71.518405
  0
LINE
  8
ボルト／ビス
  6
CONTINUOUS
 62
    64
 10
-81.417795
 20
-65.685073
 11
-81.084462
 21
-65.685073
  0
LINE
  8
ボルト／ビス
  6
CONTINUOUS
 62
    64
 10
-81.417795
 20
-71.518405
 11
-81.417795
 21
-65.685073
  0
LINE
  8
ボルト／ビス
  6
CONTINUOUS
 62
    64
 10
-81.084462
 20
-71.518405
 11
-81.084462
 21
-65.685073
  0
LINE
  8
ボルト／ビス
  6
CONTINUOUS
 62
    64
 10
-82.017795
 20
-68.601738
 11
-81.417795
 21
-68.601738
  0
LINE
  8
ボルト／ビス
  6
CONTINUOUS
 62
    64
 10
-82.017795
 20
-65.968405
 11
-81.417795
 21
-65.968405
  0
LINE
  8
ボルト／ビス
  6
CONTINUOUS
 62
    64
 10
-82.017795
 20
-71.235073
 11
-81.417795
 21
-71.235073
  0
LINE
  8
ボルト／ビス
  6
CONTINUOUS
 62
    64
 10
-82.017795
 20
-65.968405
 11
-82.017795
 21
-71.235073
  0
LINE
  8
ボルト／ビス
  6
CONTINUOUS
 62
    64
 10
-85.401127
 20
-68.601738
 11
-72.017795
 21
-68.601738
  0
LINE
  8
ボルト／ビス
  6
CONTINUOUS
 62
    64
 10
-73.684462
 20
-67.535073
 11
-73.684462
 21
-69.668405
  0
LINE
  8
ボルト／ビス
  6
CONTINUOUS
 62
    64
 10
-74.084462
 20
-67.268405
 11
-73.684462
 21
-67.535073
  0
LINE
  8
ボルト／ビス
  6
CONTINUOUS
 62
    64
 10
-74.084462
 20
-69.935073
 11
-73.684462
 21
-69.668405
  0
LINE
  8
ボルト／ビス
  6
CONTINUOUS
 62
    64
 10
-73.684462
 20
-67.535073
 11
-73.684462
 21
-69.668405
  0
LINE
  8
ボルト／ビス
  6
CONTINUOUS
 62
    64
 10
-74.084462
 20
-67.268405
 11
-74.084462
 21
-69.935073
  0
LINE
  8
ボルト／ビス
  6
CONTINUOUS
 62
    64
 10
-81.084462
 20
-67.268405
 11
-74.084462
 21
-67.268405
  0
LINE
  8
ボルト／ビス
  6
CONTINUOUS
 62
    64
 10
-81.084462
 20
-69.935073
 11
-74.084462
 21
-69.935073
  0
LINE
  8
ボルト／ビス
  6
CONTINUOUS
 62
    64
 10
-81.084462
 20
-67.535073
 11
-73.684462
 21
-67.535073
  0
LINE
  8
ボルト／ビス
  6
CONTINUOUS
 62
    64
 10
-81.084462
 20
-69.668405
 11
-73.684462
 21
-69.668405
  0
ENDBLK
  0
BLOCK
  2
*GRP_0038
 70
    65
 10
0.0
 20
0.0
  0
LINE
  8
ボルト／ビス
  6
CONTINUOUS
 62
    64
 10
-76.301127
 20
-70.686612
 11
-76.452892
 21
-71.103587
  0
ARC
  8
ボルト／ビス
  6
CONTINUOUS
 62
    64
 10
-77.66585
 20
-70.478129
 40
1.364723
 50
0.0
 51
27.277966
  0
LINE
  8
ボルト／ビス
  6
CONTINUOUS
 62
    64
 10
-76.301127
 20
-66.51686
 11
-76.452892
 21
-66.099885
  0
ARC
  8
ボルト／ビス
  6
CONTINUOUS
 62
    64
 10
-77.66585
 20
-66.72535
 40
1.364723
 50
332.722034
 51
360.0
  0
ARC
  8
ボルト／ビス
  6
CONTINUOUS
 62
    64
 10
-81.532371
 20
-68.601739
 40
5.231244
 50
346.165046
 51
373.834954
  0
LINE
  8
ボルト／ビス
  6
CONTINUOUS
 62
    64
 10
-78.017795
 20
-71.103587
 11
-76.452892
 21
-71.103587
  0
LINE
  8
ボルト／ビス
  6
CONTINUOUS
 62
    64
 10
-78.017795
 20
-66.099885
 11
-76.452892
 21
-66.099885
  0
LINE
  8
ボルト／ビス
  6
CONTINUOUS
 62
    64
 10
-76.301127
 20
-66.51686
 11
-76.301127
 21
-70.686612
  0
LINE
  8
ボルト／ビス
  6
CONTINUOUS
 62
    64
 10
-76.452892
 20
-67.35081
 11
-78.017795
 21
-67.35081
  0
LINE
  8
ボルト／ビス
  6
CONTINUOUS
 62
    64
 10
-76.452892
 20
-69.852663
 11
-78.017795
 21
-69.852663
  0
LINE
  8
ボルト／ビス
  6
CONTINUOUS
 62
    64
 10
-78.017795
 20
-66.099885
 11
-78.017795
 21
-71.103587
  0
LINE
  8
ボルト／ビス
  6
CONTINUOUS
 62
    64
 10
-78.617795
 20
-71.518402
 11
-78.951127
 21
-71.518402
  0
LINE
  8
ボルト／ビス
  6
CONTINUOUS
 62
    64
 10
-78.617795
 20
-65.68507
 11
-78.951127
 21
-65.68507
  0
LINE
  8
ボルト／ビス
  6
CONTINUOUS
 62
    64
 10
-78.617795
 20
-71.518402
 11
-78.617795
 21
-65.68507
  0
LINE
  8
ボルト／ビス
  6
CONTINUOUS
 62
    64
 10
-78.951127
 20
-71.518402
 11
-78.951127
 21
-65.68507
  0
LINE
  8
ボルト／ビス
  6
CONTINUOUS
 62
    64
 10
-78.017795
 20
-68.601735
 11
-78.617795
 21
-68.601735
  0
LINE
  8
ボルト／ビス
  6
CONTINUOUS
 62
    64
 10
-78.017795
 20
-65.968402
 11
-78.617795
 21
-65.968402
  0
LINE
  8
ボルト／ビス
  6
CONTINUOUS
 62
    64
 10
-78.017795
 20
-71.23507
 11
-78.617795
 21
-71.23507
  0
LINE
  8
ボルト／ビス
  6
CONTINUOUS
 62
    64
 10
-78.017795
 20
-65.968402
 11
-78.017795
 21
-71.23507
  0
ENDBLK
  0
BLOCK
  2
*GRP_0039
 70
    65
 10
0.0
 20
0.0
  0
INSERT
  2
*GRP_0093
  8
補助線
  6
DOT
 62
    64
 10
0.0
 20
0.0
  0
CIRCLE
  8
ボルト／ビス
  6
DOT
 62
    64
 10
-12.83223
 20
-38.60175
 40
1.166668
  0
LINE
  8
ボルト／ビス
  6
DOT
 62
    64
 10
-12.645562
 20
-38.228417
 11
-12.645562
 21
-37.962633
  0
LINE
  8
ボルト／ビス
  6
DOT
 62
    64
 10
-12.458897
 20
-38.415082
 11
-12.19313
 21
-38.415082
  0
ARC
  8
ボルト／ビス
  6
DOT
 62
    64
 10
-12.458897
 20
-38.228414
 40
0.186667
 50
180.0
 51
270.0
  0
LINE
  8
ボルト／ビス
  6
DOT
 62
    64
 10
-12.19313
 20
-38.415082
 11
-12.19313
 21
-38.60175
  0
LINE
  8
ボルト／ビス
  6
DOT
 62
    64
 10
-12.645562
 20
-37.962633
 11
-12.83223
 21
-37.962633
  0
LINE
  8
ボルト／ビス
  6
DOT
 62
    64
 10
-12.645562
 20
-38.975083
 11
-12.645562
 21
-39.24085
  0
LINE
  8
ボルト／ビス
  6
DOT
 62
    64
 10
-12.458897
 20
-38.788418
 11
-12.19313
 21
-38.788418
  0
ARC
  8
ボルト／ビス
  6
DOT
 62
    64
 10
-12.458897
 20
-38.975081
 40
0.186667
 50
90.0
 51
180.0
  0
LINE
  8
ボルト／ビス
  6
DOT
 62
    64
 10
-12.19313
 20
-38.788418
 11
-12.19313
 21
-38.60175
  0
LINE
  8
ボルト／ビス
  6
DOT
 62
    64
 10
-12.645562
 20
-39.24085
 11
-12.83223
 21
-39.24085
  0
LINE
  8
ボルト／ビス
  6
DOT
 62
    64
 10
-13.018898
 20
-38.975083
 11
-13.018898
 21
-39.24085
  0
LINE
  8
ボルト／ビス
  6
DOT
 62
    64
 10
-13.205562
 20
-38.788418
 11
-13.47133
 21
-38.788418
  0
ARC
  8
ボルト／ビス
  6
DOT
 62
    64
 10
-13.205564
 20
-38.975081
 40
0.186667
 50
0.0
 51
90.0
  0
LINE
  8
ボルト／ビス
  6
DOT
 62
    64
 10
-13.47133
 20
-38.788418
 11
-13.47133
 21
-38.60175
  0
LINE
  8
ボルト／ビス
  6
DOT
 62
    64
 10
-13.018898
 20
-39.24085
 11
-12.83223
 21
-39.24085
  0
LINE
  8
ボルト／ビス
  6
DOT
 62
    64
 10
-13.018898
 20
-38.228417
 11
-13.018898
 21
-37.962633
  0
LINE
  8
ボルト／ビス
  6
DOT
 62
    64
 10
-13.205562
 20
-38.415082
 11
-13.47133
 21
-38.415082
  0
ARC
  8
ボルト／ビス
  6
DOT
 62
    64
 10
-13.205564
 20
-38.228414
 40
0.186667
 50
270.0
 51
360.0
  0
LINE
  8
ボルト／ビス
  6
DOT
 62
    64
 10
-13.47133
 20
-38.415082
 11
-13.47133
 21
-38.60175
  0
LINE
  8
ボルト／ビス
  6
DOT
 62
    64
 10
-13.018898
 20
-37.962633
 11
-12.83223
 21
-37.962633
  0
ENDBLK
  0
BLOCK
  2
*GRP_0040
 70
    65
 10
0.0
 20
0.0
  0
INSERT
  2
*GRP_0094
  8
補助線
  6
DOT
 62
    64
 10
0.0
 20
0.0
  0
CIRCLE
  8
ボルト／ビス
  6
DOT
 62
    64
 10
3.96777
 20
-38.60175
 40
1.166668
  0
LINE
  8
ボルト／ビス
  6
DOT
 62
    64
 10
3.781103
 20
-38.228417
 11
3.781103
 21
-37.962633
  0
LINE
  8
ボルト／ビス
  6
DOT
 62
    64
 10
3.594437
 20
-38.415082
 11
3.32867
 21
-38.415082
  0
ARC
  8
ボルト／ビス
  6
DOT
 62
    64
 10
3.594439
 20
-38.228414
 40
0.186667
 50
270.0
 51
360.0
  0
LINE
  8
ボルト／ビス
  6
DOT
 62
    64
 10
3.32867
 20
-38.415082
 11
3.32867
 21
-38.60175
  0
LINE
  8
ボルト／ビス
  6
DOT
 62
    64
 10
3.781103
 20
-37.962633
 11
3.96777
 21
-37.962633
  0
LINE
  8
ボルト／ビス
  6
DOT
 62
    64
 10
3.781103
 20
-38.975083
 11
3.781103
 21
-39.24085
  0
LINE
  8
ボルト／ビス
  6
DOT
 62
    64
 10
3.594437
 20
-38.788418
 11
3.32867
 21
-38.788418
  0
ARC
  8
ボルト／ビス
  6
DOT
 62
    64
 10
3.594439
 20
-38.975081
 40
0.186667
 50
0.0
 51
90.0
  0
LINE
  8
ボルト／ビス
  6
DOT
 62
    64
 10
3.32867
 20
-38.788418
 11
3.32867
 21
-38.60175
  0
LINE
  8
ボルト／ビス
  6
DOT
 62
    64
 10
3.781103
 20
-39.24085
 11
3.96777
 21
-39.24085
  0
LINE
  8
ボルト／ビス
  6
DOT
 62
    64
 10
4.154437
 20
-38.975083
 11
4.154437
 21
-39.24085
  0
LINE
  8
ボルト／ビス
  6
DOT
 62
    64
 10
4.341102
 20
-38.788418
 11
4.60687
 21
-38.788418
  0
ARC
  8
ボルト／ビス
  6
DOT
 62
    64
 10
4.341106
 20
-38.975081
 40
0.186667
 50
90.0
 51
180.0
  0
LINE
  8
ボルト／ビス
  6
DOT
 62
    64
 10
4.60687
 20
-38.788418
 11
4.60687
 21
-38.60175
  0
LINE
  8
ボルト／ビス
  6
DOT
 62
    64
 10
4.154437
 20
-39.24085
 11
3.96777
 21
-39.24085
  0
LINE
  8
ボルト／ビス
  6
DOT
 62
    64
 10
4.154437
 20
-38.228417
 11
4.154437
 21
-37.962633
  0
LINE
  8
ボルト／ビス
  6
DOT
 62
    64
 10
4.341102
 20
-38.415082
 11
4.60687
 21
-38.415082
  0
ARC
  8
ボルト／ビス
  6
DOT
 62
    64
 10
4.341106
 20
-38.228414
 40
0.186667
 50
180.0
 51
270.0
  0
LINE
  8
ボルト／ビス
  6
DOT
 62
    64
 10
4.60687
 20
-38.415082
 11
4.60687
 21
-38.60175
  0
LINE
  8
ボルト／ビス
  6
DOT
 62
    64
 10
4.154437
 20
-37.962633
 11
3.96777
 21
-37.962633
  0
ENDBLK
  0
BLOCK
  2
*GRP_0041
 70
    65
 10
0.0
 20
0.0
  0
INSERT
  2
*GRP_0095
  8
補助線
  6
CONTINUOUS
 62
    64
 10
0.0
 20
0.0
  0
CIRCLE
  8
ボルト／ビス
  6
CONTINUOUS
 62
    64
 10
-18.43223
 20
-38.60175
 40
1.166668
  0
LINE
  8
ボルト／ビス
  6
CONTINUOUS
 62
    64
 10
-18.245562
 20
-38.228417
 11
-18.245562
 21
-37.962645
  0
LINE
  8
ボルト／ビス
  6
CONTINUOUS
 62
    64
 10
-18.058897
 20
-38.415082
 11
-17.793125
 21
-38.415082
  0
ARC
  8
ボルト／ビス
  6
CONTINUOUS
 62
    64
 10
-18.058898
 20
-38.228418
 40
0.186667
 50
180.0
 51
270.0
  0
LINE
  8
ボルト／ビス
  6
CONTINUOUS
 62
    64
 10
-17.793125
 20
-38.415082
 11
-17.793125
 21
-38.60175
  0
LINE
  8
ボルト／ビス
  6
CONTINUOUS
 62
    64
 10
-18.245562
 20
-37.962645
 11
-18.43223
 21
-37.962645
  0
LINE
  8
ボルト／ビス
  6
CONTINUOUS
 62
    64
 10
-18.245562
 20
-38.975083
 11
-18.245562
 21
-39.240855
  0
LINE
  8
ボルト／ビス
  6
CONTINUOUS
 62
    64
 10
-18.058897
 20
-38.788418
 11
-17.793125
 21
-38.788418
  0
ARC
  8
ボルト／ビス
  6
CONTINUOUS
 62
    64
 10
-18.058898
 20
-38.975085
 40
0.186667
 50
90.0
 51
180.0
  0
LINE
  8
ボルト／ビス
  6
CONTINUOUS
 62
    64
 10
-17.793125
 20
-38.788418
 11
-17.793125
 21
-38.60175
  0
LINE
  8
ボルト／ビス
  6
CONTINUOUS
 62
    64
 10
-18.245562
 20
-39.240855
 11
-18.43223
 21
-39.240855
  0
LINE
  8
ボルト／ビス
  6
CONTINUOUS
 62
    64
 10
-18.618898
 20
-38.975083
 11
-18.618898
 21
-39.240855
  0
LINE
  8
ボルト／ビス
  6
CONTINUOUS
 62
    64
 10
-18.805562
 20
-38.788418
 11
-19.071335
 21
-38.788418
  0
ARC
  8
ボルト／ビス
  6
CONTINUOUS
 62
    64
 10
-18.805565
 20
-38.975085
 40
0.186667
 50
0.0
 51
90.0
  0
LINE
  8
ボルト／ビス
  6
CONTINUOUS
 62
    64
 10
-19.071335
 20
-38.788418
 11
-19.071335
 21
-38.60175
  0
LINE
  8
ボルト／ビス
  6
CONTINUOUS
 62
    64
 10
-18.618898
 20
-39.240855
 11
-18.43223
 21
-39.240855
  0
LINE
  8
ボルト／ビス
  6
CONTINUOUS
 62
    64
 10
-18.618898
 20
-38.228417
 11
-18.618898
 21
-37.962645
  0
LINE
  8
ボルト／ビス
  6
CONTINUOUS
 62
    64
 10
-18.805562
 20
-38.415082
 11
-19.071335
 21
-38.415082
  0
ARC
  8
ボルト／ビス
  6
CONTINUOUS
 62
    64
 10
-18.805565
 20
-38.228418
 40
0.186667
 50
270.0
 51
360.0
  0
LINE
  8
ボルト／ビス
  6
CONTINUOUS
 62
    64
 10
-19.071335
 20
-38.415082
 11
-19.071335
 21
-38.60175
  0
LINE
  8
ボルト／ビス
  6
CONTINUOUS
 62
    64
 10
-18.618898
 20
-37.962645
 11
-18.43223
 21
-37.962645
  0
ENDBLK
  0
BLOCK
  2
*GRP_0042
 70
    65
 10
0.0
 20
0.0
  0
INSERT
  2
*GRP_0096
  8
補助線
  6
CONTINUOUS
 62
    64
 10
0.0
 20
0.0
  0
CIRCLE
  8
ボルト／ビス
  6
CONTINUOUS
 62
    64
 10
9.56777
 20
-38.60175
 40
1.166668
  0
LINE
  8
ボルト／ビス
  6
CONTINUOUS
 62
    64
 10
9.381103
 20
-38.228417
 11
9.381103
 21
-37.962645
  0
LINE
  8
ボルト／ビス
  6
CONTINUOUS
 62
    64
 10
9.194437
 20
-38.415082
 11
8.928665
 21
-38.415082
  0
ARC
  8
ボルト／ビス
  6
CONTINUOUS
 62
    64
 10
9.194435
 20
-38.228418
 40
0.186667
 50
270.0
 51
360.0
  0
LINE
  8
ボルト／ビス
  6
CONTINUOUS
 62
    64
 10
8.928665
 20
-38.415082
 11
8.928665
 21
-38.60175
  0
LINE
  8
ボルト／ビス
  6
CONTINUOUS
 62
    64
 10
9.381103
 20
-37.962645
 11
9.56777
 21
-37.962645
  0
LINE
  8
ボルト／ビス
  6
CONTINUOUS
 62
    64
 10
9.381103
 20
-38.975083
 11
9.381103
 21
-39.240855
  0
LINE
  8
ボルト／ビス
  6
CONTINUOUS
 62
    64
 10
9.194437
 20
-38.788418
 11
8.928665
 21
-38.788418
  0
ARC
  8
ボルト／ビス
  6
CONTINUOUS
 62
    64
 10
9.194435
 20
-38.975085
 40
0.186667
 50
0.0
 51
90.0
  0
LINE
  8
ボルト／ビス
  6
CONTINUOUS
 62
    64
 10
8.928665
 20
-38.788418
 11
8.928665
 21
-38.60175
  0
LINE
  8
ボルト／ビス
  6
CONTINUOUS
 62
    64
 10
9.381103
 20
-39.240855
 11
9.56777
 21
-39.240855
  0
LINE
  8
ボルト／ビス
  6
CONTINUOUS
 62
    64
 10
9.754437
 20
-38.975083
 11
9.754437
 21
-39.240855
  0
LINE
  8
ボルト／ビス
  6
CONTINUOUS
 62
    64
 10
9.941102
 20
-38.788418
 11
10.206875
 21
-38.788418
  0
ARC
  8
ボルト／ビス
  6
CONTINUOUS
 62
    64
 10
9.941102
 20
-38.975085
 40
0.186667
 50
90.0
 51
180.0
  0
LINE
  8
ボルト／ビス
  6
CONTINUOUS
 62
    64
 10
10.206875
 20
-38.788418
 11
10.206875
 21
-38.60175
  0
LINE
  8
ボルト／ビス
  6
CONTINUOUS
 62
    64
 10
9.754437
 20
-39.240855
 11
9.56777
 21
-39.240855
  0
LINE
  8
ボルト／ビス
  6
CONTINUOUS
 62
    64
 10
9.754437
 20
-38.228417
 11
9.754437
 21
-37.962645
  0
LINE
  8
ボルト／ビス
  6
CONTINUOUS
 62
    64
 10
9.941102
 20
-38.415082
 11
10.206875
 21
-38.415082
  0
ARC
  8
ボルト／ビス
  6
CONTINUOUS
 62
    64
 10
9.941102
 20
-38.228418
 40
0.186667
 50
180.0
 51
270.0
  0
LINE
  8
ボルト／ビス
  6
CONTINUOUS
 62
    64
 10
10.206875
 20
-38.415082
 11
10.206875
 21
-38.60175
  0
LINE
  8
ボルト／ビス
  6
CONTINUOUS
 62
    64
 10
9.754437
 20
-37.962645
 11
9.56777
 21
-37.962645
  0
ENDBLK
  0
BLOCK
  2
*GRP_0043
 70
    65
 10
0.0
 20
0.0
  0
INSERT
  2
*GRP_0097
  8
補助線
  6
CONTINUOUS
 62
    64
 10
0.0
 20
0.0
  0
CIRCLE
  8
ボルト／ビス
  6
CONTINUOUS
 62
    64
 10
-12.832233
 20
-38.60175
 40
1.166668
  0
LINE
  8
ボルト／ビス
  6
CONTINUOUS
 62
    64
 10
-12.645565
 20
-38.228417
 11
-12.645565
 21
-37.962645
  0
LINE
  8
ボルト／ビス
  6
CONTINUOUS
 62
    64
 10
-12.4589
 20
-38.415082
 11
-12.193127
 21
-38.415082
  0
ARC
  8
ボルト／ビス
  6
CONTINUOUS
 62
    64
 10
-12.458901
 20
-38.228418
 40
0.186667
 50
180.0
 51
270.0
  0
LINE
  8
ボルト／ビス
  6
CONTINUOUS
 62
    64
 10
-12.193127
 20
-38.415082
 11
-12.193127
 21
-38.60175
  0
LINE
  8
ボルト／ビス
  6
CONTINUOUS
 62
    64
 10
-12.645565
 20
-37.962645
 11
-12.832233
 21
-37.962645
  0
LINE
  8
ボルト／ビス
  6
CONTINUOUS
 62
    64
 10
-12.645565
 20
-38.975083
 11
-12.645565
 21
-39.240855
  0
LINE
  8
ボルト／ビス
  6
CONTINUOUS
 62
    64
 10
-12.4589
 20
-38.788418
 11
-12.193127
 21
-38.788418
  0
ARC
  8
ボルト／ビス
  6
CONTINUOUS
 62
    64
 10
-12.458901
 20
-38.975085
 40
0.186667
 50
90.0
 51
180.0
  0
LINE
  8
ボルト／ビス
  6
CONTINUOUS
 62
    64
 10
-12.193127
 20
-38.788418
 11
-12.193127
 21
-38.60175
  0
LINE
  8
ボルト／ビス
  6
CONTINUOUS
 62
    64
 10
-12.645565
 20
-39.240855
 11
-12.832233
 21
-39.240855
  0
LINE
  8
ボルト／ビス
  6
CONTINUOUS
 62
    64
 10
-13.0189
 20
-38.975083
 11
-13.0189
 21
-39.240855
  0
LINE
  8
ボルト／ビス
  6
CONTINUOUS
 62
    64
 10
-13.205565
 20
-38.788418
 11
-13.471338
 21
-38.788418
  0
ARC
  8
ボルト／ビス
  6
CONTINUOUS
 62
    64
 10
-13.205568
 20
-38.975085
 40
0.186667
 50
0.0
 51
90.0
  0
LINE
  8
ボルト／ビス
  6
CONTINUOUS
 62
    64
 10
-13.471338
 20
-38.788418
 11
-13.471338
 21
-38.60175
  0
LINE
  8
ボルト／ビス
  6
CONTINUOUS
 62
    64
 10
-13.0189
 20
-39.240855
 11
-12.832233
 21
-39.240855
  0
LINE
  8
ボルト／ビス
  6
CONTINUOUS
 62
    64
 10
-13.0189
 20
-38.228417
 11
-13.0189
 21
-37.962645
  0
LINE
  8
ボルト／ビス
  6
CONTINUOUS
 62
    64
 10
-13.205565
 20
-38.415082
 11
-13.471338
 21
-38.415082
  0
ARC
  8
ボルト／ビス
  6
CONTINUOUS
 62
    64
 10
-13.205568
 20
-38.228418
 40
0.186667
 50
270.0
 51
360.0
  0
LINE
  8
ボルト／ビス
  6
CONTINUOUS
 62
    64
 10
-13.471338
 20
-38.415082
 11
-13.471338
 21
-38.60175
  0
LINE
  8
ボルト／ビス
  6
CONTINUOUS
 62
    64
 10
-13.0189
 20
-37.962645
 11
-12.832233
 21
-37.962645
  0
ENDBLK
  0
BLOCK
  2
*GRP_0044
 70
    65
 10
0.0
 20
0.0
  0
INSERT
  2
*GRP_0098
  8
補助線
  6
CONTINUOUS
 62
    64
 10
0.0
 20
0.0
  0
CIRCLE
  8
ボルト／ビス
  6
CONTINUOUS
 62
    64
 10
3.967772
 20
-38.60175
 40
1.166668
  0
LINE
  8
ボルト／ビス
  6
CONTINUOUS
 62
    64
 10
4.15444
 20
-38.228417
 11
4.15444
 21
-37.962645
  0
LINE
  8
ボルト／ビス
  6
CONTINUOUS
 62
    64
 10
4.341105
 20
-38.415082
 11
4.606877
 21
-38.415082
  0
ARC
  8
ボルト／ビス
  6
CONTINUOUS
 62
    64
 10
4.341104
 20
-38.228418
 40
0.186667
 50
180.0
 51
270.0
  0
LINE
  8
ボルト／ビス
  6
CONTINUOUS
 62
    64
 10
4.606877
 20
-38.415082
 11
4.606877
 21
-38.60175
  0
LINE
  8
ボルト／ビス
  6
CONTINUOUS
 62
    64
 10
4.15444
 20
-37.962645
 11
3.967772
 21
-37.962645
  0
LINE
  8
ボルト／ビス
  6
CONTINUOUS
 62
    64
 10
4.15444
 20
-38.975083
 11
4.15444
 21
-39.240855
  0
LINE
  8
ボルト／ビス
  6
CONTINUOUS
 62
    64
 10
4.341105
 20
-38.788418
 11
4.606877
 21
-38.788418
  0
ARC
  8
ボルト／ビス
  6
CONTINUOUS
 62
    64
 10
4.341104
 20
-38.975085
 40
0.186667
 50
90.0
 51
180.0
  0
LINE
  8
ボルト／ビス
  6
CONTINUOUS
 62
    64
 10
4.606877
 20
-38.788418
 11
4.606877
 21
-38.60175
  0
LINE
  8
ボルト／ビス
  6
CONTINUOUS
 62
    64
 10
4.15444
 20
-39.240855
 11
3.967772
 21
-39.240855
  0
LINE
  8
ボルト／ビス
  6
CONTINUOUS
 62
    64
 10
3.781105
 20
-38.975083
 11
3.781105
 21
-39.240855
  0
LINE
  8
ボルト／ビス
  6
CONTINUOUS
 62
    64
 10
3.59444
 20
-38.788418
 11
3.328667
 21
-38.788418
  0
ARC
  8
ボルト／ビス
  6
CONTINUOUS
 62
    64
 10
3.594437
 20
-38.975085
 40
0.186667
 50
0.0
 51
90.0
  0
LINE
  8
ボルト／ビス
  6
CONTINUOUS
 62
    64
 10
3.328667
 20
-38.788418
 11
3.328667
 21
-38.60175
  0
LINE
  8
ボルト／ビス
  6
CONTINUOUS
 62
    64
 10
3.781105
 20
-39.240855
 11
3.967772
 21
-39.240855
  0
LINE
  8
ボルト／ビス
  6
CONTINUOUS
 62
    64
 10
3.781105
 20
-38.228417
 11
3.781105
 21
-37.962645
  0
LINE
  8
ボルト／ビス
  6
CONTINUOUS
 62
    64
 10
3.59444
 20
-38.415082
 11
3.328667
 21
-38.415082
  0
ARC
  8
ボルト／ビス
  6
CONTINUOUS
 62
    64
 10
3.594437
 20
-38.228418
 40
0.186667
 50
270.0
 51
360.0
  0
LINE
  8
ボルト／ビス
  6
CONTINUOUS
 62
    64
 10
3.328667
 20
-38.415082
 11
3.328667
 21
-38.60175
  0
LINE
  8
ボルト／ビス
  6
CONTINUOUS
 62
    64
 10
3.781105
 20
-37.962645
 11
3.967772
 21
-37.962645
  0
ENDBLK
  0
BLOCK
  2
*GRP_0045
 70
    65
 10
0.0
 20
0.0
  0
POLYLINE
  8
寸法
  6
BYBLOCK
 62
     0
 66
     1
  0
VERTEX
  8
寸法
 10
-107.834213
 20
-61.371847
  0
VERTEX
  8
寸法
 10
-105.236135
 20
-62.871847
  0
VERTEX
  8
寸法
 10
-106.736135
 20
-60.27377
  0
SEQEND
  0
POLYLINE
  8
寸法
  6
BYBLOCK
 62
     0
 66
     1
  0
VERTEX
  8
寸法
 10
-105.236135
 20
-62.871847
  0
VERTEX
  8
寸法
 10
-114.274377
 20
-53.833605
  0
VERTEX
  8
寸法
 10
-117.19589
 20
-53.833605
  0
SEQEND
  0
ENDBLK
  0
BLOCK
  2
*DIM_0046
 70
    65
 10
0.0
 20
0.0
  0
LINE
  8
寸法
  6
BYBLOCK
 62
     0
 10
49.486385
 20
-57.93507
 11
49.486385
 21
-109.636438
  0
LINE
  8
寸法
  6
BYBLOCK
 62
     0
 10
51.153205
 20
-96.008895
 11
51.153205
 21
-109.636438
  0
LINE
  8
寸法
  6
BYBLOCK
 62
     0
 10
49.486385
 20
-109.636438
 11
51.153205
 21
-109.636438
  0
POINT
  8
寸法
 62
     0
 10
49.486385
 20
-109.636438
  0
POINT
  8
寸法
 62
     0
 10
51.153205
 20
-109.636438
  0
TEXT
  7
TextStyle03
  8
寸法
  6
CONTINUOUS
 62
     0
 10
47.875
 20
-109.25
  1
5
 40
3.0
 72
     5
 11
49.375
 21
-109.25
  0
ENDBLK
  0
BLOCK
  2
*DIM_0047
 70
    65
 10
0.0
 20
0.0
  0
LINE
  8
寸法
  6
BYBLOCK
 62
     0
 10
62.81987
 20
-96.008895
 11
62.81987
 21
-109.636438
  0
LINE
  8
寸法
  6
BYBLOCK
 62
     0
 10
51.153205
 20
-109.636438
 11
62.81987
 21
-109.636438
  0
POINT
  8
寸法
 62
     0
 10
62.81987
 20
-109.636438
  0
TEXT
  7
TextStyle03
  8
寸法
  6
CONTINUOUS
 62
     0
 10
55.38125
 20
-109.25
  1
35
 40
3.0
 72
     5
 11
58.56875
 21
-109.25
  0
ENDBLK
  0
BLOCK
  2
*DIM_0048
 70
    65
 10
0.0
 20
0.0
  0
LINE
  8
寸法
  6
BYBLOCK
 62
     0
 10
112.81991
 20
-96.008895
 11
112.81991
 21
-109.636438
  0
LINE
  8
寸法
  6
BYBLOCK
 62
     0
 10
62.81987
 20
-109.636438
 11
112.81991
 21
-109.636438
  0
POINT
  8
寸法
 62
     0
 10
112.81991
 20
-109.636438
  0
TEXT
  7
TextStyle03
  8
寸法
  6
CONTINUOUS
 62
     0
 10
85.3625
 20
-109.25
  1
150
 40
3.0
 72
     5
 11
90.2375
 21
-109.25
  0
ENDBLK
  0
BLOCK
  2
*DIM_0049
 70
    65
 10
0.0
 20
0.0
  0
LINE
  8
寸法
  6
BYBLOCK
 62
     0
 10
116.15324
 20
-96.008895
 11
116.15324
 21
-109.636438
  0
LINE
  8
寸法
  6
BYBLOCK
 62
     0
 10
112.81991
 20
-109.636438
 11
116.15324
 21
-109.636438
  0
POINT
  8
寸法
 62
     0
 10
116.15324
 20
-109.636438
  0
TEXT
  7
TextStyle03
  8
寸法
  6
CONTINUOUS
 62
     0
 10
112.88125
 20
-112.625
  1
10
 40
3.0
 72
     5
 11
116.06875
 21
-112.625
  0
ENDBLK
  0
BLOCK
  2
*DIM_0050
 70
    65
 10
0.0
 20
0.0
  0
LINE
  8
寸法
  6
BYBLOCK
 62
     0
 10
122.81979
 20
-87.470225
 11
122.81979
 21
-109.636438
  0
LINE
  8
寸法
  6
BYBLOCK
 62
     0
 10
116.15324
 20
-109.636438
 11
122.81979
 21
-109.636438
  0
POINT
  8
寸法
 62
     0
 10
122.81979
 20
-109.636438
  0
TEXT
  7
TextStyle03
  8
寸法
  6
CONTINUOUS
 62
     0
 10
117.88125
 20
-109.25
  1
20
 40
3.0
 72
     5
 11
121.06875
 21
-109.25
  0
ENDBLK
  0
BLOCK
  2
*DIM_0051
 70
    65
 10
0.0
 20
0.0
  0
LINE
  8
寸法
  6
BYBLOCK
 62
     0
 10
-60.017665
 20
-96.008895
 11
-60.017665
 21
-109.636438
  0
LINE
  8
寸法
  6
BYBLOCK
 62
     0
 10
-71.68433
 20
-96.008895
 11
-71.68433
 21
-109.636438
  0
LINE
  8
寸法
  6
BYBLOCK
 62
     0
 10
-60.017665
 20
-109.636438
 11
-71.68433
 21
-109.636438
  0
POINT
  8
寸法
 62
     0
 10
-71.68433
 20
-109.636438
  0
TEXT
  7
TextStyle03
  8
寸法
  6
CONTINUOUS
 62
     0
 10
-67.46875
 20
-109.25
  1
35
 40
3.0
 72
     5
 11
-64.28125
 21
-109.25
  0
ENDBLK
  0
BLOCK
  2
*DIM_0052
 70
    65
 10
0.0
 20
0.0
  0
LINE
  8
寸法
  6
BYBLOCK
 62
     0
 10
-71.68433
 20
-96.008895
 11
-71.68433
 21
-109.636438
  0
LINE
  8
寸法
  6
BYBLOCK
 62
     0
 10
-121.68437
 20
-96.008895
 11
-121.68437
 21
-109.636438
  0
LINE
  8
寸法
  6
BYBLOCK
 62
     0
 10
-71.68433
 20
-109.636438
 11
-121.68437
 21
-109.636438
  0
POINT
  8
寸法
 62
     0
 10
-121.68437
 20
-109.636438
  0
TEXT
  7
TextStyle03
  8
寸法
  6
CONTINUOUS
 62
     0
 10
-99.1375
 20
-109.25
  1
150
 40
3.0
 72
     5
 11
-94.2625
 21
-109.25
  0
ENDBLK
  0
BLOCK
  2
*DIM_0053
 70
    65
 10
0.0
 20
0.0
  0
LINE
  8
寸法
  6
BYBLOCK
 62
     0
 10
-121.68437
 20
-96.008895
 11
-121.68437
 21
-109.636438
  0
LINE
  8
寸法
  6
BYBLOCK
 62
     0
 10
-125.0177
 20
-96.008895
 11
-125.0177
 21
-109.636438
  0
LINE
  8
寸法
  6
BYBLOCK
 62
     0
 10
-121.68437
 20
-109.636438
 11
-125.0177
 21
-109.636438
  0
POINT
  8
寸法
 62
     0
 10
-125.0177
 20
-109.636438
  0
TEXT
  7
TextStyle03
  8
寸法
  6
CONTINUOUS
 62
     0
 10
-124.96875
 20
-112.625
  1
10
 40
3.0
 72
     5
 11
-121.78125
 21
-112.625
  0
ENDBLK
  0
BLOCK
  2
*DIM_0054
 70
    65
 10
0.0
 20
0.0
  0
LINE
  8
寸法
  6
BYBLOCK
 62
     0
 10
-125.0177
 20
-96.008895
 11
-125.0177
 21
-109.636438
  0
LINE
  8
寸法
  6
BYBLOCK
 62
     0
 10
-131.68425
 20
-87.470225
 11
-131.68425
 21
-109.636438
  0
LINE
  8
寸法
  6
BYBLOCK
 62
     0
 10
-125.0177
 20
-109.636438
 11
-131.68425
 21
-109.636438
  0
POINT
  8
寸法
 62
     0
 10
-131.68425
 20
-109.636438
  0
TEXT
  7
TextStyle03
  8
寸法
  6
CONTINUOUS
 62
     0
 10
-129.96875
 20
-109.25
  1
20
 40
3.0
 72
     5
 11
-126.78125
 21
-109.25
  0
ENDBLK
  0
BLOCK
  2
*GRP_0055
 70
    65
 10
0.0
 20
0.0
  0
POLYLINE
  8
寸法
  6
CONTINUOUS
 66
     1
  0
VERTEX
  8
寸法
 10
119.230142
 20
-80.64701
  0
VERTEX
  8
寸法
 10
127.878655
 20
-71.9985
  0
VERTEX
  8
寸法
 10
133.481285
 20
-71.9985
  0
SEQEND
  0
ENDBLK
  0
BLOCK
  2
*DIM_0056
 70
    65
 10
0.0
 20
0.0
  0
LINE
  8
寸法
  6
CONTINUOUS
 10
-171.343318
 20
111.188448
 11
-174.33379
 21
111.188448
  0
LINE
  8
寸法
  6
CONTINUOUS
 10
-171.343318
 20
95.188448
 11
-174.33379
 21
95.188448
  0
LINE
  8
寸法
  6
CONTINUOUS
 10
-174.33379
 20
111.188448
 11
-174.33379
 21
95.188448
  0
POINT
  8
寸法
 10
-174.33379
 20
111.188448
  0
POINT
  8
寸法
 10
-174.33379
 20
95.188448
  0
TEXT
  7
TextStyle03
  8
寸法
  6
CONTINUOUS
 10
-174.725
 20
98.20625
  1
□1600
 40
3.0
 50
90.0
 72
     5
 11
-174.725
 21
108.14375
  0
ENDBLK
  0
BLOCK
  2
*GRP_0057
 70
    65
 10
0.0
 20
0.0
  0
POLYLINE
  8
寸法
  6
CONTINUOUS
 66
     1
  0
VERTEX
  8
寸法
 10
-161.29809
 20
102.274347
  0
VERTEX
  8
寸法
 10
-158.343318
 20
101.755387
  0
VERTEX
  8
寸法
 10
-160.642745
 20
103.682205
  0
SEQEND
  0
LINE
  8
寸法
  6
CONTINUOUS
 10
-158.343318
 20
101.755387
 11
-163.18778
 21
104.010435
  0
ENDBLK
  0
BLOCK
  2
*DIM_0058
 70
    65
 10
0.0
 20
0.0
  0
LINE
  8
寸法
  6
CONTINUOUS
 10
-131.332975
 20
95.188448
 11
-136.44739
 21
95.188448
  0
LINE
  8
寸法
  6
CONTINUOUS
 10
-131.332975
 20
113.188448
 11
-136.44739
 21
113.188448
  0
LINE
  8
寸法
  6
CONTINUOUS
 10
-136.44739
 20
95.188448
 11
-136.44739
 21
113.188448
  0
POINT
  8
寸法
 10
-136.44739
 20
95.188448
  0
POINT
  8
寸法
 10
-136.44739
 20
113.188448
  0
TEXT
  7
TextStyle03
  8
寸法
  6
CONTINUOUS
 10
-136.825
 20
99.23125
  1
□1800
 40
3.0
 50
90.0
 72
     5
 11
-136.825
 21
109.16875
  0
ENDBLK
  0
BLOCK
  2
*GRP_0059
 70
    65
 10
0.0
 20
0.0
  0
POLYLINE
  8
寸法
  6
CONTINUOUS
 66
     1
  0
VERTEX
  8
寸法
 10
-120.287748
 20
107.440715
  0
VERTEX
  8
寸法
 10
-117.332975
 20
106.921755
  0
VERTEX
  8
寸法
 10
-119.632402
 20
108.848573
  0
SEQEND
  0
LINE
  8
寸法
  6
CONTINUOUS
 10
-117.332975
 20
106.921755
 11
-122.177438
 21
109.176802
  0
ENDBLK
  0
BLOCK
  2
*GRP_0060
 70
    65
 10
0.0
 20
0.0
  0
POLYLINE
  8
寸法
  6
CONTINUOUS
 66
     1
  0
VERTEX
  8
寸法
 10
-112.125363
 20
102.101105
  0
VERTEX
  8
寸法
 10
-114.280125
 20
104.188448
  0
VERTEX
  8
寸法
 10
-113.457715
 20
101.303375
  0
SEQEND
  0
LINE
  8
寸法
  6
CONTINUOUS
 10
-114.280125
 20
104.188448
 11
-111.754068
 21
99.969475
  0
ENDBLK
  0
BLOCK
  2
*GRP_0061
 70
    65
 10
0.0
 20
0.0
  0
POLYLINE
  8
寸法
  6
CONTINUOUS
 66
     1
  0
VERTEX
  8
寸法
 10
-121.894988
 20
102.101105
  0
VERTEX
  8
寸法
 10
-124.04975
 20
104.188448
  0
VERTEX
  8
寸法
 10
-123.22734
 20
101.303375
  0
SEQEND
  0
LINE
  8
寸法
  6
CONTINUOUS
 10
-124.04975
 20
104.188448
 11
-121.523693
 21
99.969475
  0
ENDBLK
  0
BLOCK
  2
*DIM_0062
 70
    65
 10
0.0
 20
0.0
  0
LINE
  8
寸法
  6
CONTINUOUS
 10
-90.77589
 20
95.188448
 11
-94.670677
 21
95.188448
  0
LINE
  8
寸法
  6
CONTINUOUS
 10
-90.77589
 20
115.188448
 11
-94.670677
 21
115.188448
  0
LINE
  8
寸法
  6
CONTINUOUS
 10
-94.670677
 20
95.188448
 11
-94.670677
 21
115.188448
  0
POINT
  8
寸法
 10
-94.670677
 20
95.188448
  0
POINT
  8
寸法
 10
-94.670677
 20
115.188448
  0
TEXT
  7
TextStyle03
  8
寸法
  6
CONTINUOUS
 10
-95.075
 20
100.20625
  1
□2000
 40
3.0
 50
90.0
 72
     5
 11
-95.075
 21
110.14375
  0
ENDBLK
  0
BLOCK
  2
*GRP_0063
 70
    65
 10
0.0
 20
0.0
  0
POLYLINE
  8
寸法
  6
CONTINUOUS
 66
     1
  0
VERTEX
  8
寸法
 10
-70.519065
 20
103.101105
  0
VERTEX
  8
寸法
 10
-72.673827
 20
105.188448
  0
VERTEX
  8
寸法
 10
-71.851418
 20
102.303375
  0
SEQEND
  0
LINE
  8
寸法
  6
CONTINUOUS
 10
-72.673827
 20
105.188448
 11
-70.14777
 21
100.969475
  0
ENDBLK
  0
BLOCK
  2
*GRP_0064
 70
    65
 10
0.0
 20
0.0
  0
POLYLINE
  8
寸法
  6
CONTINUOUS
 66
     1
  0
VERTEX
  8
寸法
 10
-80.528185
 20
103.101105
  0
VERTEX
  8
寸法
 10
-82.682947
 20
105.188448
  0
VERTEX
  8
寸法
 10
-81.860538
 20
102.303375
  0
SEQEND
  0
LINE
  8
寸法
  6
CONTINUOUS
 10
-82.682947
 20
105.188448
 11
-80.15689
 21
100.969475
  0
ENDBLK
  0
BLOCK
  2
*GRP_0065
 70
    65
 10
0.0
 20
0.0
  0
POLYLINE
  8
寸法
  6
CONTINUOUS
 66
     1
  0
VERTEX
  8
寸法
 10
-78.730663
 20
109.193158
  0
VERTEX
  8
寸法
 10
-75.77589
 20
108.674198
  0
VERTEX
  8
寸法
 10
-78.075317
 20
110.601015
  0
SEQEND
  0
LINE
  8
寸法
  6
CONTINUOUS
 10
-75.77589
 20
108.674198
 11
-80.620352
 21
110.929245
  0
ENDBLK
  0
BLOCK
  2
*DIM_0066
 70
    65
 10
0.0
 20
0.0
  0
LINE
  8
寸法
  6
CONTINUOUS
 10
-171.556818
 20
72.141172
 11
-174.33304
 21
72.141172
  0
LINE
  8
寸法
  6
CONTINUOUS
 10
-171.556818
 20
66.141172
 11
-174.33304
 21
66.141172
  0
LINE
  8
寸法
  6
CONTINUOUS
 10
-174.33304
 20
72.141172
 11
-174.33304
 21
66.141172
  0
POINT
  8
寸法
 10
-174.33304
 20
72.141172
  0
POINT
  8
寸法
 10
-174.33304
 20
66.141172
  0
TEXT
  7
TextStyle03
  8
寸法
  6
CONTINUOUS
 10
-174.7
 20
66.6625
  1
600
 40
3.0
 50
90.0
 72
     5
 11
-174.7
 21
71.5375
  0
ENDBLK
  0
BLOCK
  2
*DIM_0067
 70
    65
 10
0.0
 20
0.0
  0
LINE
  8
寸法
  6
CONTINUOUS
 10
-171.556818
 20
50.53531
 11
-174.33304
 21
50.53531
  0
LINE
  8
寸法
  6
CONTINUOUS
 10
-171.556818
 20
41.53531
 11
-174.33304
 21
41.53531
  0
LINE
  8
寸法
  6
CONTINUOUS
 10
-174.33304
 20
50.53531
 11
-174.33304
 21
41.53531
  0
POINT
  8
寸法
 10
-174.33304
 20
50.53531
  0
POINT
  8
寸法
 10
-174.33304
 20
41.53531
  0
TEXT
  7
TextStyle03
  8
寸法
  6
CONTINUOUS
 10
-174.7
 20
43.5625
  1
900
 40
3.0
 50
90.0
 72
     5
 11
-174.7
 21
48.4375
  0
ENDBLK
  0
BLOCK
  2
*DIM_0068
 70
    65
 10
0.0
 20
0.0
  0
LINE
  8
寸法
  6
CONTINUOUS
 10
-171.556818
 20
24.737262
 11
-174.33304
 21
24.737262
  0
LINE
  8
寸法
  6
CONTINUOUS
 10
-171.556818
 20
11.737262
 11
-174.33304
 21
11.737262
  0
LINE
  8
寸法
  6
CONTINUOUS
 10
-174.33304
 20
24.737262
 11
-174.33304
 21
11.737262
  0
POINT
  8
寸法
 10
-174.33304
 20
24.737262
  0
POINT
  8
寸法
 10
-174.33304
 20
11.737262
  0
TEXT
  7
TextStyle03
  8
寸法
  6
CONTINUOUS
 10
-174.7
 20
14.94375
  1
1300
 40
3.0
 50
90.0
 72
     5
 11
-174.7
 21
21.50625
  0
ENDBLK
  0
BLOCK
  2
*DIM_0069
 70
    65
 10
0.0
 20
0.0
  0
LINE
  8
寸法
  6
CONTINUOUS
 10
-171.556818
 20
-4.930493
 11
-174.33304
 21
-4.930493
  0
LINE
  8
寸法
  6
CONTINUOUS
 10
-171.556818
 20
-24.930493
 11
-174.33304
 21
-24.930493
  0
LINE
  8
寸法
  6
CONTINUOUS
 10
-174.33304
 20
-4.930493
 11
-174.33304
 21
-24.930493
  0
POINT
  8
寸法
 10
-174.33304
 20
-4.930493
  0
POINT
  8
寸法
 10
-174.33304
 20
-24.930493
  0
TEXT
  7
TextStyle03
  8
寸法
  6
CONTINUOUS
 10
-174.7
 20
-18.20625
  1
2000
 40
3.0
 50
90.0
 72
     5
 11
-174.7
 21
-11.64375
  0
ENDBLK
  0
BLOCK
  2
*GRP_0070
 70
    65
 10
0.0
 20
0.0
  0
POLYLINE
  8
寸法
  6
CONTINUOUS
 66
     1
  0
VERTEX
  8
寸法
 10
-159.51159
 20
67.889612
  0
VERTEX
  8
寸法
 10
-156.556818
 20
67.370652
  0
VERTEX
  8
寸法
 10
-158.856245
 20
69.29747
  0
SEQEND
  0
LINE
  8
寸法
  6
CONTINUOUS
 10
-156.556818
 20
67.370652
 11
-161.40128
 21
69.6257
  0
ENDBLK
  0
BLOCK
  2
*GRP_0071
 70
    65
 10
0.0
 20
0.0
  0
POLYLINE
  8
寸法
  6
CONTINUOUS
 66
     1
  0
VERTEX
  8
寸法
 10
-149.51159
 20
67.889612
  0
VERTEX
  8
寸法
 10
-146.556818
 20
67.370652
  0
VERTEX
  8
寸法
 10
-148.856245
 20
69.29747
  0
SEQEND
  0
LINE
  8
寸法
  6
CONTINUOUS
 10
-146.556818
 20
67.370652
 11
-151.40128
 21
69.6257
  0
ENDBLK
  0
BLOCK
  2
*GRP_0072
 70
    65
 10
0.0
 20
0.0
  0
POLYLINE
  8
寸法
  6
CONTINUOUS
 66
     1
  0
VERTEX
  8
寸法
 10
-139.51159
 20
67.889612
  0
VERTEX
  8
寸法
 10
-136.556818
 20
67.370652
  0
VERTEX
  8
寸法
 10
-138.856245
 20
69.29747
  0
SEQEND
  0
LINE
  8
寸法
  6
CONTINUOUS
 10
-136.556818
 20
67.370652
 11
-141.40128
 21
69.6257
  0
ENDBLK
  0
BLOCK
  2
*GRP_0073
 70
    65
 10
0.0
 20
0.0
  0
POLYLINE
  8
寸法
  6
CONTINUOUS
 66
     1
  0
VERTEX
  8
寸法
 10
-159.51159
 20
45.47756
  0
VERTEX
  8
寸法
 10
-156.556818
 20
44.9586
  0
VERTEX
  8
寸法
 10
-158.856245
 20
46.885418
  0
SEQEND
  0
LINE
  8
寸法
  6
CONTINUOUS
 10
-156.556818
 20
44.9586
 11
-161.40128
 21
47.213647
  0
ENDBLK
  0
BLOCK
  2
*GRP_0074
 70
    65
 10
0.0
 20
0.0
  0
POLYLINE
  8
寸法
  6
CONTINUOUS
 66
     1
  0
VERTEX
  8
寸法
 10
-149.51159
 20
45.47756
  0
VERTEX
  8
寸法
 10
-146.556818
 20
44.9586
  0
VERTEX
  8
寸法
 10
-148.856245
 20
46.885418
  0
SEQEND
  0
LINE
  8
寸法
  6
CONTINUOUS
 10
-146.556818
 20
44.9586
 11
-151.40128
 21
47.213647
  0
ENDBLK
  0
BLOCK
  2
*GRP_0075
 70
    65
 10
0.0
 20
0.0
  0
POLYLINE
  8
寸法
  6
CONTINUOUS
 66
     1
  0
VERTEX
  8
寸法
 10
-139.51159
 20
45.47756
  0
VERTEX
  8
寸法
 10
-136.556818
 20
44.9586
  0
VERTEX
  8
寸法
 10
-138.856245
 20
46.885418
  0
SEQEND
  0
LINE
  8
寸法
  6
CONTINUOUS
 10
-136.556818
 20
44.9586
 11
-141.40128
 21
47.213647
  0
ENDBLK
  0
BLOCK
  2
*GRP_0076
 70
    65
 10
0.0
 20
0.0
  0
POLYLINE
  8
寸法
  6
CONTINUOUS
 66
     1
  0
VERTEX
  8
寸法
 10
-159.51159
 20
16.938472
  0
VERTEX
  8
寸法
 10
-156.556818
 20
16.419513
  0
VERTEX
  8
寸法
 10
-158.856245
 20
18.34633
  0
SEQEND
  0
LINE
  8
寸法
  6
CONTINUOUS
 10
-156.556818
 20
16.419513
 11
-161.40128
 21
18.67456
  0
ENDBLK
  0
BLOCK
  2
*GRP_0077
 70
    65
 10
0.0
 20
0.0
  0
POLYLINE
  8
寸法
  6
CONTINUOUS
 66
     1
  0
VERTEX
  8
寸法
 10
-149.51159
 20
16.938472
  0
VERTEX
  8
寸法
 10
-146.556818
 20
16.419513
  0
VERTEX
  8
寸法
 10
-148.856245
 20
18.34633
  0
SEQEND
  0
LINE
  8
寸法
  6
CONTINUOUS
 10
-146.556818
 20
16.419513
 11
-151.40128
 21
18.67456
  0
ENDBLK
  0
BLOCK
  2
*GRP_0078
 70
    65
 10
0.0
 20
0.0
  0
POLYLINE
  8
寸法
  6
CONTINUOUS
 66
     1
  0
VERTEX
  8
寸法
 10
-139.51159
 20
16.938472
  0
VERTEX
  8
寸法
 10
-136.556818
 20
16.419513
  0
VERTEX
  8
寸法
 10
-138.856245
 20
18.34633
  0
SEQEND
  0
LINE
  8
寸法
  6
CONTINUOUS
 10
-136.556818
 20
16.419513
 11
-141.40128
 21
18.67456
  0
ENDBLK
  0
BLOCK
  2
*GRP_0079
 70
    65
 10
0.0
 20
0.0
  0
POLYLINE
  8
寸法
  6
CONTINUOUS
 66
     1
  0
VERTEX
  8
寸法
 10
-159.51159
 20
-10.955665
  0
VERTEX
  8
寸法
 10
-156.556818
 20
-11.474625
  0
VERTEX
  8
寸法
 10
-158.856245
 20
-9.547807
  0
SEQEND
  0
LINE
  8
寸法
  6
CONTINUOUS
 10
-156.556818
 20
-11.474625
 11
-161.40128
 21
-9.219578
  0
ENDBLK
  0
BLOCK
  2
*GRP_0080
 70
    65
 10
0.0
 20
0.0
  0
POLYLINE
  8
寸法
  6
CONTINUOUS
 66
     1
  0
VERTEX
  8
寸法
 10
-149.51159
 20
-10.955665
  0
VERTEX
  8
寸法
 10
-146.556818
 20
-11.474625
  0
VERTEX
  8
寸法
 10
-148.856245
 20
-9.547807
  0
SEQEND
  0
LINE
  8
寸法
  6
CONTINUOUS
 10
-146.556818
 20
-11.474625
 11
-151.40128
 21
-9.219578
  0
ENDBLK
  0
BLOCK
  2
*GRP_0081
 70
    65
 10
0.0
 20
0.0
  0
POLYLINE
  8
寸法
  6
CONTINUOUS
 66
     1
  0
VERTEX
  8
寸法
 10
-139.51159
 20
-10.955665
  0
VERTEX
  8
寸法
 10
-136.556818
 20
-11.474625
  0
VERTEX
  8
寸法
 10
-138.856245
 20
-9.547807
  0
SEQEND
  0
LINE
  8
寸法
  6
CONTINUOUS
 10
-136.556818
 20
-11.474625
 11
-141.40128
 21
-9.219578
  0
ENDBLK
  0
BLOCK
  2
*GRP_0082
 70
    65
 10
0.0
 20
0.0
  0
POLYLINE
  8
寸法
  6
CONTINUOUS
 66
     1
  0
VERTEX
  8
寸法
 10
-161.399938
 20
-17.017835
  0
VERTEX
  8
寸法
 10
-163.5547
 20
-14.930493
  0
VERTEX
  8
寸法
 10
-162.73229
 20
-17.815565
  0
SEQEND
  0
LINE
  8
寸法
  6
CONTINUOUS
 10
-163.5547
 20
-14.930493
 11
-161.028643
 21
-19.149465
  0
ENDBLK
  0
BLOCK
  2
*GRP_0083
 70
    65
 10
0.0
 20
0.0
  0
POLYLINE
  8
寸法
  6
CONTINUOUS
 66
     1
  0
VERTEX
  8
寸法
 10
-151.940655
 20
-17.017835
  0
VERTEX
  8
寸法
 10
-154.095418
 20
-14.930493
  0
VERTEX
  8
寸法
 10
-153.273008
 20
-17.815565
  0
SEQEND
  0
LINE
  8
寸法
  6
CONTINUOUS
 10
-154.095418
 20
-14.930493
 11
-151.56936
 21
-19.149465
  0
ENDBLK
  0
BLOCK
  2
*GRP_0084
 70
    65
 10
0.0
 20
0.0
  0
POLYLINE
  8
寸法
  6
CONTINUOUS
 66
     1
  0
VERTEX
  8
寸法
 10
-142.095215
 20
-17.017835
  0
VERTEX
  8
寸法
 10
-144.249978
 20
-14.930493
  0
VERTEX
  8
寸法
 10
-143.427567
 20
-17.815565
  0
SEQEND
  0
LINE
  8
寸法
  6
CONTINUOUS
 10
-144.249978
 20
-14.930493
 11
-141.72392
 21
-19.149465
  0
ENDBLK
  0
BLOCK
  2
*GRP_0085
 70
    65
 10
0.0
 20
0.0
  0
POLYLINE
  8
寸法
  6
CONTINUOUS
 66
     1
  0
VERTEX
  8
寸法
 10
-131.67453
 20
-17.017835
  0
VERTEX
  8
寸法
 10
-133.829292
 20
-14.930493
  0
VERTEX
  8
寸法
 10
-133.006883
 20
-17.815565
  0
SEQEND
  0
LINE
  8
寸法
  6
CONTINUOUS
 10
-133.829292
 20
-14.930493
 11
-131.303235
 21
-19.149465
  0
ENDBLK
  0
BLOCK
  2
*GRP_0086
 70
    65
 10
0.0
 20
0.0
  0
LINE
  8
ボルト／ビス
  6
CONTINUOUS
 62
    64
 10
84.486667
 20
-69.80123
 11
84.486667
 21
-93.04813
  0
LINE
  8
ボルト／ビス
  6
CONTINUOUS
 62
    64
 10
83.32005
 20
-72.437455
 11
83.555725
 21
-72.201615
  0
LINE
  8
ボルト／ビス
  6
CONTINUOUS
 62
    64
 10
83.32005
 20
-72.437455
 11
83.32005
 21
-74.53494
  0
LINE
  8
ボルト／ビス
  6
CONTINUOUS
 62
    64
 10
83.32005
 20
-72.437455
 11
83.084375
 21
-72.201615
  0
LINE
  8
ボルト／ビス
  6
CONTINUOUS
 62
    64
 10
83.389085
 20
-70.535023
 11
83.389085
 21
-72.201615
  0
LINE
  8
ボルト／ビス
  6
CONTINUOUS
 62
    64
 10
81.820035
 20
-74.53494
 11
81.820035
 21
-75.368315
  0
LINE
  8
ボルト／ビス
  6
CONTINUOUS
 62
    64
 10
83.15331
 20
-82.201655
 11
83.389085
 21
-81.96598
  0
LINE
  8
ボルト／ビス
  6
CONTINUOUS
 62
    64
 10
83.389085
 20
-75.868405
 11
83.389085
 21
-81.96598
  0
LINE
  8
ボルト／ビス
  6
CONTINUOUS
 62
    64
 10
83.15331
 20
-85.334755
 11
81.859243
 21
-90.164423
  0
LINE
  8
ボルト／ビス
  6
CONTINUOUS
 62
    64
 10
83.15331
 20
-75.868405
 11
83.15331
 21
-85.334755
  0
LINE
  8
ボルト／ビス
  6
CONTINUOUS
 62
    64
 10
83.32005
 20
-72.437455
 11
83.555725
 21
-72.201615
  0
LINE
  8
ボルト／ビス
  6
CONTINUOUS
 62
    64
 10
85.633135
 20
-72.437455
 11
85.86881
 21
-72.201615
  0
LINE
  8
ボルト／ビス
  6
CONTINUOUS
 62
    64
 10
85.633135
 20
-72.437455
 11
85.633135
 21
-74.53494
  0
LINE
  8
ボルト／ビス
  6
CONTINUOUS
 62
    64
 10
85.633135
 20
-72.437455
 11
85.39746
 21
-72.201615
  0
LINE
  8
ボルト／ビス
  6
CONTINUOUS
 62
    64
 10
85.58431
 20
-70.535023
 11
85.58431
 21
-72.201615
  0
LINE
  8
ボルト／ビス
  6
CONTINUOUS
 62
    64
 10
87.1534
 20
-74.53494
 11
87.1534
 21
-75.368315
  0
LINE
  8
ボルト／ビス
  6
CONTINUOUS
 62
    64
 10
85.819993
 20
-82.201655
 11
85.58431
 21
-81.96598
  0
LINE
  8
ボルト／ビス
  6
CONTINUOUS
 62
    64
 10
85.58431
 20
-75.868405
 11
85.58431
 21
-81.96598
  0
LINE
  8
ボルト／ビス
  6
CONTINUOUS
 62
    64
 10
85.819993
 20
-85.334755
 11
87.114092
 21
-90.164423
  0
LINE
  8
ボルト／ビス
  6
CONTINUOUS
 62
    64
 10
85.819993
 20
-75.868405
 11
85.819993
 21
-85.334755
  0
LINE
  8
ボルト／ビス
  6
CONTINUOUS
 62
    64
 10
85.819993
 20
-70.770698
 11
85.58431
 21
-70.535023
  0
LINE
  8
ボルト／ビス
  6
CONTINUOUS
 62
    64
 10
85.819993
 20
-72.201615
 11
85.819993
 21
-70.770698
  0
LINE
  8
ボルト／ビス
  6
CONTINUOUS
 62
    64
 10
85.58431
 20
-70.535023
 11
83.389085
 21
-70.535023
  0
LINE
  8
ボルト／ビス
  6
CONTINUOUS
 62
    64
 10
83.389085
 20
-70.535023
 11
83.15331
 21
-70.770698
  0
LINE
  8
ボルト／ビス
  6
CONTINUOUS
 62
    64
 10
85.819993
 20
-70.770698
 11
83.15331
 21
-70.770698
  0
LINE
  8
ボルト／ビス
  6
CONTINUOUS
 62
    64
 10
83.15331
 20
-72.201615
 11
83.15331
 21
-70.770698
  0
LINE
  8
ボルト／ビス
  6
CONTINUOUS
 62
    64
 10
81.553375
 20
-72.437455
 11
81.78905
 21
-72.201615
  0
LINE
  8
ボルト／ビス
  6
CONTINUOUS
 62
    64
 10
81.553375
 20
-72.437455
 11
81.553375
 21
-74.53494
  0
LINE
  8
ボルト／ビス
  6
CONTINUOUS
 62
    64
 10
81.78905
 20
-72.201615
 11
87.184285
 21
-72.201615
  0
LINE
  8
ボルト／ビス
  6
CONTINUOUS
 62
    64
 10
87.41996
 20
-72.437455
 11
87.184285
 21
-72.201615
  0
LINE
  8
ボルト／ビス
  6
CONTINUOUS
 62
    64
 10
87.41996
 20
-72.437455
 11
87.41996
 21
-74.53494
  0
LINE
  8
ボルト／ビス
  6
CONTINUOUS
 62
    64
 10
81.553375
 20
-74.53494
 11
87.41996
 21
-74.53494
  0
LINE
  8
ボルト／ビス
  6
CONTINUOUS
 62
    64
 10
87.736725
 20
-75.368315
 11
87.736725
 21
-75.868405
  0
LINE
  8
ボルト／ビス
  6
CONTINUOUS
 62
    64
 10
87.736725
 20
-75.368315
 11
81.236667
 21
-75.368315
  0
LINE
  8
ボルト／ビス
  6
CONTINUOUS
 62
    64
 10
81.236667
 20
-75.368315
 11
81.236667
 21
-75.868405
  0
LINE
  8
ボルト／ビス
  6
CONTINUOUS
 62
    64
 10
87.736725
 20
-75.868405
 11
81.236667
 21
-75.868405
  0
LINE
  8
ボルト／ビス
  6
CONTINUOUS
 62
    64
 10
84.486667
 20
-85.554248
 11
85.81531
 21
-90.512472
  0
LINE
  8
ボルト／ビス
  6
CONTINUOUS
 62
    64
 10
87.114092
 20
-90.164423
 11
85.81531
 21
-90.512472
  0
LINE
  8
ボルト／ビス
  6
CONTINUOUS
 62
    64
 10
84.486667
 20
-85.554248
 11
83.158117
 21
-90.512472
  0
LINE
  8
ボルト／ビス
  6
CONTINUOUS
 62
    64
 10
81.859243
 20
-90.164423
 11
83.158117
 21
-90.512472
  0
LINE
  8
ボルト／ビス
  6
CONTINUOUS
 62
    64
 10
83.15331
 20
-91.201605
 11
83.58331
 21
-88.762905
  0
LINE
  8
ボルト／ビス
  6
CONTINUOUS
 62
    64
 10
85.819993
 20
-91.201605
 11
85.390025
 21
-88.762905
  0
LINE
  8
ボルト／ビス
  6
CONTINUOUS
 62
    64
 10
83.15331
 20
-91.201605
 11
85.819993
 21
-91.201605
  0
LINE
  8
ボルト／ビス
  6
CONTINUOUS
 62
    64
 10
83.58331
 20
-88.762905
 11
85.390025
 21
-88.762905
  0
ENDBLK
  0
BLOCK
  2
*GRP_0087
 70
    65
 10
0.0
 20
0.0
  0
LINE
  8
ボルト／ビス
  6
CONTINUOUS
 62
    64
 10
-93.351127
 20
-69.80123
 11
-93.351127
 21
-93.04813
  0
LINE
  8
ボルト／ビス
  6
CONTINUOUS
 62
    64
 10
-94.517745
 20
-72.437455
 11
-94.28207
 21
-72.201615
  0
LINE
  8
ボルト／ビス
  6
CONTINUOUS
 62
    64
 10
-94.517745
 20
-72.437455
 11
-94.517745
 21
-74.53494
  0
LINE
  8
ボルト／ビス
  6
CONTINUOUS
 62
    64
 10
-94.517745
 20
-72.437455
 11
-94.75342
 21
-72.201615
  0
LINE
  8
ボルト／ビス
  6
CONTINUOUS
 62
    64
 10
-94.44871
 20
-70.535023
 11
-94.44871
 21
-72.201615
  0
LINE
  8
ボルト／ビス
  6
CONTINUOUS
 62
    64
 10
-96.01776
 20
-74.53494
 11
-96.01776
 21
-75.368315
  0
LINE
  8
ボルト／ビス
  6
CONTINUOUS
 62
    64
 10
-94.684485
 20
-82.201655
 11
-94.44871
 21
-81.96598
  0
LINE
  8
ボルト／ビス
  6
CONTINUOUS
 62
    64
 10
-94.44871
 20
-75.868405
 11
-94.44871
 21
-81.96598
  0
LINE
  8
ボルト／ビス
  6
CONTINUOUS
 62
    64
 10
-94.684485
 20
-85.334755
 11
-95.978553
 21
-90.164423
  0
LINE
  8
ボルト／ビス
  6
CONTINUOUS
 62
    64
 10
-94.684485
 20
-75.868405
 11
-94.684485
 21
-85.334755
  0
LINE
  8
ボルト／ビス
  6
CONTINUOUS
 62
    64
 10
-94.517745
 20
-72.437455
 11
-94.28207
 21
-72.201615
  0
LINE
  8
ボルト／ビス
  6
CONTINUOUS
 62
    64
 10
-92.20466
 20
-72.437455
 11
-91.968985
 21
-72.201615
  0
LINE
  8
ボルト／ビス
  6
CONTINUOUS
 62
    64
 10
-92.20466
 20
-72.437455
 11
-92.20466
 21
-74.53494
  0
LINE
  8
ボルト／ビス
  6
CONTINUOUS
 62
    64
 10
-92.20466
 20
-72.437455
 11
-92.440335
 21
-72.201615
  0
LINE
  8
ボルト／ビス
  6
CONTINUOUS
 62
    64
 10
-92.253485
 20
-70.535023
 11
-92.253485
 21
-72.201615
  0
LINE
  8
ボルト／ビス
  6
CONTINUOUS
 62
    64
 10
-90.684395
 20
-74.53494
 11
-90.684395
 21
-75.368315
  0
LINE
  8
ボルト／ビス
  6
CONTINUOUS
 62
    64
 10
-92.017803
 20
-82.201655
 11
-92.253485
 21
-81.96598
  0
LINE
  8
ボルト／ビス
  6
CONTINUOUS
 62
    64
 10
-92.253485
 20
-75.868405
 11
-92.253485
 21
-81.96598
  0
LINE
  8
ボルト／ビス
  6
CONTINUOUS
 62
    64
 10
-92.017803
 20
-85.334755
 11
-90.723703
 21
-90.164423
  0
LINE
  8
ボルト／ビス
  6
CONTINUOUS
 62
    64
 10
-92.017803
 20
-75.868405
 11
-92.017803
 21
-85.334755
  0
LINE
  8
ボルト／ビス
  6
CONTINUOUS
 62
    64
 10
-92.017803
 20
-70.770698
 11
-92.253485
 21
-70.535023
  0
LINE
  8
ボルト／ビス
  6
CONTINUOUS
 62
    64
 10
-92.017803
 20
-72.201615
 11
-92.017803
 21
-70.770698
  0
LINE
  8
ボルト／ビス
  6
CONTINUOUS
 62
    64
 10
-92.253485
 20
-70.535023
 11
-94.44871
 21
-70.535023
  0
LINE
  8
ボルト／ビス
  6
CONTINUOUS
 62
    64
 10
-94.44871
 20
-70.535023
 11
-94.684485
 21
-70.770698
  0
LINE
  8
ボルト／ビス
  6
CONTINUOUS
 62
    64
 10
-92.017803
 20
-70.770698
 11
-94.684485
 21
-70.770698
  0
LINE
  8
ボルト／ビス
  6
CONTINUOUS
 62
    64
 10
-94.684485
 20
-72.201615
 11
-94.684485
 21
-70.770698
  0
LINE
  8
ボルト／ビス
  6
CONTINUOUS
 62
    64
 10
-96.28442
 20
-72.437455
 11
-96.048745
 21
-72.201615
  0
LINE
  8
ボルト／ビス
  6
CONTINUOUS
 62
    64
 10
-96.28442
 20
-72.437455
 11
-96.28442
 21
-74.53494
  0
LINE
  8
ボルト／ビス
  6
CONTINUOUS
 62
    64
 10
-96.048745
 20
-72.201615
 11
-90.65351
 21
-72.201615
  0
LINE
  8
ボルト／ビス
  6
CONTINUOUS
 62
    64
 10
-90.417835
 20
-72.437455
 11
-90.65351
 21
-72.201615
  0
LINE
  8
ボルト／ビス
  6
CONTINUOUS
 62
    64
 10
-90.417835
 20
-72.437455
 11
-90.417835
 21
-74.53494
  0
LINE
  8
ボルト／ビス
  6
CONTINUOUS
 62
    64
 10
-96.28442
 20
-74.53494
 11
-90.417835
 21
-74.53494
  0
LINE
  8
ボルト／ビス
  6
CONTINUOUS
 62
    64
 10
-90.10107
 20
-75.368315
 11
-90.10107
 21
-75.868405
  0
LINE
  8
ボルト／ビス
  6
CONTINUOUS
 62
    64
 10
-90.10107
 20
-75.368315
 11
-96.601127
 21
-75.368315
  0
LINE
  8
ボルト／ビス
  6
CONTINUOUS
 62
    64
 10
-96.601127
 20
-75.368315
 11
-96.601127
 21
-75.868405
  0
LINE
  8
ボルト／ビス
  6
CONTINUOUS
 62
    64
 10
-90.10107
 20
-75.868405
 11
-96.601127
 21
-75.868405
  0
LINE
  8
ボルト／ビス
  6
CONTINUOUS
 62
    64
 10
-93.351127
 20
-85.554248
 11
-92.022485
 21
-90.512472
  0
LINE
  8
ボルト／ビス
  6
CONTINUOUS
 62
    64
 10
-90.723703
 20
-90.164423
 11
-92.022485
 21
-90.512472
  0
LINE
  8
ボルト／ビス
  6
CONTINUOUS
 62
    64
 10
-93.351127
 20
-85.554248
 11
-94.679677
 21
-90.512472
  0
LINE
  8
ボルト／ビス
  6
CONTINUOUS
 62
    64
 10
-95.978553
 20
-90.164423
 11
-94.679677
 21
-90.512472
  0
LINE
  8
ボルト／ビス
  6
CONTINUOUS
 62
    64
 10
-94.684485
 20
-91.201605
 11
-94.254485
 21
-88.762905
  0
LINE
  8
ボルト／ビス
  6
CONTINUOUS
 62
    64
 10
-92.017803
 20
-91.201605
 11
-92.44777
 21
-88.762905
  0
LINE
  8
ボルト／ビス
  6
CONTINUOUS
 62
    64
 10
-94.684485
 20
-91.201605
 11
-92.017803
 21
-91.201605
  0
LINE
  8
ボルト／ビス
  6
CONTINUOUS
 62
    64
 10
-94.254485
 20
-88.762905
 11
-92.44777
 21
-88.762905
  0
ENDBLK
  0
BLOCK
  2
*GRP_0088
 70
    65
 10
0.0
 20
0.0
  0
ARC
  8
St
  6
CONTINUOUS
 62
   127
 10
70.086668
 20
-58.001738
 40
1.066667
 50
360.0
 51
450.0
  0
LINE
  8
St
  6
CONTINUOUS
 62
   127
 10
83.81969
 20
-56.93507
 11
53.819982
 21
-56.93507
  0
LINE
  8
St
  6
CONTINUOUS
 62
   127
 10
83.81969
 20
-58.001735
 11
53.819982
 21
-58.001735
  0
LINE
  8
St
  6
CONTINUOUS
 62
   127
 10
53.819982
 20
-56.93507
 11
53.819982
 21
-58.001735
  0
LINE
  8
St
  6
CONTINUOUS
 10
56.421912
 20
-56.93507
 11
57.488578
 21
-58.001735
  0
LINE
  8
St
  6
CONTINUOUS
 10
56.18621
 20
-56.93507
 11
57.252875
 21
-58.001735
  0
LINE
  8
St
  6
CONTINUOUS
 10
77.497703
 20
-56.93507
 11
78.564367
 21
-58.001735
  0
LINE
  8
St
  6
CONTINUOUS
 10
77.262
 20
-56.93507
 11
78.328665
 21
-58.001735
  0
LINE
  8
St
  6
CONTINUOUS
 62
   127
 10
71.153335
 20
-73.601735
 11
70.08667
 21
-73.601735
  0
LINE
  8
St
  6
CONTINUOUS
 62
   127
 10
70.08667
 20
-58.001735
 11
70.08667
 21
-73.601735
  0
LINE
  8
St
  6
CONTINUOUS
 62
   127
 10
71.153335
 20
-58.001735
 11
71.153335
 21
-73.601735
  0
LINE
  8
St
  6
CONTINUOUS
 10
83.81969
 20
-56.93507
 11
83.81969
 21
-58.001735
  0
LINE
  8
St
  6
CONTINUOUS
 10
55.902422
 20
-56.935058
 11
55.902422
 21
-58.001725
  0
LINE
  8
St
  6
CONTINUOUS
 10
54.402422
 20
-56.935058
 11
54.402422
 21
-58.001725
  0
LINE
  8
St
  6
CONTINUOUS
 10
54.402422
 20
-57.201725
 11
55.902422
 21
-57.201725
  0
LINE
  8
St
  6
CONTINUOUS
 10
54.402422
 20
-57.46839
 11
55.902422
 21
-57.46839
  0
LINE
  8
St
  6
CONTINUOUS
 10
54.402422
 20
-57.735058
 11
55.902422
 21
-57.735058
  0
LINE
  8
St
  6
CONTINUOUS
 10
55.152422
 20
-59.018682
 11
55.152422
 21
-55.861138
  0
LINE
  8
St
  6
CONTINUOUS
 10
82.903023
 20
-56.935058
 11
82.903023
 21
-58.001725
  0
LINE
  8
St
  6
CONTINUOUS
 10
81.403023
 20
-56.935058
 11
81.403023
 21
-58.001725
  0
LINE
  8
St
  6
CONTINUOUS
 10
81.403023
 20
-57.201725
 11
82.903023
 21
-57.201725
  0
LINE
  8
St
  6
CONTINUOUS
 10
81.403023
 20
-57.46839
 11
82.903023
 21
-57.46839
  0
LINE
  8
St
  6
CONTINUOUS
 10
81.403023
 20
-57.735058
 11
82.903023
 21
-57.735058
  0
LINE
  8
St
  6
CONTINUOUS
 10
82.153023
 20
-59.018682
 11
82.153023
 21
-55.861138
  0
LINE
  8
St
  6
CONTINUOUS
 10
70.08667
 20
-70.268405
 11
71.153335
 21
-70.268405
  0
LINE
  8
St
  6
CONTINUOUS
 10
70.08667
 20
-66.93507
 11
71.153335
 21
-66.93507
  0
LINE
  8
St
  6
CONTINUOUS
 10
70.353338
 20
-66.93507
 11
70.353338
 21
-70.268405
  0
LINE
  8
St
  6
CONTINUOUS
 10
70.620003
 20
-66.93507
 11
70.620003
 21
-70.268405
  0
LINE
  8
St
  6
CONTINUOUS
 10
70.88667
 20
-66.93507
 11
70.88667
 21
-70.268405
  0
LINE
  8
St
  6
CONTINUOUS
 10
69.109245
 20
-68.601738
 11
72.089072
 21
-68.601738
  0
ENDBLK
  0
BLOCK
  2
*GRP_0089
 70
    65
 10
0.0
 20
0.0
  0
ARC
  8
St
  6
CONTINUOUS
 62
   127
 10
-78.951128
 20
-58.001738
 40
1.066667
 50
90.0
 51
180.0
  0
LINE
  8
St
  6
CONTINUOUS
 62
   127
 10
-92.68415
 20
-56.93507
 11
-62.684443
 21
-56.93507
  0
LINE
  8
St
  6
CONTINUOUS
 62
   127
 10
-92.68415
 20
-58.001735
 11
-62.684443
 21
-58.001735
  0
LINE
  8
St
  6
CONTINUOUS
 62
   127
 10
-62.684443
 20
-56.93507
 11
-62.684443
 21
-58.001735
  0
LINE
  8
St
  6
CONTINUOUS
 10
-65.286373
 20
-56.93507
 11
-66.353038
 21
-58.001735
  0
LINE
  8
St
  6
CONTINUOUS
 10
-65.05067
 20
-56.93507
 11
-66.117335
 21
-58.001735
  0
LINE
  8
St
  6
CONTINUOUS
 10
-86.362162
 20
-56.93507
 11
-87.428827
 21
-58.001735
  0
LINE
  8
St
  6
CONTINUOUS
 10
-86.12646
 20
-56.93507
 11
-87.193125
 21
-58.001735
  0
LINE
  8
St
  6
CONTINUOUS
 62
   127
 10
-80.017795
 20
-73.601735
 11
-78.95113
 21
-73.601735
  0
LINE
  8
St
  6
CONTINUOUS
 62
   127
 10
-78.95113
 20
-58.001735
 11
-78.95113
 21
-73.601735
  0
LINE
  8
St
  6
CONTINUOUS
 62
   127
 10
-80.017795
 20
-58.001735
 11
-80.017795
 21
-73.601735
  0
LINE
  8
St
  6
CONTINUOUS
 10
-92.68415
 20
-56.93507
 11
-92.68415
 21
-58.001735
  0
LINE
  8
St
  6
CONTINUOUS
 10
-64.766882
 20
-56.935058
 11
-64.766882
 21
-58.001725
  0
LINE
  8
St
  6
CONTINUOUS
 10
-63.266882
 20
-56.935058
 11
-63.266882
 21
-58.001725
  0
LINE
  8
St
  6
CONTINUOUS
 10
-63.266882
 20
-57.201725
 11
-64.766882
 21
-57.201725
  0
LINE
  8
St
  6
CONTINUOUS
 10
-63.266882
 20
-57.46839
 11
-64.766882
 21
-57.46839
  0
LINE
  8
St
  6
CONTINUOUS
 10
-63.266882
 20
-57.735058
 11
-64.766882
 21
-57.735058
  0
LINE
  8
St
  6
CONTINUOUS
 10
-64.016882
 20
-59.018682
 11
-64.016882
 21
-55.861138
  0
LINE
  8
St
  6
CONTINUOUS
 10
-91.767483
 20
-56.935058
 11
-91.767483
 21
-58.001725
  0
LINE
  8
St
  6
CONTINUOUS
 10
-90.267483
 20
-56.935058
 11
-90.267483
 21
-58.001725
  0
LINE
  8
St
  6
CONTINUOUS
 10
-90.267483
 20
-57.201725
 11
-91.767483
 21
-57.201725
  0
LINE
  8
St
  6
CONTINUOUS
 10
-90.267483
 20
-57.46839
 11
-91.767483
 21
-57.46839
  0
LINE
  8
St
  6
CONTINUOUS
 10
-90.267483
 20
-57.735058
 11
-91.767483
 21
-57.735058
  0
LINE
  8
St
  6
CONTINUOUS
 10
-91.017483
 20
-59.018682
 11
-91.017483
 21
-55.861138
  0
LINE
  8
St
  6
CONTINUOUS
 10
-78.95113
 20
-70.268405
 11
-80.017795
 21
-70.268405
  0
LINE
  8
St
  6
CONTINUOUS
 10
-78.95113
 20
-66.93507
 11
-80.017795
 21
-66.93507
  0
LINE
  8
St
  6
CONTINUOUS
 10
-79.217797
 20
-66.93507
 11
-79.217797
 21
-70.268405
  0
LINE
  8
St
  6
CONTINUOUS
 10
-79.484462
 20
-66.93507
 11
-79.484462
 21
-70.268405
  0
LINE
  8
St
  6
CONTINUOUS
 10
-79.75113
 20
-66.93507
 11
-79.75113
 21
-70.268405
  0
LINE
  8
St
  6
CONTINUOUS
 10
-77.973705
 20
-68.601738
 11
-80.953532
 21
-68.601738
  0
ENDBLK
  0
BLOCK
  2
*GRP_0090
 70
    65
 10
0.0
 20
0.0
  0
ARC
  8
St
  6
CONTINUOUS
 62
   127
 10
72.220007
 20
-75.868404
 40
1.066667
 50
180.0
 51
270.0
  0
LINE
  8
St
  6
CONTINUOUS
 10
100.367205
 20
-75.868402
 11
101.43387
 21
-76.93507
  0
LINE
  8
St
  6
CONTINUOUS
 10
100.60291
 20
-75.868402
 11
101.669575
 21
-76.93507
  0
LINE
  8
St
  6
CONTINUOUS
 62
   127
 10
72.220003
 20
-75.868402
 11
104.486667
 21
-75.868402
  0
LINE
  8
St
  6
CONTINUOUS
 10
104.486667
 20
-75.868402
 11
104.486667
 21
-76.93507
  0
LINE
  8
St
  6
CONTINUOUS
 62
   127
 10
72.220003
 20
-76.93507
 11
104.486667
 21
-76.93507
  0
LINE
  8
St
  6
CONTINUOUS
 10
79.285013
 20
-76.93507
 11
78.218347
 21
-75.868402
  0
LINE
  8
St
  6
CONTINUOUS
 10
79.520717
 20
-76.93507
 11
78.454053
 21
-75.868402
  0
LINE
  8
St
  6
CONTINUOUS
 10
72.220003
 20
-65.518963
 11
71.153335
 21
-64.452293
  0
LINE
  8
St
  6
CONTINUOUS
 10
72.220003
 20
-65.283258
 11
71.153335
 21
-64.216587
  0
LINE
  8
St
  6
CONTINUOUS
 10
72.220003
 20
-63.601735
 11
71.153335
 21
-63.601735
  0
LINE
  8
St
  6
CONTINUOUS
 62
   127
 10
71.153335
 20
-75.868402
 11
71.153335
 21
-63.601735
  0
LINE
  8
St
  6
CONTINUOUS
 62
   127
 10
72.220003
 20
-75.868402
 11
72.220003
 21
-63.601735
  0
LINE
  8
St
  6
DOT
 10
69.537628
 20
-68.601735
 11
73.753875
 21
-68.601735
  0
LINE
  8
St
  6
DOT
 62
   127
 10
88.4084
 20
-77.800198
 11
88.4084
 21
-77.800195
  0
LINE
  8
St
  6
DOT
 10
81.153335
 20
-75.868402
 11
81.153335
 21
-76.93507
  0
LINE
  8
St
  6
DOT
 10
87.82
 20
-75.868402
 11
87.82
 21
-76.93507
  0
LINE
  8
St
  6
DOT
 10
92.82
 20
-75.868402
 11
92.82
 21
-76.93507
  0
LINE
  8
St
  6
DOT
 10
96.153335
 20
-75.868402
 11
96.153335
 21
-76.93507
  0
LINE
  8
St
  6
DOT
 10
84.486667
 20
-74.513757
 11
84.486667
 21
-78.339958
  0
LINE
  8
St
  6
DOT
 62
   127
 10
87.82
 20
-76.13507
 11
81.153335
 21
-76.13507
  0
LINE
  8
St
  6
DOT
 62
   127
 10
87.82
 20
-76.401735
 11
81.153335
 21
-76.401735
  0
LINE
  8
St
  6
DOT
 62
   127
 10
87.82
 20
-76.668402
 11
81.153335
 21
-76.668402
  0
LINE
  8
St
  6
DOT
 10
92.82
 20
-76.13507
 11
96.153335
 21
-76.13507
  0
LINE
  8
St
  6
DOT
 10
92.82
 20
-76.401735
 11
96.153335
 21
-76.401735
  0
LINE
  8
St
  6
DOT
 10
92.82
 20
-76.668402
 11
96.153335
 21
-76.668402
  0
LINE
  8
St
  6
DOT
 10
94.486667
 20
-74.513757
 11
94.486667
 21
-78.339958
  0
LINE
  8
St
  6
DOT
 10
71.153335
 20
-75.868402
 11
72.220003
 21
-75.868402
  0
LINE
  8
St
  6
DOT
 10
71.153335
 20
-65.2684
 11
72.220003
 21
-65.2684
  0
LINE
  8
St
  6
DOT
 10
72.220003
 20
-69.601735
 11
71.153335
 21
-69.601735
  0
LINE
  8
St
  6
DOT
 10
72.220003
 20
-67.601735
 11
71.153335
 21
-67.601735
  0
LINE
  8
St
  6
DOT
 62
   127
 10
71.953335
 20
-75.868402
 11
71.953335
 21
-65.2684
  0
LINE
  8
St
  6
DOT
 62
   127
 10
71.68667
 20
-75.868402
 11
71.68667
 21
-65.2684
  0
LINE
  8
St
  6
DOT
 62
   127
 10
71.420003
 20
-75.868402
 11
71.420003
 21
-65.2684
  0
ENDBLK
  0
BLOCK
  2
*GRP_0091
 70
    65
 10
0.0
 20
0.0
  0
ARC
  8
St
  6
CONTINUOUS
 62
   127
 10
-81.084467
 20
-75.868404
 40
1.066667
 50
-90.0
 51
0.0
  0
LINE
  8
St
  6
CONTINUOUS
 10
-109.231665
 20
-75.868402
 11
-110.29833
 21
-76.93507
  0
LINE
  8
St
  6
CONTINUOUS
 10
-109.46737
 20
-75.868402
 11
-110.534035
 21
-76.93507
  0
LINE
  8
St
  6
CONTINUOUS
 62
   127
 10
-81.084462
 20
-75.868402
 11
-113.351127
 21
-75.868402
  0
LINE
  8
St
  6
CONTINUOUS
 10
-113.351127
 20
-75.868402
 11
-113.351127
 21
-76.93507
  0
LINE
  8
St
  6
CONTINUOUS
 62
   127
 10
-81.084462
 20
-76.93507
 11
-113.351127
 21
-76.93507
  0
LINE
  8
St
  6
CONTINUOUS
 10
-88.149472
 20
-76.93507
 11
-87.082808
 21
-75.868402
  0
LINE
  8
St
  6
CONTINUOUS
 10
-88.385178
 20
-76.93507
 11
-87.318512
 21
-75.868402
  0
LINE
  8
St
  6
CONTINUOUS
 10
-81.084462
 20
-65.518963
 11
-80.017795
 21
-64.452293
  0
LINE
  8
St
  6
CONTINUOUS
 10
-81.084462
 20
-65.283258
 11
-80.017795
 21
-64.216587
  0
LINE
  8
St
  6
CONTINUOUS
 10
-81.084462
 20
-63.601735
 11
-80.017795
 21
-63.601735
  0
LINE
  8
St
  6
CONTINUOUS
 62
   127
 10
-80.017795
 20
-75.868402
 11
-80.017795
 21
-63.601735
  0
LINE
  8
St
  6
CONTINUOUS
 62
   127
 10
-81.084462
 20
-75.868402
 11
-81.084462
 21
-63.601735
  0
LINE
  8
St
  6
DOT
 10
-78.402088
 20
-68.601735
 11
-82.618335
 21
-68.601735
  0
LINE
  8
St
  6
DOT
 62
   127
 10
-97.27286
 20
-77.800198
 11
-97.27286
 21
-77.800195
  0
LINE
  8
St
  6
DOT
 10
-90.017795
 20
-75.868402
 11
-90.017795
 21
-76.93507
  0
LINE
  8
St
  6
DOT
 10
-96.68446
 20
-75.868402
 11
-96.68446
 21
-76.93507
  0
LINE
  8
St
  6
DOT
 10
-101.68446
 20
-75.868402
 11
-101.68446
 21
-76.93507
  0
LINE
  8
St
  6
DOT
 10
-105.017795
 20
-75.868402
 11
-105.017795
 21
-76.93507
  0
LINE
  8
St
  6
DOT
 10
-93.351127
 20
-74.513757
 11
-93.351127
 21
-78.339958
  0
LINE
  8
St
  6
DOT
 62
   127
 10
-96.68446
 20
-76.13507
 11
-90.017795
 21
-76.13507
  0
LINE
  8
St
  6
DOT
 62
   127
 10
-96.68446
 20
-76.401735
 11
-90.017795
 21
-76.401735
  0
LINE
  8
St
  6
DOT
 62
   127
 10
-96.68446
 20
-76.668402
 11
-90.017795
 21
-76.668402
  0
LINE
  8
St
  6
DOT
 10
-101.68446
 20
-76.13507
 11
-105.017795
 21
-76.13507
  0
LINE
  8
St
  6
DOT
 10
-101.68446
 20
-76.401735
 11
-105.017795
 21
-76.401735
  0
LINE
  8
St
  6
DOT
 10
-101.68446
 20
-76.668402
 11
-105.017795
 21
-76.668402
  0
LINE
  8
St
  6
DOT
 10
-103.351127
 20
-74.513757
 11
-103.351127
 21
-78.339958
  0
LINE
  8
St
  6
DOT
 10
-80.017795
 20
-75.868402
 11
-81.084462
 21
-75.868402
  0
LINE
  8
St
  6
DOT
 10
-80.017795
 20
-65.2684
 11
-81.084462
 21
-65.2684
  0
LINE
  8
St
  6
DOT
 10
-81.084462
 20
-69.601735
 11
-80.017795
 21
-69.601735
  0
LINE
  8
St
  6
DOT
 10
-81.084462
 20
-67.601735
 11
-80.017795
 21
-67.601735
  0
LINE
  8
St
  6
DOT
 62
   127
 10
-80.817795
 20
-75.868402
 11
-80.817795
 21
-65.2684
  0
LINE
  8
St
  6
DOT
 62
   127
 10
-80.55113
 20
-75.868402
 11
-80.55113
 21
-65.2684
  0
LINE
  8
St
  6
DOT
 62
   127
 10
-80.284462
 20
-75.868402
 11
-80.284462
 21
-65.2684
  0
ENDBLK
  0
BLOCK
  2
*GRP_0092
 70
    65
 10
0.0
 20
0.0
  0
ARC
  8
投影線02
  6
CONTINUOUS
 62
   127
 10
2.434412
 20
-37.96842
 40
0.533333
 50
0.0
 51
90.0
  0
LINE
  8
投影線02
  6
CONTINUOUS
 62
   127
 10
-4.432237
 20
-37.96841
 11
2.43443
 21
-37.96841
  0
LINE
  8
投影線02
  6
CONTINUOUS
 62
   127
 10
-4.432237
 20
-37.435085
 11
2.43443
 21
-37.435085
  0
ARC
  8
投影線02
  6
CONTINUOUS
 62
   127
 10
-11.298914
 20
-37.96842
 40
0.533333
 50
90.0
 51
180.0
  0
LINE
  8
投影線02
  6
CONTINUOUS
 62
   127
 10
-4.432237
 20
-37.96841
 11
-11.298905
 21
-37.96841
  0
LINE
  8
投影線02
  6
CONTINUOUS
 62
   127
 10
-4.432237
 20
-37.435085
 11
-11.298905
 21
-37.435085
  0
LINE
  8
投影線02
  6
CONTINUOUS
 62
   127
 10
2.43443
 20
-41.26841
 11
2.43443
 21
-37.96841
  0
LINE
  8
投影線02
  6
CONTINUOUS
 62
   127
 10
2.967763
 20
-41.26841
 11
2.967763
 21
-37.96841
  0
LINE
  8
投影線02
  6
CONTINUOUS
 62
   127
 10
-11.832237
 20
-41.26841
 11
-11.832237
 21
-37.96841
  0
LINE
  8
投影線02
  6
CONTINUOUS
 62
   127
 10
-11.298905
 20
-41.26841
 11
-11.298905
 21
-37.96841
  0
LINE
  8
投影線02
  6
CONTINUOUS
 62
   127
 10
-11.832237
 20
-40.395903
 11
-11.298905
 21
-39.862568
  0
LINE
  8
投影線02
  6
CONTINUOUS
 62
   127
 10
-9.404745
 20
-37.96841
 11
-8.87142
 21
-37.435085
  0
LINE
  8
投影線02
  6
CONTINUOUS
 62
   127
 10
-11.832237
 20
-40.631603
 11
-11.298905
 21
-40.098268
  0
LINE
  8
投影線02
  6
CONTINUOUS
 62
   127
 10
-9.169045
 20
-37.96841
 11
-8.63572
 21
-37.435085
  0
LINE
  8
投影線02
  6
CONTINUOUS
 62
   127
 10
2.43443
 20
-40.395903
 11
2.967763
 21
-39.862568
  0
LINE
  8
投影線02
  6
CONTINUOUS
 62
   127
 10
2.43443
 20
-40.631603
 11
2.967763
 21
-40.098268
  0
LINE
  8
投影線02
  6
CONTINUOUS
 62
   127
 10
-1.10932
 20
-37.96841
 11
-0.575987
 21
-37.435085
  0
LINE
  8
投影線02
  6
CONTINUOUS
 62
   127
 10
-0.87362
 20
-37.96841
 11
-0.340287
 21
-37.435085
  0
LINE
  8
投影線02
  6
CONTINUOUS
 62
   127
 10
-11.832237
 20
-41.26841
 11
-11.298905
 21
-41.26841
  0
LINE
  8
投影線02
  6
CONTINUOUS
 62
   127
 10
2.43443
 20
-41.26841
 11
2.967763
 21
-41.26841
  0
ENDBLK
  0
BLOCK
  2
*GRP_0093
 70
    65
 10
0.0
 20
0.0
  0
LINE
  8
補助線
  6
DOT
 62
    64
 10
-11.098898
 20
-38.60175
 11
-14.565563
 21
-38.60175
  0
LINE
  8
補助線
  6
DOT
 62
    64
 10
-12.83223
 20
-36.868418
 11
-12.83223
 21
-40.335083
  0
ENDBLK
  0
BLOCK
  2
*GRP_0094
 70
    65
 10
0.0
 20
0.0
  0
LINE
  8
補助線
  6
DOT
 62
    64
 10
2.234438
 20
-38.60175
 11
5.701102
 21
-38.60175
  0
LINE
  8
補助線
  6
DOT
 62
    64
 10
3.96777
 20
-36.868418
 11
3.96777
 21
-40.335083
  0
ENDBLK
  0
BLOCK
  2
*GRP_0095
 70
    65
 10
0.0
 20
0.0
  0
LINE
  8
補助線
  6
BYBLOCK
 62
    64
 10
-16.698898
 20
-38.60175
 11
-20.165563
 21
-38.60175
  0
LINE
  8
補助線
  6
BYBLOCK
 62
    64
 10
-18.43223
 20
-36.868418
 11
-18.43223
 21
-40.335083
  0
ENDBLK
  0
BLOCK
  2
*GRP_0096
 70
    65
 10
0.0
 20
0.0
  0
LINE
  8
補助線
  6
BYBLOCK
 62
    64
 10
7.834438
 20
-38.60175
 11
11.301102
 21
-38.60175
  0
LINE
  8
補助線
  6
BYBLOCK
 62
    64
 10
9.56777
 20
-36.868418
 11
9.56777
 21
-40.335083
  0
ENDBLK
  0
BLOCK
  2
*GRP_0097
 70
    65
 10
0.0
 20
0.0
  0
LINE
  8
補助線
  6
BYBLOCK
 62
    64
 10
-11.0989
 20
-38.60175
 11
-14.565565
 21
-38.60175
  0
LINE
  8
補助線
  6
BYBLOCK
 62
    64
 10
-12.832233
 20
-36.868418
 11
-12.832233
 21
-40.335083
  0
ENDBLK
  0
BLOCK
  2
*GRP_0098
 70
    65
 10
0.0
 20
0.0
  0
LINE
  8
補助線
  6
BYBLOCK
 62
    64
 10
5.701105
 20
-38.60175
 11
2.23444
 21
-38.60175
  0
LINE
  8
補助線
  6
BYBLOCK
 62
    64
 10
3.967772
 20
-36.868418
 11
3.967772
 21
-40.335083
  0
ENDBLK
  0
BLOCK
  2
*GRP_0099
 70
    65
 10
0.0
 20
0.0
  0
ARC
  8
ゴム等
  6
CONTINUOUS
 10
-80.083604
 20
-23.936267
 40
0.333333
 50
180.0
 51
270.0
  0
LINE
  8
ゴム等
  6
CONTINUOUS
 10
-80.416938
 20
-23.602933
 11
-80.416938
 21
-23.936268
  0
ARC
  8
ゴム等
  6
CONTINUOUS
 10
-80.083604
 20
-23.602934
 40
0.333333
 50
90.0
 51
180.0
  0
LINE
  8
ゴム等
  6
CONTINUOUS
 10
-72.815258
 20
-23.2696
 11
-73.815258
 21
-24.2696
  0
LINE
  8
ゴム等
  6
CONTINUOUS
 10
-72.108152
 20
-23.2696
 11
-73.108152
 21
-24.2696
  0
LINE
  8
ゴム等
  6
CONTINUOUS
 10
-71.401048
 20
-23.2696
 11
-72.401048
 21
-24.2696
  0
LINE
  8
ゴム等
  6
CONTINUOUS
 10
-70.693937
 20
-23.2696
 11
-71.693937
 21
-24.2696
  0
LINE
  8
ゴム等
  6
CONTINUOUS
 10
-74.936582
 20
-23.2696
 11
-75.936582
 21
-24.2696
  0
LINE
  8
ゴム等
  6
CONTINUOUS
 10
-74.229472
 20
-23.2696
 11
-75.229472
 21
-24.2696
  0
LINE
  8
ゴム等
  6
CONTINUOUS
 10
-73.522368
 20
-23.2696
 11
-74.522368
 21
-24.2696
  0
LINE
  8
ゴム等
  6
CONTINUOUS
 10
-78.472113
 20
-23.2696
 11
-79.472113
 21
-24.2696
  0
LINE
  8
ゴム等
  6
CONTINUOUS
 10
-77.765007
 20
-23.2696
 11
-78.765007
 21
-24.2696
  0
LINE
  8
ゴム等
  6
CONTINUOUS
 10
-77.057902
 20
-23.2696
 11
-78.057902
 21
-24.2696
  0
LINE
  8
ゴム等
  6
CONTINUOUS
 10
-76.350792
 20
-23.2696
 11
-77.350792
 21
-24.2696
  0
LINE
  8
ゴム等
  6
CONTINUOUS
 10
-75.643688
 20
-23.2696
 11
-76.643688
 21
-24.2696
  0
LINE
  8
ゴム等
  6
CONTINUOUS
 10
-79.179223
 20
-23.2696
 11
-80.168288
 21
-24.258665
  0
LINE
  8
ゴム等
  6
CONTINUOUS
 10
-79.886327
 20
-23.2696
 11
-80.416938
 21
-23.80021
  0
ARC
  8
ゴム等
  6
CONTINUOUS
 10
-70.750271
 20
-23.602934
 40
0.333333
 50
0.0
 51
90.0
  0
LINE
  8
ゴム等
  6
CONTINUOUS
 10
-70.416938
 20
-23.602933
 11
-70.416938
 21
-23.936268
  0
ARC
  8
ゴム等
  6
CONTINUOUS
 10
-70.750271
 20
-23.936267
 40
0.333333
 50
-90.0
 51
0.0
  0
LINE
  8
ゴム等
  6
CONTINUOUS
 10
-80.083605
 20
-23.2696
 11
-70.75027
 21
-23.2696
  0
LINE
  8
ゴム等
  6
CONTINUOUS
 10
-80.083605
 20
-24.2696
 11
-70.75027
 21
-24.2696
  0
LINE
  8
ゴム等
  6
CONTINUOUS
 10
-70.986833
 20
-24.2696
 11
-70.416938
 21
-23.699705
  0
ENDBLK
  0
BLOCK
  2
*GRP_0100
 70
    65
 10
0.0
 20
0.0
  0
ARC
  8
ゴム等
  6
CONTINUOUS
 10
-80.083604
 20
-29.93506
 40
0.333333
 50
180.0
 51
270.0
  0
LINE
  8
ゴム等
  6
CONTINUOUS
 10
-80.416938
 20
-29.601725
 11
-80.416938
 21
-29.93506
  0
ARC
  8
ゴム等
  6
CONTINUOUS
 10
-80.083604
 20
-29.601727
 40
0.333333
 50
90.0
 51
180.0
  0
LINE
  8
ゴム等
  6
CONTINUOUS
 10
-72.815258
 20
-29.268393
 11
-73.815258
 21
-30.268393
  0
LINE
  8
ゴム等
  6
CONTINUOUS
 10
-72.108152
 20
-29.268393
 11
-73.108152
 21
-30.268393
  0
LINE
  8
ゴム等
  6
CONTINUOUS
 10
-71.401048
 20
-29.268393
 11
-72.401048
 21
-30.268393
  0
LINE
  8
ゴム等
  6
CONTINUOUS
 10
-70.693937
 20
-29.268393
 11
-71.693937
 21
-30.268393
  0
LINE
  8
ゴム等
  6
CONTINUOUS
 10
-74.936582
 20
-29.268393
 11
-75.936582
 21
-30.268393
  0
LINE
  8
ゴム等
  6
CONTINUOUS
 10
-74.229472
 20
-29.268393
 11
-75.229472
 21
-30.268393
  0
LINE
  8
ゴム等
  6
CONTINUOUS
 10
-73.522368
 20
-29.268393
 11
-74.522368
 21
-30.268393
  0
LINE
  8
ゴム等
  6
CONTINUOUS
 10
-78.472113
 20
-29.268393
 11
-79.472113
 21
-30.268393
  0
LINE
  8
ゴム等
  6
CONTINUOUS
 10
-77.765007
 20
-29.268393
 11
-78.765007
 21
-30.268393
  0
LINE
  8
ゴム等
  6
CONTINUOUS
 10
-77.057902
 20
-29.268393
 11
-78.057902
 21
-30.268393
  0
LINE
  8
ゴム等
  6
CONTINUOUS
 10
-76.350792
 20
-29.268393
 11
-77.350792
 21
-30.268393
  0
LINE
  8
ゴム等
  6
CONTINUOUS
 10
-75.643688
 20
-29.268393
 11
-76.643688
 21
-30.268393
  0
LINE
  8
ゴム等
  6
CONTINUOUS
 10
-79.179223
 20
-29.268393
 11
-80.168288
 21
-30.257457
  0
LINE
  8
ゴム等
  6
CONTINUOUS
 10
-79.886327
 20
-29.268393
 11
-80.416938
 21
-29.799003
  0
ARC
  8
ゴム等
  6
CONTINUOUS
 10
-70.750271
 20
-29.601727
 40
0.333333
 50
0.0
 51
90.0
  0
LINE
  8
ゴム等
  6
CONTINUOUS
 10
-70.416938
 20
-29.601725
 11
-70.416938
 21
-29.93506
  0
ARC
  8
ゴム等
  6
CONTINUOUS
 10
-70.750271
 20
-29.93506
 40
0.333333
 50
-90.0
 51
0.0
  0
LINE
  8
ゴム等
  6
CONTINUOUS
 10
-80.083605
 20
-29.268393
 11
-70.75027
 21
-29.268393
  0
LINE
  8
ゴム等
  6
CONTINUOUS
 10
-80.083605
 20
-30.268393
 11
-70.75027
 21
-30.268393
  0
LINE
  8
ゴム等
  6
CONTINUOUS
 10
-70.986833
 20
-30.268393
 11
-70.416938
 21
-29.698498
  0
ENDBLK
  0
BLOCK
  2
*GRP_0101
 70
    65
 10
0.0
 20
0.0
  0
LINE
  8
ボルト／ビス
  6
CONTINUOUS
 10
-78.683667
 20
-22.268405
 11
-78.683667
 21
-21.601738
  0
LINE
  8
ボルト／ビス
  6
CONTINUOUS
 10
-78.683667
 20
-21.601738
 11
-71.350332
 21
-21.601738
  0
LINE
  8
ボルト／ビス
  6
CONTINUOUS
 10
-71.350332
 20
-21.601738
 11
-71.350332
 21
-22.268405
  0
LINE
  8
ボルト／ビス
  6
CONTINUOUS
 10
-78.683667
 20
-22.268405
 11
-71.350332
 21
-22.268405
  0
LINE
  8
ボルト／ビス
  6
CONTINUOUS
 10
-78.017
 20
-21.268405
 11
-78.017
 21
-21.601738
  0
LINE
  8
ボルト／ビス
  6
CONTINUOUS
 10
-78.017
 20
-21.268405
 11
-72.017
 21
-21.268405
  0
LINE
  8
ボルト／ビス
  6
CONTINUOUS
 10
-72.017
 20
-21.268405
 11
-72.017
 21
-21.601738
  0
LINE
  8
ボルト／ビス
  6
CONTINUOUS
 62
    64
 10
-76.62075
 20
-19.268405
 11
-76.9415
 21
-19.385148
  0
ARC
  8
ボルト／ビス
  6
CONTINUOUS
 62
    64
 10
-76.460376
 20
-20.318189
 40
1.049784
 50
62.721967
 51
90.0
  0
ARC
  8
ボルト／ビス
  6
CONTINUOUS
 62
    64
 10
-75.017
 20
-23.292428
 40
4.024022
 50
76.165002
 51
103.834985
  0
LINE
  8
ボルト／ビス
  6
CONTINUOUS
 62
    64
 10
-73.41325
 20
-19.268405
 11
-73.0925
 21
-19.385148
  0
ARC
  8
ボルト／ビス
  6
CONTINUOUS
 62
    64
 10
-73.573624
 20
-20.318189
 40
1.049784
 50
90.0
 51
117.278033
  0
LINE
  8
ボルト／ビス
  6
CONTINUOUS
 62
    64
 10
-76.62075
 20
-19.268405
 11
-73.41325
 21
-19.268405
  0
LINE
  8
ボルト／ビス
  6
CONTINUOUS
 62
    64
 10
-73.0925
 20
-19.385148
 11
-73.0925
 21
-20.601738
  0
LINE
  8
ボルト／ビス
  6
CONTINUOUS
 62
    64
 10
-74.05475
 20
-19.385148
 11
-74.05475
 21
-20.601738
  0
LINE
  8
ボルト／ビス
  6
CONTINUOUS
 62
    64
 10
-76.9415
 20
-19.385148
 11
-76.9415
 21
-20.601738
  0
LINE
  8
ボルト／ビス
  6
CONTINUOUS
 62
    64
 10
-75.97925
 20
-19.385148
 11
-75.97925
 21
-20.601738
  0
LINE
  8
ボルト／ビス
  6
CONTINUOUS
 10
-76.9415
 20
-20.601738
 11
-73.0925
 21
-20.601738
  0
LINE
  8
ボルト／ビス
  6
CONTINUOUS
 10
-77.017
 20
-20.601738
 11
-77.017
 21
-21.268405
  0
LINE
  8
ボルト／ビス
  6
CONTINUOUS
 10
-77.017
 20
-20.601738
 11
-73.017
 21
-20.601738
  0
LINE
  8
ボルト／ビス
  6
CONTINUOUS
 10
-73.017
 20
-20.601738
 11
-73.017
 21
-21.268405
  0
LINE
  8
ボルト／ビス
  6
CONTINUOUS
 62
    64
 10
-75.783667
 20
-22.268405
 11
-75.783667
 21
-33.93507
  0
LINE
  8
ボルト／ビス
  6
CONTINUOUS
 62
    64
 10
-74.250332
 20
-22.268405
 11
-74.250332
 21
-33.93507
  0
LINE
  8
ボルト／ビス
  6
CONTINUOUS
 62
    64
 10
-75.783667
 20
-33.93507
 11
-74.250332
 21
-33.93507
  0
LINE
  8
ボルト／ビス
  6
CONTINUOUS
 62
    64
 10
-74.017
 20
-33.601738
 11
-74.250332
 21
-33.93507
  0
LINE
  8
ボルト／ビス
  6
CONTINUOUS
 62
    64
 10
-76.017
 20
-33.601738
 11
-75.783667
 21
-33.93507
  0
LINE
  8
ボルト／ビス
  6
CONTINUOUS
 62
    64
 10
-76.017
 20
-33.601738
 11
-74.017
 21
-33.601738
  0
LINE
  8
ボルト／ビス
  6
CONTINUOUS
 62
    64
 10
-75.783667
 20
-33.93507
 11
-74.250332
 21
-33.93507
  0
LINE
  8
ボルト／ビス
  6
CONTINUOUS
 62
    64
 10
-76.017
 20
-22.268405
 11
-76.017
 21
-33.601738
  0
LINE
  8
ボルト／ビス
  6
CONTINUOUS
 62
    64
 10
-74.017
 20
-22.268405
 11
-74.017
 21
-33.601738
  0
ENDBLK
  0
BLOCK
  2
*GRP_0102
 70
    65
 10
0.0
 20
0.0
  0
LINE
  8
ボルト／ビス
  6
CONTINUOUS
 62
    64
 10
-79.15027
 20
-26.069603
 11
-79.15027
 21
-27.402935
  0
LINE
  8
ボルト／ビス
  6
CONTINUOUS
 62
    64
 10
-77.25027
 20
-26.069603
 11
-77.083602
 21
-26.236268
  0
LINE
  8
ボルト／ビス
  6
CONTINUOUS
 62
    64
 10
-77.25027
 20
-27.402935
 11
-77.083602
 21
-27.236268
  0
LINE
  8
ボルト／ビス
  6
CONTINUOUS
 62
    64
 10
-77.083602
 20
-26.236268
 11
-77.083602
 21
-27.236268
  0
LINE
  8
ボルト／ビス
  6
CONTINUOUS
 62
    64
 10
-77.25027
 20
-26.069603
 11
-77.25027
 21
-27.402935
  0
LINE
  8
ボルト／ビス
  6
CONTINUOUS
 62
    64
 10
-79.15027
 20
-26.236268
 11
-77.083602
 21
-26.236268
  0
LINE
  8
ボルト／ビス
  6
CONTINUOUS
 62
    64
 10
-79.15027
 20
-27.236268
 11
-77.083602
 21
-27.236268
  0
LINE
  8
ボルト／ビス
  6
CONTINUOUS
 62
    64
 10
-79.15027
 20
-27.402935
 11
-77.25027
 21
-27.402935
  0
LINE
  8
ボルト／ビス
  6
CONTINUOUS
 62
    64
 10
-79.15027
 20
-26.069603
 11
-77.25027
 21
-26.069603
  0
LINE
  8
ボルト／ビス
  6
DASHDOT
 62
    64
 10
-80.75027
 20
-26.736268
 11
-76.083602
 21
-26.736268
  0
LINE
  8
ボルト／ビス
  6
DOT
 62
    64
 10
-79.75027
 20
-25.736268
 11
-79.15027
 21
-26.069603
  0
LINE
  8
ボルト／ビス
  6
DOT
 62
    64
 10
-79.75027
 20
-25.736268
 11
-79.75027
 21
-27.736268
  0
LINE
  8
ボルト／ビス
  6
DOT
 62
    64
 10
-79.75027
 20
-27.736268
 11
-79.15027
 21
-27.402935
  0
ENDBLK
  0
BLOCK
  2
*GRP_0103
 70
    65
 10
0.0
 20
0.0
  0
LINE
  8
ボルト／ビス
  6
CONTINUOUS
 62
    64
 10
-65.350335
 20
-26.069603
 11
-65.350335
 21
-27.402935
  0
LINE
  8
ボルト／ビス
  6
CONTINUOUS
 62
    64
 10
-67.250335
 20
-26.069603
 11
-67.417003
 21
-26.236268
  0
LINE
  8
ボルト／ビス
  6
CONTINUOUS
 62
    64
 10
-67.250335
 20
-27.402935
 11
-67.417003
 21
-27.236268
  0
LINE
  8
ボルト／ビス
  6
CONTINUOUS
 62
    64
 10
-67.417003
 20
-26.236268
 11
-67.417003
 21
-27.236268
  0
LINE
  8
ボルト／ビス
  6
CONTINUOUS
 62
    64
 10
-67.250335
 20
-26.069603
 11
-67.250335
 21
-27.402935
  0
LINE
  8
ボルト／ビス
  6
CONTINUOUS
 62
    64
 10
-65.350335
 20
-26.236268
 11
-67.417003
 21
-26.236268
  0
LINE
  8
ボルト／ビス
  6
CONTINUOUS
 62
    64
 10
-65.350335
 20
-27.236268
 11
-67.417003
 21
-27.236268
  0
LINE
  8
ボルト／ビス
  6
CONTINUOUS
 62
    64
 10
-65.350335
 20
-27.402935
 11
-67.250335
 21
-27.402935
  0
LINE
  8
ボルト／ビス
  6
CONTINUOUS
 62
    64
 10
-65.350335
 20
-26.069603
 11
-67.250335
 21
-26.069603
  0
LINE
  8
ボルト／ビス
  6
DASHDOT
 62
    64
 10
-63.750335
 20
-26.736268
 11
-68.417003
 21
-26.736268
  0
LINE
  8
ボルト／ビス
  6
DOT
 62
    64
 10
-64.750335
 20
-25.736268
 11
-65.350335
 21
-26.069603
  0
LINE
  8
ボルト／ビス
  6
DOT
 62
    64
 10
-64.750335
 20
-25.736268
 11
-64.750335
 21
-27.736268
  0
LINE
  8
ボルト／ビス
  6
DOT
 62
    64
 10
-64.750335
 20
-27.736268
 11
-65.350335
 21
-27.402935
  0
ENDBLK
  0
BLOCK
  2
*DIM_0104
 70
    65
 10
0.0
 20
0.0
  0
LINE
  8
寸法
  6
CONTINUOUS
 10
-68.350335
 20
1.863298
 11
-68.350335
 21
69.314818
  0
LINE
  8
寸法
  6
CONTINUOUS
 10
-98.350782
 20
-50.935092
 11
-98.350782
 21
69.314818
  0
LINE
  8
寸法
  6
CONTINUOUS
 10
-68.350335
 20
69.314818
 11
-98.350782
 21
69.314818
  0
POINT
  8
寸法
 10
-68.350335
 20
69.314818
  0
POINT
  8
寸法
 10
-98.350782
 20
69.314818
  0
TEXT
  7
TextStyle03
  8
寸法
  6
CONTINUOUS
 10
-85.5
 20
69.675
  1
90
 40
4.0
 72
     5
 11
-81.25
 21
69.675
  0
ENDBLK
  0
BLOCK
  2
*DIM_0105
 70
    65
 10
0.0
 20
0.0
  0
LINE
  8
寸法
  6
CONTINUOUS
 10
-85.017
 20
54.153507
 11
-98.350782
 21
54.153507
  0
POINT
  8
寸法
 10
-85.017
 20
54.153507
  0
POINT
  8
寸法
 10
-98.350782
 20
54.153507
  0
TEXT
  7
TextStyle03
  8
寸法
  6
CONTINUOUS
 10
-93.825
 20
54.5
  1
40
 40
4.0
 72
     5
 11
-89.575
 21
54.5
  0
ENDBLK
  0
BLOCK
  2
*DIM_0106
 70
    65
 10
0.0
 20
0.0
  0
LINE
  8
寸法
  6
CONTINUOUS
 10
-98.350782
 20
61.382193
 11
-98.350782
 21
61.983332
  0
LINE
  8
寸法
  6
CONTINUOUS
 10
-58.350845
 20
-42.601755
 11
-58.350845
 21
61.983332
  0
LINE
  8
寸法
  6
CONTINUOUS
 10
-98.350782
 20
61.983332
 11
-58.350845
 21
61.983332
  0
POINT
  8
寸法
 10
-98.350782
 20
61.983332
  0
POINT
  8
寸法
 10
-58.350845
 20
61.983332
  0
TEXT
  7
TextStyle03
  8
寸法
  6
CONTINUOUS
 10
-81.625
 20
62.35
  1
120
 40
4.0
 72
     5
 11
-75.125
 21
62.35
  0
ENDBLK
  0
BLOCK
  2
*DIM_0107
 70
    65
 10
0.0
 20
0.0
  0
LINE
  8
寸法
  6
CONTINUOUS
 10
-68.350335
 20
54.153507
 11
-58.350845
 21
54.153507
  0
POINT
  8
寸法
 10
-68.350335
 20
54.153507
  0
POINT
  8
寸法
 10
-58.350845
 20
54.153507
  0
TEXT
  7
TextStyle03
  8
寸法
  6
CONTINUOUS
 10
-65.5
 20
54.5
  1
30
 40
4.0
 72
     5
 11
-61.25
 21
54.5
  0
ENDBLK
  0
BLOCK
  2
*DIM_0108
 70
    65
 10
0.0
 20
0.0
  0
LINE
  8
寸法
  6
CONTINUOUS
 10
-75.017
 20
-16.268405
 11
-75.017
 21
54.153507
  0
LINE
  8
寸法
  6
CONTINUOUS
 10
-68.350335
 20
54.153507
 11
-75.017
 21
54.153507
  0
POINT
  8
寸法
 10
-68.350335
 20
54.153507
  0
POINT
  8
寸法
 10
-75.017
 20
54.153507
  0
TEXT
  7
TextStyle03
  8
寸法
  6
CONTINUOUS
 10
-73.825
 20
54.5
  1
20
 40
4.0
 72
     5
 11
-69.575
 21
54.5
  0
ENDBLK
  0
BLOCK
  2
*DIM_0109
 70
    65
 10
0.0
 20
0.0
  0
LINE
  8
寸法
  6
CONTINUOUS
 10
-85.017
 20
-19.268405
 11
-85.017
 21
54.153507
  0
LINE
  8
寸法
  6
CONTINUOUS
 10
-75.017
 20
54.153507
 11
-85.017
 21
54.153507
  0
POINT
  8
寸法
 10
-85.017
 20
54.153507
  0
TEXT
  7
TextStyle03
  8
寸法
  6
CONTINUOUS
 10
-82.15
 20
54.5
  1
30
 40
4.0
 72
     5
 11
-77.9
 21
54.5
  0
ENDBLK
  0
BLOCK
  2
*GRP_0110
 70
    65
 10
0.0
 20
0.0
  0
ARC
  8
ゴム等
  6
CONTINUOUS
 10
71.219144
 20
-23.936267
 40
0.333333
 50
-90.0
 51
0.0
  0
LINE
  8
ゴム等
  6
CONTINUOUS
 10
71.552477
 20
-23.602933
 11
71.552477
 21
-23.936268
  0
ARC
  8
ゴム等
  6
CONTINUOUS
 10
71.219144
 20
-23.602934
 40
0.333333
 50
0.0
 51
90.0
  0
LINE
  8
ゴム等
  6
CONTINUOUS
 10
63.950798
 20
-23.2696
 11
64.950798
 21
-24.2696
  0
LINE
  8
ゴム等
  6
CONTINUOUS
 10
63.243692
 20
-23.2696
 11
64.243692
 21
-24.2696
  0
LINE
  8
ゴム等
  6
CONTINUOUS
 10
62.536587
 20
-23.2696
 11
63.536587
 21
-24.2696
  0
LINE
  8
ゴム等
  6
CONTINUOUS
 10
61.829478
 20
-23.2696
 11
62.829478
 21
-24.2696
  0
LINE
  8
ゴム等
  6
CONTINUOUS
 10
66.072122
 20
-23.2696
 11
67.072122
 21
-24.2696
  0
LINE
  8
ゴム等
  6
CONTINUOUS
 10
65.365013
 20
-23.2696
 11
66.365013
 21
-24.2696
  0
LINE
  8
ゴム等
  6
CONTINUOUS
 10
64.657907
 20
-23.2696
 11
65.657907
 21
-24.2696
  0
LINE
  8
ゴム等
  6
CONTINUOUS
 10
69.607653
 20
-23.2696
 11
70.607653
 21
-24.2696
  0
LINE
  8
ゴム等
  6
CONTINUOUS
 10
68.900547
 20
-23.2696
 11
69.900547
 21
-24.2696
  0
LINE
  8
ゴム等
  6
CONTINUOUS
 10
68.193442
 20
-23.2696
 11
69.193442
 21
-24.2696
  0
LINE
  8
ゴム等
  6
CONTINUOUS
 10
67.486333
 20
-23.2696
 11
68.486333
 21
-24.2696
  0
LINE
  8
ゴム等
  6
CONTINUOUS
 10
66.779227
 20
-23.2696
 11
67.779227
 21
-24.2696
  0
LINE
  8
ゴム等
  6
CONTINUOUS
 10
70.314762
 20
-23.2696
 11
71.303828
 21
-24.258665
  0
LINE
  8
ゴム等
  6
CONTINUOUS
 10
71.021868
 20
-23.2696
 11
71.552477
 21
-23.80021
  0
ARC
  8
ゴム等
  6
CONTINUOUS
 10
61.885811
 20
-23.602934
 40
0.333333
 50
90.0
 51
180.0
  0
LINE
  8
ゴム等
  6
CONTINUOUS
 10
61.552477
 20
-23.602933
 11
61.552477
 21
-23.936268
  0
ARC
  8
ゴム等
  6
CONTINUOUS
 10
61.885811
 20
-23.936267
 40
0.333333
 50
180.0
 51
270.0
  0
LINE
  8
ゴム等
  6
CONTINUOUS
 10
71.219145
 20
-23.2696
 11
61.88581
 21
-23.2696
  0
LINE
  8
ゴム等
  6
CONTINUOUS
 10
71.219145
 20
-24.2696
 11
61.88581
 21
-24.2696
  0
LINE
  8
ゴム等
  6
CONTINUOUS
 10
62.122372
 20
-24.2696
 11
61.552477
 21
-23.699705
  0
ENDBLK
  0
BLOCK
  2
*GRP_0111
 70
    65
 10
0.0
 20
0.0
  0
ARC
  8
ゴム等
  6
CONTINUOUS
 10
71.219144
 20
-29.93506
 40
0.333333
 50
-90.0
 51
0.0
  0
LINE
  8
ゴム等
  6
CONTINUOUS
 10
71.552477
 20
-29.601725
 11
71.552477
 21
-29.93506
  0
ARC
  8
ゴム等
  6
CONTINUOUS
 10
71.219144
 20
-29.601727
 40
0.333333
 50
0.0
 51
90.0
  0
LINE
  8
ゴム等
  6
CONTINUOUS
 10
63.950798
 20
-29.268393
 11
64.950798
 21
-30.268393
  0
LINE
  8
ゴム等
  6
CONTINUOUS
 10
63.243692
 20
-29.268393
 11
64.243692
 21
-30.268393
  0
LINE
  8
ゴム等
  6
CONTINUOUS
 10
62.536587
 20
-29.268393
 11
63.536587
 21
-30.268393
  0
LINE
  8
ゴム等
  6
CONTINUOUS
 10
61.829478
 20
-29.268393
 11
62.829478
 21
-30.268393
  0
LINE
  8
ゴム等
  6
CONTINUOUS
 10
66.072122
 20
-29.268393
 11
67.072122
 21
-30.268393
  0
LINE
  8
ゴム等
  6
CONTINUOUS
 10
65.365013
 20
-29.268393
 11
66.365013
 21
-30.268393
  0
LINE
  8
ゴム等
  6
CONTINUOUS
 10
64.657907
 20
-29.268393
 11
65.657907
 21
-30.268393
  0
LINE
  8
ゴム等
  6
CONTINUOUS
 10
69.607653
 20
-29.268393
 11
70.607653
 21
-30.268393
  0
LINE
  8
ゴム等
  6
CONTINUOUS
 10
68.900547
 20
-29.268393
 11
69.900547
 21
-30.268393
  0
LINE
  8
ゴム等
  6
CONTINUOUS
 10
68.193442
 20
-29.268393
 11
69.193442
 21
-30.268393
  0
LINE
  8
ゴム等
  6
CONTINUOUS
 10
67.486333
 20
-29.268393
 11
68.486333
 21
-30.268393
  0
LINE
  8
ゴム等
  6
CONTINUOUS
 10
66.779227
 20
-29.268393
 11
67.779227
 21
-30.268393
  0
LINE
  8
ゴム等
  6
CONTINUOUS
 10
70.314762
 20
-29.268393
 11
71.303828
 21
-30.257457
  0
LINE
  8
ゴム等
  6
CONTINUOUS
 10
71.021868
 20
-29.268393
 11
71.552477
 21
-29.799003
  0
ARC
  8
ゴム等
  6
CONTINUOUS
 10
61.885811
 20
-29.601727
 40
0.333333
 50
90.0
 51
180.0
  0
LINE
  8
ゴム等
  6
CONTINUOUS
 10
61.552477
 20
-29.601725
 11
61.552477
 21
-29.93506
  0
ARC
  8
ゴム等
  6
CONTINUOUS
 10
61.885811
 20
-29.93506
 40
0.333333
 50
180.0
 51
270.0
  0
LINE
  8
ゴム等
  6
CONTINUOUS
 10
71.219145
 20
-29.268393
 11
61.88581
 21
-29.268393
  0
LINE
  8
ゴム等
  6
CONTINUOUS
 10
71.219145
 20
-30.268393
 11
61.88581
 21
-30.268393
  0
LINE
  8
ゴム等
  6
CONTINUOUS
 10
62.122372
 20
-30.268393
 11
61.552477
 21
-29.698498
  0
ENDBLK
  0
BLOCK
  2
*GRP_0112
 70
    65
 10
0.0
 20
0.0
  0
LINE
  8
ボルト／ビス
  6
CONTINUOUS
 10
69.819208
 20
-22.268405
 11
69.819208
 21
-21.601738
  0
LINE
  8
ボルト／ビス
  6
CONTINUOUS
 10
69.819208
 20
-21.601738
 11
62.485873
 21
-21.601738
  0
LINE
  8
ボルト／ビス
  6
CONTINUOUS
 10
62.485873
 20
-21.601738
 11
62.485873
 21
-22.268405
  0
LINE
  8
ボルト／ビス
  6
CONTINUOUS
 10
69.819208
 20
-22.268405
 11
62.485873
 21
-22.268405
  0
LINE
  8
ボルト／ビス
  6
CONTINUOUS
 10
69.15254
 20
-21.268405
 11
69.15254
 21
-21.601738
  0
LINE
  8
ボルト／ビス
  6
CONTINUOUS
 10
69.15254
 20
-21.268405
 11
63.15254
 21
-21.268405
  0
LINE
  8
ボルト／ビス
  6
CONTINUOUS
 10
63.15254
 20
-21.268405
 11
63.15254
 21
-21.601738
  0
LINE
  8
ボルト／ビス
  6
CONTINUOUS
 62
    64
 10
67.75629
 20
-19.268405
 11
68.07704
 21
-19.385148
  0
ARC
  8
ボルト／ビス
  6
CONTINUOUS
 62
    64
 10
67.595916
 20
-20.318189
 40
1.049784
 50
90.0
 51
117.278033
  0
ARC
  8
ボルト／ビス
  6
CONTINUOUS
 62
    64
 10
66.15254
 20
-23.292428
 40
4.024022
 50
76.165015
 51
103.834998
  0
LINE
  8
ボルト／ビス
  6
CONTINUOUS
 62
    64
 10
64.54879
 20
-19.268405
 11
64.22804
 21
-19.385148
  0
ARC
  8
ボルト／ビス
  6
CONTINUOUS
 62
    64
 10
64.709164
 20
-20.318189
 40
1.049784
 50
62.721967
 51
90.0
  0
LINE
  8
ボルト／ビス
  6
CONTINUOUS
 62
    64
 10
67.75629
 20
-19.268405
 11
64.54879
 21
-19.268405
  0
LINE
  8
ボルト／ビス
  6
CONTINUOUS
 62
    64
 10
64.22804
 20
-19.385148
 11
64.22804
 21
-20.601738
  0
LINE
  8
ボルト／ビス
  6
CONTINUOUS
 62
    64
 10
65.19029
 20
-19.385148
 11
65.19029
 21
-20.601738
  0
LINE
  8
ボルト／ビス
  6
CONTINUOUS
 62
    64
 10
68.07704
 20
-19.385148
 11
68.07704
 21
-20.601738
  0
LINE
  8
ボルト／ビス
  6
CONTINUOUS
 62
    64
 10
67.11479
 20
-19.385148
 11
67.11479
 21
-20.601738
  0
LINE
  8
ボルト／ビス
  6
CONTINUOUS
 10
68.07704
 20
-20.601738
 11
64.22804
 21
-20.601738
  0
LINE
  8
ボルト／ビス
  6
CONTINUOUS
 10
68.15254
 20
-20.601738
 11
68.15254
 21
-21.268405
  0
LINE
  8
ボルト／ビス
  6
CONTINUOUS
 10
68.15254
 20
-20.601738
 11
64.15254
 21
-20.601738
  0
LINE
  8
ボルト／ビス
  6
CONTINUOUS
 10
64.15254
 20
-20.601738
 11
64.15254
 21
-21.268405
  0
LINE
  8
ボルト／ビス
  6
CONTINUOUS
 62
    64
 10
66.919208
 20
-22.268405
 11
66.919208
 21
-33.93507
  0
LINE
  8
ボルト／ビス
  6
CONTINUOUS
 62
    64
 10
65.385873
 20
-22.268405
 11
65.385873
 21
-33.93507
  0
LINE
  8
ボルト／ビス
  6
CONTINUOUS
 62
    64
 10
66.919208
 20
-33.93507
 11
65.385873
 21
-33.93507
  0
LINE
  8
ボルト／ビス
  6
CONTINUOUS
 62
    64
 10
65.15254
 20
-33.601738
 11
65.385873
 21
-33.93507
  0
LINE
  8
ボルト／ビス
  6
CONTINUOUS
 62
    64
 10
67.15254
 20
-33.601738
 11
66.919208
 21
-33.93507
  0
LINE
  8
ボルト／ビス
  6
CONTINUOUS
 62
    64
 10
67.15254
 20
-33.601738
 11
65.15254
 21
-33.601738
  0
LINE
  8
ボルト／ビス
  6
CONTINUOUS
 62
    64
 10
66.919208
 20
-33.93507
 11
65.385873
 21
-33.93507
  0
LINE
  8
ボルト／ビス
  6
CONTINUOUS
 62
    64
 10
67.15254
 20
-22.268405
 11
67.15254
 21
-33.601738
  0
LINE
  8
ボルト／ビス
  6
CONTINUOUS
 62
    64
 10
65.15254
 20
-22.268405
 11
65.15254
 21
-33.601738
  0
ENDBLK
  0
BLOCK
  2
*GRP_0113
 70
    65
 10
0.0
 20
0.0
  0
LINE
  8
ボルト／ビス
  6
CONTINUOUS
 62
    64
 10
70.28581
 20
-26.069603
 11
70.28581
 21
-27.402935
  0
LINE
  8
ボルト／ビス
  6
CONTINUOUS
 62
    64
 10
68.38581
 20
-26.069603
 11
68.219143
 21
-26.236268
  0
LINE
  8
ボルト／ビス
  6
CONTINUOUS
 62
    64
 10
68.38581
 20
-27.402935
 11
68.219143
 21
-27.236268
  0
LINE
  8
ボルト／ビス
  6
CONTINUOUS
 62
    64
 10
68.219143
 20
-26.236268
 11
68.219143
 21
-27.236268
  0
LINE
  8
ボルト／ビス
  6
CONTINUOUS
 62
    64
 10
68.38581
 20
-26.069603
 11
68.38581
 21
-27.402935
  0
LINE
  8
ボルト／ビス
  6
CONTINUOUS
 62
    64
 10
70.28581
 20
-26.236268
 11
68.219143
 21
-26.236268
  0
LINE
  8
ボルト／ビス
  6
CONTINUOUS
 62
    64
 10
70.28581
 20
-27.236268
 11
68.219143
 21
-27.236268
  0
LINE
  8
ボルト／ビス
  6
CONTINUOUS
 62
    64
 10
70.28581
 20
-27.402935
 11
68.38581
 21
-27.402935
  0
LINE
  8
ボルト／ビス
  6
CONTINUOUS
 62
    64
 10
70.28581
 20
-26.069603
 11
68.38581
 21
-26.069603
  0
LINE
  8
ボルト／ビス
  6
DASHDOT
 62
    64
 10
71.88581
 20
-26.736268
 11
67.219143
 21
-26.736268
  0
LINE
  8
ボルト／ビス
  6
DOT
 62
    64
 10
70.88581
 20
-25.736268
 11
70.28581
 21
-26.069603
  0
LINE
  8
ボルト／ビス
  6
DOT
 62
    64
 10
70.88581
 20
-25.736268
 11
70.88581
 21
-27.736268
  0
LINE
  8
ボルト／ビス
  6
DOT
 62
    64
 10
70.88581
 20
-27.736268
 11
70.28581
 21
-27.402935
  0
ENDBLK
  0
BLOCK
  2
*GRP_0114
 70
    65
 10
0.0
 20
0.0
  0
LINE
  8
ボルト／ビス
  6
CONTINUOUS
 62
    64
 10
56.485875
 20
-26.069603
 11
56.485875
 21
-27.402935
  0
LINE
  8
ボルト／ビス
  6
CONTINUOUS
 62
    64
 10
58.385875
 20
-26.069603
 11
58.552542
 21
-26.236268
  0
LINE
  8
ボルト／ビス
  6
CONTINUOUS
 62
    64
 10
58.385875
 20
-27.402935
 11
58.552542
 21
-27.236268
  0
LINE
  8
ボルト／ビス
  6
CONTINUOUS
 62
    64
 10
58.552542
 20
-26.236268
 11
58.552542
 21
-27.236268
  0
LINE
  8
ボルト／ビス
  6
CONTINUOUS
 62
    64
 10
58.385875
 20
-26.069603
 11
58.385875
 21
-27.402935
  0
LINE
  8
ボルト／ビス
  6
CONTINUOUS
 62
    64
 10
56.485875
 20
-26.236268
 11
58.552542
 21
-26.236268
  0
LINE
  8
ボルト／ビス
  6
CONTINUOUS
 62
    64
 10
56.485875
 20
-27.236268
 11
58.552542
 21
-27.236268
  0
LINE
  8
ボルト／ビス
  6
CONTINUOUS
 62
    64
 10
56.485875
 20
-27.402935
 11
58.385875
 21
-27.402935
  0
LINE
  8
ボルト／ビス
  6
CONTINUOUS
 62
    64
 10
56.485875
 20
-26.069603
 11
58.385875
 21
-26.069603
  0
LINE
  8
ボルト／ビス
  6
DASHDOT
 62
    64
 10
54.885875
 20
-26.736268
 11
59.552542
 21
-26.736268
  0
LINE
  8
ボルト／ビス
  6
DOT
 62
    64
 10
55.885875
 20
-25.736268
 11
56.485875
 21
-26.069603
  0
LINE
  8
ボルト／ビス
  6
DOT
 62
    64
 10
55.885875
 20
-25.736268
 11
55.885875
 21
-27.736268
  0
LINE
  8
ボルト／ビス
  6
DOT
 62
    64
 10
55.885875
 20
-27.736268
 11
56.485875
 21
-27.402935
  0
ENDBLK
  0
BLOCK
  2
*DIM_0115
 70
    65
 10
0.0
 20
0.0
  0
LINE
  8
寸法
  6
CONTINUOUS
 10
59.485875
 20
1.863298
 11
59.485875
 21
69.314818
  0
LINE
  8
寸法
  6
CONTINUOUS
 10
-68.351315
 20
1.863298
 11
-68.351315
 21
69.314818
  0
LINE
  8
寸法
  6
CONTINUOUS
 10
59.485875
 20
69.314818
 11
-68.351315
 21
69.314818
  0
POINT
  8
寸法
 10
-68.351315
 20
69.314818
  0
TEXT
  7
TextStyle03
  8
寸法
  6
CONTINUOUS
 10
-19.95
 20
69.675
  1
ドーム呼称寸法
 40
4.0
 72
     5
 11
11.05
 21
69.675
  0
ENDBLK
  0
BLOCK
  2
*DIM_0116
 70
    65
 10
0.0
 20
0.0
  0
LINE
  8
寸法
  6
CONTINUOUS
 10
59.485875
 20
1.863298
 11
59.485875
 21
69.314818
  0
LINE
  8
寸法
  6
CONTINUOUS
 10
89.486322
 20
-50.935092
 11
89.486322
 21
69.314818
  0
LINE
  8
寸法
  6
CONTINUOUS
 10
59.485875
 20
69.314818
 11
89.486322
 21
69.314818
  0
POINT
  8
寸法
 10
59.485875
 20
69.314818
  0
POINT
  8
寸法
 10
89.486322
 20
69.314818
  0
TEXT
  7
TextStyle03
  8
寸法
  6
CONTINUOUS
 10
72.35
 20
69.675
  1
90
 40
4.0
 50
360.0
 72
     5
 11
76.6
 21
69.675
  0
ENDBLK
  0
BLOCK
  2
*DIM_0117
 70
    65
 10
0.0
 20
0.0
  0
LINE
  8
寸法
  6
CONTINUOUS
 10
76.15254
 20
54.153507
 11
89.486322
 21
54.153507
  0
POINT
  8
寸法
 10
76.15254
 20
54.153507
  0
POINT
  8
寸法
 10
89.486322
 20
54.153507
  0
TEXT
  7
TextStyle03
  8
寸法
  6
CONTINUOUS
 10
80.675
 20
54.525
  1
40
 40
4.0
 50
360.0
 72
     5
 11
84.925
 21
54.525
  0
ENDBLK
  0
BLOCK
  2
*DIM_0118
 70
    65
 10
0.0
 20
0.0
  0
LINE
  8
寸法
  6
CONTINUOUS
 10
89.486322
 20
61.382193
 11
89.486322
 21
61.983332
  0
LINE
  8
寸法
  6
CONTINUOUS
 10
49.486385
 20
-42.601755
 11
49.486385
 21
61.983332
  0
LINE
  8
寸法
  6
CONTINUOUS
 10
89.486322
 20
61.983332
 11
49.486385
 21
61.983332
  0
POINT
  8
寸法
 10
89.486322
 20
61.983332
  0
POINT
  8
寸法
 10
49.486385
 20
61.983332
  0
TEXT
  7
TextStyle03
  8
寸法
  6
CONTINUOUS
 10
66.225
 20
62.35
  1
120
 40
4.0
 72
     5
 11
72.725
 21
62.35
  0
ENDBLK
  0
BLOCK
  2
*DIM_0119
 70
    65
 10
0.0
 20
0.0
  0
LINE
  8
寸法
  6
CONTINUOUS
 10
49.486385
 20
-42.601755
 11
49.486385
 21
61.983332
  0
LINE
  8
寸法
  6
CONTINUOUS
 10
-58.350845
 20
-42.601755
 11
-58.350845
 21
61.983332
  0
LINE
  8
寸法
  6
CONTINUOUS
 10
49.486385
 20
61.983332
 11
-58.350845
 21
61.983332
  0
POINT
  8
寸法
 10
-58.350845
 20
61.983332
  0
TEXT
  7
TextStyle03
  8
寸法
  6
CONTINUOUS
 10
-13.2
 20
62.35
  1
有効開口
 40
4.0
 72
     5
 11
4.3
 21
62.35
  0
ENDBLK
  0
BLOCK
  2
*DIM_0120
 70
    65
 10
0.0
 20
0.0
  0
LINE
  8
寸法
  6
CONTINUOUS
 10
59.485875
 20
54.153507
 11
49.486385
 21
54.153507
  0
POINT
  8
寸法
 10
59.485875
 20
54.153507
  0
POINT
  8
寸法
 10
49.486385
 20
54.153507
  0
TEXT
  7
TextStyle03
  8
寸法
  6
CONTINUOUS
 10
52.35
 20
54.525
  1
30
 40
4.0
 72
     5
 11
56.6
 21
54.525
  0
ENDBLK
  0
BLOCK
  2
*DIM_0121
 70
    65
 10
0.0
 20
0.0
  0
LINE
  8
寸法
  6
CONTINUOUS
 10
66.15254
 20
-16.268405
 11
66.15254
 21
54.153507
  0
LINE
  8
寸法
  6
CONTINUOUS
 10
59.485875
 20
54.153507
 11
66.15254
 21
54.153507
  0
POINT
  8
寸法
 10
59.485875
 20
54.153507
  0
POINT
  8
寸法
 10
66.15254
 20
54.153507
  0
TEXT
  7
TextStyle03
  8
寸法
  6
CONTINUOUS
 10
60.675
 20
54.525
  1
20
 40
4.0
 50
360.0
 72
     5
 11
64.925
 21
54.525
  0
ENDBLK
  0
BLOCK
  2
*DIM_0122
 70
    65
 10
0.0
 20
0.0
  0
LINE
  8
寸法
  6
CONTINUOUS
 10
66.15254
 20
-16.268405
 11
66.15254
 21
54.153507
  0
LINE
  8
寸法
  6
CONTINUOUS
 10
76.15254
 20
-19.268405
 11
76.15254
 21
54.153507
  0
LINE
  8
寸法
  6
CONTINUOUS
 10
66.15254
 20
54.153507
 11
76.15254
 21
54.153507
  0
POINT
  8
寸法
 10
76.15254
 20
54.153507
  0
TEXT
  7
TextStyle03
  8
寸法
  6
CONTINUOUS
 10
69.025
 20
54.525
  1
30
 40
4.0
 50
360.0
 72
     5
 11
73.275
 21
54.525
  0
ENDBLK
  0
BLOCK
  2
*GRP_0123
 70
    65
 10
0.0
 20
0.0
  0
LINE
  8
ボルト／ビス
  6
CONTINUOUS
 62
    64
 10
-13.398898
 20
-26.0696
 11
-13.398898
 21
-27.402935
  0
LINE
  8
ボルト／ビス
  6
CONTINUOUS
 62
    64
 10
-11.498898
 20
-26.0696
 11
-11.33223
 21
-26.236268
  0
LINE
  8
ボルト／ビス
  6
CONTINUOUS
 62
    64
 10
-11.498898
 20
-27.402935
 11
-11.33223
 21
-27.236268
  0
LINE
  8
ボルト／ビス
  6
CONTINUOUS
 62
    64
 10
-11.33223
 20
-26.236268
 11
-11.33223
 21
-27.236268
  0
LINE
  8
ボルト／ビス
  6
CONTINUOUS
 62
    64
 10
-11.498898
 20
-26.0696
 11
-11.498898
 21
-27.402935
  0
LINE
  8
ボルト／ビス
  6
CONTINUOUS
 62
    64
 10
-13.398898
 20
-26.236268
 11
-11.33223
 21
-26.236268
  0
LINE
  8
ボルト／ビス
  6
CONTINUOUS
 62
    64
 10
-13.398898
 20
-27.236268
 11
-11.33223
 21
-27.236268
  0
LINE
  8
ボルト／ビス
  6
CONTINUOUS
 62
    64
 10
-13.398898
 20
-27.402935
 11
-11.498898
 21
-27.402935
  0
LINE
  8
ボルト／ビス
  6
CONTINUOUS
 62
    64
 10
-13.398898
 20
-26.0696
 11
-11.498898
 21
-26.0696
  0
LINE
  8
ボルト／ビス
  6
DASHDOT
 62
    64
 10
-14.998898
 20
-26.736268
 11
-10.33223
 21
-26.736268
  0
LINE
  8
ボルト／ビス
  6
DOT
 62
    64
 10
-13.998898
 20
-25.736268
 11
-13.398898
 21
-26.0696
  0
LINE
  8
ボルト／ビス
  6
DOT
 62
    64
 10
-13.998898
 20
-25.736268
 11
-13.998898
 21
-27.736268
  0
LINE
  8
ボルト／ビス
  6
DOT
 62
    64
 10
-13.998898
 20
-27.736268
 11
-13.398898
 21
-27.402935
  0
ENDBLK
  0
BLOCK
  2
*GRP_0124
 70
    65
 10
0.0
 20
0.0
  0
LINE
  8
ボルト／ビス
  6
CONTINUOUS
 62
    64
 10
4.534438
 20
-26.0696
 11
4.534438
 21
-27.402935
  0
LINE
  8
ボルト／ビス
  6
CONTINUOUS
 62
    64
 10
2.634438
 20
-26.0696
 11
2.46777
 21
-26.236268
  0
LINE
  8
ボルト／ビス
  6
CONTINUOUS
 62
    64
 10
2.634438
 20
-27.402935
 11
2.46777
 21
-27.236268
  0
LINE
  8
ボルト／ビス
  6
CONTINUOUS
 62
    64
 10
2.46777
 20
-26.236268
 11
2.46777
 21
-27.236268
  0
LINE
  8
ボルト／ビス
  6
CONTINUOUS
 62
    64
 10
2.634438
 20
-26.0696
 11
2.634438
 21
-27.402935
  0
LINE
  8
ボルト／ビス
  6
CONTINUOUS
 62
    64
 10
4.534438
 20
-26.236268
 11
2.46777
 21
-26.236268
  0
LINE
  8
ボルト／ビス
  6
CONTINUOUS
 62
    64
 10
4.534438
 20
-27.236268
 11
2.46777
 21
-27.236268
  0
LINE
  8
ボルト／ビス
  6
CONTINUOUS
 62
    64
 10
4.534438
 20
-27.402935
 11
2.634438
 21
-27.402935
  0
LINE
  8
ボルト／ビス
  6
CONTINUOUS
 62
    64
 10
4.534438
 20
-26.0696
 11
2.634438
 21
-26.0696
  0
LINE
  8
ボルト／ビス
  6
DASHDOT
 62
    64
 10
6.134438
 20
-26.736268
 11
1.46777
 21
-26.736268
  0
LINE
  8
ボルト／ビス
  6
DOT
 62
    64
 10
5.134438
 20
-25.736268
 11
4.534438
 21
-26.0696
  0
LINE
  8
ボルト／ビス
  6
DOT
 62
    64
 10
5.134438
 20
-25.736268
 11
5.134438
 21
-27.736268
  0
LINE
  8
ボルト／ビス
  6
DOT
 62
    64
 10
5.134438
 20
-27.736268
 11
4.534438
 21
-27.402935
  0
ENDBLK
  0
BLOCK
  2
*GRP_0125
 70
    65
 10
0.0
 20
0.0
  0
LINE
  8
ボルト／ビス
  6
CONTINUOUS
 62
    64
 10
-5.598898
 20
-28.736268
 11
-5.56833
 21
-28.386885
  0
ARC
  8
ボルト／ビス
  6
CONTINUOUS
 62
    64
 10
-5.003816
 20
-28.436252
 40
0.566667
 50
90.0
 51
175.000011
  0
LINE
  8
ボルト／ビス
  6
CONTINUOUS
 62
    64
 10
-5.003813
 20
-27.8696
 11
-4.43223
 21
-27.8696
  0
LINE
  8
ボルト／ビス
  6
CONTINUOUS
 62
    64
 10
-3.265563
 20
-28.736268
 11
-3.29613
 21
-28.386885
  0
ARC
  8
ボルト／ビス
  6
CONTINUOUS
 62
    64
 10
-3.860638
 20
-28.436252
 40
0.566667
 50
4.999989
 51
90.0
  0
LINE
  8
ボルト／ビス
  6
CONTINUOUS
 62
    64
 10
-3.860647
 20
-27.8696
 11
-4.43223
 21
-27.8696
  0
LINE
  8
ボルト／ビス
  6
CONTINUOUS
 62
    64
 10
-5.231113
 20
-27.9979
 11
-5.231113
 21
-27.917185
  0
LINE
  8
ボルト／ビス
  6
CONTINUOUS
 62
    64
 10
-4.665563
 20
-28.2146
 11
-4.43223
 21
-28.2146
  0
LINE
  8
ボルト／ビス
  6
CONTINUOUS
 62
    64
 10
-4.798898
 20
-27.9979
 11
-5.231113
 21
-27.9979
  0
LINE
  8
ボルト／ビス
  6
CONTINUOUS
 62
    64
 10
-4.665563
 20
-28.2146
 11
-4.665563
 21
-28.131235
  0
ARC
  8
ボルト／ビス
  6
CONTINUOUS
 62
    64
 10
-4.798894
 20
-28.13122
 40
0.133333
 50
0.0
 51
90.0
  0
LINE
  8
ボルト／ビス
  6
CONTINUOUS
 62
    64
 10
-3.633348
 20
-27.9979
 11
-3.633348
 21
-27.917185
  0
LINE
  8
ボルト／ビス
  6
CONTINUOUS
 62
    64
 10
-4.198898
 20
-28.2146
 11
-4.43223
 21
-28.2146
  0
LINE
  8
ボルト／ビス
  6
CONTINUOUS
 62
    64
 10
-4.065563
 20
-27.9979
 11
-3.633348
 21
-27.9979
  0
LINE
  8
ボルト／ビス
  6
CONTINUOUS
 62
    64
 10
-4.198898
 20
-28.2146
 11
-4.198898
 21
-28.131235
  0
ARC
  8
ボルト／ビス
  6
CONTINUOUS
 62
    64
 10
-4.06556
 20
-28.13122
 40
0.133333
 50
90.0
 51
180.0
  0
LINE
  8
ボルト／ビス
  6
CONTINUOUS
 62
    64
 10
-5.598898
 20
-28.736268
 11
-3.265563
 21
-28.736268
  0
LINE
  8
ボルト／ビス
  6
CONTINUOUS
 62
    64
 10
-5.098898
 20
-33.236268
 11
-4.93223
 21
-33.402935
  0
LINE
  8
ボルト／ビス
  6
CONTINUOUS
 62
    64
 10
-3.765563
 20
-33.236268
 11
-3.93223
 21
-33.402935
  0
LINE
  8
ボルト／ビス
  6
CONTINUOUS
 62
    64
 10
-5.098898
 20
-33.236268
 11
-3.765563
 21
-33.236268
  0
LINE
  8
ボルト／ビス
  6
CONTINUOUS
 62
    64
 10
-4.93223
 20
-33.402935
 11
-3.93223
 21
-33.402935
  0
LINE
  8
ボルト／ビス
  6
CONTINUOUS
 62
    64
 10
-3.765563
 20
-28.736268
 11
-3.765563
 21
-33.236268
  0
LINE
  8
ボルト／ビス
  6
CONTINUOUS
 62
    64
 10
-5.098898
 20
-28.736268
 11
-5.098898
 21
-33.236268
  0
LINE
  8
ボルト／ビス
  6
CONTINUOUS
 62
    64
 10
-4.93223
 20
-28.736268
 11
-4.93223
 21
-33.402935
  0
LINE
  8
ボルト／ビス
  6
CONTINUOUS
 62
    64
 10
-3.93223
 20
-28.736268
 11
-3.93223
 21
-33.402935
  0
LINE
  8
ボルト／ビス
  6
DASHDOT
 62
    64
 10
-4.43223
 20
-26.8696
 11
-4.43223
 21
-34.402935
  0
ENDBLK
  0
BLOCK
  2
*GRP_0126
 70
    65
 10
0.0
 20
0.0
  0
LINE
  8
曲げ物
  6
CONTINUOUS
 10
-7.265563
 20
-36.60175
 11
-7.798895
 21
-36.60175
  0
LINE
  8
曲げ物
  6
CONTINUOUS
 10
-1.598898
 20
-36.60175
 11
-1.065565
 21
-36.60175
  0
ARC
  8
曲げ物
  6
CONTINUOUS
 10
-1.5989
 20
-29.802933
 40
0.533333
 50
0.0
 51
90.0
  0
LINE
  8
曲げ物
  6
CONTINUOUS
 10
-7.265563
 20
-29.2696
 11
-1.598898
 21
-29.2696
  0
ARC
  8
曲げ物
  6
CONTINUOUS
 10
-7.265563
 20
-29.802933
 40
0.533333
 50
90.0
 51
180.0
  0
LINE
  8
曲げ物
  6
CONTINUOUS
 10
-7.265563
 20
-29.802933
 11
-1.598898
 21
-29.802933
  0
LINE
  8
曲げ物
  6
CONTINUOUS
 10
-1.598898
 20
-36.60175
 11
-1.598898
 21
-29.802933
  0
LINE
  8
曲げ物
  6
CONTINUOUS
 10
-1.065565
 20
-36.60175
 11
-1.065565
 21
-29.802933
  0
LINE
  8
曲げ物
  6
CONTINUOUS
 10
-7.265563
 20
-36.60175
 11
-7.265563
 21
-29.802933
  0
LINE
  8
曲げ物
  6
CONTINUOUS
 10
-7.798895
 20
-36.60175
 11
-7.798895
 21
-29.802933
  0
ENDBLK
  0
BLOCK
  2
*GRP_0127
 70
    65
 10
0.0
 20
0.0
  0
LINE
  8
型材断面
  6
DOT
 62
    47
 10
49.05316
 20
-30.93515
 11
49.05316
 21
-29.935153
  0
LINE
  8
型材断面
  6
DOT
 62
    47
 10
56.419737
 20
-35.935138
 11
57.31981
 21
-35.935138
  0
LINE
  8
型材断面
  6
DOT
 62
    47
 10
57.31981
 20
-35.935138
 11
57.31981
 21
-30.60182
  0
LINE
  8
型材断面
  6
DOT
 62
    47
 10
56.419737
 20
-36.601805
 11
56.419737
 21
-35.935138
  0
LINE
  8
型材断面
  6
DOT
 62
    47
 10
49.05316
 20
-30.93515
 11
49.453095
 21
-30.93515
  0
LINE
  8
型材断面
  6
DOT
 62
    47
 10
49.453095
 20
-30.93515
 11
49.453095
 21
-30.60182
  0
LINE
  8
型材断面
  6
DOT
 62
    47
 10
57.31981
 20
-30.60182
 11
49.453095
 21
-30.60182
  0
LINE
  8
型材断面
  6
DOT
 62
    47
 10
57.986465
 20
-31.935132
 11
58.586398
 21
-31.935132
  0
LINE
  8
型材断面
  6
DOT
 62
    47
 10
58.586398
 20
-31.935132
 11
58.586398
 21
-31.435182
  0
LINE
  8
型材断面
  6
DOT
 62
    47
 10
58.586398
 20
-31.435182
 11
57.986465
 21
-31.435182
  0
LINE
  8
型材断面
  6
DOT
 62
    47
 10
57.986465
 20
-31.935132
 11
57.986465
 21
-36.601805
  0
LINE
  8
型材断面
  6
DOT
 62
    47
 10
49.05316
 20
-29.935153
 11
57.986465
 21
-29.935153
  0
LINE
  8
型材断面
  6
DOT
 62
    47
 10
57.986465
 20
-31.435182
 11
57.986465
 21
-29.60184
  0
ENDBLK
  0
BLOCK
  2
*GRP_0128
 70
    65
 10
0.0
 20
0.0
  0
LINE
  8
ゴム等
  6
DOT
 10
49.453095
 20
-30.60182
 11
49.453095
 21
-32.668487
  0
LINE
  8
ゴム等
  6
DOT
 10
49.453095
 20
-32.668487
 11
52.786427
 21
-32.668487
  0
LINE
  8
ゴム等
  6
DOT
 10
52.786427
 20
-32.668487
 11
52.786427
 21
-30.60182
  0
LINE
  8
ゴム等
  6
DOT
 10
49.453095
 20
-30.60182
 11
52.786427
 21
-30.60182
  0
INSERT
  2
*HAT_0007
  8
ゴム等
 10
0.0
 20
0.0
  0
ENDBLK
  0
BLOCK
  2
*GRP_0129
 70
    65
 10
0.0
 20
0.0
  0
LINE
  8
型材断面
  6
DOT
 62
    47
 10
-57.91762
 20
-30.93515
 11
-57.91762
 21
-29.935153
  0
LINE
  8
型材断面
  6
DOT
 62
    47
 10
-65.284198
 20
-35.935138
 11
-66.18427
 21
-35.935138
  0
LINE
  8
型材断面
  6
DOT
 62
    47
 10
-66.18427
 20
-35.935138
 11
-66.18427
 21
-30.60182
  0
LINE
  8
型材断面
  6
DOT
 62
    47
 10
-65.284198
 20
-36.601805
 11
-65.284198
 21
-35.935138
  0
LINE
  8
型材断面
  6
DOT
 62
    47
 10
-57.91762
 20
-30.93515
 11
-58.317555
 21
-30.93515
  0
LINE
  8
型材断面
  6
DOT
 62
    47
 10
-58.317555
 20
-30.93515
 11
-58.317555
 21
-30.60182
  0
LINE
  8
型材断面
  6
DOT
 62
    47
 10
-66.18427
 20
-30.60182
 11
-58.317555
 21
-30.60182
  0
LINE
  8
型材断面
  6
DOT
 62
    47
 10
-66.850925
 20
-31.935132
 11
-67.450857
 21
-31.935132
  0
LINE
  8
型材断面
  6
DOT
 62
    47
 10
-67.450857
 20
-31.935132
 11
-67.450857
 21
-31.435182
  0
LINE
  8
型材断面
  6
DOT
 62
    47
 10
-67.450857
 20
-31.435182
 11
-66.850925
 21
-31.435182
  0
LINE
  8
型材断面
  6
DOT
 62
    47
 10
-66.850925
 20
-31.935132
 11
-66.850925
 21
-36.601805
  0
LINE
  8
型材断面
  6
DOT
 62
    47
 10
-57.91762
 20
-29.935153
 11
-66.850925
 21
-29.935153
  0
LINE
  8
型材断面
  6
DOT
 62
    47
 10
-66.850925
 20
-31.435182
 11
-66.850925
 21
-29.60184
  0
ENDBLK
  0
BLOCK
  2
*GRP_0130
 70
    65
 10
0.0
 20
0.0
  0
LINE
  8
ゴム等
  6
DOT
 10
-58.317555
 20
-30.60182
 11
-58.317555
 21
-32.668487
  0
LINE
  8
ゴム等
  6
DOT
 10
-58.317555
 20
-32.668487
 11
-61.650888
 21
-32.668487
  0
LINE
  8
ゴム等
  6
DOT
 10
-61.650888
 20
-32.668487
 11
-61.650888
 21
-30.60182
  0
LINE
  8
ゴム等
  6
DOT
 10
-58.317555
 20
-30.60182
 11
-61.650888
 21
-30.60182
  0
INSERT
  2
*HAT_0008
  8
ゴム等
 10
0.0
 20
0.0
  0
ENDBLK
  0
BLOCK
  2
*DIM_0131
 70
    65
 10
0.0
 20
0.0
  0
LINE
  8
寸法
  6
CONTINUOUS
 10
8.06777
 20
-47.268418
 11
8.06777
 21
-64.27745
  0
LINE
  8
寸法
  6
CONTINUOUS
 10
5.134438
 20
-61.935085
 11
5.134438
 21
-64.27745
  0
LINE
  8
寸法
  6
CONTINUOUS
 10
8.06777
 20
-64.27745
 11
5.134438
 21
-64.27745
  0
POINT
  8
寸法
 10
8.06777
 20
-64.27745
  0
POINT
  8
寸法
 10
5.134438
 20
-64.27745
  0
TEXT
  7
TextStyle03
  8
寸法
  6
CONTINUOUS
 10
9.1875
 20
-63.875
  1
8.8
 40
3.0
 72
     5
 11
14.0625
 21
-63.875
  0
ENDBLK
  0
BLOCK
  2
*DIM_0132
 70
    65
 10
0.0
 20
0.0
  0
LINE
  8
寸法
  6
CONTINUOUS
 10
-13.998905
 20
-61.935085
 11
-13.998905
 21
-64.27745
  0
LINE
  8
寸法
  6
CONTINUOUS
 10
5.134438
 20
-64.27745
 11
-13.998905
 21
-64.27745
  0
POINT
  8
寸法
 10
-13.998905
 20
-64.27745
  0
TEXT
  7
TextStyle03
  8
寸法
  6
CONTINUOUS
 10
-7.73125
 20
-63.875
  1
57.4
 40
3.0
 72
     5
 11
-1.16875
 21
-63.875
  0
ENDBLK
  0
BLOCK
  2
*DIM_0133
 70
    65
 10
0.0
 20
0.0
  0
LINE
  8
寸法
  6
CONTINUOUS
 10
-16.93223
 20
-47.268418
 11
-16.93223
 21
-64.27745
  0
LINE
  8
寸法
  6
CONTINUOUS
 10
-13.998905
 20
-64.27745
 11
-16.93223
 21
-64.27745
  0
POINT
  8
寸法
 10
-16.93223
 20
-64.27745
  0
TEXT
  7
TextStyle03
  8
寸法
  6
CONTINUOUS
 10
-22.9625
 20
-63.875
  1
8.8
 40
3.0
 72
     5
 11
-18.0875
 21
-63.875
  0
ENDBLK
  0
BLOCK
  2
*DIM_0134
 70
    65
 10
0.0
 20
0.0
  0
LINE
  8
寸法
  6
CONTINUOUS
 10
8.06777
 20
-47.268418
 11
8.06777
 21
-70.228895
  0
LINE
  8
寸法
  6
CONTINUOUS
 10
-16.93223
 20
-47.268418
 11
-16.93223
 21
-70.228895
  0
LINE
  8
寸法
  6
CONTINUOUS
 10
8.06777
 20
-70.228895
 11
-16.93223
 21
-70.228895
  0
POINT
  8
寸法
 10
8.06777
 20
-70.228895
  0
POINT
  8
寸法
 10
-16.93223
 20
-70.228895
  0
TEXT
  7
TextStyle03
  8
寸法
  6
CONTINUOUS
 10
-6.01875
 20
-69.825
  1
75
 40
3.0
 72
     5
 11
-2.83125
 21
-69.825
  0
ENDBLK
  0
BLOCK
  2
*GRP_0135
 70
    65
 10
0.0
 20
0.0
  0
LINE
  8
型材断面
  6
CONTINUOUS
 10
7.734438
 20
-99.007298
 11
7.401102
 21
-100.673963
  0
LINE
  8
型材断面
  6
CONTINUOUS
 62
    47
 10
-8.83223
 20
-95.673963
 11
-8.83223
 21
-94.907297
  0
ARC
  8
型材断面
  6
CONTINUOUS
 62
    47
 10
-7.065557
 20
-89.773946
 40
0.1
 50
90.0
 51
180.0
  0
LINE
  8
型材断面
  6
CONTINUOUS
 62
    47
 10
-7.165563
 20
-90.24063
 11
-7.165563
 21
-89.773963
  0
ARC
  8
型材断面
  6
CONTINUOUS
 62
    47
 10
-7.065557
 20
-90.240613
 40
0.1
 50
180.0
 51
270.0
  0
ARC
  8
型材断面
  6
CONTINUOUS
 62
    47
 10
-8.098891
 20
-94.507279
 40
0.1
 50
0.0
 51
90.0
  0
LINE
  8
型材断面
  6
CONTINUOUS
 62
    47
 10
-7.998898
 20
-94.807298
 11
-7.998898
 21
-94.507298
  0
LINE
  8
型材断面
  6
CONTINUOUS
 62
    47
 10
-8.098898
 20
-94.907297
 11
-8.83223
 21
-94.907297
  0
ARC
  8
型材断面
  6
CONTINUOUS
 62
    47
 10
-8.098891
 20
-94.807279
 40
0.1
 50
270.0
 51
360.0
  0
LINE
  8
型材断面
  6
CONTINUOUS
 62
    47
 10
-8.098898
 20
-94.407297
 11
-9.23223
 21
-94.407297
  0
LINE
  8
型材断面
  6
CONTINUOUS
 62
    47
 10
-9.33223
 20
-95.673963
 11
-9.33223
 21
-94.507298
  0
ARC
  8
型材断面
  6
CONTINUOUS
 62
    47
 10
-9.232224
 20
-94.507279
 40
0.1
 50
90.0
 51
180.0
  0
LINE
  8
型材断面
  6
CONTINUOUS
 62
    47
 10
-8.83223
 20
-95.673963
 11
-6.43223
 21
-95.673963
  0
LINE
  8
型材断面
  6
CONTINUOUS
 62
    47
 10
-13.598898
 20
-95.673963
 11
-13.598898
 21
-95.107298
  0
ARC
  8
型材断面
  6
CONTINUOUS
 62
    47
 10
-13.698891
 20
-95.107279
 40
0.1
 50
0.0
 51
90.0
  0
LINE
  8
型材断面
  6
CONTINUOUS
 62
    47
 10
-13.698898
 20
-95.007298
 11
-13.898898
 21
-95.007298
  0
ARC
  8
型材断面
  6
CONTINUOUS
 62
    47
 10
-13.898891
 20
-95.107279
 40
0.1
 50
90.0
 51
180.0
  0
LINE
  8
型材断面
  6
CONTINUOUS
 62
    47
 10
-13.998898
 20
-95.107298
 11
-13.998898
 21
-100.673963
  0
LINE
  8
型材断面
  6
CONTINUOUS
 62
    47
 10
-13.748898
 20
-97.673963
 11
-11.915563
 21
-97.673963
  0
ARC
  8
型材断面
  6
CONTINUOUS
 62
    47
 10
-12.268778
 20
-98.287927
 40
0.25
 50
312.542364
 51
492.542397
  0
ARC
  8
型材断面
  6
CONTINUOUS
 62
    47
 10
-12.832224
 20
-97.673946
 40
0.583333
 50
47.457615
 51
312.542407
  0
ARC
  8
型材断面
  6
CONTINUOUS
 62
    47
 10
-12.268778
 20
-97.059965
 40
0.25
 50
227.457576
 51
407.457618
  0
ARC
  8
型材断面
  6
CONTINUOUS
 62
    47
 10
-12.832224
 20
-97.673946
 40
1.083333
 50
47.457611
 51
90.000044
  0
LINE
  8
型材断面
  6
CONTINUOUS
 10
-16.93223
 20
-101.34063
 11
-16.93223
 21
-99.007298
  0
LINE
  8
型材断面
  6
CONTINUOUS
 10
-13.998898
 20
-100.673963
 11
-16.265563
 21
-100.673963
  0
LINE
  8
型材断面
  6
CONTINUOUS
 62
    47
 10
-4.43223
 20
-101.34063
 11
-16.93223
 21
-101.34063
  0
LINE
  8
型材断面
  6
CONTINUOUS
 62
    47
 10
-12.83223
 20
-96.757298
 11
-12.83223
 21
-98.757298
  0
LINE
  8
型材断面
  6
CONTINUOUS
 10
-4.43223
 20
-100.507298
 11
-13.165563
 21
-100.507298
  0
LINE
  8
型材断面
  6
CONTINUOUS
 10
-13.165563
 20
-100.507298
 11
-13.165563
 21
-98.70473
  0
LINE
  8
型材断面
  6
CONTINUOUS
 10
-12.83223
 20
-96.59063
 11
-12.83223
 21
-96.507298
  0
ARC
  8
型材断面
  6
CONTINUOUS
 62
    47
 10
-12.832224
 20
-97.673946
 40
1.083333
 50
252.079718
 51
312.542389
  0
LINE
  8
型材断面
  6
CONTINUOUS
 10
-12.83223
 20
-96.507298
 11
-5.598898
 21
-96.507298
  0
LINE
  8
型材断面
  6
CONTINUOUS
 62
    47
 10
-9.33223
 20
-95.673963
 11
-13.598898
 21
-95.673963
  0
LINE
  8
型材断面
  6
CONTINUOUS
 62
    47
 10
-7.065563
 20
-89.673963
 11
-4.43223
 21
-89.673963
  0
LINE
  8
型材断面
  6
CONTINUOUS
 10
-5.598898
 20
-96.507298
 11
-5.598898
 21
-90.34063
  0
LINE
  8
型材断面
  6
CONTINUOUS
 62
    47
 10
-6.43223
 20
-95.673963
 11
-6.43223
 21
-90.34063
  0
LINE
  8
型材断面
  6
CONTINUOUS
 62
    47
 10
-7.065563
 20
-90.34063
 11
-6.43223
 21
-90.34063
  0
LINE
  8
型材断面
  6
CONTINUOUS
 62
    47
 10
-5.598898
 20
-90.34063
 11
-4.43223
 21
-90.34063
  0
LINE
  8
型材断面
  6
CONTINUOUS
 62
    47
 10
-0.03223
 20
-95.673963
 11
-0.03223
 21
-94.907297
  0
ARC
  8
型材断面
  6
CONTINUOUS
 62
    47
 10
-1.798891
 20
-89.773946
 40
0.1
 50
0.0
 51
90.0
  0
LINE
  8
型材断面
  6
CONTINUOUS
 62
    47
 10
-1.698898
 20
-90.24063
 11
-1.698898
 21
-89.773963
  0
ARC
  8
型材断面
  6
CONTINUOUS
 62
    47
 10
-1.798891
 20
-90.240613
 40
0.1
 50
270.0
 51
360.0
  0
ARC
  8
型材断面
  6
CONTINUOUS
 62
    47
 10
-0.765557
 20
-94.507279
 40
0.1
 50
90.0
 51
180.0
  0
LINE
  8
型材断面
  6
CONTINUOUS
 62
    47
 10
-0.865563
 20
-94.807298
 11
-0.865563
 21
-94.507298
  0
LINE
  8
型材断面
  6
CONTINUOUS
 62
    47
 10
-0.765563
 20
-94.907297
 11
-0.03223
 21
-94.907297
  0
ARC
  8
型材断面
  6
CONTINUOUS
 62
    47
 10
-0.765557
 20
-94.807279
 40
0.1
 50
180.0
 51
270.0
  0
LINE
  8
型材断面
  6
CONTINUOUS
 62
    47
 10
-0.765563
 20
-94.407297
 11
0.36777
 21
-94.407297
  0
LINE
  8
型材断面
  6
CONTINUOUS
 62
    47
 10
0.46777
 20
-95.673963
 11
0.46777
 21
-94.507298
  0
ARC
  8
型材断面
  6
CONTINUOUS
 62
    47
 10
0.367776
 20
-94.507279
 40
0.1
 50
0.0
 51
90.0
  0
LINE
  8
型材断面
  6
CONTINUOUS
 62
    47
 10
-0.03223
 20
-95.673963
 11
-2.43223
 21
-95.673963
  0
LINE
  8
型材断面
  6
CONTINUOUS
 62
    47
 10
4.734438
 20
-95.673963
 11
4.734438
 21
-95.107298
  0
ARC
  8
型材断面
  6
CONTINUOUS
 62
    47
 10
4.834443
 20
-95.107279
 40
0.1
 50
90.0
 51
180.0
  0
LINE
  8
型材断面
  6
CONTINUOUS
 62
    47
 10
4.834438
 20
-95.007298
 11
5.034438
 21
-95.007298
  0
ARC
  8
型材断面
  6
CONTINUOUS
 62
    47
 10
5.034443
 20
-95.107279
 40
0.1
 50
0.0
 51
90.0
  0
LINE
  8
型材断面
  6
CONTINUOUS
 62
    47
 10
5.134438
 20
-95.107298
 11
5.134438
 21
-100.673963
  0
LINE
  8
型材断面
  6
CONTINUOUS
 62
    47
 10
4.884438
 20
-97.673963
 11
3.051102
 21
-97.673963
  0
ARC
  8
型材断面
  6
CONTINUOUS
 62
    47
 10
3.40433
 20
-98.287927
 40
0.25
 50
47.457603
 51
227.457636
  0
ARC
  8
型材断面
  6
CONTINUOUS
 62
    47
 10
3.967776
 20
-97.673946
 40
0.583333
 50
227.457593
 51
492.542385
  0
ARC
  8
型材断面
  6
CONTINUOUS
 62
    47
 10
3.40433
 20
-97.059965
 40
0.25
 50
132.542382
 51
312.542424
  0
ARC
  8
型材断面
  6
CONTINUOUS
 62
    47
 10
3.967776
 20
-97.673946
 40
1.083333
 50
89.999956
 51
132.542389
  0
LINE
  8
型材断面
  6
CONTINUOUS
 10
8.06777
 20
-101.34063
 11
8.06777
 21
-99.007298
  0
LINE
  8
型材断面
  6
CONTINUOUS
 10
5.134438
 20
-100.673963
 11
7.401102
 21
-100.673963
  0
LINE
  8
型材断面
  6
CONTINUOUS
 62
    47
 10
-4.43223
 20
-101.34063
 11
8.06777
 21
-101.34063
  0
LINE
  8
型材断面
  6
CONTINUOUS
 62
    47
 10
3.96777
 20
-96.757298
 11
3.96777
 21
-98.757298
  0
LINE
  8
型材断面
  6
CONTINUOUS
 10
-4.43223
 20
-100.507298
 11
4.301102
 21
-100.507298
  0
LINE
  8
型材断面
  6
CONTINUOUS
 10
4.301102
 20
-100.507298
 11
4.301102
 21
-98.70473
  0
LINE
  8
型材断面
  6
CONTINUOUS
 10
3.96777
 20
-96.59063
 11
3.96777
 21
-96.507298
  0
ARC
  8
型材断面
  6
CONTINUOUS
 62
    47
 10
3.967776
 20
-97.673946
 40
1.083333
 50
227.457611
 51
287.920282
  0
LINE
  8
型材断面
  6
CONTINUOUS
 10
3.96777
 20
-96.507298
 11
-3.265563
 21
-96.507298
  0
LINE
  8
型材断面
  6
CONTINUOUS
 62
    47
 10
0.46777
 20
-95.673963
 11
4.734438
 21
-95.673963
  0
LINE
  8
型材断面
  6
CONTINUOUS
 62
    47
 10
-1.798898
 20
-89.673963
 11
-4.43223
 21
-89.673963
  0
LINE
  8
型材断面
  6
CONTINUOUS
 10
-3.265563
 20
-96.507298
 11
-3.265563
 21
-90.34063
  0
LINE
  8
型材断面
  6
CONTINUOUS
 62
    47
 10
-2.43223
 20
-95.673963
 11
-2.43223
 21
-90.34063
  0
LINE
  8
型材断面
  6
CONTINUOUS
 62
    47
 10
-1.798898
 20
-90.34063
 11
-2.43223
 21
-90.34063
  0
LINE
  8
型材断面
  6
CONTINUOUS
 62
    47
 10
-3.265563
 20
-90.34063
 11
-4.43223
 21
-90.34063
  0
LINE
  8
型材断面
  6
CONTINUOUS
 10
8.06777
 20
-99.007298
 11
7.734438
 21
-99.007298
  0
LINE
  8
型材断面
  6
CONTINUOUS
 10
-16.598898
 20
-99.007298
 11
-16.265563
 21
-100.673963
  0
LINE
  8
型材断面
  6
CONTINUOUS
 10
-16.93223
 20
-99.007298
 11
-16.598898
 21
-99.007298
  0
ENDBLK
  0
BLOCK
  2
*GRP_0136
 70
    65
 10
0.0
 20
0.0
  0
LINE
  8
型材断面
  6
DOT
 10
-1.031098
 20
-89.673963
 11
-1.031098
 21
-95.007298
  0
LINE
  8
型材断面
  6
DOT
 10
6.835553
 20
-89.673963
 11
-1.031098
 21
-89.673963
  0
ARC
  8
型材断面
  6
DOT
 10
7.135568
 20
-89.107282
 40
0.1
 50
0.0
 51
90.0
  0
LINE
  8
型材断面
  6
DOT
 10
6.835553
 20
-89.673963
 11
6.835553
 21
-89.907297
  0
ARC
  8
型材断面
  6
DOT
 10
6.935568
 20
-89.907282
 40
0.1
 50
180.0
 51
270.0
  0
LINE
  8
型材断面
  6
DOT
 10
7.135553
 20
-90.007298
 11
6.935553
 21
-90.007298
  0
LINE
  8
型材断面
  6
DOT
 10
7.235553
 20
-89.907297
 11
7.235553
 21
-89.107298
  0
ARC
  8
型材断面
  6
DOT
 10
7.135568
 20
-89.907282
 40
0.1
 50
270.0
 51
360.0
  0
LINE
  8
型材断面
  6
DOT
 10
7.135553
 20
-89.007298
 11
-1.59778
 21
-89.007298
  0
LINE
  8
型材断面
  6
DOT
 10
-1.69778
 20
-89.107298
 11
-1.69778
 21
-90.507298
  0
ARC
  8
型材断面
  6
DOT
 10
-1.597766
 20
-89.107282
 40
0.1
 50
90.0
 51
180.0
  0
LINE
  8
型材断面
  6
DOT
 10
-1.69778
 20
-91.007298
 11
-1.69778
 21
-95.573963
  0
ARC
  8
型材断面
  6
DOT
 10
-1.597766
 20
-95.573949
 40
0.1
 50
180.0
 51
270.0
  0
LINE
  8
型材断面
  6
DOT
 10
-0.231098
 20
-95.673963
 11
-1.59778
 21
-95.673963
  0
ARC
  8
型材断面
  6
DOT
 10
-0.231099
 20
-95.573949
 40
0.1
 50
270.0
 51
360.0
  0
LINE
  8
型材断面
  6
DOT
 10
-0.131098
 20
-95.107298
 11
-0.131098
 21
-95.573963
  0
LINE
  8
型材断面
  6
DOT
 10
-0.231098
 20
-95.007298
 11
-1.031098
 21
-95.007298
  0
ARC
  8
型材断面
  6
DOT
 10
-0.231099
 20
-95.107282
 40
0.1
 50
0.0
 51
90.0
  0
LINE
  8
型材断面
  6
DOT
 10
-2.19778
 20
-90.507298
 11
-1.69778
 21
-90.507298
  0
ARC
  8
型材断面
  6
DOT
 10
-2.197766
 20
-90.607282
 40
0.1
 50
90.0
 51
180.0
  0
LINE
  8
型材断面
  6
DOT
 10
-2.29778
 20
-90.607298
 11
-2.29778
 21
-90.907297
  0
LINE
  8
型材断面
  6
DOT
 10
-2.19778
 20
-91.007298
 11
-1.69778
 21
-91.007298
  0
ARC
  8
型材断面
  6
DOT
 10
-2.197766
 20
-90.907282
 40
0.1
 50
180.0
 51
270.0
  0
ENDBLK
  0
BLOCK
  2
*GRP_0137
 70
    65
 10
0.0
 20
0.0
  0
LINE
  8
型材断面
  6
DOT
 10
-7.833348
 20
-89.673963
 11
-7.833348
 21
-95.007298
  0
LINE
  8
型材断面
  6
DOT
 10
-15.700012
 20
-89.673963
 11
-7.833348
 21
-89.673963
  0
ARC
  8
型材断面
  6
DOT
 10
-16.000015
 20
-89.107282
 40
0.1
 50
90.0
 51
180.0
  0
LINE
  8
型材断面
  6
DOT
 10
-15.700012
 20
-89.673963
 11
-15.700012
 21
-89.907297
  0
ARC
  8
型材断面
  6
DOT
 10
-15.800015
 20
-89.907282
 40
0.1
 50
270.0
 51
360.0
  0
LINE
  8
型材断面
  6
DOT
 10
-16.000012
 20
-90.007298
 11
-15.800012
 21
-90.007298
  0
LINE
  8
型材断面
  6
DOT
 10
-16.100012
 20
-89.907297
 11
-16.100012
 21
-89.107298
  0
ARC
  8
型材断面
  6
DOT
 10
-16.000015
 20
-89.907282
 40
0.1
 50
180.0
 51
270.0
  0
LINE
  8
型材断面
  6
DOT
 10
-16.000012
 20
-89.007298
 11
-7.26668
 21
-89.007298
  0
LINE
  8
型材断面
  6
DOT
 10
-7.16668
 20
-89.107298
 11
-7.16668
 21
-90.507298
  0
ARC
  8
型材断面
  6
DOT
 10
-7.266682
 20
-89.107282
 40
0.1
 50
0.0
 51
90.0
  0
LINE
  8
型材断面
  6
DOT
 10
-7.16668
 20
-91.007298
 11
-7.16668
 21
-95.573963
  0
ARC
  8
型材断面
  6
DOT
 10
-7.266682
 20
-95.573949
 40
0.1
 50
270.0
 51
360.0
  0
LINE
  8
型材断面
  6
DOT
 10
-8.633348
 20
-95.673963
 11
-7.26668
 21
-95.673963
  0
ARC
  8
型材断面
  6
DOT
 10
-8.633349
 20
-95.573949
 40
0.1
 50
180.0
 51
270.0
  0
LINE
  8
型材断面
  6
DOT
 10
-8.733348
 20
-95.107298
 11
-8.733348
 21
-95.573963
  0
LINE
  8
型材断面
  6
DOT
 10
-8.633348
 20
-95.007298
 11
-7.833348
 21
-95.007298
  0
ARC
  8
型材断面
  6
DOT
 10
-8.633349
 20
-95.107282
 40
0.1
 50
90.0
 51
180.0
  0
LINE
  8
型材断面
  6
DOT
 10
-6.66668
 20
-90.507298
 11
-7.16668
 21
-90.507298
  0
ARC
  8
型材断面
  6
DOT
 10
-6.666682
 20
-90.607282
 40
0.1
 50
0.0
 51
90.0
  0
LINE
  8
型材断面
  6
DOT
 10
-6.56668
 20
-90.607298
 11
-6.56668
 21
-90.907297
  0
LINE
  8
型材断面
  6
DOT
 10
-6.66668
 20
-91.007298
 11
-7.16668
 21
-91.007298
  0
ARC
  8
型材断面
  6
DOT
 10
-6.666682
 20
-90.907282
 40
0.1
 50
270.0
 51
360.0
  0
ENDBLK
  0
BLOCK
  2
*GRP_0138
 70
    65
 10
0.0
 20
0.0
  0
LINE
  8
ゴム等
  6
CONTINUOUS
 10
-13.598898
 20
-94.007298
 11
-13.598898
 21
-95.673965
  0
LINE
  8
ゴム等
  6
CONTINUOUS
 10
-13.598898
 20
-94.007298
 11
-10.265563
 21
-94.007298
  0
LINE
  8
ゴム等
  6
CONTINUOUS
 10
-10.265563
 20
-94.007298
 11
-10.265563
 21
-95.673965
  0
LINE
  8
ゴム等
  6
CONTINUOUS
 10
-13.598898
 20
-95.673965
 11
-10.265563
 21
-95.673965
  0
LINE
  8
ゴム等
  6
CONTINUOUS
 10
-10.265563
 20
-95.23059
 11
-10.708937
 21
-95.673965
  0
LINE
  8
ゴム等
  6
CONTINUOUS
 10
-10.265563
 20
-94.759185
 11
-11.180343
 21
-95.673965
  0
LINE
  8
ゴム等
  6
CONTINUOUS
 10
-10.265563
 20
-94.287782
 11
-11.651747
 21
-95.673965
  0
LINE
  8
ゴム等
  6
CONTINUOUS
 10
-11.399292
 20
-94.007298
 11
-13.06596
 21
-95.673965
  0
LINE
  8
ゴム等
  6
CONTINUOUS
 10
-10.92789
 20
-94.007298
 11
-12.594555
 21
-95.673965
  0
LINE
  8
ゴム等
  6
CONTINUOUS
 10
-10.456485
 20
-94.007298
 11
-12.123153
 21
-95.673965
  0
LINE
  8
ゴム等
  6
CONTINUOUS
 10
-11.870698
 20
-94.007298
 11
-13.537365
 21
-95.673965
  0
LINE
  8
ゴム等
  6
CONTINUOUS
 10
-12.342102
 20
-94.007298
 11
-13.598898
 21
-95.264092
  0
LINE
  8
ゴム等
  6
CONTINUOUS
 10
-12.813508
 20
-94.007298
 11
-13.598898
 21
-94.792688
  0
LINE
  8
ゴム等
  6
CONTINUOUS
 10
-13.284912
 20
-94.007298
 11
-13.598898
 21
-94.321282
  0
ENDBLK
  0
BLOCK
  2
*GRP_0139
 70
    65
 10
0.0
 20
0.0
  0
LINE
  8
ゴム等
  6
CONTINUOUS
 10
1.401102
 20
-94.007295
 11
1.401102
 21
-95.673963
  0
LINE
  8
ゴム等
  6
CONTINUOUS
 10
1.401102
 20
-94.007295
 11
4.734438
 21
-94.007295
  0
LINE
  8
ゴム等
  6
CONTINUOUS
 10
4.734438
 20
-94.007295
 11
4.734438
 21
-95.673963
  0
LINE
  8
ゴム等
  6
CONTINUOUS
 10
1.401102
 20
-95.673963
 11
4.734438
 21
-95.673963
  0
LINE
  8
ゴム等
  6
CONTINUOUS
 10
4.734438
 20
-95.230587
 11
4.291063
 21
-95.673963
  0
LINE
  8
ゴム等
  6
CONTINUOUS
 10
4.734438
 20
-94.759183
 11
3.819657
 21
-95.673963
  0
LINE
  8
ゴム等
  6
CONTINUOUS
 10
4.734438
 20
-94.28778
 11
3.348252
 21
-95.673963
  0
LINE
  8
ゴム等
  6
CONTINUOUS
 10
3.600707
 20
-94.007295
 11
1.93404
 21
-95.673963
  0
LINE
  8
ゴム等
  6
CONTINUOUS
 10
4.07211
 20
-94.007295
 11
2.405445
 21
-95.673963
  0
LINE
  8
ゴム等
  6
CONTINUOUS
 10
4.543515
 20
-94.007295
 11
2.876848
 21
-95.673963
  0
LINE
  8
ゴム等
  6
CONTINUOUS
 10
3.129303
 20
-94.007295
 11
1.462635
 21
-95.673963
  0
LINE
  8
ゴム等
  6
CONTINUOUS
 10
2.657898
 20
-94.007295
 11
1.401102
 21
-95.26409
  0
LINE
  8
ゴム等
  6
CONTINUOUS
 10
2.186492
 20
-94.007295
 11
1.401102
 21
-94.792685
  0
LINE
  8
ゴム等
  6
CONTINUOUS
 10
1.715087
 20
-94.007295
 11
1.401102
 21
-94.32128
  0
ENDBLK
  0
BLOCK
  2
*GRP_0140
 70
    65
 10
0.0
 20
0.0
  0
INSERT
  2
*GRP_0155
  8
補助線
  6
CONTINUOUS
 62
    64
 10
0.0
 20
0.0
  0
CIRCLE
  8
ボルト／ビス
  6
CONTINUOUS
 62
    64
 10
-12.83223
 20
-97.673963
 40
1.166668
  0
LINE
  8
ボルト／ビス
  6
CONTINUOUS
 62
    64
 10
-12.645562
 20
-97.30063
 11
-12.645562
 21
-97.034847
  0
LINE
  8
ボルト／ビス
  6
CONTINUOUS
 62
    64
 10
-12.458897
 20
-97.487298
 11
-12.19313
 21
-97.487298
  0
ARC
  8
ボルト／ビス
  6
CONTINUOUS
 62
    64
 10
-12.458893
 20
-97.300615
 40
0.186667
 50
180.0
 51
270.0
  0
LINE
  8
ボルト／ビス
  6
CONTINUOUS
 62
    64
 10
-12.19313
 20
-97.487298
 11
-12.19313
 21
-97.673963
  0
LINE
  8
ボルト／ビス
  6
CONTINUOUS
 62
    64
 10
-12.645562
 20
-97.034847
 11
-12.83223
 21
-97.034847
  0
LINE
  8
ボルト／ビス
  6
CONTINUOUS
 62
    64
 10
-12.645562
 20
-98.047297
 11
-12.645562
 21
-98.313062
  0
LINE
  8
ボルト／ビス
  6
CONTINUOUS
 62
    64
 10
-12.458897
 20
-97.86063
 11
-12.19313
 21
-97.86063
  0
ARC
  8
ボルト／ビス
  6
CONTINUOUS
 62
    64
 10
-12.458893
 20
-98.047281
 40
0.186667
 50
90.0
 51
180.0
  0
LINE
  8
ボルト／ビス
  6
CONTINUOUS
 62
    64
 10
-12.19313
 20
-97.86063
 11
-12.19313
 21
-97.673963
  0
LINE
  8
ボルト／ビス
  6
CONTINUOUS
 62
    64
 10
-12.645562
 20
-98.313062
 11
-12.83223
 21
-98.313062
  0
LINE
  8
ボルト／ビス
  6
CONTINUOUS
 62
    64
 10
-13.018898
 20
-98.047297
 11
-13.018898
 21
-98.313062
  0
LINE
  8
ボルト／ビス
  6
CONTINUOUS
 62
    64
 10
-13.205562
 20
-97.86063
 11
-13.47133
 21
-97.86063
  0
ARC
  8
ボルト／ビス
  6
CONTINUOUS
 62
    64
 10
-13.20556
 20
-98.047281
 40
0.186667
 50
0.0
 51
90.0
  0
LINE
  8
ボルト／ビス
  6
CONTINUOUS
 62
    64
 10
-13.47133
 20
-97.86063
 11
-13.47133
 21
-97.673963
  0
LINE
  8
ボルト／ビス
  6
CONTINUOUS
 62
    64
 10
-13.018898
 20
-98.313062
 11
-12.83223
 21
-98.313062
  0
LINE
  8
ボルト／ビス
  6
CONTINUOUS
 62
    64
 10
-13.018898
 20
-97.30063
 11
-13.018898
 21
-97.034847
  0
LINE
  8
ボルト／ビス
  6
CONTINUOUS
 62
    64
 10
-13.205562
 20
-97.487298
 11
-13.47133
 21
-97.487298
  0
ARC
  8
ボルト／ビス
  6
CONTINUOUS
 62
    64
 10
-13.20556
 20
-97.300615
 40
0.186667
 50
270.0
 51
360.0
  0
LINE
  8
ボルト／ビス
  6
CONTINUOUS
 62
    64
 10
-13.47133
 20
-97.487298
 11
-13.47133
 21
-97.673963
  0
LINE
  8
ボルト／ビス
  6
CONTINUOUS
 62
    64
 10
-13.018898
 20
-97.034847
 11
-12.83223
 21
-97.034847
  0
ENDBLK
  0
BLOCK
  2
*GRP_0141
 70
    65
 10
0.0
 20
0.0
  0
INSERT
  2
*GRP_0156
  8
補助線
  6
CONTINUOUS
 62
    64
 10
0.0
 20
0.0
  0
CIRCLE
  8
ボルト／ビス
  6
CONTINUOUS
 62
    64
 10
3.96777
 20
-97.673963
 40
1.166668
  0
LINE
  8
ボルト／ビス
  6
CONTINUOUS
 62
    64
 10
4.154437
 20
-97.30063
 11
4.154437
 21
-97.034847
  0
LINE
  8
ボルト／ビス
  6
CONTINUOUS
 62
    64
 10
4.341102
 20
-97.487298
 11
4.606888
 21
-97.487298
  0
ARC
  8
ボルト／ビス
  6
CONTINUOUS
 62
    64
 10
4.341112
 20
-97.300615
 40
0.186667
 50
180.0
 51
270.0
  0
LINE
  8
ボルト／ビス
  6
CONTINUOUS
 62
    64
 10
4.606888
 20
-97.487298
 11
4.606888
 21
-97.673963
  0
LINE
  8
ボルト／ビス
  6
CONTINUOUS
 62
    64
 10
4.154437
 20
-97.034847
 11
3.96777
 21
-97.034847
  0
LINE
  8
ボルト／ビス
  6
CONTINUOUS
 62
    64
 10
4.154437
 20
-98.047297
 11
4.154437
 21
-98.313062
  0
LINE
  8
ボルト／ビス
  6
CONTINUOUS
 62
    64
 10
4.341102
 20
-97.86063
 11
4.606888
 21
-97.86063
  0
ARC
  8
ボルト／ビス
  6
CONTINUOUS
 62
    64
 10
4.341112
 20
-98.047281
 40
0.186667
 50
90.0
 51
180.0
  0
LINE
  8
ボルト／ビス
  6
CONTINUOUS
 62
    64
 10
4.606888
 20
-97.86063
 11
4.606888
 21
-97.673963
  0
LINE
  8
ボルト／ビス
  6
CONTINUOUS
 62
    64
 10
4.154437
 20
-98.313062
 11
3.96777
 21
-98.313062
  0
LINE
  8
ボルト／ビス
  6
CONTINUOUS
 62
    64
 10
3.781103
 20
-98.047297
 11
3.781103
 21
-98.313062
  0
LINE
  8
ボルト／ビス
  6
CONTINUOUS
 62
    64
 10
3.594437
 20
-97.86063
 11
3.32867
 21
-97.86063
  0
ARC
  8
ボルト／ビス
  6
CONTINUOUS
 62
    64
 10
3.594445
 20
-98.047281
 40
0.186667
 50
0.0
 51
90.0
  0
LINE
  8
ボルト／ビス
  6
CONTINUOUS
 62
    64
 10
3.32867
 20
-97.86063
 11
3.32867
 21
-97.673963
  0
LINE
  8
ボルト／ビス
  6
CONTINUOUS
 62
    64
 10
3.781103
 20
-98.313062
 11
3.96777
 21
-98.313062
  0
LINE
  8
ボルト／ビス
  6
CONTINUOUS
 62
    64
 10
3.781103
 20
-97.30063
 11
3.781103
 21
-97.034847
  0
LINE
  8
ボルト／ビス
  6
CONTINUOUS
 62
    64
 10
3.594437
 20
-97.487298
 11
3.32867
 21
-97.487298
  0
ARC
  8
ボルト／ビス
  6
CONTINUOUS
 62
    64
 10
3.594445
 20
-97.300615
 40
0.186667
 50
270.0
 51
360.0
  0
LINE
  8
ボルト／ビス
  6
CONTINUOUS
 62
    64
 10
3.32867
 20
-97.487298
 11
3.32867
 21
-97.673963
  0
LINE
  8
ボルト／ビス
  6
CONTINUOUS
 62
    64
 10
3.781103
 20
-97.034847
 11
3.96777
 21
-97.034847
  0
ENDBLK
  0
BLOCK
  2
*GRP_0142
 70
    65
 10
0.0
 20
0.0
  0
INSERT
  2
*GRP_0157
  8
補助線
  6
CONTINUOUS
 62
    64
 10
0.0
 20
0.0
  0
CIRCLE
  8
ボルト／ビス
  6
CONTINUOUS
 62
    64
 10
-12.83223
 20
-97.673963
 40
1.166668
  0
LINE
  8
ボルト／ビス
  6
CONTINUOUS
 62
    64
 10
-12.645562
 20
-97.30063
 11
-12.645562
 21
-97.034847
  0
LINE
  8
ボルト／ビス
  6
CONTINUOUS
 62
    64
 10
-12.458897
 20
-97.487298
 11
-12.19313
 21
-97.487298
  0
ARC
  8
ボルト／ビス
  6
CONTINUOUS
 62
    64
 10
-12.458893
 20
-97.300615
 40
0.186667
 50
180.0
 51
270.0
  0
LINE
  8
ボルト／ビス
  6
CONTINUOUS
 62
    64
 10
-12.19313
 20
-97.487298
 11
-12.19313
 21
-97.673963
  0
LINE
  8
ボルト／ビス
  6
CONTINUOUS
 62
    64
 10
-12.645562
 20
-97.034847
 11
-12.83223
 21
-97.034847
  0
LINE
  8
ボルト／ビス
  6
CONTINUOUS
 62
    64
 10
-12.645562
 20
-98.047297
 11
-12.645562
 21
-98.313062
  0
LINE
  8
ボルト／ビス
  6
CONTINUOUS
 62
    64
 10
-12.458897
 20
-97.86063
 11
-12.19313
 21
-97.86063
  0
ARC
  8
ボルト／ビス
  6
CONTINUOUS
 62
    64
 10
-12.458893
 20
-98.047281
 40
0.186667
 50
90.0
 51
180.0
  0
LINE
  8
ボルト／ビス
  6
CONTINUOUS
 62
    64
 10
-12.19313
 20
-97.86063
 11
-12.19313
 21
-97.673963
  0
LINE
  8
ボルト／ビス
  6
CONTINUOUS
 62
    64
 10
-12.645562
 20
-98.313062
 11
-12.83223
 21
-98.313062
  0
LINE
  8
ボルト／ビス
  6
CONTINUOUS
 62
    64
 10
-13.018898
 20
-98.047297
 11
-13.018898
 21
-98.313062
  0
LINE
  8
ボルト／ビス
  6
CONTINUOUS
 62
    64
 10
-13.205562
 20
-97.86063
 11
-13.47133
 21
-97.86063
  0
ARC
  8
ボルト／ビス
  6
CONTINUOUS
 62
    64
 10
-13.20556
 20
-98.047281
 40
0.186667
 50
0.0
 51
90.0
  0
LINE
  8
ボルト／ビス
  6
CONTINUOUS
 62
    64
 10
-13.47133
 20
-97.86063
 11
-13.47133
 21
-97.673963
  0
LINE
  8
ボルト／ビス
  6
CONTINUOUS
 62
    64
 10
-13.018898
 20
-98.313062
 11
-12.83223
 21
-98.313062
  0
LINE
  8
ボルト／ビス
  6
CONTINUOUS
 62
    64
 10
-13.018898
 20
-97.30063
 11
-13.018898
 21
-97.034847
  0
LINE
  8
ボルト／ビス
  6
CONTINUOUS
 62
    64
 10
-13.205562
 20
-97.487298
 11
-13.47133
 21
-97.487298
  0
ARC
  8
ボルト／ビス
  6
CONTINUOUS
 62
    64
 10
-13.20556
 20
-97.300615
 40
0.186667
 50
270.0
 51
360.0
  0
LINE
  8
ボルト／ビス
  6
CONTINUOUS
 62
    64
 10
-13.47133
 20
-97.487298
 11
-13.47133
 21
-97.673963
  0
LINE
  8
ボルト／ビス
  6
CONTINUOUS
 62
    64
 10
-13.018898
 20
-97.034847
 11
-12.83223
 21
-97.034847
  0
ENDBLK
  0
BLOCK
  2
*GRP_0143
 70
    65
 10
0.0
 20
0.0
  0
INSERT
  2
*GRP_0158
  8
補助線
  6
CONTINUOUS
 62
    64
 10
0.0
 20
0.0
  0
CIRCLE
  8
ボルト／ビス
  6
CONTINUOUS
 62
    64
 10
3.96777
 20
-97.673963
 40
1.166668
  0
LINE
  8
ボルト／ビス
  6
CONTINUOUS
 62
    64
 10
4.154437
 20
-97.30063
 11
4.154437
 21
-97.034847
  0
LINE
  8
ボルト／ビス
  6
CONTINUOUS
 62
    64
 10
4.341102
 20
-97.487298
 11
4.606888
 21
-97.487298
  0
ARC
  8
ボルト／ビス
  6
CONTINUOUS
 62
    64
 10
4.341112
 20
-97.300615
 40
0.186667
 50
180.0
 51
270.0
  0
LINE
  8
ボルト／ビス
  6
CONTINUOUS
 62
    64
 10
4.606888
 20
-97.487298
 11
4.606888
 21
-97.673963
  0
LINE
  8
ボルト／ビス
  6
CONTINUOUS
 62
    64
 10
4.154437
 20
-97.034847
 11
3.96777
 21
-97.034847
  0
LINE
  8
ボルト／ビス
  6
CONTINUOUS
 62
    64
 10
4.154437
 20
-98.047297
 11
4.154437
 21
-98.313062
  0
LINE
  8
ボルト／ビス
  6
CONTINUOUS
 62
    64
 10
4.341102
 20
-97.86063
 11
4.606888
 21
-97.86063
  0
ARC
  8
ボルト／ビス
  6
CONTINUOUS
 62
    64
 10
4.341112
 20
-98.047281
 40
0.186667
 50
90.0
 51
180.0
  0
LINE
  8
ボルト／ビス
  6
CONTINUOUS
 62
    64
 10
4.606888
 20
-97.86063
 11
4.606888
 21
-97.673963
  0
LINE
  8
ボルト／ビス
  6
CONTINUOUS
 62
    64
 10
4.154437
 20
-98.313062
 11
3.96777
 21
-98.313062
  0
LINE
  8
ボルト／ビス
  6
CONTINUOUS
 62
    64
 10
3.781103
 20
-98.047297
 11
3.781103
 21
-98.313062
  0
LINE
  8
ボルト／ビス
  6
CONTINUOUS
 62
    64
 10
3.594437
 20
-97.86063
 11
3.32867
 21
-97.86063
  0
ARC
  8
ボルト／ビス
  6
CONTINUOUS
 62
    64
 10
3.594445
 20
-98.047281
 40
0.186667
 50
0.0
 51
90.0
  0
LINE
  8
ボルト／ビス
  6
CONTINUOUS
 62
    64
 10
3.32867
 20
-97.86063
 11
3.32867
 21
-97.673963
  0
LINE
  8
ボルト／ビス
  6
CONTINUOUS
 62
    64
 10
3.781103
 20
-98.313062
 11
3.96777
 21
-98.313062
  0
LINE
  8
ボルト／ビス
  6
CONTINUOUS
 62
    64
 10
3.781103
 20
-97.30063
 11
3.781103
 21
-97.034847
  0
LINE
  8
ボルト／ビス
  6
CONTINUOUS
 62
    64
 10
3.594437
 20
-97.487298
 11
3.32867
 21
-97.487298
  0
ARC
  8
ボルト／ビス
  6
CONTINUOUS
 62
    64
 10
3.594445
 20
-97.300615
 40
0.186667
 50
270.0
 51
360.0
  0
LINE
  8
ボルト／ビス
  6
CONTINUOUS
 62
    64
 10
3.32867
 20
-97.487298
 11
3.32867
 21
-97.673963
  0
LINE
  8
ボルト／ビス
  6
CONTINUOUS
 62
    64
 10
3.781103
 20
-97.034847
 11
3.96777
 21
-97.034847
  0
ENDBLK
  0
BLOCK
  2
*GRP_0144
 70
    65
 10
0.0
 20
0.0
  0
INSERT
  2
*GRP_0159
  8
補助線
  6
CONTINUOUS
 62
    64
 10
0.0
 20
0.0
  0
CIRCLE
  8
ボルト／ビス
  6
CONTINUOUS
 62
    64
 10
-18.43223
 20
-97.673963
 40
1.166668
  0
LINE
  8
ボルト／ビス
  6
CONTINUOUS
 62
    64
 10
-18.245562
 20
-97.30063
 11
-18.245562
 21
-97.034847
  0
LINE
  8
ボルト／ビス
  6
CONTINUOUS
 62
    64
 10
-18.058897
 20
-97.487298
 11
-17.79313
 21
-97.487298
  0
ARC
  8
ボルト／ビス
  6
CONTINUOUS
 62
    64
 10
-18.058891
 20
-97.300616
 40
0.186667
 50
180.0
 51
270.0
  0
LINE
  8
ボルト／ビス
  6
CONTINUOUS
 62
    64
 10
-17.79313
 20
-97.487298
 11
-17.79313
 21
-97.673963
  0
LINE
  8
ボルト／ビス
  6
CONTINUOUS
 62
    64
 10
-18.245562
 20
-97.034847
 11
-18.43223
 21
-97.034847
  0
LINE
  8
ボルト／ビス
  6
CONTINUOUS
 62
    64
 10
-18.245562
 20
-98.047297
 11
-18.245562
 21
-98.313062
  0
LINE
  8
ボルト／ビス
  6
CONTINUOUS
 62
    64
 10
-18.058897
 20
-97.86063
 11
-17.79313
 21
-97.86063
  0
ARC
  8
ボルト／ビス
  6
CONTINUOUS
 62
    64
 10
-18.058891
 20
-98.047282
 40
0.186667
 50
90.0
 51
180.0
  0
LINE
  8
ボルト／ビス
  6
CONTINUOUS
 62
    64
 10
-17.79313
 20
-97.86063
 11
-17.79313
 21
-97.673963
  0
LINE
  8
ボルト／ビス
  6
CONTINUOUS
 62
    64
 10
-18.245562
 20
-98.313062
 11
-18.43223
 21
-98.313062
  0
LINE
  8
ボルト／ビス
  6
CONTINUOUS
 62
    64
 10
-18.618898
 20
-98.047297
 11
-18.618898
 21
-98.313062
  0
LINE
  8
ボルト／ビス
  6
CONTINUOUS
 62
    64
 10
-18.805562
 20
-97.86063
 11
-19.07133
 21
-97.86063
  0
ARC
  8
ボルト／ビス
  6
CONTINUOUS
 62
    64
 10
-18.805558
 20
-98.047282
 40
0.186667
 50
0.0
 51
90.0
  0
LINE
  8
ボルト／ビス
  6
CONTINUOUS
 62
    64
 10
-19.07133
 20
-97.86063
 11
-19.07133
 21
-97.673963
  0
LINE
  8
ボルト／ビス
  6
CONTINUOUS
 62
    64
 10
-18.618898
 20
-98.313062
 11
-18.43223
 21
-98.313062
  0
LINE
  8
ボルト／ビス
  6
CONTINUOUS
 62
    64
 10
-18.618898
 20
-97.30063
 11
-18.618898
 21
-97.034847
  0
LINE
  8
ボルト／ビス
  6
CONTINUOUS
 62
    64
 10
-18.805562
 20
-97.487298
 11
-19.07133
 21
-97.487298
  0
ARC
  8
ボルト／ビス
  6
CONTINUOUS
 62
    64
 10
-18.805558
 20
-97.300616
 40
0.186667
 50
270.0
 51
360.0
  0
LINE
  8
ボルト／ビス
  6
CONTINUOUS
 62
    64
 10
-19.07133
 20
-97.487298
 11
-19.07133
 21
-97.673963
  0
LINE
  8
ボルト／ビス
  6
CONTINUOUS
 62
    64
 10
-18.618898
 20
-97.034847
 11
-18.43223
 21
-97.034847
  0
ENDBLK
  0
BLOCK
  2
*GRP_0145
 70
    65
 10
0.0
 20
0.0
  0
INSERT
  2
*GRP_0160
  8
補助線
  6
CONTINUOUS
 62
    64
 10
0.0
 20
0.0
  0
CIRCLE
  8
ボルト／ビス
  6
CONTINUOUS
 62
    64
 10
9.56777
 20
-97.673963
 40
1.166668
  0
LINE
  8
ボルト／ビス
  6
CONTINUOUS
 62
    64
 10
9.381103
 20
-97.30063
 11
9.381103
 21
-97.034847
  0
LINE
  8
ボルト／ビス
  6
CONTINUOUS
 62
    64
 10
9.194437
 20
-97.487298
 11
8.92867
 21
-97.487298
  0
ARC
  8
ボルト／ビス
  6
CONTINUOUS
 62
    64
 10
9.194443
 20
-97.300616
 40
0.186667
 50
270.0
 51
360.0
  0
LINE
  8
ボルト／ビス
  6
CONTINUOUS
 62
    64
 10
8.92867
 20
-97.487298
 11
8.92867
 21
-97.673963
  0
LINE
  8
ボルト／ビス
  6
CONTINUOUS
 62
    64
 10
9.381103
 20
-97.034847
 11
9.56777
 21
-97.034847
  0
LINE
  8
ボルト／ビス
  6
CONTINUOUS
 62
    64
 10
9.381103
 20
-98.047297
 11
9.381103
 21
-98.313062
  0
LINE
  8
ボルト／ビス
  6
CONTINUOUS
 62
    64
 10
9.194437
 20
-97.86063
 11
8.92867
 21
-97.86063
  0
ARC
  8
ボルト／ビス
  6
CONTINUOUS
 62
    64
 10
9.194443
 20
-98.047282
 40
0.186667
 50
0.0
 51
90.0
  0
LINE
  8
ボルト／ビス
  6
CONTINUOUS
 62
    64
 10
8.92867
 20
-97.86063
 11
8.92867
 21
-97.673963
  0
LINE
  8
ボルト／ビス
  6
CONTINUOUS
 62
    64
 10
9.381103
 20
-98.313062
 11
9.56777
 21
-98.313062
  0
LINE
  8
ボルト／ビス
  6
CONTINUOUS
 62
    64
 10
9.754437
 20
-98.047297
 11
9.754437
 21
-98.313062
  0
LINE
  8
ボルト／ビス
  6
CONTINUOUS
 62
    64
 10
9.941102
 20
-97.86063
 11
10.20687
 21
-97.86063
  0
ARC
  8
ボルト／ビス
  6
CONTINUOUS
 62
    64
 10
9.94111
 20
-98.047282
 40
0.186667
 50
90.0
 51
180.0
  0
LINE
  8
ボルト／ビス
  6
CONTINUOUS
 62
    64
 10
10.20687
 20
-97.86063
 11
10.20687
 21
-97.673963
  0
LINE
  8
ボルト／ビス
  6
CONTINUOUS
 62
    64
 10
9.754437
 20
-98.313062
 11
9.56777
 21
-98.313062
  0
LINE
  8
ボルト／ビス
  6
CONTINUOUS
 62
    64
 10
9.754437
 20
-97.30063
 11
9.754437
 21
-97.034847
  0
LINE
  8
ボルト／ビス
  6
CONTINUOUS
 62
    64
 10
9.941102
 20
-97.487298
 11
10.20687
 21
-97.487298
  0
ARC
  8
ボルト／ビス
  6
CONTINUOUS
 62
    64
 10
9.94111
 20
-97.300616
 40
0.186667
 50
180.0
 51
270.0
  0
LINE
  8
ボルト／ビス
  6
CONTINUOUS
 62
    64
 10
10.20687
 20
-97.487298
 11
10.20687
 21
-97.673963
  0
LINE
  8
ボルト／ビス
  6
CONTINUOUS
 62
    64
 10
9.754437
 20
-97.034847
 11
9.56777
 21
-97.034847
  0
ENDBLK
  0
BLOCK
  2
*GRP_0146
 70
    65
 10
0.0
 20
0.0
  0
INSERT
  2
*GRP_0161
  8
補助線
  6
CONTINUOUS
 62
    64
 10
0.0
 20
0.0
  0
CIRCLE
  8
ボルト／ビス
  6
CONTINUOUS
 62
    64
 10
-12.83223
 20
-97.673963
 40
1.166668
  0
LINE
  8
ボルト／ビス
  6
CONTINUOUS
 62
    64
 10
-12.645562
 20
-97.30063
 11
-12.645562
 21
-97.034847
  0
LINE
  8
ボルト／ビス
  6
CONTINUOUS
 62
    64
 10
-12.458897
 20
-97.487298
 11
-12.19313
 21
-97.487298
  0
ARC
  8
ボルト／ビス
  6
CONTINUOUS
 62
    64
 10
-12.458893
 20
-97.300616
 40
0.186667
 50
180.0
 51
270.0
  0
LINE
  8
ボルト／ビス
  6
CONTINUOUS
 62
    64
 10
-12.19313
 20
-97.487298
 11
-12.19313
 21
-97.673963
  0
LINE
  8
ボルト／ビス
  6
CONTINUOUS
 62
    64
 10
-12.645562
 20
-97.034847
 11
-12.83223
 21
-97.034847
  0
LINE
  8
ボルト／ビス
  6
CONTINUOUS
 62
    64
 10
-12.645562
 20
-98.047297
 11
-12.645562
 21
-98.313062
  0
LINE
  8
ボルト／ビス
  6
CONTINUOUS
 62
    64
 10
-12.458897
 20
-97.86063
 11
-12.19313
 21
-97.86063
  0
ARC
  8
ボルト／ビス
  6
CONTINUOUS
 62
    64
 10
-12.458893
 20
-98.047282
 40
0.186667
 50
90.0
 51
180.0
  0
LINE
  8
ボルト／ビス
  6
CONTINUOUS
 62
    64
 10
-12.19313
 20
-97.86063
 11
-12.19313
 21
-97.673963
  0
LINE
  8
ボルト／ビス
  6
CONTINUOUS
 62
    64
 10
-12.645562
 20
-98.313062
 11
-12.83223
 21
-98.313062
  0
LINE
  8
ボルト／ビス
  6
CONTINUOUS
 62
    64
 10
-13.018898
 20
-98.047297
 11
-13.018898
 21
-98.313062
  0
LINE
  8
ボルト／ビス
  6
CONTINUOUS
 62
    64
 10
-13.205562
 20
-97.86063
 11
-13.47133
 21
-97.86063
  0
ARC
  8
ボルト／ビス
  6
CONTINUOUS
 62
    64
 10
-13.20556
 20
-98.047282
 40
0.186667
 50
0.0
 51
90.0
  0
LINE
  8
ボルト／ビス
  6
CONTINUOUS
 62
    64
 10
-13.47133
 20
-97.86063
 11
-13.47133
 21
-97.673963
  0
LINE
  8
ボルト／ビス
  6
CONTINUOUS
 62
    64
 10
-13.018898
 20
-98.313062
 11
-12.83223
 21
-98.313062
  0
LINE
  8
ボルト／ビス
  6
CONTINUOUS
 62
    64
 10
-13.018898
 20
-97.30063
 11
-13.018898
 21
-97.034847
  0
LINE
  8
ボルト／ビス
  6
CONTINUOUS
 62
    64
 10
-13.205562
 20
-97.487298
 11
-13.47133
 21
-97.487298
  0
ARC
  8
ボルト／ビス
  6
CONTINUOUS
 62
    64
 10
-13.20556
 20
-97.300616
 40
0.186667
 50
270.0
 51
360.0
  0
LINE
  8
ボルト／ビス
  6
CONTINUOUS
 62
    64
 10
-13.47133
 20
-97.487298
 11
-13.47133
 21
-97.673963
  0
LINE
  8
ボルト／ビス
  6
CONTINUOUS
 62
    64
 10
-13.018898
 20
-97.034847
 11
-12.83223
 21
-97.034847
  0
ENDBLK
  0
BLOCK
  2
*GRP_0147
 70
    65
 10
0.0
 20
0.0
  0
INSERT
  2
*GRP_0162
  8
補助線
  6
CONTINUOUS
 62
    64
 10
0.0
 20
0.0
  0
CIRCLE
  8
ボルト／ビス
  6
CONTINUOUS
 62
    64
 10
3.96777
 20
-97.673963
 40
1.166668
  0
LINE
  8
ボルト／ビス
  6
CONTINUOUS
 62
    64
 10
4.154437
 20
-97.30063
 11
4.154437
 21
-97.034847
  0
LINE
  8
ボルト／ビス
  6
CONTINUOUS
 62
    64
 10
4.341102
 20
-97.487298
 11
4.606888
 21
-97.487298
  0
ARC
  8
ボルト／ビス
  6
CONTINUOUS
 62
    64
 10
4.341112
 20
-97.300616
 40
0.186667
 50
180.0
 51
270.0
  0
LINE
  8
ボルト／ビス
  6
CONTINUOUS
 62
    64
 10
4.606888
 20
-97.487298
 11
4.606888
 21
-97.673963
  0
LINE
  8
ボルト／ビス
  6
CONTINUOUS
 62
    64
 10
4.154437
 20
-97.034847
 11
3.96777
 21
-97.034847
  0
LINE
  8
ボルト／ビス
  6
CONTINUOUS
 62
    64
 10
4.154437
 20
-98.047297
 11
4.154437
 21
-98.313062
  0
LINE
  8
ボルト／ビス
  6
CONTINUOUS
 62
    64
 10
4.341102
 20
-97.86063
 11
4.606888
 21
-97.86063
  0
ARC
  8
ボルト／ビス
  6
CONTINUOUS
 62
    64
 10
4.341112
 20
-98.047282
 40
0.186667
 50
90.0
 51
180.0
  0
LINE
  8
ボルト／ビス
  6
CONTINUOUS
 62
    64
 10
4.606888
 20
-97.86063
 11
4.606888
 21
-97.673963
  0
LINE
  8
ボルト／ビス
  6
CONTINUOUS
 62
    64
 10
4.154437
 20
-98.313062
 11
3.96777
 21
-98.313062
  0
LINE
  8
ボルト／ビス
  6
CONTINUOUS
 62
    64
 10
3.781103
 20
-98.047297
 11
3.781103
 21
-98.313062
  0
LINE
  8
ボルト／ビス
  6
CONTINUOUS
 62
    64
 10
3.594437
 20
-97.86063
 11
3.32867
 21
-97.86063
  0
ARC
  8
ボルト／ビス
  6
CONTINUOUS
 62
    64
 10
3.594445
 20
-98.047282
 40
0.186667
 50
0.0
 51
90.0
  0
LINE
  8
ボルト／ビス
  6
CONTINUOUS
 62
    64
 10
3.32867
 20
-97.86063
 11
3.32867
 21
-97.673963
  0
LINE
  8
ボルト／ビス
  6
CONTINUOUS
 62
    64
 10
3.781103
 20
-98.313062
 11
3.96777
 21
-98.313062
  0
LINE
  8
ボルト／ビス
  6
CONTINUOUS
 62
    64
 10
3.781103
 20
-97.30063
 11
3.781103
 21
-97.034847
  0
LINE
  8
ボルト／ビス
  6
CONTINUOUS
 62
    64
 10
3.594437
 20
-97.487298
 11
3.32867
 21
-97.487298
  0
ARC
  8
ボルト／ビス
  6
CONTINUOUS
 62
    64
 10
3.594445
 20
-97.300616
 40
0.186667
 50
270.0
 51
360.0
  0
LINE
  8
ボルト／ビス
  6
CONTINUOUS
 62
    64
 10
3.32867
 20
-97.487298
 11
3.32867
 21
-97.673963
  0
LINE
  8
ボルト／ビス
  6
CONTINUOUS
 62
    64
 10
3.781103
 20
-97.034847
 11
3.96777
 21
-97.034847
  0
ENDBLK
  0
BLOCK
  2
*GRP_0148
 70
    65
 10
0.0
 20
0.0
  0
LINE
  8
ボルト／ビス
  6
CONTINUOUS
 62
    64
 10
-13.398898
 20
-85.141813
 11
-13.398898
 21
-86.475148
  0
LINE
  8
ボルト／ビス
  6
CONTINUOUS
 62
    64
 10
-11.498898
 20
-85.141813
 11
-11.33223
 21
-85.30848
  0
LINE
  8
ボルト／ビス
  6
CONTINUOUS
 62
    64
 10
-11.498898
 20
-86.475148
 11
-11.33223
 21
-86.30848
  0
LINE
  8
ボルト／ビス
  6
CONTINUOUS
 62
    64
 10
-11.33223
 20
-85.30848
 11
-11.33223
 21
-86.30848
  0
LINE
  8
ボルト／ビス
  6
CONTINUOUS
 62
    64
 10
-11.498898
 20
-85.141813
 11
-11.498898
 21
-86.475148
  0
LINE
  8
ボルト／ビス
  6
CONTINUOUS
 62
    64
 10
-13.398898
 20
-85.30848
 11
-11.33223
 21
-85.30848
  0
LINE
  8
ボルト／ビス
  6
CONTINUOUS
 62
    64
 10
-13.398898
 20
-86.30848
 11
-11.33223
 21
-86.30848
  0
LINE
  8
ボルト／ビス
  6
CONTINUOUS
 62
    64
 10
-13.398898
 20
-86.475148
 11
-11.498898
 21
-86.475148
  0
LINE
  8
ボルト／ビス
  6
CONTINUOUS
 62
    64
 10
-13.398898
 20
-85.141813
 11
-11.498898
 21
-85.141813
  0
LINE
  8
ボルト／ビス
  6
DASHDOT
 62
    64
 10
-14.998898
 20
-85.80848
 11
-10.33223
 21
-85.80848
  0
LINE
  8
ボルト／ビス
  6
DOT
 62
    64
 10
-13.998898
 20
-84.80848
 11
-13.398898
 21
-85.141813
  0
LINE
  8
ボルト／ビス
  6
DOT
 62
    64
 10
-13.998898
 20
-84.80848
 11
-13.998898
 21
-86.80848
  0
LINE
  8
ボルト／ビス
  6
DOT
 62
    64
 10
-13.998898
 20
-86.80848
 11
-13.398898
 21
-86.475148
  0
ENDBLK
  0
BLOCK
  2
*GRP_0149
 70
    65
 10
0.0
 20
0.0
  0
LINE
  8
ボルト／ビス
  6
CONTINUOUS
 62
    64
 10
4.534438
 20
-85.141813
 11
4.534438
 21
-86.475148
  0
LINE
  8
ボルト／ビス
  6
CONTINUOUS
 62
    64
 10
2.634438
 20
-85.141813
 11
2.46777
 21
-85.30848
  0
LINE
  8
ボルト／ビス
  6
CONTINUOUS
 62
    64
 10
2.634438
 20
-86.475148
 11
2.46777
 21
-86.30848
  0
LINE
  8
ボルト／ビス
  6
CONTINUOUS
 62
    64
 10
2.46777
 20
-85.30848
 11
2.46777
 21
-86.30848
  0
LINE
  8
ボルト／ビス
  6
CONTINUOUS
 62
    64
 10
2.634438
 20
-85.141813
 11
2.634438
 21
-86.475148
  0
LINE
  8
ボルト／ビス
  6
CONTINUOUS
 62
    64
 10
4.534438
 20
-85.30848
 11
2.46777
 21
-85.30848
  0
LINE
  8
ボルト／ビス
  6
CONTINUOUS
 62
    64
 10
4.534438
 20
-86.30848
 11
2.46777
 21
-86.30848
  0
LINE
  8
ボルト／ビス
  6
CONTINUOUS
 62
    64
 10
4.534438
 20
-86.475148
 11
2.634438
 21
-86.475148
  0
LINE
  8
ボルト／ビス
  6
CONTINUOUS
 62
    64
 10
4.534438
 20
-85.141813
 11
2.634438
 21
-85.141813
  0
LINE
  8
ボルト／ビス
  6
DASHDOT
 62
    64
 10
6.134438
 20
-85.80848
 11
1.46777
 21
-85.80848
  0
LINE
  8
ボルト／ビス
  6
DOT
 62
    64
 10
5.134438
 20
-84.80848
 11
4.534438
 21
-85.141813
  0
LINE
  8
ボルト／ビス
  6
DOT
 62
    64
 10
5.134438
 20
-84.80848
 11
5.134438
 21
-86.80848
  0
LINE
  8
ボルト／ビス
  6
DOT
 62
    64
 10
5.134438
 20
-86.80848
 11
4.534438
 21
-86.475148
  0
ENDBLK
  0
BLOCK
  2
*GRP_0150
 70
    65
 10
0.0
 20
0.0
  0
LINE
  8
ボルト／ビス
  6
CONTINUOUS
 62
    64
 10
-5.598898
 20
-87.80848
 11
-5.56833
 21
-87.459098
  0
ARC
  8
ボルト／ビス
  6
CONTINUOUS
 62
    64
 10
-5.003816
 20
-87.508466
 40
0.566667
 50
90.0
 51
175.000011
  0
LINE
  8
ボルト／ビス
  6
CONTINUOUS
 62
    64
 10
-5.003813
 20
-86.941813
 11
-4.43223
 21
-86.941813
  0
LINE
  8
ボルト／ビス
  6
CONTINUOUS
 62
    64
 10
-3.265563
 20
-87.80848
 11
-3.29613
 21
-87.459098
  0
ARC
  8
ボルト／ビス
  6
CONTINUOUS
 62
    64
 10
-3.860638
 20
-87.508466
 40
0.566667
 50
4.999989
 51
90.0
  0
LINE
  8
ボルト／ビス
  6
CONTINUOUS
 62
    64
 10
-3.860647
 20
-86.941813
 11
-4.43223
 21
-86.941813
  0
LINE
  8
ボルト／ビス
  6
CONTINUOUS
 62
    64
 10
-5.231113
 20
-87.070112
 11
-5.231113
 21
-86.989397
  0
LINE
  8
ボルト／ビス
  6
CONTINUOUS
 62
    64
 10
-4.665563
 20
-87.286812
 11
-4.43223
 21
-87.286812
  0
LINE
  8
ボルト／ビス
  6
CONTINUOUS
 62
    64
 10
-4.798898
 20
-87.070112
 11
-5.231113
 21
-87.070112
  0
LINE
  8
ボルト／ビス
  6
CONTINUOUS
 62
    64
 10
-4.665563
 20
-87.286812
 11
-4.665563
 21
-87.203448
  0
ARC
  8
ボルト／ビス
  6
CONTINUOUS
 62
    64
 10
-4.798894
 20
-87.203435
 40
0.133333
 50
0.0
 51
90.0
  0
LINE
  8
ボルト／ビス
  6
CONTINUOUS
 62
    64
 10
-3.633348
 20
-87.070112
 11
-3.633348
 21
-86.989397
  0
LINE
  8
ボルト／ビス
  6
CONTINUOUS
 62
    64
 10
-4.198898
 20
-87.286812
 11
-4.43223
 21
-87.286812
  0
LINE
  8
ボルト／ビス
  6
CONTINUOUS
 62
    64
 10
-4.065563
 20
-87.070112
 11
-3.633348
 21
-87.070112
  0
LINE
  8
ボルト／ビス
  6
CONTINUOUS
 62
    64
 10
-4.198898
 20
-87.286812
 11
-4.198898
 21
-87.203448
  0
ARC
  8
ボルト／ビス
  6
CONTINUOUS
 62
    64
 10
-4.06556
 20
-87.203435
 40
0.133333
 50
90.0
 51
180.0
  0
LINE
  8
ボルト／ビス
  6
CONTINUOUS
 62
    64
 10
-5.598898
 20
-87.80848
 11
-3.265563
 21
-87.80848
  0
LINE
  8
ボルト／ビス
  6
CONTINUOUS
 62
    64
 10
-5.098898
 20
-92.30848
 11
-4.93223
 21
-92.475148
  0
LINE
  8
ボルト／ビス
  6
CONTINUOUS
 62
    64
 10
-3.765563
 20
-92.30848
 11
-3.93223
 21
-92.475148
  0
LINE
  8
ボルト／ビス
  6
CONTINUOUS
 62
    64
 10
-5.098898
 20
-92.30848
 11
-3.765563
 21
-92.30848
  0
LINE
  8
ボルト／ビス
  6
CONTINUOUS
 62
    64
 10
-4.93223
 20
-92.475148
 11
-3.93223
 21
-92.475148
  0
LINE
  8
ボルト／ビス
  6
CONTINUOUS
 62
    64
 10
-3.765563
 20
-87.80848
 11
-3.765563
 21
-92.30848
  0
LINE
  8
ボルト／ビス
  6
CONTINUOUS
 62
    64
 10
-5.098898
 20
-87.80848
 11
-5.098898
 21
-92.30848
  0
LINE
  8
ボルト／ビス
  6
CONTINUOUS
 62
    64
 10
-4.93223
 20
-87.80848
 11
-4.93223
 21
-92.475148
  0
LINE
  8
ボルト／ビス
  6
CONTINUOUS
 62
    64
 10
-3.93223
 20
-87.80848
 11
-3.93223
 21
-92.475148
  0
LINE
  8
ボルト／ビス
  6
DASHDOT
 62
    64
 10
-4.43223
 20
-85.941813
 11
-4.43223
 21
-93.475148
  0
ENDBLK
  0
BLOCK
  2
*GRP_0151
 70
    65
 10
0.0
 20
0.0
  0
POLYLINE
  8
寸法
  6
CONTINUOUS
 66
     1
  0
VERTEX
  8
寸法
 10
-1.356995
 20
-83.537545
  0
VERTEX
  8
寸法
 10
2.296755
 20
-79.883798
  0
VERTEX
  8
寸法
 10
6.469212
 20
-79.883798
  0
SEQEND
  0
ENDBLK
  0
BLOCK
  2
*GRP_0152
 70
    65
 10
0.0
 20
0.0
  0
LINE
  8
ゴム等
  6
CONTINUOUS
 10
-15.700012
 20
-89.673963
 11
-15.700012
 21
-91.74063
  0
LINE
  8
ゴム等
  6
CONTINUOUS
 10
-15.700012
 20
-91.74063
 11
-12.36668
 21
-91.74063
  0
LINE
  8
ゴム等
  6
CONTINUOUS
 10
-12.36668
 20
-91.74063
 11
-12.36668
 21
-89.673963
  0
LINE
  8
ゴム等
  6
CONTINUOUS
 10
-15.700012
 20
-89.673963
 11
-12.36668
 21
-89.673963
  0
INSERT
  2
*HAT_0009
  8
ゴム等
 10
0.0
 20
0.0
  0
ENDBLK
  0
BLOCK
  2
*GRP_0153
 70
    65
 10
0.0
 20
0.0
  0
LINE
  8
ゴム等
  6
CONTINUOUS
 10
3.50222
 20
-89.673963
 11
3.50222
 21
-91.74063
  0
LINE
  8
ゴム等
  6
CONTINUOUS
 10
3.50222
 20
-91.74063
 11
6.835553
 21
-91.74063
  0
LINE
  8
ゴム等
  6
CONTINUOUS
 10
6.835553
 20
-91.74063
 11
6.835553
 21
-89.673963
  0
LINE
  8
ゴム等
  6
CONTINUOUS
 10
3.50222
 20
-89.673963
 11
6.835553
 21
-89.673963
  0
INSERT
  2
*HAT_0010
  8
ゴム等
 10
0.0
 20
0.0
  0
ENDBLK
  0
BLOCK
  2
*GRP_0154
 70
    65
 10
0.0
 20
0.0
  0
LINE
  8
曲げ物
  6
CONTINUOUS
 10
-7.265563
 20
-95.673963
 11
-7.798895
 21
-95.673963
  0
LINE
  8
曲げ物
  6
CONTINUOUS
 10
-1.598898
 20
-95.673963
 11
-1.065565
 21
-95.673963
  0
ARC
  8
曲げ物
  6
CONTINUOUS
 10
-1.5989
 20
-88.875146
 40
0.533333
 50
0.0
 51
90.0
  0
LINE
  8
曲げ物
  6
CONTINUOUS
 10
-7.265563
 20
-88.341813
 11
-1.598898
 21
-88.341813
  0
ARC
  8
曲げ物
  6
CONTINUOUS
 10
-7.265563
 20
-88.875146
 40
0.533333
 50
90.0
 51
180.0
  0
LINE
  8
曲げ物
  6
CONTINUOUS
 10
-7.265563
 20
-88.875145
 11
-1.598898
 21
-88.875145
  0
LINE
  8
曲げ物
  6
CONTINUOUS
 10
-1.598898
 20
-95.673963
 11
-1.598898
 21
-88.875145
  0
LINE
  8
曲げ物
  6
CONTINUOUS
 10
-1.065565
 20
-95.673963
 11
-1.065565
 21
-88.875145
  0
LINE
  8
曲げ物
  6
CONTINUOUS
 10
-7.265563
 20
-95.673963
 11
-7.265563
 21
-88.875145
  0
LINE
  8
曲げ物
  6
CONTINUOUS
 10
-7.798895
 20
-95.673963
 11
-7.798895
 21
-88.875145
  0
ENDBLK
  0
BLOCK
  2
*GRP_0155
 70
    65
 10
0.0
 20
0.0
  0
LINE
  8
補助線
  6
BYBLOCK
 62
    64
 10
-11.098898
 20
-97.673963
 11
-14.565563
 21
-97.673963
  0
LINE
  8
補助線
  6
BYBLOCK
 62
    64
 10
-12.83223
 20
-95.94063
 11
-12.83223
 21
-99.407297
  0
ENDBLK
  0
BLOCK
  2
*GRP_0156
 70
    65
 10
0.0
 20
0.0
  0
LINE
  8
補助線
  6
BYBLOCK
 62
    64
 10
5.701102
 20
-97.673963
 11
2.234438
 21
-97.673963
  0
LINE
  8
補助線
  6
BYBLOCK
 62
    64
 10
3.96777
 20
-95.94063
 11
3.96777
 21
-99.407297
  0
ENDBLK
  0
BLOCK
  2
*GRP_0157
 70
    65
 10
0.0
 20
0.0
  0
LINE
  8
補助線
  6
BYBLOCK
 62
    64
 10
-11.098898
 20
-97.673963
 11
-14.565563
 21
-97.673963
  0
LINE
  8
補助線
  6
BYBLOCK
 62
    64
 10
-12.83223
 20
-95.94063
 11
-12.83223
 21
-99.407297
  0
ENDBLK
  0
BLOCK
  2
*GRP_0158
 70
    65
 10
0.0
 20
0.0
  0
LINE
  8
補助線
  6
BYBLOCK
 62
    64
 10
5.701102
 20
-97.673963
 11
2.234438
 21
-97.673963
  0
LINE
  8
補助線
  6
BYBLOCK
 62
    64
 10
3.96777
 20
-95.94063
 11
3.96777
 21
-99.407297
  0
ENDBLK
  0
BLOCK
  2
*GRP_0159
 70
    65
 10
0.0
 20
0.0
  0
LINE
  8
補助線
  6
BYBLOCK
 62
    64
 10
-16.698898
 20
-97.673963
 11
-20.165563
 21
-97.673963
  0
LINE
  8
補助線
  6
BYBLOCK
 62
    64
 10
-18.43223
 20
-95.94063
 11
-18.43223
 21
-99.407297
  0
ENDBLK
  0
BLOCK
  2
*GRP_0160
 70
    65
 10
0.0
 20
0.0
  0
LINE
  8
補助線
  6
BYBLOCK
 62
    64
 10
7.834438
 20
-97.673963
 11
11.301102
 21
-97.673963
  0
LINE
  8
補助線
  6
BYBLOCK
 62
    64
 10
9.56777
 20
-95.94063
 11
9.56777
 21
-99.407297
  0
ENDBLK
  0
BLOCK
  2
*GRP_0161
 70
    65
 10
0.0
 20
0.0
  0
LINE
  8
補助線
  6
BYBLOCK
 62
    64
 10
-11.098898
 20
-97.673963
 11
-14.565563
 21
-97.673963
  0
LINE
  8
補助線
  6
BYBLOCK
 62
    64
 10
-12.83223
 20
-95.94063
 11
-12.83223
 21
-99.407297
  0
ENDBLK
  0
BLOCK
  2
*GRP_0162
 70
    65
 10
0.0
 20
0.0
  0
LINE
  8
補助線
  6
BYBLOCK
 62
    64
 10
5.701102
 20
-97.673963
 11
2.234438
 21
-97.673963
  0
LINE
  8
補助線
  6
BYBLOCK
 62
    64
 10
3.96777
 20
-95.94063
 11
3.96777
 21
-99.407297
  0
ENDBLK
  0
BLOCK
  2
*DIM_0163
 70
    65
 10
0.0
 20
0.0
  0
LINE
  8
寸法
  6
CONTINUOUS
 10
8.06777
 20
-106.34063
 11
8.06777
 21
-109.394287
  0
LINE
  8
寸法
  6
CONTINUOUS
 10
-16.93223
 20
-106.34063
 11
-16.93223
 21
-109.394287
  0
LINE
  8
寸法
  6
CONTINUOUS
 10
8.06777
 20
-109.394287
 11
-16.93223
 21
-109.394287
  0
POINT
  8
寸法
 10
8.06777
 20
-109.394287
  0
POINT
  8
寸法
 10
-16.93223
 20
-109.394287
  0
TEXT
  7
TextStyle03
  8
寸法
  6
CONTINUOUS
 10
-6.04375
 20
-109.025
  1
75
 40
3.0
 72
     5
 11
-2.85625
 21
-109.025
  0
ENDBLK
  0
BLOCK
  2
*GRP_0164
 70
    65
 10
0.0
 20
0.0
  0
POLYLINE
  8
寸法
  6
CONTINUOUS
 66
     1
  0
VERTEX
  8
寸法
 10
-60.908223
 20
-55.982348
  0
VERTEX
  8
寸法
 10
-57.125
 20
-64.048685
  0
VERTEX
  8
寸法
 10
-54.89967
 20
-64.048685
  0
SEQEND
  0
ENDBLK
  0
BLOCK
  2
*GRP_0165
 70
    65
 10
0.0
 20
0.0
  0
LINE
  8
型材断面
  6
CONTINUOUS
 62
    47
 10
129.095578
 20
-12.930415
 11
129.095578
 21
-2.60655
  0
LINE
  8
型材断面
  6
CONTINUOUS
 62
    47
 10
167.762313
 20
-9.160245
 11
129.095578
 21
-2.60655
  0
LINE
  8
型材断面
  6
CONTINUOUS
 62
    47
 10
167.762313
 20
-9.160245
 11
167.762313
 21
-12.930415
  0
LINE
  8
型材断面
  6
CONTINUOUS
 62
    47
 10
163.42894
 20
-13.59704
 11
168.428858
 21
-13.59704
  0
LINE
  8
型材断面
  6
CONTINUOUS
 62
    47
 10
134.962207
 20
-12.930415
 11
129.095578
 21
-12.930415
  0
LINE
  8
型材断面
  6
CONTINUOUS
 62
    47
 10
134.962207
 20
-13.59704
 11
128.42892
 21
-13.59704
  0
LINE
  8
型材断面
  6
CONTINUOUS
 62
    47
 10
135.095598
 20
-13.46371
 11
135.095598
 21
-13.063688
  0
LINE
  8
型材断面
  6
CONTINUOUS
 62
    47
 10
160.228875
 20
-12.930415
 11
167.762313
 21
-12.930415
  0
LINE
  8
型材断面
  6
CONTINUOUS
 62
    47
 10
160.228875
 20
-13.59704
 11
162.762225
 21
-13.59704
  0
LINE
  8
型材断面
  6
CONTINUOUS
 62
    47
 10
160.095602
 20
-13.46371
 11
160.095602
 21
-13.063688
  0
LINE
  8
型材断面
  6
CONTINUOUS
 62
    47
 10
168.428858
 20
-13.59704
 11
168.428858
 21
-8.597062
  0
LINE
  8
型材断面
  6
CONTINUOUS
 62
    47
 10
168.428858
 20
-8.597062
 11
139.095543
 21
-3.625258
  0
LINE
  8
型材断面
  6
CONTINUOUS
 62
    47
 10
138.428935
 20
-3.512258
 11
129.095578
 21
-1.930382
  0
LINE
  8
型材断面
  6
CONTINUOUS
 62
    47
 10
138.428935
 20
-0.930405
 11
136.929
 21
-0.930405
  0
LINE
  8
型材断面
  6
CONTINUOUS
 62
    47
 10
136.929
 20
0.736265
 11
137.328935
 21
0.736265
  0
LINE
  8
型材断面
  6
CONTINUOUS
 62
    47
 10
137.328935
 20
0.736265
 11
137.328935
 21
-0.263725
  0
LINE
  8
型材断面
  6
CONTINUOUS
 62
    47
 10
137.328935
 20
-0.263725
 11
138.428935
 21
-0.263725
  0
LINE
  8
型材断面
  6
CONTINUOUS
 62
    47
 10
138.428935
 20
-0.930405
 11
138.428935
 21
-3.512258
  0
LINE
  8
型材断面
  6
CONTINUOUS
 62
    47
 10
136.929
 20
0.736265
 11
136.929
 21
-0.930405
  0
ARC
  8
型材断面
  6
CONTINUOUS
 62
    47
 10
134.962209
 20
-13.063689
 40
0.133333
 50
359.997253
 51
449.998627
  0
ARC
  8
型材断面
  6
CONTINUOUS
 62
    47
 10
134.962209
 20
-13.463711
 40
0.133333
 50
269.99588
 51
359.997253
  0
ARC
  8
型材断面
  6
CONTINUOUS
 62
    47
 10
160.228876
 20
-13.063689
 40
0.133333
 50
89.998627
 51
180.0
  0
ARC
  8
型材断面
  6
CONTINUOUS
 62
    47
 10
160.228876
 20
-13.463711
 40
0.133333
 50
180.0
 51
269.99588
  0
LINE
  8
型材断面
  6
CONTINUOUS
 62
    47
 10
137.328935
 20
13.73619
 11
136.929
 21
13.73619
  0
LINE
  8
型材断面
  6
CONTINUOUS
 62
    47
 10
137.328935
 20
13.06951
 11
138.428935
 21
13.06951
  0
LINE
  8
型材断面
  6
CONTINUOUS
 62
    47
 10
136.929
 20
13.73619
 11
139.095543
 21
13.73619
  0
LINE
  8
型材断面
  6
CONTINUOUS
 62
    47
 10
139.095543
 20
13.069637
 11
139.095543
 21
13.73619
  0
LINE
  8
型材断面
  6
CONTINUOUS
 62
    47
 10
138.428935
 20
13.069637
 11
137.328935
 21
13.069637
  0
LINE
  8
型材断面
  6
CONTINUOUS
 62
    47
 10
138.428935
 20
6.069598
 11
130.762275
 21
6.069598
  0
LINE
  8
型材断面
  6
CONTINUOUS
 62
    47
 10
130.762275
 20
6.069598
 11
130.762275
 21
7.402915
  0
LINE
  8
型材断面
  6
CONTINUOUS
 62
    47
 10
130.762275
 20
7.402915
 11
131.16221
 21
7.402915
  0
LINE
  8
型材断面
  6
CONTINUOUS
 62
    47
 10
131.16221
 20
6.736295
 11
131.16221
 21
7.402915
  0
LINE
  8
型材断面
  6
CONTINUOUS
 62
    47
 10
136.09571
 20
8.002895
 11
134.76234
 21
8.002895
  0
LINE
  8
型材断面
  6
CONTINUOUS
 62
    47
 10
134.76234
 20
8.002895
 11
134.76234
 21
6.736225
  0
LINE
  8
型材断面
  6
CONTINUOUS
 62
    47
 10
135.262303
 20
6.736225
 11
135.262303
 21
7.502895
  0
LINE
  8
型材断面
  6
CONTINUOUS
 62
    47
 10
135.262303
 20
7.502895
 11
136.09571
 21
7.502895
  0
LINE
  8
型材断面
  6
CONTINUOUS
 62
    47
 10
136.09571
 20
7.502895
 11
136.09571
 21
8.002895
  0
LINE
  8
型材断面
  6
CONTINUOUS
 62
    47
 10
131.16221
 20
6.736295
 11
134.76234
 21
6.736295
  0
LINE
  8
型材断面
  6
CONTINUOUS
 62
    47
 10
135.262303
 20
6.736225
 11
138.428935
 21
6.736225
  0
LINE
  8
型材断面
  6
CONTINUOUS
 62
    47
 10
138.428935
 20
-0.263725
 11
138.428935
 21
6.069598
  0
LINE
  8
型材断面
  6
CONTINUOUS
 62
    47
 10
138.428935
 20
13.069637
 11
138.428935
 21
6.736225
  0
LINE
  8
型材断面
  6
CONTINUOUS
 10
136.929
 20
12.069525
 11
137.328935
 21
12.069525
  0
LINE
  8
型材断面
  6
CONTINUOUS
 62
    47
 10
137.328935
 20
13.06951
 11
137.328935
 21
12.069525
  0
LINE
  8
型材断面
  6
CONTINUOUS
 62
    47
 10
139.962242
 20
10.969602
 11
139.095543
 21
10.969602
  0
LINE
  8
型材断面
  6
CONTINUOUS
 62
    47
 10
139.962242
 20
10.569625
 11
139.095543
 21
10.569625
  0
LINE
  8
型材断面
  6
CONTINUOUS
 62
    47
 10
140.095515
 20
10.702958
 11
140.095515
 21
10.836288
  0
ARC
  8
型材断面
  6
CONTINUOUS
 62
    47
 10
139.962245
 20
10.836287
 40
0.133333
 50
359.997253
 51
449.998627
  0
ARC
  8
型材断面
  6
CONTINUOUS
 62
    47
 10
139.962245
 20
10.702956
 40
0.133333
 50
269.99588
 51
359.997253
  0
LINE
  8
型材断面
  6
CONTINUOUS
 62
    47
 10
148.961705
 20
10.569625
 11
150.495012
 21
10.569625
  0
LINE
  8
型材断面
  6
CONTINUOUS
 62
    47
 10
148.961705
 20
10.969602
 11
149.828428
 21
10.969602
  0
LINE
  8
型材断面
  6
CONTINUOUS
 62
    47
 10
148.828433
 20
10.836288
 11
148.828433
 21
10.702958
  0
ARC
  8
型材断面
  6
CONTINUOUS
 62
    47
 10
148.961707
 20
10.702956
 40
0.133333
 50
180.0
 51
269.99588
  0
ARC
  8
型材断面
  6
CONTINUOUS
 62
    47
 10
148.961707
 20
10.836287
 40
0.133333
 50
89.998627
 51
180.0
  0
LINE
  8
型材断面
  6
CONTINUOUS
 62
    47
 10
139.095543
 20
-3.625258
 11
139.095543
 21
10.569625
  0
LINE
  8
型材断面
  6
CONTINUOUS
 10
139.095543
 20
12.069637
 11
149.828428
 21
12.069637
  0
LINE
  8
型材断面
  6
CONTINUOUS
 62
    47
 10
149.828428
 20
10.969602
 11
149.828428
 21
12.069637
  0
LINE
  8
型材断面
  6
CONTINUOUS
 62
    47
 10
139.095543
 20
10.969602
 11
139.095543
 21
12.069637
  0
LINE
  8
型材断面
  6
CONTINUOUS
 10
145.095077
 20
12.969637
 11
144.995077
 21
13.069637
  0
LINE
  8
型材断面
  6
CONTINUOUS
 62
    47
 10
139.095543
 20
13.069637
 11
144.995077
 21
13.069637
  0
LINE
  8
型材断面
  6
CONTINUOUS
 10
145.095077
 20
12.969637
 11
145.195077
 21
13.069637
  0
LINE
  8
型材断面
  6
CONTINUOUS
 62
    47
 10
145.195077
 20
13.069637
 11
150.495012
 21
13.069637
  0
LINE
  8
型材断面
  6
CONTINUOUS
 10
150.495012
 20
10.569625
 11
150.495012
 21
13.069637
  0
LINE
  8
型材断面
  6
CONTINUOUS
 62
    47
 10
162.762225
 20
-13.59704
 11
162.762225
 21
-18.59704
  0
LINE
  8
型材断面
  6
CONTINUOUS
 10
163.428953
 20
-18.59704
 11
162.762225
 21
-18.59704
  0
LINE
  8
型材断面
  6
CONTINUOUS
 10
163.328953
 20
-16.09704
 11
163.428953
 21
-15.99704
  0
LINE
  8
型材断面
  6
CONTINUOUS
 10
163.328953
 20
-16.09704
 11
163.428953
 21
-16.19704
  0
LINE
  8
型材断面
  6
CONTINUOUS
 62
    47
 10
163.42894
 20
-13.59704
 11
163.42894
 21
-15.997052
  0
LINE
  8
型材断面
  6
CONTINUOUS
 62
    47
 10
163.42894
 20
-16.197027
 11
163.42894
 21
-18.59704
  0
LINE
  8
型材断面
  6
CONTINUOUS
 10
129.095578
 20
1.069617
 11
128.42892
 21
1.069617
  0
LINE
  8
型材断面
  6
CONTINUOUS
 62
    47
 10
129.095578
 20
-1.930382
 11
129.095578
 21
1.069617
  0
LINE
  8
型材断面
  6
CONTINUOUS
 62
    47
 10
128.42892
 20
-13.59704
 11
128.42892
 21
1.069617
  0
LINE
  8
型材断面
  6
CONTINUOUS
 10
136.929
 20
13.73619
 11
136.929
 21
12.069525
  0
CIRCLE
  8
LAYER010
  6
CONTINUOUS
 62
     7
 10
168.428858
 20
-8.597062
 40
0.11111
  0
ENDBLK
  0
ENDSEC
  0
SECTION
  2
ENTITIES
  0
POLYLINE
  8
通り芯
  6
CONTINUOUS
 66
     1
 70
     1
  0
VERTEX
  8
通り芯
 10
-210.0
 20
-148.5
  0
VERTEX
  8
通り芯
 10
210.0
 20
-148.5
  0
VERTEX
  8
通り芯
 10
210.0
 20
148.5
  0
VERTEX
  8
通り芯
 10
-210.0
 20
148.5
  0
SEQEND
  0
LINE
  8
通り芯
  6
CONTINUOUS
 10
-79.66702
 20
-31.268393
 11
-79.66702
 21
-31.935042
  0
LINE
  8
通り芯
  6
CONTINUOUS
 10
-69.1008
 20
-31.268393
 11
-69.1008
 21
-31.935042
  0
LINE
  8
通り芯
  6
CONTINUOUS
 62
    15
 10
-79.66702
 20
-31.935042
 11
-69.1008
 21
-31.935042
  0
LINE
  8
通り芯
  6
CONTINUOUS
 10
-79.66702
 20
-31.935042
 11
-69.1008
 21
-31.268393
  0
LINE
  8
通り芯
  6
CONTINUOUS
 10
70.80256
 20
-31.268393
 11
70.80256
 21
-31.935042
  0
LINE
  8
通り芯
  6
CONTINUOUS
 10
60.23634
 20
-31.268393
 11
60.23634
 21
-31.935042
  0
LINE
  8
通り芯
  6
CONTINUOUS
 62
    15
 10
70.80256
 20
-31.935042
 11
60.23634
 21
-31.935042
  0
LINE
  8
通り芯
  6
CONTINUOUS
 10
70.80256
 20
-31.935042
 11
60.23634
 21
-31.268393
  0
INSERT
  2
*GRP_0002
  8
型材
  6
DOT
 10
0.0
 20
0.0
  0
INSERT
  2
*GRP_0003
  8
型材
  6
DOT
 10
0.0
 20
0.0
  0
INSERT
  2
*GRP_0001
  8
型材断面
  6
CONTINUOUS
 10
0.0
 20
0.0
  0
LINE
  8
型材断面
  6
CONTINUOUS
 10
-4.43223
 20
-56.93507
 11
-58.350845
 21
-56.93507
  0
LINE
  8
型材断面
  6
CONTINUOUS
 10
-4.43223
 20
-56.93507
 11
49.486385
 21
-56.93507
  0
LINE
  8
型材断面
  6
DASHDOT
 10
-68.350335
 20
0.863298
 11
-68.350335
 21
-37.935027
  0
LINE
  8
型材断面
  6
DASHDOT
 10
59.485875
 20
0.863298
 11
59.485875
 21
-37.935027
  0
INSERT
  2
*GRP_0004
  8
型材断面
  6
CONTINUOUS
 10
0.0
 20
0.0
  0
LINE
  8
型材断面
  6
CONTINUOUS
 10
-64.017665
 20
-56.935065
 11
-64.017665
 21
-95.008895
  0
LINE
  8
型材断面
  6
CONTINUOUS
 10
-63.68433
 20
-56.935065
 11
-63.68433
 21
-95.008895
  0
LINE
  8
型材断面
  6
CONTINUOUS
 10
-60.017665
 20
-56.935065
 11
-60.017665
 21
-95.008895
  0
LINE
  8
型材断面
  6
CONTINUOUS
 10
-60.350997
 20
-56.935065
 11
-60.350997
 21
-95.008895
  0
INSERT
  2
*GRP_0005
  8
型材断面
  6
CONTINUOUS
 10
0.0
 20
0.0
  0
LINE
  8
型材断面
  6
CONTINUOUS
 10
94.308312
 20
-74.466855
 11
94.308312
 21
-74.466853
  0
LINE
  8
型材断面
  6
CONTINUOUS
 10
55.153205
 20
-56.935065
 11
55.153205
 21
-95.008895
  0
LINE
  8
型材断面
  6
CONTINUOUS
 10
54.81987
 20
-56.935065
 11
54.81987
 21
-95.008895
  0
LINE
  8
型材断面
  6
CONTINUOUS
 10
51.153205
 20
-56.935065
 11
51.153205
 21
-95.008895
  0
LINE
  8
型材断面
  6
CONTINUOUS
 10
51.486537
 20
-56.935065
 11
51.486537
 21
-95.008895
  0
LINE
  8
型材断面
  6
CONTINUOUS
 10
62.81987
 20
-57.468385
 11
62.81987
 21
-95.008895
  0
INSERT
  2
*GRP_0006
  8
型材断面
  6
CONTINUOUS
 10
0.0
 20
0.0
  0
INSERT
  2
*GRP_0007
  8
型材断面
  6
CONTINUOUS
 10
0.0
 20
0.0
  0
LINE
  8
型材断面
  6
CONTINUOUS
 10
94.308312
 20
-77.800187
 11
94.308312
 21
-77.800185
  0
LINE
  8
型材断面
  6
CONTINUOUS
 10
94.308312
 20
-77.800187
 11
94.308312
 21
-77.800185
  0
LINE
  8
型材断面
  6
CONTINUOUS
 10
62.81987
 20
-80.268402
 11
112.81991
 21
-80.268402
  0
LINE
  8
型材断面
  6
CONTINUOUS
 10
112.819908
 20
-76.93507
 11
62.81987
 21
-76.93507
  0
ARC
  8
型材断面
  6
CONTINUOUS
 10
112.819907
 20
-80.268406
 40
3.333333
 50
0.0
 51
90.0
  0
LINE
  8
型材断面
  6
CONTINUOUS
 10
83.11555
 20
-95.008895
 11
68.375055
 21
-80.268402
  0
LINE
  8
型材断面
  6
CONTINUOUS
 10
80.758525
 20
-95.008895
 11
66.018032
 21
-80.268402
  0
LINE
  8
型材断面
  6
CONTINUOUS
 10
78.401503
 20
-95.008895
 11
63.66101
 21
-80.268402
  0
LINE
  8
型材断面
  6
CONTINUOUS
 10
112.80915
 20
-84.683298
 11
108.394255
 21
-80.268402
  0
LINE
  8
型材断面
  6
CONTINUOUS
 10
112.80915
 20
-87.04032
 11
106.03723
 21
-80.268402
  0
LINE
  8
型材断面
  6
CONTINUOUS
 10
112.80915
 20
-89.397343
 11
103.68021
 21
-80.268402
  0
LINE
  8
型材断面
  6
CONTINUOUS
 62
    47
 10
112.81991
 20
-95.008895
 11
112.81991
 21
-80.268402
  0
LINE
  8
型材断面
  6
CONTINUOUS
 62
    47
 10
116.15324
 20
-95.008895
 11
116.15324
 21
-80.268402
  0
LINE
  8
型材断面
  6
CONTINUOUS
 10
8.06777
 20
-39.935077
 11
58.819732
 21
-39.935077
  0
LINE
  8
型材断面
  6
CONTINUOUS
 10
-16.93223
 20
-39.935077
 11
-67.684192
 21
-39.935077
  0
LINE
  8
型材断面
  6
CONTINUOUS
 10
7.235557
 20
-30.601747
 11
49.05316
 21
-30.601747
  0
LINE
  8
型材断面
  6
CONTINUOUS
 10
-16.100018
 20
-30.601747
 11
-67.684192
 21
-30.601747
  0
LINE
  8
型材断面
  6
CONTINUOUS
 10
-67.684192
 20
-42.268412
 11
-67.684192
 21
-30.601747
  0
LINE
  8
型材断面
  6
CONTINUOUS
 10
58.819732
 20
-42.268412
 11
58.819732
 21
-37.268433
  0
LINE
  8
型材断面
  6
CONTINUOUS
 10
-103.172772
 20
-74.466855
 11
-103.172772
 21
-74.466853
  0
LINE
  8
型材断面
  6
CONTINUOUS
 10
-64.017665
 20
-56.935065
 11
-64.017665
 21
-95.008895
  0
LINE
  8
型材断面
  6
CONTINUOUS
 10
-63.68433
 20
-56.935065
 11
-63.68433
 21
-95.008895
  0
LINE
  8
型材断面
  6
CONTINUOUS
 10
-60.017665
 20
-56.935065
 11
-60.017665
 21
-95.008895
  0
LINE
  8
型材断面
  6
CONTINUOUS
 10
-60.350997
 20
-56.935065
 11
-60.350997
 21
-95.008895
  0
LINE
  8
型材断面
  6
CONTINUOUS
 10
-71.68433
 20
-57.468385
 11
-71.68433
 21
-95.008895
  0
LINE
  8
型材断面
  6
CONTINUOUS
 10
-103.172772
 20
-77.800187
 11
-103.172772
 21
-77.800185
  0
LINE
  8
型材断面
  6
CONTINUOUS
 10
-103.172772
 20
-77.800187
 11
-103.172772
 21
-77.800185
  0
LINE
  8
型材断面
  6
CONTINUOUS
 10
-71.68433
 20
-80.268402
 11
-121.68437
 21
-80.268402
  0
LINE
  8
型材断面
  6
CONTINUOUS
 10
-121.684368
 20
-76.93507
 11
-71.68433
 21
-76.93507
  0
ARC
  8
型材断面
  6
CONTINUOUS
 10
-121.684367
 20
-80.268406
 40
3.333333
 50
90.0
 51
180.0
  0
LINE
  8
型材断面
  6
CONTINUOUS
 10
-91.98001
 20
-95.008895
 11
-77.239515
 21
-80.268402
  0
LINE
  8
型材断面
  6
CONTINUOUS
 10
-89.622985
 20
-95.008895
 11
-74.882492
 21
-80.268402
  0
LINE
  8
型材断面
  6
CONTINUOUS
 10
-87.265963
 20
-95.008895
 11
-72.52547
 21
-80.268402
  0
LINE
  8
型材断面
  6
CONTINUOUS
 10
-121.67361
 20
-84.683298
 11
-117.258715
 21
-80.268402
  0
LINE
  8
型材断面
  6
CONTINUOUS
 10
-121.67361
 20
-87.04032
 11
-114.90169
 21
-80.268402
  0
LINE
  8
型材断面
  6
CONTINUOUS
 10
-121.67361
 20
-89.397343
 11
-112.54467
 21
-80.268402
  0
LINE
  8
型材断面
  6
CONTINUOUS
 62
    47
 10
-121.68437
 20
-95.008895
 11
-121.68437
 21
-80.268402
  0
LINE
  8
型材断面
  6
CONTINUOUS
 62
    47
 10
-125.0177
 20
-95.008895
 11
-125.0177
 21
-80.268402
  0
LINE
  8
型材断面
  6
DOT
 10
-69.017468
 20
-46.963288
 11
-68.35086
 21
-46.850288
  0
LINE
  8
型材断面
  6
DOT
 10
-68.35086
 20
-44.268435
 11
-69.017468
 21
-44.268435
  0
LINE
  8
型材断面
  6
DOT
 10
-68.850815
 20
-46.935038
 11
-68.850815
 21
-44.268435
  0
LINE
  8
型材断面
  6
DOT
 10
-68.684162
 20
-46.906787
 11
-68.684162
 21
-44.268435
  0
LINE
  8
型材断面
  6
DOT
 10
-68.517512
 20
-46.878538
 11
-68.517512
 21
-44.268435
  0
LINE
  8
型材断面
  6
DOT
 10
60.153008
 20
-46.963288
 11
59.4864
 21
-46.850288
  0
LINE
  8
型材断面
  6
DOT
 10
59.4864
 20
-44.268435
 11
60.153008
 21
-44.268435
  0
LINE
  8
型材断面
  6
DOT
 10
59.986355
 20
-46.935038
 11
59.986355
 21
-44.268435
  0
LINE
  8
型材断面
  6
DOT
 10
59.819702
 20
-46.906787
 11
59.819702
 21
-44.268435
  0
LINE
  8
型材断面
  6
DOT
 10
59.653053
 20
-46.878538
 11
59.653053
 21
-44.268435
  0
LINE
  8
型材断面
  6
DOT
 10
-66.850925
 20
-44.268435
 11
-65.684192
 21
-44.268435
  0
LINE
  8
型材断面
  6
DOT
 10
-65.684192
 20
-44.268435
 11
-65.684192
 21
-46.398325
  0
LINE
  8
型材断面
  6
DOT
 10
-65.684192
 20
-45.844408
 11
-66.35115
 21
-46.511365
  0
LINE
  8
型材断面
  6
DOT
 10
-65.684192
 20
-45.137302
 11
-67.202557
 21
-46.655665
  0
LINE
  8
型材断面
  6
DOT
 10
-65.684192
 20
-44.430195
 11
-68.053967
 21
-46.799968
  0
LINE
  8
型材断面
  6
DOT
 10
-66.22954
 20
-44.268435
 11
-68.35086
 21
-46.389755
  0
LINE
  8
型材断面
  6
DOT
 10
-66.936647
 20
-44.268435
 11
-68.35086
 21
-45.682647
  0
LINE
  8
型材断面
  6
DOT
 10
-67.643753
 20
-44.268435
 11
-68.35086
 21
-44.975543
  0
LINE
  8
型材断面
  6
DOT
 10
57.986465
 20
-44.268435
 11
56.819732
 21
-44.268435
  0
LINE
  8
型材断面
  6
DOT
 10
56.819732
 20
-44.268435
 11
56.819732
 21
-46.398325
  0
LINE
  8
型材断面
  6
DOT
 10
56.819732
 20
-45.844408
 11
57.48669
 21
-46.511365
  0
LINE
  8
型材断面
  6
DOT
 10
56.819732
 20
-45.137302
 11
58.338098
 21
-46.655665
  0
LINE
  8
型材断面
  6
DOT
 10
56.819732
 20
-44.430195
 11
59.189508
 21
-46.799968
  0
LINE
  8
型材断面
  6
DOT
 10
57.36508
 20
-44.268435
 11
59.4864
 21
-46.389755
  0
LINE
  8
型材断面
  6
DOT
 10
58.072187
 20
-44.268435
 11
59.4864
 21
-45.682647
  0
LINE
  8
型材断面
  6
DOT
 10
58.779292
 20
-44.268435
 11
59.4864
 21
-44.975543
  0
INSERT
  2
*GRP_0008
  8
型材断面
  6
DASHDOT
 62
    47
 10
0.0
 20
0.0
  0
INSERT
  2
*GRP_0009
  8
型材断面
  6
DOT
 10
0.0
 20
0.0
  0
INSERT
  2
*GRP_0010
  8
型材断面
  6
DOT
 10
0.0
 20
0.0
  0
LINE
  8
型材断面
  6
CONTINUOUS
 10
-60.6842
 20
-35.93508
 11
-13.998905
 21
-35.93508
  0
LINE
  8
型材断面
  6
CONTINUOUS
 10
51.81974
 20
-35.93508
 11
5.134438
 21
-35.93508
  0
POLYLINE
  8
型材断面
  6
CONTINUOUS
 66
     1
 70
     1
  0
VERTEX
  8
型材断面
 10
-150.343318
 20
111.188448
  0
VERTEX
  8
型材断面
 10
-166.343318
 20
111.188448
  0
VERTEX
  8
型材断面
 10
-166.343318
 20
95.188448
  0
VERTEX
  8
型材断面
 10
-150.343318
 20
95.188448
  0
SEQEND
  0
LINE
  8
型材断面
  6
CONTINUOUS
 10
-158.343318
 20
95.188448
 11
-158.343318
 21
111.188448
  0
POLYLINE
  8
型材断面
  6
CONTINUOUS
 66
     1
 70
     1
  0
VERTEX
  8
型材断面
 10
-149.318887
 20
115.950583
  0
VERTEX
  8
型材断面
 10
-168.129962
 20
115.950583
  0
VERTEX
  8
型材断面
 10
-168.129962
 20
111.812145
  0
VERTEX
  8
型材断面
 10
-149.318887
 20
111.812145
  0
SEQEND
  0
POLYLINE
  8
型材断面
  6
CONTINUOUS
 66
     1
 70
     1
  0
VERTEX
  8
型材断面
 10
-149.318887
 20
94.406935
  0
VERTEX
  8
型材断面
 10
-168.129962
 20
94.406935
  0
VERTEX
  8
型材断面
 10
-168.129962
 20
90.268498
  0
VERTEX
  8
型材断面
 10
-149.318887
 20
90.268498
  0
SEQEND
  0
POLYLINE
  8
型材断面
  6
CONTINUOUS
 66
     1
 70
     1
  0
VERTEX
  8
型材断面
 10
-108.332975
 20
113.188448
  0
VERTEX
  8
型材断面
 10
-126.332975
 20
113.188448
  0
VERTEX
  8
型材断面
 10
-126.332975
 20
95.188448
  0
VERTEX
  8
型材断面
 10
-108.332975
 20
95.188448
  0
SEQEND
  0
LINE
  8
型材断面
  6
CONTINUOUS
 10
-117.332975
 20
95.188448
 11
-117.332975
 21
113.188448
  0
LINE
  8
型材断面
  6
CONTINUOUS
 10
-108.332975
 20
104.188448
 11
-126.332975
 21
104.188448
  0
POLYLINE
  8
型材断面
  6
CONTINUOUS
 66
     1
 70
     1
  0
VERTEX
  8
型材断面
 10
-108.09576
 20
118.268418
  0
VERTEX
  8
型材断面
 10
-126.906835
 20
118.268418
  0
VERTEX
  8
型材断面
 10
-126.906835
 20
114.12998
  0
VERTEX
  8
型材断面
 10
-108.09576
 20
114.12998
  0
SEQEND
  0
POLYLINE
  8
型材断面
  6
CONTINUOUS
 66
     1
 70
     1
  0
VERTEX
  8
型材断面
 10
-108.09576
 20
94.31671
  0
VERTEX
  8
型材断面
 10
-126.906835
 20
94.31671
  0
VERTEX
  8
型材断面
 10
-126.906835
 20
90.178272
  0
VERTEX
  8
型材断面
 10
-108.09576
 20
90.178272
  0
SEQEND
  0
POLYLINE
  8
型材断面
  6
CONTINUOUS
 66
     1
 70
     1
  0
VERTEX
  8
型材断面
 10
-65.77589
 20
115.188448
  0
VERTEX
  8
型材断面
 10
-85.77589
 20
115.188448
  0
VERTEX
  8
型材断面
 10
-85.77589
 20
95.188448
  0
VERTEX
  8
型材断面
 10
-65.77589
 20
95.188448
  0
SEQEND
  0
LINE
  8
型材断面
  6
CONTINUOUS
 10
-75.77589
 20
95.188448
 11
-75.77589
 21
115.188448
  0
LINE
  8
型材断面
  6
CONTINUOUS
 10
-65.77589
 20
105.188448
 11
-85.77589
 21
105.188448
  0
POLYLINE
  8
型材断面
  6
CONTINUOUS
 66
     1
 70
     1
  0
VERTEX
  8
型材断面
 10
-66.4855
 20
120.00832
  0
VERTEX
  8
型材断面
 10
-85.296575
 20
120.00832
  0
VERTEX
  8
型材断面
 10
-85.296575
 20
115.869882
  0
VERTEX
  8
型材断面
 10
-66.4855
 20
115.869882
  0
SEQEND
  0
POLYLINE
  8
型材断面
  6
CONTINUOUS
 66
     1
 70
     1
  0
VERTEX
  8
型材断面
 10
-66.4855
 20
94.413205
  0
VERTEX
  8
型材断面
 10
-85.296575
 20
94.413205
  0
VERTEX
  8
型材断面
 10
-85.296575
 20
90.274768
  0
VERTEX
  8
型材断面
 10
-66.4855
 20
90.274768
  0
SEQEND
  0
POLYLINE
  8
型材断面
  6
DASHED
 66
     1
 70
     1
  0
VERTEX
  8
型材断面
 10
-63.83965
 20
123.272545
  0
VERTEX
  8
型材断面
 10
-180.21503
 20
123.272545
  0
VERTEX
  8
型材断面
 10
-180.21503
 20
88.813463
  0
VERTEX
  8
型材断面
 10
-63.83965
 20
88.813463
  0
SEQEND
  0
LINE
  8
型材断面
  6
CONTINUOUS
 10
-176.12001
 20
117.755873
 11
-139.099585
 21
117.755873
  0
LINE
  8
型材断面
  6
CONTINUOUS
 10
-176.12001
 20
117.255873
 11
-139.099585
 21
117.255873
  0
LINE
  8
型材断面
  6
CONTINUOUS
 10
-126.556818
 20
72.141172
 11
-166.556818
 21
72.141172
  0
LINE
  8
型材断面
  6
CONTINUOUS
 10
-126.556818
 20
66.141172
 11
-166.556818
 21
66.141172
  0
LINE
  8
型材断面
  6
CONTINUOUS
 10
-166.556818
 20
66.141172
 11
-166.556818
 21
72.141172
  0
LINE
  8
型材断面
  6
CONTINUOUS
 10
-156.556818
 20
66.141172
 11
-156.556818
 21
72.141172
  0
LINE
  8
型材断面
  6
CONTINUOUS
 10
-146.556818
 20
66.141172
 11
-146.556818
 21
72.141172
  0
LINE
  8
型材断面
  6
CONTINUOUS
 10
-136.556818
 20
66.141172
 11
-136.556818
 21
72.141172
  0
LINE
  8
型材断面
  6
CONTINUOUS
 10
-126.556818
 20
66.141172
 11
-126.556818
 21
72.141172
  0
POLYLINE
  8
型材断面
  6
CONTINUOUS
 66
     1
 70
     1
  0
VERTEX
  8
型材断面
 10
-138.655353
 20
76.990848
  0
VERTEX
  8
型材断面
 10
-157.466428
 20
76.990848
  0
VERTEX
  8
型材断面
 10
-157.466428
 20
72.85241
  0
VERTEX
  8
型材断面
 10
-138.655353
 20
72.85241
  0
SEQEND
  0
POLYLINE
  8
型材断面
  6
CONTINUOUS
 66
     1
 70
     1
  0
VERTEX
  8
型材断面
 10
-138.655353
 20
65.48922
  0
VERTEX
  8
型材断面
 10
-157.466428
 20
65.48922
  0
VERTEX
  8
型材断面
 10
-157.466428
 20
61.350783
  0
VERTEX
  8
型材断面
 10
-138.655353
 20
61.350783
  0
SEQEND
  0
LINE
  8
型材断面
  6
CONTINUOUS
 10
-126.556818
 20
50.53531
 11
-166.556818
 21
50.53531
  0
LINE
  8
型材断面
  6
CONTINUOUS
 10
-126.556818
 20
41.53531
 11
-166.556818
 21
41.53531
  0
LINE
  8
型材断面
  6
CONTINUOUS
 10
-166.556818
 20
41.53531
 11
-166.556818
 21
50.53531
  0
LINE
  8
型材断面
  6
CONTINUOUS
 10
-156.556818
 20
41.53531
 11
-156.556818
 21
50.53531
  0
LINE
  8
型材断面
  6
CONTINUOUS
 10
-146.556818
 20
41.53531
 11
-146.556818
 21
50.53531
  0
LINE
  8
型材断面
  6
CONTINUOUS
 10
-136.556818
 20
41.53531
 11
-136.556818
 21
50.53531
  0
LINE
  8
型材断面
  6
CONTINUOUS
 10
-126.556818
 20
41.53531
 11
-126.556818
 21
50.53531
  0
LINE
  8
型材断面
  6
CONTINUOUS
 10
-126.556818
 20
41.53531
 11
-166.556818
 21
41.53531
  0
POLYLINE
  8
型材断面
  6
CONTINUOUS
 66
     1
 70
     1
  0
VERTEX
  8
型材断面
 10
-138.655353
 20
55.420817
  0
VERTEX
  8
型材断面
 10
-157.466428
 20
55.420817
  0
VERTEX
  8
型材断面
 10
-157.466428
 20
51.28238
  0
VERTEX
  8
型材断面
 10
-138.655353
 20
51.28238
  0
SEQEND
  0
POLYLINE
  8
型材断面
  6
CONTINUOUS
 66
     1
 70
     1
  0
VERTEX
  8
型材断面
 10
-138.655353
 20
40.855673
  0
VERTEX
  8
型材断面
 10
-157.466428
 20
40.855673
  0
VERTEX
  8
型材断面
 10
-157.466428
 20
36.717235
  0
VERTEX
  8
型材断面
 10
-138.655353
 20
36.717235
  0
SEQEND
  0
LINE
  8
型材断面
  6
CONTINUOUS
 10
-126.556818
 20
24.737262
 11
-166.556818
 21
24.737262
  0
LINE
  8
型材断面
  6
CONTINUOUS
 10
-126.556818
 20
11.737262
 11
-166.556818
 21
11.737262
  0
LINE
  8
型材断面
  6
CONTINUOUS
 10
-166.556818
 20
11.737262
 11
-166.556818
 21
24.737262
  0
LINE
  8
型材断面
  6
CONTINUOUS
 10
-156.556818
 20
11.737262
 11
-156.556818
 21
24.737262
  0
LINE
  8
型材断面
  6
CONTINUOUS
 10
-146.556818
 20
11.737262
 11
-146.556818
 21
24.737262
  0
LINE
  8
型材断面
  6
CONTINUOUS
 10
-136.556818
 20
11.737262
 11
-136.556818
 21
24.737262
  0
LINE
  8
型材断面
  6
CONTINUOUS
 10
-126.556818
 20
11.737262
 11
-126.556818
 21
24.737262
  0
POLYLINE
  8
型材断面
  6
CONTINUOUS
 66
     1
 70
     1
  0
VERTEX
  8
型材断面
 10
-138.655353
 20
29.569028
  0
VERTEX
  8
型材断面
 10
-157.466428
 20
29.569028
  0
VERTEX
  8
型材断面
 10
-157.466428
 20
25.43059
  0
VERTEX
  8
型材断面
 10
-138.655353
 20
25.43059
  0
SEQEND
  0
POLYLINE
  8
型材断面
  6
CONTINUOUS
 66
     1
 70
     1
  0
VERTEX
  8
型材断面
 10
-138.655353
 20
11.083685
  0
VERTEX
  8
型材断面
 10
-157.466428
 20
11.083685
  0
VERTEX
  8
型材断面
 10
-157.466428
 20
6.945248
  0
VERTEX
  8
型材断面
 10
-138.655353
 20
6.945248
  0
SEQEND
  0
LINE
  8
型材断面
  6
CONTINUOUS
 10
-126.556818
 20
-4.930493
 11
-166.556818
 21
-4.930493
  0
LINE
  8
型材断面
  6
CONTINUOUS
 10
-126.556818
 20
-24.930493
 11
-166.556818
 21
-24.930493
  0
LINE
  8
型材断面
  6
CONTINUOUS
 10
-166.556818
 20
-24.930493
 11
-166.556818
 21
-4.930493
  0
LINE
  8
型材断面
  6
CONTINUOUS
 10
-156.556818
 20
-24.930493
 11
-156.556818
 21
-4.930493
  0
LINE
  8
型材断面
  6
CONTINUOUS
 10
-146.556818
 20
-24.930493
 11
-146.556818
 21
-4.930493
  0
LINE
  8
型材断面
  6
CONTINUOUS
 10
-136.556818
 20
-24.930493
 11
-136.556818
 21
-4.930493
  0
LINE
  8
型材断面
  6
CONTINUOUS
 10
-126.556818
 20
-24.930493
 11
-126.556818
 21
-4.930493
  0
LINE
  8
型材断面
  6
CONTINUOUS
 10
-126.556818
 20
-14.930493
 11
-166.556818
 21
-14.930493
  0
POLYLINE
  8
型材断面
  6
CONTINUOUS
 66
     1
 70
     1
  0
VERTEX
  8
型材断面
 10
-138.655353
 20
-0.09547
  0
VERTEX
  8
型材断面
 10
-157.466428
 20
-0.09547
  0
VERTEX
  8
型材断面
 10
-157.466428
 20
-4.233907
  0
VERTEX
  8
型材断面
 10
-138.655353
 20
-4.233907
  0
SEQEND
  0
POLYLINE
  8
型材断面
  6
CONTINUOUS
 66
     1
 70
     1
  0
VERTEX
  8
型材断面
 10
-138.655353
 20
-25.789362
  0
VERTEX
  8
型材断面
 10
-157.466428
 20
-25.789362
  0
VERTEX
  8
型材断面
 10
-157.466428
 20
-29.9278
  0
VERTEX
  8
型材断面
 10
-138.655353
 20
-29.9278
  0
SEQEND
  0
LINE
  8
型材断面
  6
CONTINUOUS
 10
-178.000997
 20
80.540712
 11
-137.141483
 21
80.540712
  0
LINE
  8
型材断面
  6
CONTINUOUS
 10
-178.000997
 20
80.040712
 11
-137.141483
 21
80.040712
  0
POLYLINE
  8
型材断面
  6
DASHED
 66
     1
 70
     1
  0
VERTEX
  8
型材断面
 10
-119.795215
 20
86.023665
  0
VERTEX
  8
型材断面
 10
-180.15344
 20
86.023665
  0
VERTEX
  8
型材断面
 10
-180.15344
 20
-34.807197
  0
VERTEX
  8
型材断面
 10
-119.795215
 20
-34.807197
  0
SEQEND
  0
LINE
  8
型材断面
  6
CONTINUOUS
 10
-67.684192
 20
-42.268412
 11
-16.93223
 21
-42.268412
  0
LINE
  8
型材断面
  6
CONTINUOUS
 10
58.819732
 20
-42.268412
 11
8.06777
 21
-42.268412
  0
INSERT
  2
*GRP_0127
  8
型材断面
  6
DOT
 10
0.0
 20
0.0
  0
INSERT
  2
*GRP_0129
  8
型材断面
  6
DOT
 10
0.0
 20
0.0
  0
INSERT
  2
*GRP_0135
  8
型材断面
  6
CONTINUOUS
 10
0.0
 20
0.0
  0
INSERT
  2
*GRP_0136
  8
型材断面
  6
DOT
 10
0.0
 20
0.0
  0
INSERT
  2
*GRP_0137
  8
型材断面
  6
DOT
 10
0.0
 20
0.0
  0
LINE
  8
型材断面
  6
CONTINUOUS
 10
-13.998898
 20
-95.007298
 11
-41.765563
 21
-95.007298
  0
LINE
  8
型材断面
  6
CONTINUOUS
 10
-16.93223
 20
-101.34063
 11
-41.765563
 21
-101.34063
  0
LINE
  8
型材断面
  6
CONTINUOUS
 10
5.134438
 20
-95.007298
 11
32.901102
 21
-95.007298
  0
LINE
  8
型材断面
  6
CONTINUOUS
 10
8.06777
 20
-101.34063
 11
32.901102
 21
-101.34063
  0
LINE
  8
型材断面
  6
CONTINUOUS
 10
-41.765563
 20
-99.007298
 11
-16.93223
 21
-99.007298
  0
LINE
  8
型材断面
  6
CONTINUOUS
 10
32.901102
 20
-99.007298
 11
8.06777
 21
-99.007298
  0
LINE
  8
型材断面
  6
DOT
 10
32.901102
 20
-100.673963
 11
12.234438
 21
-100.673963
  0
LINE
  8
型材断面
  6
DOT
 10
-41.765563
 20
-100.673963
 11
-21.098898
 21
-100.673963
  0
INSERT
  2
*GRP_0165
  8
型材断面
  6
CONTINUOUS
 10
0.0
 20
0.0
  0
LINE
  8
型材断面
  6
DOT
 10
139.095543
 20
-3.625258
 11
138.428935
 21
-3.512258
  0
LINE
  8
型材断面
  6
DOT
 10
138.428935
 20
-0.930405
 11
139.095543
 21
-0.930405
  0
LINE
  8
型材断面
  6
DOT
 10
136.929
 20
-0.930405
 11
135.762268
 21
-0.930405
  0
LINE
  8
型材断面
  6
DOT
 10
135.762268
 20
-0.930405
 11
135.762268
 21
-3.060295
  0
LINE
  8
型材断面
  6
DOT
 10
138.92889
 20
-3.597008
 11
138.92889
 21
-0.930405
  0
LINE
  8
型材断面
  6
DOT
 10
138.762238
 20
-3.568757
 11
138.762238
 21
-0.930405
  0
LINE
  8
型材断面
  6
DOT
 10
138.595587
 20
-3.540507
 11
138.595587
 21
-0.930405
  0
INSERT
  2
*HAT_0011
  8
型材断面
 10
0.0
 20
0.0
  0
LINE
  8
型材断面
  6
CONTINUOUS
 10
138.262268
 20
6.069598
 11
138.262268
 21
1.069617
  0
LINE
  8
型材断面
  6
CONTINUOUS
 10
130.762275
 20
7.40296
 11
107.983223
 21
7.40296
  0
LINE
  8
型材断面
  6
CONTINUOUS
 10
138.262268
 20
3.40295
 11
107.983223
 21
3.40295
  0
LINE
  8
型材断面
  6
DOT
 10
138.262268
 20
1.736295
 11
107.983223
 21
1.736295
  0
LINE
  8
型材断面
  6
CONTINUOUS
 10
138.262268
 20
1.069617
 11
107.983223
 21
1.069617
  0
LINE
  8
型材断面
  6
CONTINUOUS
 10
128.42892
 20
-13.59704
 11
107.983223
 21
-13.59704
  0
LINE
  8
型材断面
  6
DASHDOT
 10
138.42841
 20
6.069598
 11
138.42841
 21
13.73619
  0
LINE
  8
ガラス
  6
CONTINUOUS
 10
-65.017003
 20
-32.668418
 11
-65.017003
 21
-34.935067
  0
LINE
  8
ガラス
  6
CONTINUOUS
 10
56.152542
 20
-32.668418
 11
56.152542
 21
-34.935067
  0
LINE
  8
ガラス
  6
CONTINUOUS
 10
0.902225
 20
-32.835083
 11
56.152542
 21
-32.835083
  0
LINE
  8
ガラス
  6
CONTINUOUS
 10
0.902225
 20
-32.668418
 11
56.152542
 21
-32.668418
  0
LINE
  8
ガラス
  6
CONTINUOUS
 10
-9.766685
 20
-32.835083
 11
-65.017003
 21
-32.835083
  0
LINE
  8
ガラス
  6
CONTINUOUS
 10
-9.766685
 20
-32.668418
 11
-65.017003
 21
-32.668418
  0
LINE
  8
ガラス
  6
CONTINUOUS
 10
-9.766685
 20
-34.935067
 11
-65.017003
 21
-34.935067
  0
LINE
  8
ガラス
  6
CONTINUOUS
 10
-9.766685
 20
-34.768402
 11
-65.017003
 21
-34.768402
  0
LINE
  8
ガラス
  6
CONTINUOUS
 10
0.902225
 20
-34.768402
 11
56.152542
 21
-34.768402
  0
LINE
  8
ガラス
  6
CONTINUOUS
 10
0.902225
 20
-34.935067
 11
56.152542
 21
-34.935067
  0
INSERT
  2
*GRP_0011
  8
ガラス
  6
CONTINUOUS
 10
0.0
 20
0.0
  0
INSERT
  2
*GRP_0012
  8
ガラス
  6
CONTINUOUS
 10
0.0
 20
0.0
  0
INSERT
  2
*GRP_0013
  8
ガラス
  6
CONTINUOUS
 10
0.0
 20
0.0
  0
INSERT
  2
*GRP_0014
  8
ガラス
  6
CONTINUOUS
 10
0.0
 20
0.0
  0
INSERT
  2
*GRP_0015
  8
ガラス
  6
CONTINUOUS
 10
0.0
 20
0.0
  0
INSERT
  2
*GRP_0016
  8
ガラス
  6
CONTINUOUS
 10
0.0
 20
0.0
  0
INSERT
  2
*GRP_0017
  8
ガラス
  6
CONTINUOUS
 10
0.0
 20
0.0
  0
INSERT
  2
*GRP_0018
  8
ガラス
  6
CONTINUOUS
 10
0.0
 20
0.0
  0
INSERT
  2
*GRP_0019
  8
ガラス
  6
CONTINUOUS
 10
0.0
 20
0.0
  0
INSERT
  2
*GRP_0020
  8
ガラス
  6
CONTINUOUS
 10
0.0
 20
0.0
  0
LINE
  8
ガラス
  6
CONTINUOUS
 10
-9.765572
 20
-34.935083
 11
-9.765572
 21
-32.668418
  0
LINE
  8
ガラス
  6
CONTINUOUS
 10
0.901113
 20
-34.935083
 11
0.901113
 21
-32.668418
  0
LINE
  8
ガラス
  6
CONTINUOUS
 10
0.90222
 20
-91.74063
 11
0.90222
 21
-94.007298
  0
LINE
  8
ガラス
  6
CONTINUOUS
 10
-9.76668
 20
-91.74063
 11
-9.76668
 21
-94.007298
  0
LINE
  8
ガラス
  6
CONTINUOUS
 10
-9.76668
 20
-93.34063
 11
-9.76668
 21
-91.74063
  0
LINE
  8
ガラス
  6
CONTINUOUS
 10
0.90222
 20
-93.34063
 11
0.90222
 21
-91.74063
  0
LINE
  8
ガラス
  6
CONTINUOUS
 10
-9.76668
 20
-91.74063
 11
-41.765563
 21
-91.74063
  0
LINE
  8
ガラス
  6
CONTINUOUS
 10
-9.76668
 20
-91.907297
 11
-41.765563
 21
-91.907297
  0
LINE
  8
ガラス
  6
CONTINUOUS
 10
-9.76668
 20
-94.007298
 11
-41.765563
 21
-94.007298
  0
LINE
  8
ガラス
  6
CONTINUOUS
 10
-9.76668
 20
-93.84063
 11
-41.765563
 21
-93.84063
  0
LINE
  8
ガラス
  6
CONTINUOUS
 10
0.90222
 20
-91.74063
 11
32.901102
 21
-91.74063
  0
LINE
  8
ガラス
  6
CONTINUOUS
 10
0.90222
 20
-91.907297
 11
32.901102
 21
-91.907297
  0
LINE
  8
ガラス
  6
CONTINUOUS
 10
0.90222
 20
-94.007298
 11
32.901102
 21
-94.007298
  0
LINE
  8
ガラス
  6
CONTINUOUS
 10
0.90222
 20
-93.84063
 11
32.901102
 21
-93.84063
  0
INSERT
  2
*GRP_0021
  8
ゴム等
  6
CONTINUOUS
 10
0.0
 20
0.0
  0
INSERT
  2
*GRP_0022
  8
ゴム等
  6
CONTINUOUS
 10
0.0
 20
0.0
  0
INSERT
  2
*GRP_0023
  8
ゴム等
  6
CONTINUOUS
 10
0.0
 20
0.0
  0
INSERT
  2
*GRP_0024
  8
ゴム等
  6
DOT
 10
0.0
 20
0.0
  0
INSERT
  2
*GRP_0025
  8
ゴム等
  6
DOT
 10
0.0
 20
0.0
  0
INSERT
  2
*GRP_0026
  8
ゴム等
  6
CONTINUOUS
 10
0.0
 20
0.0
  0
INSERT
  2
*GRP_0099
  8
ゴム等
  6
CONTINUOUS
 10
0.0
 20
0.0
  0
INSERT
  2
*GRP_0100
  8
ゴム等
  6
CONTINUOUS
 10
0.0
 20
0.0
  0
INSERT
  2
*GRP_0110
  8
ゴム等
  6
CONTINUOUS
 10
0.0
 20
0.0
  0
INSERT
  2
*GRP_0111
  8
ゴム等
  6
CONTINUOUS
 10
0.0
 20
0.0
  0
INSERT
  2
*GRP_0128
  8
ゴム等
  6
DOT
 10
0.0
 20
0.0
  0
INSERT
  2
*GRP_0130
  8
ゴム等
  6
DOT
 10
0.0
 20
0.0
  0
INSERT
  2
*GRP_0138
  8
ゴム等
  6
CONTINUOUS
 10
0.0
 20
0.0
  0
INSERT
  2
*GRP_0139
  8
ゴム等
  6
CONTINUOUS
 10
0.0
 20
0.0
  0
INSERT
  2
*GRP_0027
  8
ボルト／ビス
  6
CONTINUOUS
 62
    64
 10
0.0
 20
0.0
  0
INSERT
  2
*GRP_0028
  8
ボルト／ビス
  6
CONTINUOUS
 62
    64
 10
0.0
 20
0.0
  0
INSERT
  2
*GRP_0029
  8
ボルト／ビス
  6
DOT
 62
    64
 10
0.0
 20
0.0
  0
INSERT
  2
*GRP_0030
  8
ボルト／ビス
  6
DOT
 62
    64
 10
0.0
 20
0.0
  0
INSERT
  2
*GRP_0031
  8
ボルト／ビス
  6
CONTINUOUS
 62
    64
 10
0.0
 20
0.0
  0
INSERT
  2
*GRP_0032
  8
ボルト／ビス
  6
CONTINUOUS
 62
    64
 10
0.0
 20
0.0
  0
INSERT
  2
*GRP_0033
  8
ボルト／ビス
  6
CONTINUOUS
 62
    64
 10
0.0
 20
0.0
  0
INSERT
  2
*GRP_0034
  8
ボルト／ビス
  6
CONTINUOUS
 62
    64
 10
0.0
 20
0.0
  0
INSERT
  2
*GRP_0035
  8
ボルト／ビス
  6
CONTINUOUS
 62
    64
 10
0.0
 20
0.0
  0
INSERT
  2
*GRP_0036
  8
ボルト／ビス
  6
CONTINUOUS
 62
    64
 10
0.0
 20
0.0
  0
INSERT
  2
*GRP_0037
  8
ボルト／ビス
  6
CONTINUOUS
 62
    64
 10
0.0
 20
0.0
  0
INSERT
  2
*GRP_0038
  8
ボルト／ビス
  6
CONTINUOUS
 62
    64
 10
0.0
 20
0.0
  0
INSERT
  2
*GRP_0039
  8
ボルト／ビス
  6
DOT
 62
    64
 10
0.0
 20
0.0
  0
INSERT
  2
*GRP_0040
  8
ボルト／ビス
  6
DOT
 62
    64
 10
0.0
 20
0.0
  0
INSERT
  2
*GRP_0041
  8
ボルト／ビス
  6
CONTINUOUS
 62
    64
 10
0.0
 20
0.0
  0
INSERT
  2
*GRP_0042
  8
ボルト／ビス
  6
CONTINUOUS
 62
    64
 10
0.0
 20
0.0
  0
INSERT
  2
*GRP_0043
  8
ボルト／ビス
  6
CONTINUOUS
 62
    64
 10
0.0
 20
0.0
  0
INSERT
  2
*GRP_0044
  8
ボルト／ビス
  6
CONTINUOUS
 62
    64
 10
0.0
 20
0.0
  0
INSERT
  2
*GRP_0101
  8
ボルト／ビス
  6
CONTINUOUS
 10
0.0
 20
0.0
  0
INSERT
  2
*GRP_0102
  8
ボルト／ビス
  6
CONTINUOUS
 10
0.0
 20
0.0
  0
INSERT
  2
*GRP_0103
  8
ボルト／ビス
  6
CONTINUOUS
 10
0.0
 20
0.0
  0
INSERT
  2
*GRP_0112
  8
ボルト／ビス
  6
CONTINUOUS
 10
0.0
 20
0.0
  0
INSERT
  2
*GRP_0113
  8
ボルト／ビス
  6
CONTINUOUS
 10
0.0
 20
0.0
  0
INSERT
  2
*GRP_0114
  8
ボルト／ビス
  6
CONTINUOUS
 10
0.0
 20
0.0
  0
INSERT
  2
*GRP_0123
  8
ボルト／ビス
  6
CONTINUOUS
 10
0.0
 20
0.0
  0
INSERT
  2
*GRP_0124
  8
ボルト／ビス
  6
CONTINUOUS
 10
0.0
 20
0.0
  0
INSERT
  2
*GRP_0125
  8
ボルト／ビス
  6
CONTINUOUS
 10
0.0
 20
0.0
  0
INSERT
  2
*GRP_0140
  8
ボルト／ビス
  6
CONTINUOUS
 62
    64
 10
0.0
 20
0.0
  0
INSERT
  2
*GRP_0141
  8
ボルト／ビス
  6
CONTINUOUS
 62
    64
 10
0.0
 20
0.0
  0
INSERT
  2
*GRP_0142
  8
ボルト／ビス
  6
CONTINUOUS
 62
    64
 10
0.0
 20
0.0
  0
INSERT
  2
*GRP_0143
  8
ボルト／ビス
  6
CONTINUOUS
 62
    64
 10
0.0
 20
0.0
  0
INSERT
  2
*GRP_0144
  8
ボルト／ビス
  6
CONTINUOUS
 62
    64
 10
0.0
 20
0.0
  0
INSERT
  2
*GRP_0145
  8
ボルト／ビス
  6
CONTINUOUS
 62
    64
 10
0.0
 20
0.0
  0
INSERT
  2
*GRP_0146
  8
ボルト／ビス
  6
CONTINUOUS
 62
    64
 10
0.0
 20
0.0
  0
INSERT
  2
*GRP_0147
  8
ボルト／ビス
  6
CONTINUOUS
 62
    64
 10
0.0
 20
0.0
  0
INSERT
  2
*GRP_0148
  8
ボルト／ビス
  6
CONTINUOUS
 10
0.0
 20
0.0
  0
INSERT
  2
*GRP_0149
  8
ボルト／ビス
  6
CONTINUOUS
 10
0.0
 20
0.0
  0
INSERT
  2
*GRP_0150
  8
ボルト／ビス
  6
CONTINUOUS
 10
0.0
 20
0.0
  0
TEXT
  7
TextStyle03
  8
文字
  6
CONTINUOUS
 10
95.6
 20
80.575
  1
耐火仕様
 40
5.0
 72
     5
 11
117.475
 21
80.575
  0
TEXT
  7
TextStyle03
  8
文字
  6
CONTINUOUS
 10
137.75
 20
82.675
  1
＝Ｓt
 40
3.0
 72
     5
 11
146.0
 21
82.675
  0
TEXT
  7
TextStyle03
  8
文字
  6
CONTINUOUS
 10
137.75
 20
75.6
  1
＝ＳＵＳ
 40
3.0
 72
     5
 11
150.875
 21
75.6
  0
TEXT
  7
TextStyle03
  8
文字
  6
CONTINUOUS
 10
137.75
 20
68.875
  1
＝ＡＬ
 40
3.0
 72
     5
 11
147.5
 21
68.875
  0
TEXT
  7
TextStyle03
  8
文字
  6
CONTINUOUS
 10
92.375
 20
98.0
  1
ＮＳコード：ＮＳＫＺ
 40
5.0
 72
     5
 11
148.0
 21
98.0
  0
TEXT
  7
TextStyle03
  8
文字
  6
CONTINUOUS
 10
92.375
 20
125.95
  1
シリーズ：ＴＤ２Ｋ
 40
5.0
 72
     5
 11
142.375
 21
125.95
  0
TEXT
  7
TextStyle03
  8
文字
  6
CONTINUOUS
 10
92.375
 20
120.325
  1
　　　　　(固定)
 40
5.0
 72
     5
 11
137.0625
 21
120.325
  0
TEXT
  7
TextStyle03
  8
文字
  6
CONTINUOUS
 10
92.375
 20
114.7
  1
図面名　：全体納まり断面図
 40
5.0
 72
     5
 11
164.875
 21
114.7
  0
TEXT
  7
TextStyle03
  8
文字
  6
CONTINUOUS
 10
92.375
 20
109.075
  1
　　　　　落下防止網仕様
 40
5.0
 72
     5
 11
159.25
 21
109.075
  0
TEXT
  7
TextStyle03
  8
文字
  6
CONTINUOUS
 10
-131.8
 20
-55.075
  1
規格水切
 40
3.0
 72
     5
 11
-118.675
 21
-55.075
  0
TEXT
  7
TextStyle03
  8
文字
  6
CONTINUOUS
 10
134.575
 20
-71.5
  1
排水パイプ(オプション)
 40
3.0
 72
     5
 11
171.5125
 21
-71.5
  0
TEXT
  7
TextStyle03
  8
文字
  6
CONTINUOUS
 10
134.575
 20
-74.875
  1
□10×10×1 L=60
 40
3.0
 72
     5
 11
161.3875
 21
-74.875
  0
TEXT
  7
TextStyle03
  8
文字
  6
CONTINUOUS
 10
-166.8
 20
112.425
  1
可動装置側
 40
3.0
 72
     5
 11
-150.3
 21
112.425
  0
TEXT
  7
TextStyle03
  8
文字
  6
CONTINUOUS
 10
-166.8
 20
90.9
  1
可動装置側
 40
3.0
 72
     5
 11
-150.3
 21
90.9
  0
TEXT
  7
TextStyle03
  8
文字
  6
CONTINUOUS
 10
-166.075
 20
103.4
  1
大
 40
3.0
 72
     5
 11
-163.075
 21
103.4
  0
TEXT
  7
TextStyle03
  8
文字
  6
CONTINUOUS
 10
-125.65
 20
114.75
  1
可動装置側
 40
3.0
 72
     5
 11
-109.15
 21
114.75
  0
TEXT
  7
TextStyle03
  8
文字
  6
CONTINUOUS
 10
-125.65
 20
90.8
  1
可動装置側
 40
3.0
 72
     5
 11
-109.15
 21
90.8
  0
TEXT
  7
TextStyle03
  8
文字
  6
CONTINUOUS
 10
-112.225
 20
96.9
  1
小
 40
3.0
 72
     5
 11
-109.225
 21
96.9
  0
TEXT
  7
TextStyle03
  8
文字
  6
CONTINUOUS
 10
-125.375
 20
108.075
  1
大
 40
3.0
 72
     5
 11
-122.375
 21
108.075
  0
TEXT
  7
TextStyle03
  8
文字
  6
CONTINUOUS
 10
-121.975
 20
96.9
  1
小
 40
3.0
 72
     5
 11
-118.975
 21
96.9
  0
TEXT
  7
TextStyle03
  8
文字
  6
CONTINUOUS
 10
-84.075
 20
116.45
  1
可動装置側
 40
3.0
 72
     5
 11
-67.575
 21
116.45
  0
TEXT
  7
TextStyle03
  8
文字
  6
CONTINUOUS
 10
-84.075
 20
90.875
  1
可動装置側
 40
3.0
 72
     5
 11
-67.575
 21
90.875
  0
TEXT
  7
TextStyle03
  8
文字
  6
CONTINUOUS
 10
-70.65
 20
97.9
  1
小
 40
3.0
 72
     5
 11
-67.65
 21
97.9
  0
TEXT
  7
TextStyle03
  8
文字
  6
CONTINUOUS
 10
-80.65
 20
97.9
  1
小
 40
3.0
 72
     5
 11
-77.65
 21
97.9
  0
TEXT
  7
TextStyle03
  8
文字
  6
CONTINUOUS
 10
-83.825
 20
109.825
  1
大
 40
3.0
 72
     5
 11
-80.825
 21
109.825
  0
TEXT
  7
TextStyle03
  8
文字
  6
CONTINUOUS
 10
-174.925
 20
118.625
  1
角タイプ 中桟フレーム
 40
3.0
 72
     5
 11
-139.8625
 21
118.625
  0
TEXT
  7
TextStyle03
  8
文字
  6
CONTINUOUS
 10
-156.15
 20
73.45
  1
可動装置側
 40
3.0
 72
     5
 11
-139.65
 21
73.45
  0
TEXT
  7
TextStyle03
  8
文字
  6
CONTINUOUS
 10
-156.15
 20
61.95
  1
可動装置側
 40
3.0
 72
     5
 11
-139.65
 21
61.95
  0
TEXT
  7
TextStyle03
  8
文字
  6
CONTINUOUS
 10
-156.15
 20
51.875
  1
可動装置側
 40
3.0
 72
     5
 11
-139.65
 21
51.875
  0
TEXT
  7
TextStyle03
  8
文字
  6
CONTINUOUS
 10
-156.15
 20
37.325
  1
可動装置側
 40
3.0
 72
     5
 11
-139.65
 21
37.325
  0
TEXT
  7
TextStyle03
  8
文字
  6
CONTINUOUS
 10
-156.15
 20
26.05
  1
可動装置側
 40
3.0
 72
     5
 11
-139.65
 21
26.05
  0
TEXT
  7
TextStyle03
  8
文字
  6
CONTINUOUS
 10
-156.15
 20
7.575
  1
可動装置側
 40
3.0
 72
     5
 11
-139.65
 21
7.575
  0
TEXT
  7
TextStyle03
  8
文字
  6
CONTINUOUS
 10
-156.15
 20
-3.575
  1
可動装置側
 40
3.0
 72
     5
 11
-139.65
 21
-3.575
  0
TEXT
  7
TextStyle03
  8
文字
  6
CONTINUOUS
 10
-156.15
 20
-29.25
  1
可動装置側
 40
3.0
 72
     5
 11
-139.65
 21
-29.25
  0
TEXT
  7
TextStyle03
  8
文字
  6
CONTINUOUS
 10
-164.575
 20
68.55
  1
小
 40
3.0
 72
     5
 11
-161.575
 21
68.55
  0
TEXT
  7
TextStyle03
  8
文字
  6
CONTINUOUS
 10
-154.575
 20
68.55
  1
小
 40
3.0
 72
     5
 11
-151.575
 21
68.55
  0
TEXT
  7
TextStyle03
  8
文字
  6
CONTINUOUS
 10
-144.575
 20
68.55
  1
小
 40
3.0
 72
     5
 11
-141.575
 21
68.55
  0
TEXT
  7
TextStyle03
  8
文字
  6
CONTINUOUS
 10
-164.575
 20
46.125
  1
小
 40
3.0
 72
     5
 11
-161.575
 21
46.125
  0
TEXT
  7
TextStyle03
  8
文字
  6
CONTINUOUS
 10
-154.575
 20
46.125
  1
小
 40
3.0
 72
     5
 11
-151.575
 21
46.125
  0
TEXT
  7
TextStyle03
  8
文字
  6
CONTINUOUS
 10
-144.575
 20
46.125
  1
小
 40
3.0
 72
     5
 11
-141.575
 21
46.125
  0
TEXT
  7
TextStyle03
  8
文字
  6
CONTINUOUS
 10
-164.575
 20
17.6
  1
小
 40
3.0
 72
     5
 11
-161.575
 21
17.6
  0
TEXT
  7
TextStyle03
  8
文字
  6
CONTINUOUS
 10
-154.575
 20
17.6
  1
小
 40
3.0
 72
     5
 11
-151.575
 21
17.6
  0
TEXT
  7
TextStyle03
  8
文字
  6
CONTINUOUS
 10
-144.575
 20
17.6
  1
小
 40
3.0
 72
     5
 11
-141.575
 21
17.6
  0
TEXT
  7
TextStyle03
  8
文字
  6
CONTINUOUS
 10
-164.45
 20
-10.2
  1
大
 40
3.0
 72
     5
 11
-161.45
 21
-10.2
  0
TEXT
  7
TextStyle03
  8
文字
  6
CONTINUOUS
 10
-154.1
 20
-10.2
  1
大
 40
3.0
 72
     5
 11
-151.1
 21
-10.2
  0
TEXT
  7
TextStyle03
  8
文字
  6
CONTINUOUS
 10
-143.7
 20
-10.2
  1
大
 40
3.0
 72
     5
 11
-140.7
 21
-10.2
  0
TEXT
  7
TextStyle03
  8
文字
  6
CONTINUOUS
 10
-161.5
 20
-22.2
  1
小
 40
3.0
 72
     5
 11
-158.5
 21
-22.2
  0
TEXT
  7
TextStyle03
  8
文字
  6
CONTINUOUS
 10
-152.05
 20
-22.2
  1
小
 40
3.0
 72
     5
 11
-149.05
 21
-22.2
  0
TEXT
  7
TextStyle03
  8
文字
  6
CONTINUOUS
 10
-142.225
 20
-22.2
  1
小
 40
3.0
 72
     5
 11
-139.225
 21
-22.2
  0
TEXT
  7
TextStyle03
  8
文字
  6
CONTINUOUS
 10
-131.825
 20
-22.2
  1
小
 40
3.0
 72
     5
 11
-128.825
 21
-22.2
  0
TEXT
  7
TextStyle03
  8
文字
  6
CONTINUOUS
 10
-176.725
 20
81.475
  1
Ｌ型タイプ 中桟フレーム
 40
3.0
 72
     5
 11
-138.2875
 21
81.475
  0
TEXT
  7
TextStyle03
  8
文字
  6
CONTINUOUS
 10
8.125
 20
-81.4
  1
St-1.6t(ｶﾞﾙﾊﾞﾘｳﾑ鋼板)
 40
3.0
 72
     5
 11
43.375
 21
-81.4
  0
TEXT
  7
TextStyle03
  8
文字
  6
CONTINUOUS
 10
-18.3
 20
-114.275
  1
中桟フレーム（小）
 40
3.0
 72
     5
 11
11.7
 21
-114.275
  0
TEXT
  7
TextStyle03
  8
文字
  6
CONTINUOUS
 10
-18.5
 20
-74.75
  1
中桟フレーム（大）
 40
3.0
 72
     5
 11
11.5
 21
-74.75
  0
TEXT
  7
TextStyle03
  8
文字
  6
CONTINUOUS
 10
-54.225
 20
-65.175
  1
耐火材：
 40
3.0
 72
     5
 11
-41.1
 21
-65.175
  0
TEXT
  7
TextStyle03
  8
文字
  6
CONTINUOUS
 10
-54.225
 20
-68.55
  1
St-1.6t(ｱﾛｲ鋼板)
 40
3.0
 72
     5
 11
-27.4125
 21
-68.55
  0
POLYLINE
  8
文字
  6
CONTINUOUS
 66
     1
 70
     1
  0
VERTEX
  8
文字
 10
172.810947
 20
25.557933
  0
VERTEX
  8
文字
 10
103.234592
 20
25.557933
  0
VERTEX
  8
文字
 10
103.234592
 20
-22.885418
  0
VERTEX
  8
文字
 10
172.810947
 20
-22.885418
  0
SEQEND
  0
TEXT
  7
TextStyle03
  8
文字
  6
CONTINUOUS
 10
105.4
 20
20.2
  1
中桟フレーム（大）端部断面
 40
3.0
 72
     5
 11
148.9
 21
20.2
  0
INSERT
  2
*GRP_0045
  8
寸法
  6
CONTINUOUS
 10
0.0
 20
0.0
  0
INSERT
  2
*DIM_0046
  8
寸法
  6
CONTINUOUS
 10
0.0
 20
0.0
  0
INSERT
  2
*DIM_0047
  8
寸法
  6
CONTINUOUS
 10
0.0
 20
0.0
  0
INSERT
  2
*DIM_0048
  8
寸法
  6
CONTINUOUS
 10
0.0
 20
0.0
  0
INSERT
  2
*DIM_0049
  8
寸法
  6
CONTINUOUS
 10
0.0
 20
0.0
  0
INSERT
  2
*DIM_0050
  8
寸法
  6
CONTINUOUS
 10
0.0
 20
0.0
  0
INSERT
  2
*DIM_0051
  8
寸法
  6
CONTINUOUS
 10
0.0
 20
0.0
  0
INSERT
  2
*DIM_0052
  8
寸法
  6
CONTINUOUS
 10
0.0
 20
0.0
  0
INSERT
  2
*DIM_0053
  8
寸法
  6
CONTINUOUS
 10
0.0
 20
0.0
  0
INSERT
  2
*DIM_0054
  8
寸法
  6
CONTINUOUS
 10
0.0
 20
0.0
  0
INSERT
  2
*GRP_0055
  8
寸法
  6
CONTINUOUS
 10
0.0
 20
0.0
  0
INSERT
  2
*DIM_0056
  8
寸法
  6
CONTINUOUS
 10
0.0
 20
0.0
  0
INSERT
  2
*GRP_0057
  8
寸法
  6
CONTINUOUS
 10
0.0
 20
0.0
  0
INSERT
  2
*DIM_0058
  8
寸法
  6
CONTINUOUS
 10
0.0
 20
0.0
  0
INSERT
  2
*GRP_0059
  8
寸法
  6
CONTINUOUS
 10
0.0
 20
0.0
  0
INSERT
  2
*GRP_0060
  8
寸法
  6
CONTINUOUS
 10
0.0
 20
0.0
  0
INSERT
  2
*GRP_0061
  8
寸法
  6
CONTINUOUS
 10
0.0
 20
0.0
  0
INSERT
  2
*DIM_0062
  8
寸法
  6
CONTINUOUS
 10
0.0
 20
0.0
  0
INSERT
  2
*GRP_0063
  8
寸法
  6
CONTINUOUS
 10
0.0
 20
0.0
  0
INSERT
  2
*GRP_0064
  8
寸法
  6
CONTINUOUS
 10
0.0
 20
0.0
  0
INSERT
  2
*GRP_0065
  8
寸法
  6
CONTINUOUS
 10
0.0
 20
0.0
  0
INSERT
  2
*DIM_0066
  8
寸法
  6
CONTINUOUS
 10
0.0
 20
0.0
  0
INSERT
  2
*DIM_0067
  8
寸法
  6
CONTINUOUS
 10
0.0
 20
0.0
  0
INSERT
  2
*DIM_0068
  8
寸法
  6
CONTINUOUS
 10
0.0
 20
0.0
  0
INSERT
  2
*DIM_0069
  8
寸法
  6
CONTINUOUS
 10
0.0
 20
0.0
  0
INSERT
  2
*GRP_0070
  8
寸法
  6
CONTINUOUS
 10
0.0
 20
0.0
  0
INSERT
  2
*GRP_0071
  8
寸法
  6
CONTINUOUS
 10
0.0
 20
0.0
  0
INSERT
  2
*GRP_0072
  8
寸法
  6
CONTINUOUS
 10
0.0
 20
0.0
  0
INSERT
  2
*GRP_0073
  8
寸法
  6
CONTINUOUS
 10
0.0
 20
0.0
  0
INSERT
  2
*GRP_0074
  8
寸法
  6
CONTINUOUS
 10
0.0
 20
0.0
  0
INSERT
  2
*GRP_0075
  8
寸法
  6
CONTINUOUS
 10
0.0
 20
0.0
  0
INSERT
  2
*GRP_0076
  8
寸法
  6
CONTINUOUS
 10
0.0
 20
0.0
  0
INSERT
  2
*GRP_0077
  8
寸法
  6
CONTINUOUS
 10
0.0
 20
0.0
  0
INSERT
  2
*GRP_0078
  8
寸法
  6
CONTINUOUS
 10
0.0
 20
0.0
  0
INSERT
  2
*GRP_0079
  8
寸法
  6
CONTINUOUS
 10
0.0
 20
0.0
  0
INSERT
  2
*GRP_0080
  8
寸法
  6
CONTINUOUS
 10
0.0
 20
0.0
  0
INSERT
  2
*GRP_0081
  8
寸法
  6
CONTINUOUS
 10
0.0
 20
0.0
  0
INSERT
  2
*GRP_0082
  8
寸法
  6
CONTINUOUS
 10
0.0
 20
0.0
  0
INSERT
  2
*GRP_0083
  8
寸法
  6
CONTINUOUS
 10
0.0
 20
0.0
  0
INSERT
  2
*GRP_0084
  8
寸法
  6
CONTINUOUS
 10
0.0
 20
0.0
  0
INSERT
  2
*GRP_0085
  8
寸法
  6
CONTINUOUS
 10
0.0
 20
0.0
  0
INSERT
  2
*DIM_0104
  8
寸法
  6
CONTINUOUS
 10
0.0
 20
0.0
  0
INSERT
  2
*DIM_0105
  8
寸法
  6
CONTINUOUS
 10
0.0
 20
0.0
  0
INSERT
  2
*DIM_0106
  8
寸法
  6
CONTINUOUS
 10
0.0
 20
0.0
  0
INSERT
  2
*DIM_0107
  8
寸法
  6
CONTINUOUS
 10
0.0
 20
0.0
  0
INSERT
  2
*DIM_0108
  8
寸法
  6
CONTINUOUS
 10
0.0
 20
0.0
  0
INSERT
  2
*DIM_0109
  8
寸法
  6
CONTINUOUS
 10
0.0
 20
0.0
  0
INSERT
  2
*DIM_0115
  8
寸法
  6
CONTINUOUS
 10
0.0
 20
0.0
  0
INSERT
  2
*DIM_0116
  8
寸法
  6
CONTINUOUS
 10
0.0
 20
0.0
  0
INSERT
  2
*DIM_0117
  8
寸法
  6
CONTINUOUS
 10
0.0
 20
0.0
  0
INSERT
  2
*DIM_0118
  8
寸法
  6
CONTINUOUS
 10
0.0
 20
0.0
  0
INSERT
  2
*DIM_0119
  8
寸法
  6
CONTINUOUS
 10
0.0
 20
0.0
  0
INSERT
  2
*DIM_0120
  8
寸法
  6
CONTINUOUS
 10
0.0
 20
0.0
  0
INSERT
  2
*DIM_0121
  8
寸法
  6
CONTINUOUS
 10
0.0
 20
0.0
  0
INSERT
  2
*DIM_0122
  8
寸法
  6
CONTINUOUS
 10
0.0
 20
0.0
  0
INSERT
  2
*DIM_0131
  8
寸法
  6
CONTINUOUS
 10
0.0
 20
0.0
  0
INSERT
  2
*DIM_0132
  8
寸法
  6
CONTINUOUS
 10
0.0
 20
0.0
  0
INSERT
  2
*DIM_0133
  8
寸法
  6
CONTINUOUS
 10
0.0
 20
0.0
  0
INSERT
  2
*DIM_0134
  8
寸法
  6
CONTINUOUS
 10
0.0
 20
0.0
  0
INSERT
  2
*GRP_0151
  8
寸法
  6
CONTINUOUS
 10
0.0
 20
0.0
  0
INSERT
  2
*DIM_0163
  8
寸法
  6
CONTINUOUS
 10
0.0
 20
0.0
  0
INSERT
  2
*GRP_0164
  8
寸法
  6
CONTINUOUS
 10
0.0
 20
0.0
  0
INSERT
  2
*GRP_0086
  8
別途部材
  6
CONTINUOUS
 10
0.0
 20
0.0
  0
INSERT
  2
*GRP_0087
  8
別途部材
  6
CONTINUOUS
 10
0.0
 20
0.0
  0
ARC
  8
別途部材
  6
CONTINUOUS
 62
    96
 10
-83.209413
 20
-24.938245
 40
1.668651
 50
90.001373
 51
158.200992
  0
LINE
  8
別途部材
  6
CONTINUOUS
 62
    96
 10
-85.017
 20
-22.268405
 11
-68.350335
 21
-22.268405
  0
LINE
  8
別途部材
  6
CONTINUOUS
 62
    96
 10
-83.209415
 20
-23.2696
 11
-67.79548
 21
-23.2696
  0
LINE
  8
別途部材
  6
CONTINUOUS
 10
-89.016993
 20
-32.268405
 11
-87.938677
 21
-32.268405
  0
LINE
  8
別途部材
  6
CONTINUOUS
 62
    96
 10
-85.017
 20
-22.268405
 11
-89.016993
 21
-32.268405
  0
LINE
  8
別途部材
  6
CONTINUOUS
 62
    96
 10
-84.75873
 20
-24.318533
 11
-87.938677
 21
-32.268405
  0
ARC
  8
別途部材
  6
CONTINUOUS
 10
-4.431738
 20
-55.581011
 40
72.078542
 50
90.0
 51
152.472719
  0
ARC
  8
別途部材
  6
CONTINUOUS
 10
-4.431738
 20
-55.581011
 40
71.126582
 50
90.0
 51
152.981359
  0
ARC
  8
別途部材
  6
CONTINUOUS
 62
    96
 10
74.344953
 20
-24.938245
 40
1.668651
 50
21.799008
 51
89.998627
  0
LINE
  8
別途部材
  6
CONTINUOUS
 62
    96
 10
76.15254
 20
-22.268405
 11
59.485875
 21
-22.268405
  0
LINE
  8
別途部材
  6
CONTINUOUS
 62
    96
 10
74.344955
 20
-23.2696
 11
58.93102
 21
-23.2696
  0
LINE
  8
別途部材
  6
CONTINUOUS
 10
80.152533
 20
-32.268405
 11
79.074217
 21
-32.268405
  0
LINE
  8
別途部材
  6
CONTINUOUS
 62
    96
 10
76.15254
 20
-22.268405
 11
80.152533
 21
-32.268405
  0
LINE
  8
別途部材
  6
CONTINUOUS
 62
    96
 10
75.89427
 20
-24.318533
 11
79.074217
 21
-32.268405
  0
ARC
  8
別途部材
  6
CONTINUOUS
 10
-4.432722
 20
-55.581011
 40
72.078542
 50
27.527281
 51
90.0
  0
ARC
  8
別途部材
  6
CONTINUOUS
 10
-4.432722
 20
-55.581011
 40
71.126582
 50
27.018641
 51
90.0
  0
CIRCLE
  8
曲げ物
  6
CONTINUOUS
 10
-68.350335
 20
-28.0696
 40
0.666665
  0
LINE
  8
曲げ物
  6
CONTINUOUS
 10
-69.017
 20
-26.0696
 11
-69.017
 21
-27.402935
  0
CIRCLE
  8
曲げ物
  6
CONTINUOUS
 10
-35.017003
 20
-28.0696
 40
0.666665
  0
LINE
  8
曲げ物
  6
CONTINUOUS
 10
-79.75027
 20
-29.2696
 11
-79.75027
 21
-24.802933
  0
ARC
  8
曲げ物
  6
CONTINUOUS
 10
-79.216937
 20
-24.802933
 40
0.533333
 50
90.0
 51
180.0
  0
LINE
  8
曲げ物
  6
CONTINUOUS
 10
-79.216938
 20
-24.2696
 11
-65.283667
 21
-24.2696
  0
LINE
  8
曲げ物
  6
CONTINUOUS
 10
-64.750335
 20
-29.2696
 11
-64.750335
 21
-24.802933
  0
ARC
  8
曲げ物
  6
CONTINUOUS
 10
-65.283668
 20
-24.802933
 40
0.533333
 50
0.0
 51
90.0
  0
ARC
  8
曲げ物
  6
CONTINUOUS
 10
-65.917001
 20
-28.736266
 40
0.533333
 50
-90.0
 51
0.0
  0
LINE
  8
曲げ物
  6
CONTINUOUS
 10
-78.583605
 20
-29.2696
 11
-65.917
 21
-29.2696
  0
ARC
  8
曲げ物
  6
CONTINUOUS
 10
-78.583604
 20
-28.736266
 40
0.533333
 50
180.0
 51
270.0
  0
LINE
  8
曲げ物
  6
CONTINUOUS
 10
-79.75027
 20
-29.2696
 11
-79.216938
 21
-29.2696
  0
LINE
  8
曲げ物
  6
CONTINUOUS
 10
-79.116938
 20
-28.736268
 11
-79.116938
 21
-24.802933
  0
LINE
  8
曲げ物
  6
CONTINUOUS
 10
-79.216938
 20
-29.2696
 11
-79.216938
 21
-24.802933
  0
LINE
  8
曲げ物
  6
CONTINUOUS
 10
-78.583605
 20
-28.736268
 11
-78.583605
 21
-24.802933
  0
LINE
  8
曲げ物
  6
CONTINUOUS
 10
-79.216938
 20
-24.802933
 11
-65.283667
 21
-24.802933
  0
LINE
  8
曲げ物
  6
CONTINUOUS
 10
-65.383667
 20
-28.736268
 11
-65.383667
 21
-24.802933
  0
LINE
  8
曲げ物
  6
CONTINUOUS
 10
-65.917
 20
-24.802933
 11
-65.917
 21
-28.736268
  0
LINE
  8
曲げ物
  6
CONTINUOUS
 10
-78.583605
 20
-28.736268
 11
-65.917
 21
-28.736268
  0
LINE
  8
曲げ物
  6
CONTINUOUS
 10
-65.283667
 20
-24.802933
 11
-65.283667
 21
-29.2696
  0
LINE
  8
曲げ物
  6
CONTINUOUS
 10
-64.750335
 20
-29.2696
 11
-65.283667
 21
-29.2696
  0
CIRCLE
  8
曲げ物
  6
CONTINUOUS
 10
59.485875
 20
-28.0696
 40
0.666665
  0
LINE
  8
曲げ物
  6
CONTINUOUS
 10
60.15254
 20
-26.0696
 11
60.15254
 21
-27.402935
  0
CIRCLE
  8
曲げ物
  6
CONTINUOUS
 10
26.152542
 20
-28.0696
 40
0.666665
  0
LINE
  8
曲げ物
  6
CONTINUOUS
 10
70.88581
 20
-29.2696
 11
70.88581
 21
-24.802933
  0
ARC
  8
曲げ物
  6
CONTINUOUS
 10
70.352477
 20
-24.802933
 40
0.533333
 50
0.0
 51
90.0
  0
LINE
  8
曲げ物
  6
CONTINUOUS
 10
70.352477
 20
-24.2696
 11
56.419208
 21
-24.2696
  0
LINE
  8
曲げ物
  6
CONTINUOUS
 10
55.885875
 20
-29.2696
 11
55.885875
 21
-24.802933
  0
ARC
  8
曲げ物
  6
CONTINUOUS
 10
56.419208
 20
-24.802933
 40
0.533333
 50
90.0
 51
180.0
  0
ARC
  8
曲げ物
  6
CONTINUOUS
 10
57.052541
 20
-28.736266
 40
0.533333
 50
180.0
 51
270.0
  0
LINE
  8
曲げ物
  6
CONTINUOUS
 10
69.719145
 20
-29.2696
 11
57.05254
 21
-29.2696
  0
ARC
  8
曲げ物
  6
CONTINUOUS
 10
69.719144
 20
-28.736266
 40
0.533333
 50
270.0
 51
360.0
  0
LINE
  8
曲げ物
  6
CONTINUOUS
 10
70.88581
 20
-29.2696
 11
70.352477
 21
-29.2696
  0
LINE
  8
曲げ物
  6
CONTINUOUS
 10
70.252477
 20
-28.736268
 11
70.252477
 21
-24.802933
  0
LINE
  8
曲げ物
  6
CONTINUOUS
 10
70.352477
 20
-29.2696
 11
70.352477
 21
-24.802933
  0
LINE
  8
曲げ物
  6
CONTINUOUS
 10
69.719145
 20
-28.736268
 11
69.719145
 21
-24.802933
  0
LINE
  8
曲げ物
  6
CONTINUOUS
 10
70.352477
 20
-24.802933
 11
56.419208
 21
-24.802933
  0
LINE
  8
曲げ物
  6
CONTINUOUS
 10
56.519208
 20
-28.736268
 11
56.519208
 21
-24.802933
  0
LINE
  8
曲げ物
  6
CONTINUOUS
 10
57.05254
 20
-24.802933
 11
57.05254
 21
-28.736268
  0
LINE
  8
曲げ物
  6
CONTINUOUS
 10
69.719145
 20
-28.736268
 11
57.05254
 21
-28.736268
  0
LINE
  8
曲げ物
  6
CONTINUOUS
 10
56.419208
 20
-24.802933
 11
56.419208
 21
-29.2696
  0
LINE
  8
曲げ物
  6
CONTINUOUS
 10
55.885875
 20
-29.2696
 11
56.419208
 21
-29.2696
  0
LINE
  8
曲げ物
  6
CONTINUOUS
 10
60.15254
 20
-27.402935
 11
-1.765563
 21
-27.402935
  0
LINE
  8
曲げ物
  6
CONTINUOUS
 10
60.15254
 20
-26.0696
 11
-1.765563
 21
-26.0696
  0
LINE
  8
曲げ物
  6
CONTINUOUS
 10
-69.017
 20
-26.0696
 11
-7.098898
 21
-26.0696
  0
LINE
  8
曲げ物
  6
CONTINUOUS
 10
-69.017
 20
-27.402935
 11
-7.098898
 21
-27.402935
  0
CIRCLE
  8
曲げ物
  6
CONTINUOUS
 10
-7.765563
 20
-28.0696
 40
0.666667
  0
LINE
  8
曲げ物
  6
CONTINUOUS
 10
-7.098898
 20
-26.0696
 11
-7.098898
 21
-27.402935
  0
CIRCLE
  8
曲げ物
  6
CONTINUOUS
 10
-1.098898
 20
-28.0696
 40
0.666667
  0
LINE
  8
曲げ物
  6
CONTINUOUS
 10
-1.765563
 20
-26.0696
 11
-1.765563
 21
-27.402935
  0
ARC
  8
曲げ物
  6
CONTINUOUS
 10
3.96777
 20
-28.736265
 40
0.533333
 50
270.0
 51
360.0
  0
LINE
  8
曲げ物
  6
CONTINUOUS
 10
5.134438
 20
-29.2696
 11
5.134438
 21
-24.802933
  0
ARC
  8
曲げ物
  6
CONTINUOUS
 10
4.601103
 20
-24.802932
 40
0.533333
 50
0.0
 51
90.0
  0
LINE
  8
曲げ物
  6
CONTINUOUS
 10
-13.465565
 20
-24.2696
 11
4.601105
 21
-24.2696
  0
LINE
  8
曲げ物
  6
CONTINUOUS
 10
-13.998898
 20
-29.2696
 11
-13.998898
 21
-24.802933
  0
ARC
  8
曲げ物
  6
CONTINUOUS
 10
-13.465565
 20
-24.802932
 40
0.533333
 50
90.0
 51
180.0
  0
LINE
  8
曲げ物
  6
CONTINUOUS
 10
-12.832233
 20
-29.2696
 11
3.967772
 21
-29.2696
  0
ARC
  8
曲げ物
  6
CONTINUOUS
 10
-12.832233
 20
-28.736265
 40
0.533333
 50
180.0
 51
270.0
  0
LINE
  8
曲げ物
  6
CONTINUOUS
 10
-13.998898
 20
-29.2696
 11
-13.465565
 21
-29.2696
  0
LINE
  8
曲げ物
  6
CONTINUOUS
 10
-13.465565
 20
-29.2696
 11
-13.465565
 21
-24.802933
  0
LINE
  8
曲げ物
  6
CONTINUOUS
 10
-13.365565
 20
-28.736268
 11
-13.365565
 21
-24.802933
  0
LINE
  8
曲げ物
  6
CONTINUOUS
 10
-12.832233
 20
-28.736268
 11
-12.832233
 21
-24.802933
  0
LINE
  8
曲げ物
  6
CONTINUOUS
 10
4.501105
 20
-28.736268
 11
4.501105
 21
-24.802933
  0
LINE
  8
曲げ物
  6
CONTINUOUS
 10
-13.465565
 20
-24.802933
 11
4.601105
 21
-24.802933
  0
LINE
  8
曲げ物
  6
CONTINUOUS
 10
-12.832233
 20
-28.736268
 11
3.967772
 21
-28.736268
  0
LINE
  8
曲げ物
  6
CONTINUOUS
 10
3.967772
 20
-24.802933
 11
3.967772
 21
-28.736268
  0
LINE
  8
曲げ物
  6
CONTINUOUS
 10
4.601105
 20
-24.802933
 11
4.601105
 21
-29.2696
  0
LINE
  8
曲げ物
  6
CONTINUOUS
 10
5.134438
 20
-29.2696
 11
4.601105
 21
-29.2696
  0
LINE
  8
曲げ物
  6
DOT
 10
-5.765563
 20
-24.2696
 11
-5.765563
 21
-24.802933
  0
LINE
  8
曲げ物
  6
DOT
 10
-5.765563
 20
-24.402933
 11
-3.098898
 21
-24.402933
  0
LINE
  8
曲げ物
  6
DOT
 10
-5.765563
 20
-24.536265
 11
-3.098898
 21
-24.536265
  0
LINE
  8
曲げ物
  6
DOT
 10
-5.765563
 20
-24.6696
 11
-3.098898
 21
-24.6696
  0
LINE
  8
曲げ物
  6
DOT
 10
-3.098898
 20
-24.2696
 11
-3.098898
 21
-24.802933
  0
INSERT
  2
*GRP_0126
  8
曲げ物
  6
DOT
 10
0.0
 20
0.0
  0
INSERT
  2
*GRP_0152
  8
曲げ物
  6
CONTINUOUS
 10
0.0
 20
0.0
  0
INSERT
  2
*GRP_0153
  8
曲げ物
  6
CONTINUOUS
 10
0.0
 20
0.0
  0
INSERT
  2
*GRP_0154
  8
曲げ物
  6
DOT
 10
0.0
 20
0.0
  0
CIRCLE
  8
曲げ物
  6
CONTINUOUS
 10
-41.098898
 20
-87.141813
 40
0.666667
  0
CIRCLE
  8
曲げ物
  6
CONTINUOUS
 10
-7.765563
 20
-87.141813
 40
0.666667
  0
LINE
  8
曲げ物
  6
CONTINUOUS
 10
-7.098898
 20
-85.141813
 11
-7.098898
 21
-86.475148
  0
CIRCLE
  8
曲げ物
  6
CONTINUOUS
 10
32.234438
 20
-87.141813
 40
0.666667
  0
CIRCLE
  8
曲げ物
  6
CONTINUOUS
 10
-1.098898
 20
-87.141813
 40
0.666667
  0
LINE
  8
曲げ物
  6
CONTINUOUS
 10
-1.765563
 20
-85.141813
 11
-1.765563
 21
-86.475148
  0
LINE
  8
曲げ物
  6
CONTINUOUS
 10
-7.098898
 20
-85.141813
 11
-41.765563
 21
-85.141813
  0
LINE
  8
曲げ物
  6
CONTINUOUS
 10
-7.098898
 20
-86.475148
 11
-41.765563
 21
-86.475148
  0
LINE
  8
曲げ物
  6
CONTINUOUS
 10
-1.765563
 20
-85.141813
 11
32.901102
 21
-85.141813
  0
LINE
  8
曲げ物
  6
CONTINUOUS
 10
-1.765563
 20
-86.475148
 11
32.901102
 21
-86.475148
  0
ARC
  8
曲げ物
  6
CONTINUOUS
 10
3.96777
 20
-87.80848
 40
0.533333
 50
270.0
 51
360.0
  0
LINE
  8
曲げ物
  6
CONTINUOUS
 10
5.134438
 20
-88.341813
 11
5.134438
 21
-83.875145
  0
ARC
  8
曲げ物
  6
CONTINUOUS
 10
4.601103
 20
-83.875146
 40
0.533333
 50
0.0
 51
90.0
  0
LINE
  8
曲げ物
  6
CONTINUOUS
 10
-13.465565
 20
-83.341813
 11
4.601105
 21
-83.341813
  0
LINE
  8
曲げ物
  6
CONTINUOUS
 10
-13.998898
 20
-88.341813
 11
-13.998898
 21
-83.875145
  0
ARC
  8
曲げ物
  6
CONTINUOUS
 10
-13.465565
 20
-83.875146
 40
0.533333
 50
90.0
 51
180.0
  0
LINE
  8
曲げ物
  6
CONTINUOUS
 10
-12.832233
 20
-88.341813
 11
3.967772
 21
-88.341813
  0
ARC
  8
曲げ物
  6
CONTINUOUS
 10
-12.832233
 20
-87.80848
 40
0.533333
 50
180.0
 51
270.0
  0
LINE
  8
曲げ物
  6
CONTINUOUS
 10
-13.998898
 20
-88.341813
 11
-13.465565
 21
-88.341813
  0
LINE
  8
曲げ物
  6
CONTINUOUS
 10
-13.465565
 20
-88.341813
 11
-13.465565
 21
-83.875145
  0
LINE
  8
曲げ物
  6
CONTINUOUS
 10
-13.365565
 20
-87.80848
 11
-13.365565
 21
-83.875145
  0
LINE
  8
曲げ物
  6
CONTINUOUS
 10
-12.832233
 20
-87.80848
 11
-12.832233
 21
-83.875145
  0
LINE
  8
曲げ物
  6
CONTINUOUS
 10
4.501105
 20
-87.80848
 11
4.501105
 21
-83.875145
  0
LINE
  8
曲げ物
  6
CONTINUOUS
 10
-13.465565
 20
-83.875145
 11
4.601105
 21
-83.875145
  0
LINE
  8
曲げ物
  6
CONTINUOUS
 10
-12.832233
 20
-87.80848
 11
3.967772
 21
-87.80848
  0
LINE
  8
曲げ物
  6
CONTINUOUS
 10
3.967772
 20
-83.875145
 11
3.967772
 21
-87.80848
  0
LINE
  8
曲げ物
  6
CONTINUOUS
 10
4.601105
 20
-83.875145
 11
4.601105
 21
-88.341813
  0
LINE
  8
曲げ物
  6
CONTINUOUS
 10
5.134438
 20
-88.341813
 11
4.601105
 21
-88.341813
  0
LINE
  8
曲げ物
  6
DOT
 10
-5.765563
 20
-83.341813
 11
-5.765563
 21
-83.875145
  0
LINE
  8
曲げ物
  6
DOT
 10
-5.765563
 20
-83.475145
 11
-3.098898
 21
-83.475145
  0
LINE
  8
曲げ物
  6
DOT
 10
-5.765563
 20
-83.608478
 11
-3.098898
 21
-83.608478
  0
LINE
  8
曲げ物
  6
DOT
 10
-5.765563
 20
-83.741813
 11
-3.098898
 21
-83.741813
  0
LINE
  8
曲げ物
  6
DOT
 10
-3.098898
 20
-83.341813
 11
-3.098898
 21
-83.875145
  0
POLYLINE
  8
St
  6
CONTINUOUS
 66
     1
 70
     1
  0
VERTEX
  8
St
 10
118.838443
 20
86.64129
  0
VERTEX
  8
St
 10
93.596667
 20
86.64129
  0
VERTEX
  8
St
 10
93.596667
 20
78.8403
  0
VERTEX
  8
St
 10
118.838443
 20
78.8403
  0
SEQEND
  0
LINE
  8
St
  6
CONTINUOUS
 10
127.533845
 20
82.346758
 11
131.267178
 21
86.08009
  0
LINE
  8
St
  6
CONTINUOUS
 10
128.476655
 20
82.346758
 11
132.209987
 21
86.08009
  0
LINE
  8
St
  6
CONTINUOUS
 10
124.28372
 20
86.08009
 11
135.03794
 21
86.08009
  0
LINE
  8
St
  6
CONTINUOUS
 10
124.28372
 20
82.346758
 11
135.03794
 21
82.346758
  0
LINE
  8
St
  6
CONTINUOUS
 10
127.533845
 20
75.242285
 11
131.267178
 21
78.975618
  0
LINE
  8
St
  6
CONTINUOUS
 10
124.28372
 20
78.975618
 11
135.03794
 21
78.975618
  0
LINE
  8
St
  6
CONTINUOUS
 10
124.28372
 20
75.242285
 11
135.03794
 21
75.242285
  0
LINE
  8
St
  6
CONTINUOUS
 10
124.28372
 20
72.400497
 11
135.03794
 21
72.400497
  0
LINE
  8
St
  6
CONTINUOUS
 10
124.28372
 20
68.667165
 11
135.03794
 21
68.667165
  0
LINE
  8
St
  6
CONTINUOUS
 10
-68.35086
 20
-30.43506
 11
-67.35086
 21
-30.43506
  0
LINE
  8
St
  6
CONTINUOUS
 10
-67.35086
 20
-30.43506
 11
-67.35086
 21
-36.601805
  0
LINE
  8
St
  6
CONTINUOUS
 10
-67.35086
 20
-37.268433
 11
-67.35086
 21
-43.601755
  0
LINE
  8
St
  6
DOT
 10
-4.43223
 20
-37.968412
 11
-67.684192
 21
-37.968412
  0
LINE
  8
St
  6
DOT
 10
-4.43223
 20
-37.43508
 11
-67.684192
 21
-37.43508
  0
LINE
  8
St
  6
DOT
 10
-4.43223
 20
-41.268412
 11
-67.684192
 21
-41.268412
  0
LINE
  8
St
  6
DOT
 10
-4.43223
 20
-41.268412
 11
58.819732
 21
-41.268412
  0
LINE
  8
St
  6
DOT
 10
-4.43223
 20
-37.968412
 11
58.819732
 21
-37.968412
  0
LINE
  8
St
  6
DOT
 10
-4.43223
 20
-37.43508
 11
58.819732
 21
-37.43508
  0
INSERT
  2
*GRP_0088
  8
St
  6
CONTINUOUS
 10
0.0
 20
0.0
  0
LINE
  8
St
  6
CONTINUOUS
 10
58.953067
 20
-50.326508
 11
58.953067
 21
-48.35984
  0
LINE
  8
St
  6
CONTINUOUS
 10
58.953067
 20
-48.35984
 11
59.4864
 21
-48.35984
  0
LINE
  8
St
  6
CONTINUOUS
 10
56.153062
 20
-55.735113
 11
56.153062
 21
-56.268445
  0
LINE
  8
St
  6
CONTINUOUS
 10
50.686375
 20
-50.85984
 11
50.686375
 21
-55.735113
  0
LINE
  8
St
  6
CONTINUOUS
 10
56.153062
 20
-55.735113
 11
50.686375
 21
-55.735113
  0
LINE
  8
St
  6
CONTINUOUS
 10
58.953067
 20
-50.326508
 11
50.686375
 21
-50.326508
  0
ARC
  8
St
  6
CONTINUOUS
 10
50.686376
 20
-50.859843
 40
0.533333
 50
90.0
 51
180.0
  0
LINE
  8
St
  6
CONTINUOUS
 10
50.153043
 20
-55.735113
 11
50.153043
 21
-50.85984
  0
LINE
  8
St
  6
CONTINUOUS
 10
50.686375
 20
-56.268445
 11
56.153062
 21
-56.268445
  0
ARC
  8
St
  6
CONTINUOUS
 10
50.686376
 20
-55.735114
 40
0.533333
 50
180.0
 51
270.0
  0
LINE
  8
St
  6
CONTINUOUS
 10
58.953067
 20
-50.85984
 11
50.686375
 21
-50.85984
  0
LINE
  8
St
  6
CONTINUOUS
 10
59.4864
 20
-50.326508
 11
59.4864
 21
-48.35984
  0
ARC
  8
St
  6
CONTINUOUS
 10
58.953067
 20
-50.326509
 40
0.533333
 50
270.0
 51
360.0
  0
INSERT
  2
*GRP_0089
  8
St
  6
CONTINUOUS
 10
0.0
 20
0.0
  0
LINE
  8
St
  6
CONTINUOUS
 10
-67.817527
 20
-50.326508
 11
-67.817527
 21
-48.35984
  0
LINE
  8
St
  6
CONTINUOUS
 10
-67.817527
 20
-48.35984
 11
-68.35086
 21
-48.35984
  0
LINE
  8
St
  6
CONTINUOUS
 10
-65.017522
 20
-55.735113
 11
-65.017522
 21
-56.268445
  0
LINE
  8
St
  6
CONTINUOUS
 10
-59.550835
 20
-50.85984
 11
-59.550835
 21
-55.735113
  0
LINE
  8
St
  6
CONTINUOUS
 10
-65.017522
 20
-55.735113
 11
-59.550835
 21
-55.735113
  0
LINE
  8
St
  6
CONTINUOUS
 10
-67.817527
 20
-50.326508
 11
-59.550835
 21
-50.326508
  0
ARC
  8
St
  6
CONTINUOUS
 10
-59.550836
 20
-50.859843
 40
0.533333
 50
0.0
 51
90.0
  0
LINE
  8
St
  6
CONTINUOUS
 10
-59.017502
 20
-55.735113
 11
-59.017502
 21
-50.85984
  0
LINE
  8
St
  6
CONTINUOUS
 10
-59.550835
 20
-56.268445
 11
-65.017522
 21
-56.268445
  0
ARC
  8
St
  6
CONTINUOUS
 10
-59.550836
 20
-55.735114
 40
0.533333
 50
270.0
 51
360.0
  0
LINE
  8
St
  6
CONTINUOUS
 10
-67.817527
 20
-50.85984
 11
-59.550835
 21
-50.85984
  0
LINE
  8
St
  6
CONTINUOUS
 10
-68.35086
 20
-50.326508
 11
-68.35086
 21
-48.35984
  0
ARC
  8
St
  6
CONTINUOUS
 10
-67.817527
 20
-50.326509
 40
0.533333
 50
180.0
 51
270.0
  0
LINE
  8
St
  6
CONTINUOUS
 10
-65.386057
 20
-50.326508
 11
-65.91939
 21
-50.85984
  0
LINE
  8
St
  6
CONTINUOUS
 10
-65.150357
 20
-50.326508
 11
-65.68369
 21
-50.85984
  0
LINE
  8
St
  6
CONTINUOUS
 10
-59.017502
 20
-53.33513
 11
-59.550835
 21
-53.868462
  0
LINE
  8
St
  6
CONTINUOUS
 10
-61.417485
 20
-55.735113
 11
-61.950817
 21
-56.268445
  0
LINE
  8
St
  6
CONTINUOUS
 10
-59.017502
 20
-53.57083
 11
-59.550835
 21
-54.104162
  0
LINE
  8
St
  6
CONTINUOUS
 10
-61.181785
 20
-55.735113
 11
-61.715117
 21
-56.268445
  0
LINE
  8
St
  6
CONTINUOUS
 10
56.521597
 20
-50.326508
 11
57.05493
 21
-50.85984
  0
LINE
  8
St
  6
CONTINUOUS
 10
56.285897
 20
-50.326508
 11
56.81923
 21
-50.85984
  0
LINE
  8
St
  6
CONTINUOUS
 10
50.153043
 20
-53.33513
 11
50.686375
 21
-53.868462
  0
LINE
  8
St
  6
CONTINUOUS
 10
52.553025
 20
-55.735113
 11
53.086357
 21
-56.268445
  0
LINE
  8
St
  6
CONTINUOUS
 10
50.153043
 20
-53.57083
 11
50.686375
 21
-54.104162
  0
LINE
  8
St
  6
CONTINUOUS
 10
52.317325
 20
-55.735113
 11
52.850657
 21
-56.268445
  0
INSERT
  2
*GRP_0090
  8
St
  6
DOT
 10
0.0
 20
0.0
  0
INSERT
  2
*GRP_0091
  8
St
  6
DOT
 10
0.0
 20
0.0
  0
INSERT
  2
*GRP_0092
  8
St
  6
DASHDOT
 62
   127
 10
0.0
 20
0.0
  0
LINE
  8
St
  6
CONTINUOUS
 10
12.234438
 20
-35.935085
 11
5.134438
 21
-35.935085
  0
LINE
  8
St
  6
CONTINUOUS
 10
-13.998898
 20
-35.935085
 11
-21.098898
 21
-35.935085
  0
LINE
  8
St
  6
DOT
 10
5.134438
 20
-35.935085
 11
-14.062283
 21
-35.935085
  0
LINE
  8
St
  6
CONTINUOUS
 10
12.234438
 20
-35.935085
 11
12.234438
 21
-39.935083
  0
LINE
  8
St
  6
DOT
 10
12.234438
 20
-39.935083
 11
12.234438
 21
-41.60175
  0
LINE
  8
St
  6
CONTINUOUS
 10
-21.098898
 20
-35.935085
 11
-21.098898
 21
-39.935083
  0
LINE
  8
St
  6
DOT
 10
-21.098898
 20
-39.935083
 11
-21.098898
 21
-41.60175
  0
LINE
  8
St
  6
DOT
 10
12.234438
 20
-41.60175
 11
-21.098898
 21
-41.60175
  0
ARC
  8
St
  6
CONTINUOUS
 10
2.434439
 20
-97.040617
 40
0.533333
 50
0.0
 51
90.0
  0
LINE
  8
St
  6
CONTINUOUS
 10
-4.43223
 20
-97.04063
 11
2.434438
 21
-97.04063
  0
LINE
  8
St
  6
CONTINUOUS
 10
-4.43223
 20
-96.507298
 11
2.434438
 21
-96.507298
  0
ARC
  8
St
  6
CONTINUOUS
 10
-11.298887
 20
-97.040617
 40
0.533333
 50
90.0
 51
180.0
  0
LINE
  8
St
  6
CONTINUOUS
 10
-4.43223
 20
-97.04063
 11
-11.298898
 21
-97.04063
  0
LINE
  8
St
  6
CONTINUOUS
 10
-4.43223
 20
-96.507298
 11
-11.298898
 21
-96.507298
  0
LINE
  8
St
  6
CONTINUOUS
 10
2.434438
 20
-100.34063
 11
2.434438
 21
-97.04063
  0
LINE
  8
St
  6
CONTINUOUS
 10
2.96777
 20
-100.34063
 11
2.96777
 21
-97.04063
  0
LINE
  8
St
  6
CONTINUOUS
 10
-11.83223
 20
-100.34063
 11
-11.83223
 21
-97.04063
  0
LINE
  8
St
  6
CONTINUOUS
 10
-11.298898
 20
-100.34063
 11
-11.298898
 21
-97.04063
  0
LINE
  8
St
  6
CONTINUOUS
 10
-11.83223
 20
-100.34063
 11
-11.298898
 21
-100.34063
  0
LINE
  8
St
  6
CONTINUOUS
 10
2.434438
 20
-100.34063
 11
2.96777
 21
-100.34063
  0
LINE
  8
St
  6
CONTINUOUS
 10
-11.83223
 20
-99.468113
 11
-11.298898
 21
-98.93478
  0
LINE
  8
St
  6
CONTINUOUS
 10
-9.404748
 20
-97.04063
 11
-8.871413
 21
-96.507298
  0
LINE
  8
St
  6
CONTINUOUS
 10
-11.83223
 20
-99.703812
 11
-11.298898
 21
-99.17048
  0
LINE
  8
St
  6
CONTINUOUS
 10
-9.169048
 20
-97.04063
 11
-8.635713
 21
-96.507298
  0
LINE
  8
St
  6
CONTINUOUS
 10
2.434438
 20
-99.468113
 11
2.96777
 21
-98.93478
  0
LINE
  8
St
  6
CONTINUOUS
 10
2.434438
 20
-99.703812
 11
2.96777
 21
-99.17048
  0
LINE
  8
St
  6
CONTINUOUS
 10
-1.109313
 20
-97.04063
 11
-0.57598
 21
-96.507298
  0
LINE
  8
St
  6
CONTINUOUS
 10
-0.873613
 20
-97.04063
 11
-0.34028
 21
-96.507298
  0
LINE
  8
St
  6
CONTINUOUS
 10
12.234438
 20
-95.007298
 11
5.134438
 21
-95.007298
  0
LINE
  8
St
  6
CONTINUOUS
 10
-13.998898
 20
-95.007298
 11
-21.098898
 21
-95.007298
  0
LINE
  8
St
  6
DOT
 10
5.134438
 20
-95.007298
 11
-14.06228
 21
-95.007298
  0
LINE
  8
St
  6
CONTINUOUS
 10
12.234438
 20
-95.007298
 11
12.234438
 21
-99.007298
  0
LINE
  8
St
  6
DOT
 10
12.234438
 20
-99.007298
 11
12.234438
 21
-100.673963
  0
LINE
  8
St
  6
CONTINUOUS
 10
-21.098898
 20
-95.007298
 11
-21.098898
 21
-99.007298
  0
LINE
  8
St
  6
DOT
 10
-21.098898
 20
-99.007298
 11
-21.098898
 21
-100.673963
  0
LINE
  8
St
  6
DOT
 10
12.234438
 20
-100.673963
 11
-21.098898
 21
-100.673963
  0
LINE
  8
その他部品等
  6
CONTINUOUS
 10
-98.350778
 20
-56.935065
 11
-98.350778
 21
-61.935065
  0
LINE
  8
その他部品等
  6
CONTINUOUS
 10
-95.818435
 20
-56.935065
 11
-95.818435
 21
-61.590528
  0
LINE
  8
その他部品等
  6
CONTINUOUS
 10
-93.88421
 20
-61.327368
 11
-95.818435
 21
-56.935065
  0
INSERT
  2
*HAT_0012
  8
その他部品等
 10
0.0
 20
0.0
  0
LINE
  8
その他部品等
  6
CONTINUOUS
 10
89.486318
 20
-56.935065
 11
89.486318
 21
-61.935065
  0
LINE
  8
その他部品等
  6
CONTINUOUS
 10
86.953975
 20
-56.935065
 11
86.953975
 21
-61.590528
  0
LINE
  8
その他部品等
  6
CONTINUOUS
 10
85.01975
 20
-61.327368
 11
86.953975
 21
-56.935065
  0
LINE
  8
その他部品等
  6
CONTINUOUS
 10
122.286457
 20
-86.470225
 11
116.15324
 21
-86.470225
  0
LINE
  8
その他部品等
  6
CONTINUOUS
 10
122.286457
 20
-83.803557
 11
116.15324
 21
-83.803557
  0
LINE
  8
その他部品等
  6
CONTINUOUS
 10
116.15324
 20
-81.136892
 11
121.119758
 21
-81.136892
  0
LINE
  8
その他部品等
  6
CONTINUOUS
 10
121.119758
 20
-81.136892
 11
121.119758
 21
-83.803557
  0
LINE
  8
その他部品等
  6
CONTINUOUS
 10
121.119758
 20
-81.136892
 11
116.15324
 21
-83.803557
  0
INSERT
  2
*HAT_0013
  8
その他部品等
 10
0.0
 20
0.0
  0
INSERT
  2
*HAT_0014
  8
その他部品等
 10
0.0
 20
0.0
  0
LINE
  8
その他部品等
  6
CONTINUOUS
 10
-131.150918
 20
-86.470225
 11
-125.0177
 21
-86.470225
  0
LINE
  8
その他部品等
  6
CONTINUOUS
 10
-131.150918
 20
-83.803557
 11
-125.0177
 21
-83.803557
  0
LINE
  8
その他部品等
  6
CONTINUOUS
 10
-125.0177
 20
-81.136892
 11
-129.984217
 21
-81.136892
  0
LINE
  8
その他部品等
  6
CONTINUOUS
 10
-129.984217
 20
-81.136892
 11
-129.984217
 21
-83.803557
  0
LINE
  8
その他部品等
  6
CONTINUOUS
 10
-129.984217
 20
-81.136892
 11
-125.0177
 21
-83.803557
  0
INSERT
  2
*HAT_0015
  8
その他部品等
 10
0.0
 20
0.0
  0
CIRCLE
  8
LAYER010
  6
CONTINUOUS
 62
     7
 10
-98.350782
 20
-51.935092
 40
0.11111
  0
CIRCLE
  8
LAYER010
  6
CONTINUOUS
 62
     7
 10
89.486322
 20
-51.935092
 40
0.11111
  0
ENDSEC
  0
EOF
