  0
SECTION
  2
HEADER
  9
$EXTMIN
 10
-210.0
 20
-148.5
  9
$EXTMAX
 10
210.0
 20
148.5
  9
$PDMODE
 70
    32
  9
$PDSIZE
 40
0.3
  9
$LTSCALE
 40
10.0
  0
ENDSEC
  0
SECTION
  2
TABLES
  0
TABLE
  2
LTYPE
 70
    15
  0
LTYPE
  2
CONTINUOUS
 70
    64
  3
実線
 72
    65
 73
     0
 40
0.0
  0
LTYPE
  2
DASHED
 70
    64
  3
破線A
 72
    65
 73
     2
 40
0.6
 49
0.4
 49
-0.2
  0
LTYPE
  2
DASHEDX2
 70
    64
  3
破線B
 72
    65
 73
     2
 40
1.3
 49
0.9
 49
-0.4
  0
LTYPE
  2
DASHDOT
 70
    64
  3
１点鎖線A
 72
    65
 73
     4
 40
0.5375
 49
0.375
 49
-0.05
 49
0.0625
 49
-0.05
  0
LTYPE
  2
DASHDOTX2
 70
    64
  3
１点鎖線B
 72
    65
 73
     4
 40
1.075
 49
0.75
 49
-0.1
 49
0.125
 49
-0.1
  0
LTYPE
  2
DIVIDE2
 70
    64
  3
２点鎖線A
 72
    65
 73
     6
 40
0.5125
 49
0.3
 49
-0.0375
 49
0.05
 49
-0.0375
 49
0.05
 49
-0.0375
  0
LTYPE
  2
DIVIDE
 70
    64
  3
２点鎖線B
 72
    65
 73
     6
 40
1.05
 49
0.55
 49
-0.1
 49
0.1
 49
-0.1
 49
0.1
 49
-0.1
  0
LTYPE
  2
DOT
 70
    64
  3
点線A
 72
    65
 73
     2
 40
0.1125
 49
0.0625
 49
-0.05
  0
LTYPE
  2
DOTX2
 70
    64
  3
点線B
 72
    65
 73
     2
 40
0.275
 49
0.15
 49
-0.125
  0
LTYPE
  2
CONTINUOUS
 70
    64
  3
実線
 72
    65
 73
     0
 40
0.0
  0
LTYPE
  2
CONTINUOUS
 70
    64
  3
実線
 72
    65
 73
     0
 40
0.0
  0
LTYPE
  2
CONTINUOUS
 70
    64
  3
実線
 72
    65
 73
     0
 40
0.0
  0
LTYPE
  2
CONTINUOUS
 70
    64
  3
実線
 72
    65
 73
     0
 40
0.0
  0
LTYPE
  2
CONTINUOUS
 70
    64
  3
実線
 72
    65
 73
     0
 40
0.0
  0
LTYPE
  2
CONTINUOUS
 70
    64
  3
実線
 72
    65
 73
     0
 40
0.0
  0
ENDTAB
  0
TABLE
  2
LAYER
 70
    41
  0
LAYER
  2
通り芯
 70
     0
 62
    15
  6
CONTINUOUS
  0
LAYER
  2
補助線
 70
     0
 62
    16
  6
DOT
  0
LAYER
  2
躯体
 70
     0
 62
    31
  6
CONTINUOUS
  0
LAYER
  2
型材
 70
     0
 62
    32
  6
CONTINUOUS
  0
LAYER
  2
型材断面
 70
     0
 62
    47
  6
CONTINUOUS
  0
LAYER
  2
ガラス
 70
     0
 62
    48
  6
CONTINUOUS
  0
LAYER
  2
ゴム等
 70
     0
 62
    63
  6
CONTINUOUS
  0
LAYER
  2
ボルト／ビス
 70
     0
 62
    64
  6
CONTINUOUS
  0
LAYER
  2
文字
 70
     0
 62
    79
  6
CONTINUOUS
  0
LAYER
  2
寸法
 70
     0
 62
    80
  6
CONTINUOUS
  0
LAYER
  2
ﾊｯﾁﾝｸﾞ
 70
     0
 62
    95
  6
CONTINUOUS
  0
LAYER
  2
別途部材
 70
     0
 62
    96
  6
CONTINUOUS
  0
LAYER
  2
曲げ物
 70
     0
 62
   111
  6
CONTINUOUS
  0
LAYER
  2
鉄骨等
 70
     0
 62
   112
  6
CONTINUOUS
  0
LAYER
  2
St
 70
     0
 62
   127
  6
CONTINUOUS
  0
LAYER
  2
その他部品等
 70
     0
 62
   128
  6
CONTINUOUS
  0
LAYER
  2
ｶﾞｽｹｯﾄ
 70
     0
 62
   143
  6
CONTINUOUS
  0
LAYER
  2
ｽｹｯﾁ
 70
     0
 62
    14
  6
CONTINUOUS
  0
LAYER
  2
0
 70
     0
 62
    17
  6
CONTINUOUS
  0
LAYER
  2
1
 70
     0
 62
    30
  6
CONTINUOUS
  0
LAYER
  2
4
 70
     0
 62
    33
  6
CONTINUOUS
  0
LAYER
  2
ﾚｲﾔ3
 70
     0
 62
    46
  6
CONTINUOUS
  0
LAYER
  2
外形線
 70
     0
 62
    49
  6
CONTINUOUS
  0
LAYER
  2
部品
 70
     0
 62
    14
  6
CONTINUOUS
  0
LAYER
  2
サッシ芯
 70
     0
 62
    17
  6
DASHDOTX2
  0
LAYER
  2
寸法線
 70
     0
 62
    62
  6
CONTINUOUS
  0
LAYER
  2
姿図外形線
 70
     0
 62
    65
  6
CONTINUOUS
  0
LAYER
  2
姿補助線
 70
     0
 62
    30
  6
CONTINUOUS
  0
LAYER
  2
透視線
 70
     0
 62
    78
  6
DOT
  0
LAYER
  2
用紙
 70
     0
 62
    81
  6
CONTINUOUS
  0
LAYER
  2
実線図枠
 70
     0
 62
    94
  6
CONTINUOUS
  0
LAYER
  2
補助図枠
 70
     0
 62
    97
  6
CONTINUOUS
  0
LAYER
  2
建具記号
 70
     0
 62
   110
  6
CONTINUOUS
  0
LAYER
  2
補助文字
 70
     0
 62
   113
  6
CONTINUOUS
  0
LAYER
  2
LAYER001
 70
     0
 62
     7
  6
CONTINUOUS
  0
LAYER
  2
LAYER010
 70
     0
 62
    11
  6
CONTINUOUS
  0
LAYER
  2
LAYER011
 70
     0
 62
    12
  6
CONTINUOUS
  0
LAYER
  2
LAYER013
 70
     0
 62
    14
  6
CONTINUOUS
  0
LAYER
  2
LAYER026
 70
     0
 62
    11
  6
CONTINUOUS
  0
LAYER
  2
断面線04
 70
     0
 62
     4
  6
CONTINUOUS
  0
LAYER
  2
投影線02
 70
     0
 62
    12
  6
CONTINUOUS
  0
ENDTAB
  0
TABLE
  2
STYLE
 70
    10
  0
STYLE
  2
STANDARD
 70
     0
 40
1.0
 41
1.0
 42
1.0
 50
0.0
 71
     0
  3
TXT
  4
BIGFONT
  0
STYLE
  2
TATE
 70
     4
 40
1.0
 41
1.0
 42
1.0
 50
0.0
 71
     0
  3
TXT
  4
BIGFONT
  0
STYLE
  2
TextStyle03
 70
     0
 40
1.0
 41
1.0
 42
1.0
 50
0.0
 71
     0
  3
MONOTXT
  4
BIGFONT
  0
STYLE
  2
TextStyle04
 70
     0
 40
1.0
 41
1.0
 42
1.0
 50
0.0
 71
     0
  3
MONOTXT
  4
BIGFONT
  0
STYLE
  2
TextStyle05
 70
     0
 40
1.0
 41
1.0
 42
1.0
 50
0.0
 71
     0
  3
MONOTXT
  4
BIGFONT
  0
STYLE
  2
TextStyle06
 70
     0
 40
1.0
 41
1.0
 42
1.0
 50
0.0
 71
     0
  3
MONOTXT
  4
BIGFONT
  0
STYLE
  2
TextStyle07
 70
     0
 40
1.0
 41
1.0
 42
1.0
 50
0.0
 71
     0
  3
MONOTXT
  4
BIGFONT
  0
STYLE
  2
TextStyle08
 70
     0
 40
1.0
 41
1.0
 42
1.0
 50
0.0
 71
     0
  3
MONOTXT
  4
BIGFONT
  0
STYLE
  2
TextStyle09
 70
     0
 40
1.0
 41
1.0
 42
1.0
 50
0.0
 71
     0
  3
MONOTXT
  4
BIGFONT
  0
STYLE
  2
TextStyle10
 70
     0
 40
1.0
 41
1.0
 42
1.0
 50
0.0
 71
     0
  3
MONOTXT
  4
BIGFONT
  0
ENDTAB
  0
ENDSEC
  0
SECTION
  2
BLOCKS
  0
BLOCK
  2
*HAT_0001
 70
    65
 10
0.0
 20
0.0
  0
LINE
  8
ゴム等
 10
-61.325
 20
-34.375
 11
-61.1
 21
-34.15
  0
LINE
  8
ゴム等
 10
-61.8
 20
-34.375
 11
-61.1
 21
-33.675
  0
LINE
  8
ゴム等
 10
-62.275
 20
-34.375
 11
-61.1
 21
-33.225
  0
LINE
  8
ゴム等
 10
-62.725
 20
-34.375
 11
-61.1
 21
-32.75
  0
LINE
  8
ゴム等
 10
-63.2
 20
-34.375
 11
-61.55
 21
-32.7
  0
LINE
  8
ゴム等
 10
-63.675
 20
-34.375
 11
-62.0
 21
-32.7
  0
LINE
  8
ゴム等
 10
-64.15
 20
-34.375
 11
-62.475
 21
-32.7
  0
LINE
  8
ゴム等
 10
-64.425
 20
-34.2
 11
-62.95
 21
-32.7
  0
LINE
  8
ゴム等
 10
-64.425
 20
-33.725
 11
-63.425
 21
-32.7
  0
LINE
  8
ゴム等
 10
-64.425
 20
-33.25
 11
-63.9
 21
-32.7
  0
LINE
  8
ゴム等
 10
-64.425
 20
-32.775
 11
-64.375
 21
-32.7
  0
ENDBLK
  0
BLOCK
  2
*HAT_0002
 70
    65
 10
0.0
 20
0.0
  0
LINE
  8
ゴム等
 10
52.475
 20
-34.375
 11
52.25
 21
-34.15
  0
LINE
  8
ゴム等
 10
52.95
 20
-34.375
 11
52.25
 21
-33.675
  0
LINE
  8
ゴム等
 10
53.425
 20
-34.375
 11
52.25
 21
-33.225
  0
LINE
  8
ゴム等
 10
53.875
 20
-34.375
 11
52.25
 21
-32.75
  0
LINE
  8
ゴム等
 10
54.35
 20
-34.375
 11
52.7
 21
-32.7
  0
LINE
  8
ゴム等
 10
54.825
 20
-34.375
 11
53.15
 21
-32.7
  0
LINE
  8
ゴム等
 10
55.3
 20
-34.375
 11
53.625
 21
-32.7
  0
LINE
  8
ゴム等
 10
55.575
 20
-34.2
 11
54.1
 21
-32.7
  0
LINE
  8
ゴム等
 10
55.575
 20
-33.725
 11
54.575
 21
-32.7
  0
LINE
  8
ゴム等
 10
55.575
 20
-33.25
 11
55.05
 21
-32.7
  0
LINE
  8
ゴム等
 10
55.575
 20
-32.775
 11
55.525
 21
-32.7
  0
ENDBLK
  0
BLOCK
  2
*HAT_0003
 70
    65
 10
0.0
 20
0.0
  0
LINE
  8
ゴム等
 10
-13.3
 20
-34.35
 11
-13.525
 21
-34.125
  0
LINE
  8
ゴム等
 10
-12.825
 20
-34.35
 11
-13.525
 21
-33.65
  0
LINE
  8
ゴム等
 10
-12.35
 20
-34.35
 11
-13.525
 21
-33.2
  0
LINE
  8
ゴム等
 10
-11.9
 20
-34.35
 11
-13.525
 21
-32.725
  0
LINE
  8
ゴム等
 10
-11.425
 20
-34.35
 11
-13.075
 21
-32.675
  0
LINE
  8
ゴム等
 10
-10.95
 20
-34.35
 11
-12.625
 21
-32.675
  0
LINE
  8
ゴム等
 10
-10.475
 20
-34.35
 11
-12.15
 21
-32.675
  0
LINE
  8
ゴム等
 10
-10.2
 20
-34.175
 11
-11.675
 21
-32.675
  0
LINE
  8
ゴム等
 10
-10.2
 20
-33.7
 11
-11.2
 21
-32.675
  0
LINE
  8
ゴム等
 10
-10.2
 20
-33.225
 11
-10.725
 21
-32.675
  0
LINE
  8
ゴム等
 10
-10.2
 20
-32.75
 11
-10.25
 21
-32.675
  0
ENDBLK
  0
BLOCK
  2
*HAT_0004
 70
    65
 10
0.0
 20
0.0
  0
LINE
  8
ゴム等
  6
DOT
 10
-13.075
 20
-30.4
 11
-12.35
 21
-29.65
  0
LINE
  8
ゴム等
  6
DOT
 10
-13.925
 20
-30.4
 11
-12.35
 21
-28.8
  0
LINE
  8
ゴム等
  6
DOT
 10
-14.775
 20
-30.4
 11
-12.7
 21
-28.325
  0
LINE
  8
ゴム等
  6
DOT
 10
-15.625
 20
-30.4
 11
-13.55
 21
-28.325
  0
LINE
  8
ゴム等
  6
DOT
 10
-15.675
 20
-29.6
 11
-14.4
 21
-28.325
  0
LINE
  8
ゴム等
  6
DOT
 10
-15.675
 20
-28.75
 11
-15.25
 21
-28.325
  0
ENDBLK
  0
BLOCK
  2
*HAT_0005
 70
    65
 10
0.0
 20
0.0
  0
LINE
  8
ゴム等
  6
DOT
 10
4.2
 20
-30.4
 11
3.475
 21
-29.65
  0
LINE
  8
ゴム等
  6
DOT
 10
5.05
 20
-30.4
 11
3.475
 21
-28.8
  0
LINE
  8
ゴム等
  6
DOT
 10
5.9
 20
-30.4
 11
3.825
 21
-28.325
  0
LINE
  8
ゴム等
  6
DOT
 10
6.75
 20
-30.4
 11
4.675
 21
-28.325
  0
LINE
  8
ゴム等
  6
DOT
 10
6.8
 20
-29.6
 11
5.525
 21
-28.325
  0
LINE
  8
ゴム等
  6
DOT
 10
6.8
 20
-28.75
 11
6.375
 21
-28.325
  0
ENDBLK
  0
BLOCK
  2
*HAT_0006
 70
    65
 10
0.0
 20
0.0
  0
LINE
  8
ゴム等
 10
4.425
 20
-34.35
 11
4.65
 21
-34.125
  0
LINE
  8
ゴム等
 10
3.95
 20
-34.35
 11
4.65
 21
-33.65
  0
LINE
  8
ゴム等
 10
3.475
 20
-34.35
 11
4.65
 21
-33.2
  0
LINE
  8
ゴム等
 10
3.025
 20
-34.35
 11
4.65
 21
-32.725
  0
LINE
  8
ゴム等
 10
2.55
 20
-34.35
 11
4.2
 21
-32.675
  0
LINE
  8
ゴム等
 10
2.075
 20
-34.35
 11
3.75
 21
-32.675
  0
LINE
  8
ゴム等
 10
1.6
 20
-34.35
 11
3.275
 21
-32.675
  0
LINE
  8
ゴム等
 10
1.325
 20
-34.175
 11
2.8
 21
-32.675
  0
LINE
  8
ゴム等
 10
1.325
 20
-33.7
 11
2.325
 21
-32.675
  0
LINE
  8
ゴム等
 10
1.325
 20
-33.225
 11
1.85
 21
-32.675
  0
LINE
  8
ゴム等
 10
1.325
 20
-32.75
 11
1.375
 21
-32.675
  0
ENDBLK
  0
BLOCK
  2
*HAT_0007
 70
    65
 10
0.0
 20
0.0
  0
LINE
  8
ゴム等
  6
DOT
 10
52.025
 20
-30.45
 11
52.75
 21
-29.7
  0
LINE
  8
ゴム等
  6
DOT
 10
51.175
 20
-30.45
 11
52.75
 21
-28.85
  0
LINE
  8
ゴム等
  6
DOT
 10
50.325
 20
-30.45
 11
52.4
 21
-28.375
  0
LINE
  8
ゴム等
  6
DOT
 10
49.475
 20
-30.45
 11
51.55
 21
-28.375
  0
LINE
  8
ゴム等
  6
DOT
 10
49.425
 20
-29.65
 11
50.7
 21
-28.375
  0
LINE
  8
ゴム等
  6
DOT
 10
49.425
 20
-28.8
 11
49.85
 21
-28.375
  0
ENDBLK
  0
BLOCK
  2
*HAT_0008
 70
    65
 10
0.0
 20
0.0
  0
LINE
  8
ゴム等
  6
DOT
 10
-60.9
 20
-30.45
 11
-61.625
 21
-29.7
  0
LINE
  8
ゴム等
  6
DOT
 10
-60.05
 20
-30.45
 11
-61.625
 21
-28.85
  0
LINE
  8
ゴム等
  6
DOT
 10
-59.2
 20
-30.45
 11
-61.275
 21
-28.375
  0
LINE
  8
ゴム等
  6
DOT
 10
-58.35
 20
-30.45
 11
-60.425
 21
-28.375
  0
LINE
  8
ゴム等
  6
DOT
 10
-58.3
 20
-29.65
 11
-59.575
 21
-28.375
  0
LINE
  8
ゴム等
  6
DOT
 10
-58.3
 20
-28.8
 11
-58.725
 21
-28.375
  0
ENDBLK
  0
BLOCK
  2
*HAT_0009
 70
    65
 10
0.0
 20
0.0
  0
LINE
  8
ゴム等
 10
-15.725
 20
-89.225
 11
-15.3
 21
-89.675
  0
LINE
  8
ゴム等
 10
-15.725
 20
-88.3
 11
-14.35
 21
-89.675
  0
LINE
  8
ゴム等
 10
-15.5
 20
-87.6
 11
-13.425
 21
-89.675
  0
LINE
  8
ゴム等
 10
-14.55
 20
-87.6
 11
-12.475
 21
-89.675
  0
LINE
  8
ゴム等
 10
-13.6
 20
-87.6
 11
-12.4
 21
-88.8
  0
LINE
  8
ゴム等
 10
-12.65
 20
-87.6
 11
-12.4
 21
-87.85
  0
ENDBLK
  0
BLOCK
  2
*HAT_0010
 70
    65
 10
0.0
 20
0.0
  0
LINE
  8
ゴム等
 10
3.475
 20
-89.225
 11
3.9
 21
-89.675
  0
LINE
  8
ゴム等
 10
3.475
 20
-88.3
 11
4.85
 21
-89.675
  0
LINE
  8
ゴム等
 10
3.7
 20
-87.6
 11
5.775
 21
-89.675
  0
LINE
  8
ゴム等
 10
4.65
 20
-87.6
 11
6.725
 21
-89.675
  0
LINE
  8
ゴム等
 10
5.6
 20
-87.6
 11
6.8
 21
-88.8
  0
LINE
  8
ゴム等
 10
6.55
 20
-87.6
 11
6.8
 21
-87.85
  0
ENDBLK
  0
BLOCK
  2
*HAT_0011
 70
    65
 10
0.0
 20
0.0
  0
LINE
  8
型材断面
  6
DOT
 10
136.175
 20
21.7
 11
135.725
 21
22.15
  0
LINE
  8
型材断面
  6
DOT
 10
137.2
 20
21.525
 11
135.725
 21
23.0
  0
LINE
  8
型材断面
  6
DOT
 10
138.225
 20
21.35
 11
135.725
 21
23.85
  0
LINE
  8
型材断面
  6
DOT
 10
138.375
 20
22.025
 11
136.525
 21
23.9
  0
LINE
  8
型材断面
  6
DOT
 10
138.375
 20
22.875
 11
137.375
 21
23.9
  0
LINE
  8
型材断面
  6
DOT
 10
138.375
 20
23.725
 11
138.2
 21
23.9
  0
ENDBLK
  0
BLOCK
  2
*HAT_0012
 70
    65
 10
0.0
 20
0.0
  0
LINE
  8
その他部品等
 10
-96.05
 20
-59.4
 11
-95.825
 21
-59.15
  0
LINE
  8
その他部品等
 10
-97.15
 20
-59.55
 11
-95.825
 21
-58.225
  0
LINE
  8
その他部品等
 10
-98.225
 20
-59.7
 11
-95.825
 21
-57.275
  0
LINE
  8
その他部品等
 10
-98.375
 20
-58.875
 11
-95.825
 21
-56.35
  0
LINE
  8
その他部品等
 10
-98.375
 20
-57.925
 11
-95.825
 21
-55.4
  0
LINE
  8
その他部品等
 10
-98.375
 20
-57.0
 11
-96.075
 21
-54.7
  0
LINE
  8
その他部品等
 10
-98.375
 20
-56.05
 11
-97.025
 21
-54.7
  0
LINE
  8
その他部品等
 10
-98.375
 20
-55.1
 11
-97.95
 21
-54.7
  0
LINE
  8
その他部品等
 10
-98.375
 20
-59.4
 11
-98.1
 21
-59.675
  0
LINE
  8
その他部品等
 10
-98.375
 20
-58.45
 11
-97.275
 21
-59.55
  0
LINE
  8
その他部品等
 10
-98.375
 20
-57.525
 11
-96.45
 21
-59.45
  0
LINE
  8
その他部品等
 10
-98.375
 20
-56.575
 11
-95.825
 21
-59.1
  0
LINE
  8
その他部品等
 10
-98.375
 20
-55.65
 11
-95.825
 21
-58.175
  0
LINE
  8
その他部品等
 10
-98.375
 20
-54.7
 11
-95.825
 21
-57.225
  0
LINE
  8
その他部品等
 10
-97.425
 20
-54.7
 11
-95.825
 21
-56.3
  0
LINE
  8
その他部品等
 10
-96.475
 20
-54.7
 11
-95.825
 21
-55.35
  0
ENDBLK
  0
BLOCK
  2
*HAT_0013
 70
    65
 10
0.0
 20
0.0
  0
LINE
  8
その他部品等
 10
87.2
 20
-59.4
 11
86.975
 21
-59.15
  0
LINE
  8
その他部品等
 10
88.3
 20
-59.55
 11
86.975
 21
-58.225
  0
LINE
  8
その他部品等
 10
89.375
 20
-59.7
 11
86.975
 21
-57.275
  0
LINE
  8
その他部品等
 10
89.525
 20
-58.875
 11
86.975
 21
-56.35
  0
LINE
  8
その他部品等
 10
89.525
 20
-57.925
 11
86.975
 21
-55.4
  0
LINE
  8
その他部品等
 10
89.525
 20
-57.0
 11
87.225
 21
-54.7
  0
LINE
  8
その他部品等
 10
89.525
 20
-56.05
 11
88.175
 21
-54.7
  0
LINE
  8
その他部品等
 10
89.525
 20
-55.1
 11
89.1
 21
-54.7
  0
LINE
  8
その他部品等
 10
89.525
 20
-59.4
 11
89.25
 21
-59.675
  0
LINE
  8
その他部品等
 10
89.525
 20
-58.45
 11
88.425
 21
-59.55
  0
LINE
  8
その他部品等
 10
89.525
 20
-57.525
 11
87.6
 21
-59.45
  0
LINE
  8
その他部品等
 10
89.525
 20
-56.575
 11
86.975
 21
-59.1
  0
LINE
  8
その他部品等
 10
89.525
 20
-55.65
 11
86.975
 21
-58.175
  0
LINE
  8
その他部品等
 10
89.525
 20
-54.7
 11
86.975
 21
-57.225
  0
LINE
  8
その他部品等
 10
88.575
 20
-54.7
 11
86.975
 21
-56.3
  0
LINE
  8
その他部品等
 10
87.625
 20
-54.7
 11
86.975
 21
-55.35
  0
ENDBLK
  0
BLOCK
  2
*HAT_0014
 70
    65
 10
0.0
 20
0.0
  0
LINE
  8
その他部品等
 10
116.775
 20
-84.25
 11
116.175
 21
-83.65
  0
LINE
  8
その他部品等
 10
117.7
 20
-84.25
 11
116.175
 21
-82.725
  0
LINE
  8
その他部品等
 10
118.65
 20
-84.25
 11
116.175
 21
-81.775
  0
LINE
  8
その他部品等
 10
119.575
 20
-84.25
 11
116.925
 21
-81.575
  0
LINE
  8
その他部品等
 10
120.525
 20
-84.25
 11
117.85
 21
-81.575
  0
LINE
  8
その他部品等
 10
121.475
 20
-84.25
 11
118.8
 21
-81.575
  0
LINE
  8
その他部品等
 10
122.325
 20
-84.15
 11
119.725
 21
-81.575
  0
LINE
  8
その他部品等
 10
122.325
 20
-83.2
 11
120.675
 21
-81.575
  0
LINE
  8
その他部品等
 10
122.325
 20
-82.25
 11
121.625
 21
-81.575
  0
LINE
  8
その他部品等
 10
122.325
 20
-84.025
 11
122.1
 21
-84.25
  0
LINE
  8
その他部品等
 10
122.325
 20
-83.075
 11
121.15
 21
-84.25
  0
LINE
  8
その他部品等
 10
122.325
 20
-82.15
 11
120.225
 21
-84.25
  0
LINE
  8
その他部品等
 10
121.95
 20
-81.575
 11
119.275
 21
-84.25
  0
LINE
  8
その他部品等
 10
121.0
 20
-81.575
 11
118.325
 21
-84.25
  0
LINE
  8
その他部品等
 10
120.075
 20
-81.575
 11
117.4
 21
-84.25
  0
LINE
  8
その他部品等
 10
119.125
 20
-81.575
 11
116.45
 21
-84.25
  0
LINE
  8
その他部品等
 10
118.175
 20
-81.575
 11
116.175
 21
-83.575
  0
LINE
  8
その他部品等
 10
117.225
 20
-81.575
 11
116.175
 21
-82.625
  0
LINE
  8
その他部品等
 10
116.3
 20
-81.575
 11
116.175
 21
-81.7
  0
ENDBLK
  0
BLOCK
  2
*HAT_0015
 70
    65
 10
0.0
 20
0.0
  0
LINE
  8
その他部品等
 10
-125.65
 20
-84.25
 11
-125.05
 21
-83.65
  0
LINE
  8
その他部品等
 10
-126.575
 20
-84.25
 11
-125.05
 21
-82.725
  0
LINE
  8
その他部品等
 10
-127.525
 20
-84.25
 11
-125.05
 21
-81.775
  0
LINE
  8
その他部品等
 10
-128.45
 20
-84.25
 11
-125.8
 21
-81.575
  0
LINE
  8
その他部品等
 10
-129.4
 20
-84.25
 11
-126.725
 21
-81.575
  0
LINE
  8
その他部品等
 10
-130.35
 20
-84.25
 11
-127.675
 21
-81.575
  0
LINE
  8
その他部品等
 10
-131.2
 20
-84.15
 11
-128.6
 21
-81.575
  0
LINE
  8
その他部品等
 10
-131.2
 20
-83.2
 11
-129.55
 21
-81.575
  0
LINE
  8
その他部品等
 10
-131.2
 20
-82.25
 11
-130.5
 21
-81.575
  0
LINE
  8
その他部品等
 10
-131.2
 20
-84.025
 11
-130.975
 21
-84.25
  0
LINE
  8
その他部品等
 10
-131.2
 20
-83.075
 11
-130.025
 21
-84.25
  0
LINE
  8
その他部品等
 10
-131.2
 20
-82.15
 11
-129.1
 21
-84.25
  0
LINE
  8
その他部品等
 10
-130.825
 20
-81.575
 11
-128.15
 21
-84.25
  0
LINE
  8
その他部品等
 10
-129.875
 20
-81.575
 11
-127.2
 21
-84.25
  0
LINE
  8
その他部品等
 10
-128.95
 20
-81.575
 11
-126.275
 21
-84.25
  0
LINE
  8
その他部品等
 10
-128.0
 20
-81.575
 11
-125.325
 21
-84.25
  0
LINE
  8
その他部品等
 10
-127.05
 20
-81.575
 11
-125.05
 21
-83.575
  0
LINE
  8
その他部品等
 10
-126.1
 20
-81.575
 11
-125.05
 21
-82.625
  0
LINE
  8
その他部品等
 10
-125.175
 20
-81.575
 11
-125.05
 21
-81.7
  0
ENDBLK
  0
BLOCK
  2
*GRP_0001
 70
    65
 10
0.0
 20
0.0
  0
LINE
  8
型材断面
  6
CONTINUOUS
 10
189.85
 20
133.5
 11
189.85
 21
-133.5
  0
LINE
  8
型材断面
  6
CONTINUOUS
 10
189.85
 20
-133.5
 11
-190.15
 21
-133.5
  0
LINE
  8
型材断面
  6
CONTINUOUS
 10
-190.15
 20
-133.5
 11
-190.15
 21
133.5
  0
LINE
  8
型材断面
  6
CONTINUOUS
 10
189.85
 20
133.5
 11
-190.15
 21
133.5
  0
LINE
  8
型材断面
  6
CONTINUOUS
 10
139.85
 20
-133.5
 11
139.85
 21
-118.5
  0
LINE
  8
型材断面
  6
CONTINUOUS
 10
189.85
 20
-118.5
 11
139.85
 21
-118.5
  0
ENDBLK
  0
BLOCK
  2
*GRP_0002
 70
    65
 10
0.0
 20
0.0
  0
LINE
  8
曲げ物
  6
CONTINUOUS
 10
120.48658
 20
-77.904457
 11
120.48653
 21
-97.904457
  0
LINE
  8
曲げ物
  6
DOT
 10
120.153255
 20
-77.904457
 11
120.153205
 21
-97.904457
  0
LINE
  8
曲げ物
  6
CONTINUOUS
 10
117.15324
 20
-77.904457
 11
117.153215
 21
-97.904457
  0
LINE
  8
曲げ物
  6
DOT
 10
117.48659
 20
-77.904457
 11
117.48654
 21
-97.904457
  0
LINE
  8
曲げ物
  6
CONTINUOUS
 10
120.48653
 20
-97.904457
 11
117.153215
 21
-97.904457
  0
LINE
  8
曲げ物
  6
CONTINUOUS
 10
120.48658
 20
-77.904457
 11
117.15324
 21
-77.904457
  0
ENDBLK
  0
BLOCK
  2
*GRP_0003
 70
    65
 10
0.0
 20
0.0
  0
LINE
  8
曲げ物
  6
CONTINUOUS
 10
-126.01768
 20
-77.904457
 11
-126.01773
 21
-97.904457
  0
LINE
  8
曲げ物
  6
DOT
 10
-126.351005
 20
-77.904457
 11
-126.351055
 21
-97.904457
  0
LINE
  8
曲げ物
  6
CONTINUOUS
 10
-129.35102
 20
-77.904457
 11
-129.351045
 21
-97.904457
  0
LINE
  8
曲げ物
  6
DOT
 10
-129.01767
 20
-77.904457
 11
-129.01772
 21
-97.904457
  0
LINE
  8
曲げ物
  6
CONTINUOUS
 10
-126.01773
 20
-97.904457
 11
-129.351045
 21
-97.904457
  0
LINE
  8
曲げ物
  6
CONTINUOUS
 10
-126.01768
 20
-77.904457
 11
-129.35102
 21
-77.904457
  0
ENDBLK
  0
BLOCK
  2
*GRP_0004
 70
    65
 10
0.0
 20
0.0
  0
LINE
  8
型材断面
  6
CONTINUOUS
 62
    47
 10
-131.68421
 20
-64.23779
 11
-131.68425
 21
-84.23779
  0
LINE
  8
型材断面
  6
CONTINUOUS
 10
-131.150885
 20
-81.071123
 11
-130.484217
 21
-81.071123
  0
LINE
  8
型材断面
  6
CONTINUOUS
 10
-129.984217
 20
-80.23779
 11
-130.484217
 21
-80.23779
  0
LINE
  8
型材断面
  6
CONTINUOUS
 10
-130.484217
 20
-81.071123
 11
-130.484217
 21
-80.23779
  0
LINE
  8
型材断面
  6
CONTINUOUS
 10
-129.984217
 20
-81.23779
 11
-129.984217
 21
-80.23779
  0
LINE
  8
型材断面
  6
CONTINUOUS
 10
-131.150885
 20
-81.571123
 11
-130.31755
 21
-81.571123
  0
ARC
  8
型材断面
  6
CONTINUOUS
 10
-130.317554
 20
-81.237795
 40
0.333333
 50
-90.0
 51
0.0
  0
LINE
  8
型材断面
  6
CONTINUOUS
 62
    47
 10
-131.68425
 20
-84.23779
 11
-131.150918
 21
-84.23779
  0
LINE
  8
型材断面
  6
CONTINUOUS
 10
-131.15088
 20
-64.703475
 11
-131.15091
 21
-81.071123
  0
LINE
  8
型材断面
  6
CONTINUOUS
 10
-131.150912
 20
-81.571123
 11
-131.150918
 21
-84.23779
  0
LINE
  8
型材断面
  6
CONTINUOUS
 10
-126.889207
 20
-64.122253
 11
-126.7973
 21
-64.783962
  0
LINE
  8
型材断面
  6
CONTINUOUS
 10
-126.7973
 20
-64.783962
 11
-125.542192
 21
-64.613198
  0
LINE
  8
型材断面
  6
CONTINUOUS
 10
-125.542192
 20
-64.613198
 11
-125.473405
 21
-65.108447
  0
LINE
  8
型材断面
  6
CONTINUOUS
 10
-125.473405
 20
-65.108447
 11
-127.223953
 21
-65.346617
  0
LINE
  8
型材断面
  6
CONTINUOUS
 10
-127.384455
 20
-64.191038
 11
-127.223953
 21
-65.346617
  0
LINE
  8
型材断面
  6
CONTINUOUS
 10
-107.39555
 20
-61.470053
 11
-107.30733
 21
-62.132262
  0
LINE
  8
型材断面
  6
CONTINUOUS
 10
-107.30733
 20
-62.132262
 11
-108.56244
 21
-62.303028
  0
LINE
  8
型材断面
  6
CONTINUOUS
 10
-108.56244
 20
-62.303028
 11
-108.496413
 21
-62.798653
  0
LINE
  8
型材断面
  6
CONTINUOUS
 10
-108.496413
 20
-62.798653
 11
-106.745865
 21
-62.560483
  0
LINE
  8
型材断面
  6
CONTINUOUS
 10
-106.899928
 20
-61.404028
 11
-106.745865
 21
-62.560483
  0
LINE
  8
型材断面
  6
CONTINUOUS
 10
-95.23627
 20
-60.489942
 11
-95.167483
 21
-60.98519
  0
LINE
  8
型材断面
  6
CONTINUOUS
 10
-93.350878
 20
-60.738033
 11
-95.167483
 21
-60.98519
  0
LINE
  8
型材断面
  6
CONTINUOUS
 10
-95.23627
 20
-60.489942
 11
-93.850878
 21
-60.301452
  0
LINE
  8
型材断面
  6
CONTINUOUS
 10
-93.850878
 20
-60.301452
 11
-93.850878
 21
-59.628645
  0
LINE
  8
型材断面
  6
CONTINUOUS
 10
-131.15088
 20
-64.703475
 11
-127.384455
 21
-64.191038
  0
LINE
  8
型材断面
  6
CONTINUOUS
 10
-126.889015
 20
-64.12363
 11
-107.395365
 21
-61.471432
  0
LINE
  8
型材断面
  6
CONTINUOUS
 10
-106.899928
 20
-61.404028
 11
-93.850878
 21
-59.628645
  0
LINE
  8
型材断面
  6
CONTINUOUS
 10
-93.88421
 20
-55.194932
 11
-93.350878
 21
-55.194932
  0
LINE
  8
型材断面
  6
CONTINUOUS
 62
    47
 10
-93.350878
 20
-60.704392
 11
-93.350878
 21
-55.194932
  0
LINE
  8
型材断面
  6
CONTINUOUS
 10
-93.88421
 20
-55.194932
 11
-93.88421
 21
-59.094932
  0
LINE
  8
型材断面
  6
CONTINUOUS
 10
-131.68421
 20
-64.23779
 11
-93.88421
 21
-59.094932
  0
ENDBLK
  0
BLOCK
  2
*GRP_0005
 70
    65
 10
0.0
 20
0.0
  0
LINE
  8
型材断面
  6
CONTINUOUS
 62
    47
 10
122.81975
 20
-64.23779
 11
122.81979
 21
-84.23779
  0
LINE
  8
型材断面
  6
CONTINUOUS
 10
122.286425
 20
-81.071123
 11
121.619758
 21
-81.071123
  0
LINE
  8
型材断面
  6
CONTINUOUS
 10
121.119758
 20
-80.23779
 11
121.619758
 21
-80.23779
  0
LINE
  8
型材断面
  6
CONTINUOUS
 10
121.619758
 20
-81.071123
 11
121.619758
 21
-80.23779
  0
LINE
  8
型材断面
  6
CONTINUOUS
 10
121.119758
 20
-81.23779
 11
121.119758
 21
-80.23779
  0
LINE
  8
型材断面
  6
CONTINUOUS
 10
122.286425
 20
-81.571123
 11
121.45309
 21
-81.571123
  0
ARC
  8
型材断面
  6
CONTINUOUS
 10
121.453094
 20
-81.237795
 40
0.333333
 50
180.0
 51
270.0
  0
LINE
  8
型材断面
  6
CONTINUOUS
 62
    47
 10
122.81979
 20
-84.23779
 11
122.286457
 21
-84.23779
  0
LINE
  8
型材断面
  6
CONTINUOUS
 10
122.28642
 20
-64.703475
 11
122.28645
 21
-81.071123
  0
LINE
  8
型材断面
  6
CONTINUOUS
 10
122.286453
 20
-81.571123
 11
122.286457
 21
-84.23779
  0
LINE
  8
型材断面
  6
CONTINUOUS
 10
118.024748
 20
-64.122253
 11
117.93284
 21
-64.783962
  0
LINE
  8
型材断面
  6
CONTINUOUS
 10
117.93284
 20
-64.783962
 11
116.677732
 21
-64.613198
  0
LINE
  8
型材断面
  6
CONTINUOUS
 10
116.677732
 20
-64.613198
 11
116.608945
 21
-65.108447
  0
LINE
  8
型材断面
  6
CONTINUOUS
 10
116.608945
 20
-65.108447
 11
118.359492
 21
-65.346617
  0
LINE
  8
型材断面
  6
CONTINUOUS
 10
118.519995
 20
-64.191038
 11
118.359492
 21
-65.346617
  0
LINE
  8
型材断面
  6
CONTINUOUS
 10
98.53109
 20
-61.470053
 11
98.44287
 21
-62.132262
  0
LINE
  8
型材断面
  6
CONTINUOUS
 10
98.44287
 20
-62.132262
 11
99.69798
 21
-62.303028
  0
LINE
  8
型材断面
  6
CONTINUOUS
 10
99.69798
 20
-62.303028
 11
99.631953
 21
-62.798653
  0
LINE
  8
型材断面
  6
CONTINUOUS
 10
99.631953
 20
-62.798653
 11
97.881405
 21
-62.560483
  0
LINE
  8
型材断面
  6
CONTINUOUS
 10
98.035468
 20
-61.404028
 11
97.881405
 21
-62.560483
  0
LINE
  8
型材断面
  6
CONTINUOUS
 10
86.37181
 20
-60.489942
 11
86.303023
 21
-60.98519
  0
LINE
  8
型材断面
  6
CONTINUOUS
 10
84.486418
 20
-60.738033
 11
86.303023
 21
-60.98519
  0
LINE
  8
型材断面
  6
CONTINUOUS
 10
86.37181
 20
-60.489942
 11
84.986418
 21
-60.301452
  0
LINE
  8
型材断面
  6
CONTINUOUS
 10
84.986418
 20
-60.301452
 11
84.986418
 21
-59.628645
  0
LINE
  8
型材断面
  6
CONTINUOUS
 10
122.28642
 20
-64.703475
 11
118.519995
 21
-64.191038
  0
LINE
  8
型材断面
  6
CONTINUOUS
 10
118.024555
 20
-64.12363
 11
98.530905
 21
-61.471432
  0
LINE
  8
型材断面
  6
CONTINUOUS
 10
98.035468
 20
-61.404028
 11
84.986418
 21
-59.628645
  0
LINE
  8
型材断面
  6
CONTINUOUS
 10
85.01975
 20
-55.194932
 11
84.486418
 21
-55.194932
  0
LINE
  8
型材断面
  6
CONTINUOUS
 62
    47
 10
84.486418
 20
-60.704392
 11
84.486418
 21
-55.194932
  0
LINE
  8
型材断面
  6
CONTINUOUS
 10
85.01975
 20
-55.194932
 11
85.01975
 21
-59.094932
  0
LINE
  8
型材断面
  6
CONTINUOUS
 10
122.81975
 20
-64.23779
 11
85.01975
 21
-59.094932
  0
ENDBLK
  0
BLOCK
  2
*GRP_0006
 70
    65
 10
0.0
 20
0.0
  0
LINE
  8
型材断面
  6
CONTINUOUS
 62
    47
 10
-59.017502
 20
-54.03601
 11
-59.017502
 21
-43.712145
  0
LINE
  8
型材断面
  6
CONTINUOUS
 62
    47
 10
-97.684238
 20
-50.26584
 11
-59.017502
 21
-43.712145
  0
LINE
  8
型材断面
  6
CONTINUOUS
 62
    47
 10
-97.684238
 20
-50.26584
 11
-97.684238
 21
-54.03601
  0
LINE
  8
型材断面
  6
CONTINUOUS
 62
    47
 10
-93.350865
 20
-54.702635
 11
-98.350782
 21
-54.702635
  0
LINE
  8
型材断面
  6
CONTINUOUS
 62
    47
 10
-64.884133
 20
-54.03601
 11
-59.017502
 21
-54.03601
  0
LINE
  8
型材断面
  6
CONTINUOUS
 62
    47
 10
-64.884133
 20
-54.702635
 11
-58.350845
 21
-54.702635
  0
LINE
  8
型材断面
  6
CONTINUOUS
 62
    47
 10
-65.017522
 20
-54.569305
 11
-65.017522
 21
-54.169283
  0
LINE
  8
型材断面
  6
CONTINUOUS
 62
    47
 10
-90.1508
 20
-54.03601
 11
-97.684238
 21
-54.03601
  0
LINE
  8
型材断面
  6
CONTINUOUS
 62
    47
 10
-90.1508
 20
-54.702635
 11
-92.68415
 21
-54.702635
  0
LINE
  8
型材断面
  6
CONTINUOUS
 62
    47
 10
-90.017527
 20
-54.569305
 11
-90.017527
 21
-54.169283
  0
LINE
  8
型材断面
  6
CONTINUOUS
 62
    47
 10
-98.350782
 20
-54.702635
 11
-98.350782
 21
-49.702657
  0
LINE
  8
型材断面
  6
CONTINUOUS
 62
    47
 10
-98.350782
 20
-49.702657
 11
-69.017468
 21
-44.730853
  0
LINE
  8
型材断面
  6
CONTINUOUS
 62
    47
 10
-68.35086
 20
-44.617853
 11
-59.017502
 21
-43.035977
  0
LINE
  8
型材断面
  6
CONTINUOUS
 62
    47
 10
-68.35086
 20
-42.036
 11
-66.850925
 21
-42.036
  0
LINE
  8
型材断面
  6
CONTINUOUS
 62
    47
 10
-66.850925
 20
-40.36933
 11
-67.25086
 21
-40.36933
  0
LINE
  8
型材断面
  6
CONTINUOUS
 62
    47
 10
-67.25086
 20
-40.36933
 11
-67.25086
 21
-41.36932
  0
LINE
  8
型材断面
  6
CONTINUOUS
 62
    47
 10
-67.25086
 20
-41.36932
 11
-68.35086
 21
-41.36932
  0
LINE
  8
型材断面
  6
CONTINUOUS
 62
    47
 10
-68.35086
 20
-42.036
 11
-68.35086
 21
-44.617853
  0
LINE
  8
型材断面
  6
CONTINUOUS
 62
    47
 10
-66.850925
 20
-40.36933
 11
-66.850925
 21
-42.036
  0
ARC
  8
型材断面
  6
CONTINUOUS
 62
    47
 10
-64.884133
 20
-54.169286
 40
0.133333
 50
90.001373
 51
180.002747
  0
ARC
  8
型材断面
  6
CONTINUOUS
 62
    47
 10
-64.884133
 20
-54.569309
 40
0.133333
 50
180.002747
 51
270.00412
  0
ARC
  8
型材断面
  6
CONTINUOUS
 62
    47
 10
-90.1508
 20
-54.169286
 40
0.133333
 50
0.0
 51
90.001373
  0
ARC
  8
型材断面
  6
CONTINUOUS
 62
    47
 10
-90.1508
 20
-54.569309
 40
0.133333
 50
270.00412
 51
360.0
  0
LINE
  8
型材断面
  6
CONTINUOUS
 62
    47
 10
-67.25086
 20
-27.369405
 11
-66.850925
 21
-27.369405
  0
LINE
  8
型材断面
  6
CONTINUOUS
 62
    47
 10
-67.25086
 20
-28.036085
 11
-68.35086
 21
-28.036085
  0
LINE
  8
型材断面
  6
CONTINUOUS
 62
    47
 10
-66.850925
 20
-27.369405
 11
-69.017468
 21
-27.369405
  0
LINE
  8
型材断面
  6
CONTINUOUS
 62
    47
 10
-69.017468
 20
-28.035958
 11
-69.017468
 21
-27.369405
  0
LINE
  8
型材断面
  6
CONTINUOUS
 62
    47
 10
-68.35086
 20
-28.035958
 11
-67.25086
 21
-28.035958
  0
LINE
  8
型材断面
  6
CONTINUOUS
 62
    47
 10
-68.35086
 20
-35.035998
 11
-60.6842
 21
-35.035998
  0
LINE
  8
型材断面
  6
CONTINUOUS
 62
    47
 10
-60.6842
 20
-35.035998
 11
-60.6842
 21
-33.70268
  0
LINE
  8
型材断面
  6
CONTINUOUS
 62
    47
 10
-60.6842
 20
-33.70268
 11
-61.084135
 21
-33.70268
  0
LINE
  8
型材断面
  6
CONTINUOUS
 62
    47
 10
-61.084135
 20
-34.3693
 11
-61.084135
 21
-33.70268
  0
LINE
  8
型材断面
  6
CONTINUOUS
 62
    47
 10
-66.017635
 20
-33.1027
 11
-64.684265
 21
-33.1027
  0
LINE
  8
型材断面
  6
CONTINUOUS
 62
    47
 10
-64.684265
 20
-33.1027
 11
-64.684265
 21
-34.36937
  0
LINE
  8
型材断面
  6
CONTINUOUS
 62
    47
 10
-65.184227
 20
-34.36937
 11
-65.184227
 21
-33.6027
  0
LINE
  8
型材断面
  6
CONTINUOUS
 62
    47
 10
-65.184227
 20
-33.6027
 11
-66.017635
 21
-33.6027
  0
LINE
  8
型材断面
  6
CONTINUOUS
 62
    47
 10
-66.017635
 20
-33.6027
 11
-66.017635
 21
-33.1027
  0
LINE
  8
型材断面
  6
CONTINUOUS
 62
    47
 10
-61.084135
 20
-34.3693
 11
-64.684265
 21
-34.3693
  0
LINE
  8
型材断面
  6
CONTINUOUS
 62
    47
 10
-65.184227
 20
-34.36937
 11
-68.35086
 21
-34.36937
  0
LINE
  8
型材断面
  6
CONTINUOUS
 62
    47
 10
-68.35086
 20
-41.36932
 11
-68.35086
 21
-35.035998
  0
LINE
  8
型材断面
  6
CONTINUOUS
 62
    47
 10
-68.35086
 20
-28.035958
 11
-68.35086
 21
-34.36937
  0
LINE
  8
型材断面
  6
CONTINUOUS
 10
-66.850925
 20
-29.03607
 11
-67.25086
 21
-29.03607
  0
LINE
  8
型材断面
  6
CONTINUOUS
 62
    47
 10
-67.25086
 20
-28.036085
 11
-67.25086
 21
-29.03607
  0
LINE
  8
型材断面
  6
CONTINUOUS
 62
    47
 10
-69.884167
 20
-30.135992
 11
-69.017468
 21
-30.135992
  0
LINE
  8
型材断面
  6
CONTINUOUS
 62
    47
 10
-69.884167
 20
-30.53597
 11
-69.017468
 21
-30.53597
  0
LINE
  8
型材断面
  6
CONTINUOUS
 62
    47
 10
-70.01744
 20
-30.402638
 11
-70.01744
 21
-30.269308
  0
ARC
  8
型材断面
  6
CONTINUOUS
 62
    47
 10
-69.884168
 20
-30.269311
 40
0.133333
 50
90.001373
 51
180.002747
  0
ARC
  8
型材断面
  6
CONTINUOUS
 62
    47
 10
-69.884168
 20
-30.402642
 40
0.133333
 50
180.002747
 51
270.00412
  0
LINE
  8
型材断面
  6
CONTINUOUS
 62
    47
 10
-78.88363
 20
-30.53597
 11
-80.416938
 21
-30.53597
  0
LINE
  8
型材断面
  6
CONTINUOUS
 62
    47
 10
-78.88363
 20
-30.135992
 11
-79.750353
 21
-30.135992
  0
LINE
  8
型材断面
  6
CONTINUOUS
 62
    47
 10
-78.750357
 20
-30.269308
 11
-78.750357
 21
-30.402638
  0
ARC
  8
型材断面
  6
CONTINUOUS
 62
    47
 10
-78.88363
 20
-30.402642
 40
0.133333
 50
270.00412
 51
360.0
  0
ARC
  8
型材断面
  6
CONTINUOUS
 62
    47
 10
-78.88363
 20
-30.269311
 40
0.133333
 50
0.0
 51
90.001373
  0
LINE
  8
型材断面
  6
CONTINUOUS
 62
    47
 10
-69.017468
 20
-44.730853
 11
-69.017468
 21
-30.53597
  0
LINE
  8
型材断面
  6
CONTINUOUS
 10
-69.017468
 20
-29.035958
 11
-79.750353
 21
-29.035958
  0
LINE
  8
型材断面
  6
CONTINUOUS
 62
    47
 10
-79.750353
 20
-30.135992
 11
-79.750353
 21
-29.035958
  0
LINE
  8
型材断面
  6
CONTINUOUS
 62
    47
 10
-69.017468
 20
-30.135992
 11
-69.017468
 21
-29.035958
  0
LINE
  8
型材断面
  6
CONTINUOUS
 10
-75.017003
 20
-28.135958
 11
-74.917003
 21
-28.035958
  0
LINE
  8
型材断面
  6
CONTINUOUS
 62
    47
 10
-69.017468
 20
-28.035958
 11
-74.917003
 21
-28.035958
  0
LINE
  8
型材断面
  6
CONTINUOUS
 10
-75.017003
 20
-28.135958
 11
-75.117003
 21
-28.035958
  0
LINE
  8
型材断面
  6
CONTINUOUS
 62
    47
 10
-75.117003
 20
-28.035958
 11
-80.416938
 21
-28.035958
  0
LINE
  8
型材断面
  6
CONTINUOUS
 10
-80.416938
 20
-30.53597
 11
-80.416938
 21
-28.035958
  0
LINE
  8
型材断面
  6
CONTINUOUS
 62
    47
 10
-92.68415
 20
-54.702635
 11
-92.68415
 21
-59.702635
  0
LINE
  8
型材断面
  6
CONTINUOUS
 10
-93.350878
 20
-59.702635
 11
-92.68415
 21
-59.702635
  0
LINE
  8
型材断面
  6
CONTINUOUS
 10
-93.250878
 20
-57.202635
 11
-93.350878
 21
-57.102635
  0
LINE
  8
型材断面
  6
CONTINUOUS
 10
-93.250878
 20
-57.202635
 11
-93.350878
 21
-57.302635
  0
LINE
  8
型材断面
  6
CONTINUOUS
 62
    47
 10
-93.350865
 20
-54.702635
 11
-93.350865
 21
-57.102647
  0
LINE
  8
型材断面
  6
CONTINUOUS
 62
    47
 10
-93.350865
 20
-57.302622
 11
-93.350865
 21
-59.702635
  0
LINE
  8
型材断面
  6
CONTINUOUS
 10
-59.017502
 20
-40.035977
 11
-58.350845
 21
-40.035977
  0
LINE
  8
型材断面
  6
CONTINUOUS
 62
    47
 10
-59.017502
 20
-43.035977
 11
-59.017502
 21
-40.035977
  0
LINE
  8
型材断面
  6
CONTINUOUS
 62
    47
 10
-58.350845
 20
-54.702635
 11
-58.350845
 21
-40.035977
  0
LINE
  8
型材断面
  6
CONTINUOUS
 10
-66.850925
 20
-27.369405
 11
-66.850925
 21
-29.03607
  0
CIRCLE
  8
LAYER010
  6
CONTINUOUS
 62
     7
 10
-98.350782
 20
-49.702657
 40
0.11111
  0
ENDBLK
  0
BLOCK
  2
*GRP_0007
 70
    65
 10
0.0
 20
0.0
  0
LINE
  8
型材断面
  6
CONTINUOUS
 62
    47
 10
50.153043
 20
-54.03601
 11
50.153043
 21
-43.712145
  0
LINE
  8
型材断面
  6
CONTINUOUS
 62
    47
 10
88.819778
 20
-50.26584
 11
50.153043
 21
-43.712145
  0
LINE
  8
型材断面
  6
CONTINUOUS
 62
    47
 10
88.819778
 20
-50.26584
 11
88.819778
 21
-54.03601
  0
LINE
  8
型材断面
  6
CONTINUOUS
 62
    47
 10
84.486405
 20
-54.702635
 11
89.486322
 21
-54.702635
  0
LINE
  8
型材断面
  6
CONTINUOUS
 62
    47
 10
56.019672
 20
-54.03601
 11
50.153043
 21
-54.03601
  0
LINE
  8
型材断面
  6
CONTINUOUS
 62
    47
 10
56.019672
 20
-54.702635
 11
49.486385
 21
-54.702635
  0
LINE
  8
型材断面
  6
CONTINUOUS
 62
    47
 10
56.153062
 20
-54.569305
 11
56.153062
 21
-54.169283
  0
LINE
  8
型材断面
  6
CONTINUOUS
 62
    47
 10
81.28634
 20
-54.03601
 11
88.819778
 21
-54.03601
  0
LINE
  8
型材断面
  6
CONTINUOUS
 62
    47
 10
81.28634
 20
-54.702635
 11
83.81969
 21
-54.702635
  0
LINE
  8
型材断面
  6
CONTINUOUS
 62
    47
 10
81.153067
 20
-54.569305
 11
81.153067
 21
-54.169283
  0
LINE
  8
型材断面
  6
CONTINUOUS
 62
    47
 10
89.486322
 20
-54.702635
 11
89.486322
 21
-49.702657
  0
LINE
  8
型材断面
  6
CONTINUOUS
 62
    47
 10
89.486322
 20
-49.702657
 11
60.153008
 21
-44.730853
  0
LINE
  8
型材断面
  6
CONTINUOUS
 62
    47
 10
59.4864
 20
-44.617853
 11
50.153043
 21
-43.035977
  0
LINE
  8
型材断面
  6
CONTINUOUS
 62
    47
 10
59.4864
 20
-42.036
 11
57.986465
 21
-42.036
  0
LINE
  8
型材断面
  6
CONTINUOUS
 62
    47
 10
57.986465
 20
-40.36933
 11
58.3864
 21
-40.36933
  0
LINE
  8
型材断面
  6
CONTINUOUS
 62
    47
 10
58.3864
 20
-40.36933
 11
58.3864
 21
-41.36932
  0
LINE
  8
型材断面
  6
CONTINUOUS
 62
    47
 10
58.3864
 20
-41.36932
 11
59.4864
 21
-41.36932
  0
LINE
  8
型材断面
  6
CONTINUOUS
 62
    47
 10
59.4864
 20
-42.036
 11
59.4864
 21
-44.617853
  0
LINE
  8
型材断面
  6
CONTINUOUS
 62
    47
 10
57.986465
 20
-40.36933
 11
57.986465
 21
-42.036
  0
ARC
  8
型材断面
  6
CONTINUOUS
 62
    47
 10
56.019673
 20
-54.169286
 40
0.133333
 50
359.997253
 51
449.998627
  0
ARC
  8
型材断面
  6
CONTINUOUS
 62
    47
 10
56.019673
 20
-54.569309
 40
0.133333
 50
269.99588
 51
359.997253
  0
ARC
  8
型材断面
  6
CONTINUOUS
 62
    47
 10
81.28634
 20
-54.169286
 40
0.133333
 50
89.998627
 51
180.0
  0
ARC
  8
型材断面
  6
CONTINUOUS
 62
    47
 10
81.28634
 20
-54.569309
 40
0.133333
 50
180.0
 51
269.99588
  0
LINE
  8
型材断面
  6
CONTINUOUS
 62
    47
 10
58.3864
 20
-27.369405
 11
57.986465
 21
-27.369405
  0
LINE
  8
型材断面
  6
CONTINUOUS
 62
    47
 10
58.3864
 20
-28.036085
 11
59.4864
 21
-28.036085
  0
LINE
  8
型材断面
  6
CONTINUOUS
 62
    47
 10
57.986465
 20
-27.369405
 11
60.153008
 21
-27.369405
  0
LINE
  8
型材断面
  6
CONTINUOUS
 62
    47
 10
60.153008
 20
-28.035958
 11
60.153008
 21
-27.369405
  0
LINE
  8
型材断面
  6
CONTINUOUS
 62
    47
 10
59.4864
 20
-28.035958
 11
58.3864
 21
-28.035958
  0
LINE
  8
型材断面
  6
CONTINUOUS
 62
    47
 10
59.4864
 20
-35.035998
 11
51.81974
 21
-35.035998
  0
LINE
  8
型材断面
  6
CONTINUOUS
 62
    47
 10
51.81974
 20
-35.035998
 11
51.81974
 21
-33.70268
  0
LINE
  8
型材断面
  6
CONTINUOUS
 62
    47
 10
51.81974
 20
-33.70268
 11
52.219675
 21
-33.70268
  0
LINE
  8
型材断面
  6
CONTINUOUS
 62
    47
 10
52.219675
 20
-34.3693
 11
52.219675
 21
-33.70268
  0
LINE
  8
型材断面
  6
CONTINUOUS
 62
    47
 10
57.153175
 20
-33.1027
 11
55.819805
 21
-33.1027
  0
LINE
  8
型材断面
  6
CONTINUOUS
 62
    47
 10
55.819805
 20
-33.1027
 11
55.819805
 21
-34.36937
  0
LINE
  8
型材断面
  6
CONTINUOUS
 62
    47
 10
56.319767
 20
-34.36937
 11
56.319767
 21
-33.6027
  0
LINE
  8
型材断面
  6
CONTINUOUS
 62
    47
 10
56.319767
 20
-33.6027
 11
57.153175
 21
-33.6027
  0
LINE
  8
型材断面
  6
CONTINUOUS
 62
    47
 10
57.153175
 20
-33.6027
 11
57.153175
 21
-33.1027
  0
LINE
  8
型材断面
  6
CONTINUOUS
 62
    47
 10
52.219675
 20
-34.3693
 11
55.819805
 21
-34.3693
  0
LINE
  8
型材断面
  6
CONTINUOUS
 62
    47
 10
56.319767
 20
-34.36937
 11
59.4864
 21
-34.36937
  0
LINE
  8
型材断面
  6
CONTINUOUS
 62
    47
 10
59.4864
 20
-41.36932
 11
59.4864
 21
-35.035998
  0
LINE
  8
型材断面
  6
CONTINUOUS
 62
    47
 10
59.4864
 20
-28.035958
 11
59.4864
 21
-34.36937
  0
LINE
  8
型材断面
  6
CONTINUOUS
 10
57.986465
 20
-29.03607
 11
58.3864
 21
-29.03607
  0
LINE
  8
型材断面
  6
CONTINUOUS
 62
    47
 10
58.3864
 20
-28.036085
 11
58.3864
 21
-29.03607
  0
LINE
  8
型材断面
  6
CONTINUOUS
 62
    47
 10
61.019708
 20
-30.135992
 11
60.153008
 21
-30.135992
  0
LINE
  8
型材断面
  6
CONTINUOUS
 62
    47
 10
61.019708
 20
-30.53597
 11
60.153008
 21
-30.53597
  0
LINE
  8
型材断面
  6
CONTINUOUS
 62
    47
 10
61.15298
 20
-30.402638
 11
61.15298
 21
-30.269308
  0
ARC
  8
型材断面
  6
CONTINUOUS
 62
    47
 10
61.019708
 20
-30.269311
 40
0.133333
 50
359.997253
 51
449.998627
  0
ARC
  8
型材断面
  6
CONTINUOUS
 62
    47
 10
61.019708
 20
-30.402642
 40
0.133333
 50
269.99588
 51
359.997253
  0
LINE
  8
型材断面
  6
CONTINUOUS
 62
    47
 10
70.01917
 20
-30.53597
 11
71.552477
 21
-30.53597
  0
LINE
  8
型材断面
  6
CONTINUOUS
 62
    47
 10
70.01917
 20
-30.135992
 11
70.885893
 21
-30.135992
  0
LINE
  8
型材断面
  6
CONTINUOUS
 62
    47
 10
69.885897
 20
-30.269308
 11
69.885897
 21
-30.402638
  0
ARC
  8
型材断面
  6
CONTINUOUS
 62
    47
 10
70.01917
 20
-30.402642
 40
0.133333
 50
180.0
 51
269.99588
  0
ARC
  8
型材断面
  6
CONTINUOUS
 62
    47
 10
70.01917
 20
-30.269311
 40
0.133333
 50
89.998627
 51
180.0
  0
LINE
  8
型材断面
  6
CONTINUOUS
 62
    47
 10
60.153008
 20
-44.730853
 11
60.153008
 21
-30.53597
  0
LINE
  8
型材断面
  6
CONTINUOUS
 10
60.153008
 20
-29.035958
 11
70.885893
 21
-29.035958
  0
LINE
  8
型材断面
  6
CONTINUOUS
 62
    47
 10
70.885893
 20
-30.135992
 11
70.885893
 21
-29.035958
  0
LINE
  8
型材断面
  6
CONTINUOUS
 62
    47
 10
60.153008
 20
-30.135992
 11
60.153008
 21
-29.035958
  0
LINE
  8
型材断面
  6
CONTINUOUS
 10
66.152542
 20
-28.135958
 11
66.052542
 21
-28.035958
  0
LINE
  8
型材断面
  6
CONTINUOUS
 62
    47
 10
60.153008
 20
-28.035958
 11
66.052542
 21
-28.035958
  0
LINE
  8
型材断面
  6
CONTINUOUS
 10
66.152542
 20
-28.135958
 11
66.252542
 21
-28.035958
  0
LINE
  8
型材断面
  6
CONTINUOUS
 62
    47
 10
66.252542
 20
-28.035958
 11
71.552477
 21
-28.035958
  0
LINE
  8
型材断面
  6
CONTINUOUS
 10
71.552477
 20
-30.53597
 11
71.552477
 21
-28.035958
  0
LINE
  8
型材断面
  6
CONTINUOUS
 62
    47
 10
83.81969
 20
-54.702635
 11
83.81969
 21
-59.702635
  0
LINE
  8
型材断面
  6
CONTINUOUS
 10
84.486418
 20
-59.702635
 11
83.81969
 21
-59.702635
  0
LINE
  8
型材断面
  6
CONTINUOUS
 10
84.386418
 20
-57.202635
 11
84.486418
 21
-57.102635
  0
LINE
  8
型材断面
  6
CONTINUOUS
 10
84.386418
 20
-57.202635
 11
84.486418
 21
-57.302635
  0
LINE
  8
型材断面
  6
CONTINUOUS
 62
    47
 10
84.486405
 20
-54.702635
 11
84.486405
 21
-57.102647
  0
LINE
  8
型材断面
  6
CONTINUOUS
 62
    47
 10
84.486405
 20
-57.302622
 11
84.486405
 21
-59.702635
  0
LINE
  8
型材断面
  6
CONTINUOUS
 10
50.153043
 20
-40.035977
 11
49.486385
 21
-40.035977
  0
LINE
  8
型材断面
  6
CONTINUOUS
 62
    47
 10
50.153043
 20
-43.035977
 11
50.153043
 21
-40.035977
  0
LINE
  8
型材断面
  6
CONTINUOUS
 62
    47
 10
49.486385
 20
-54.702635
 11
49.486385
 21
-40.035977
  0
LINE
  8
型材断面
  6
CONTINUOUS
 10
57.986465
 20
-27.369405
 11
57.986465
 21
-29.03607
  0
CIRCLE
  8
LAYER010
  6
CONTINUOUS
 62
     7
 10
89.486322
 20
-49.702657
 40
0.11111
  0
ENDBLK
  0
BLOCK
  2
*GRP_0008
 70
    65
 10
0.0
 20
0.0
  0
LINE
  8
断面線04
  6
CONTINUOUS
 62
    47
 10
7.734438
 20
-37.70265
 11
7.401095
 21
-39.369315
  0
LINE
  8
断面線04
  6
CONTINUOUS
 62
    47
 10
-8.83223
 20
-34.369315
 11
-8.83223
 21
-33.60265
  0
ARC
  8
断面線04
  6
CONTINUOUS
 62
    47
 10
-7.06558
 20
-28.469316
 40
0.1
 50
90.0
 51
180.0
  0
LINE
  8
断面線04
  6
CONTINUOUS
 62
    47
 10
-7.165563
 20
-28.935982
 11
-7.165563
 21
-28.469315
  0
ARC
  8
断面線04
  6
CONTINUOUS
 62
    47
 10
-7.06558
 20
-28.935983
 40
0.1
 50
180.0
 51
270.0
  0
ARC
  8
断面線04
  6
CONTINUOUS
 62
    47
 10
-8.098913
 20
-33.202649
 40
0.1
 50
0.0
 51
90.0
  0
LINE
  8
断面線04
  6
CONTINUOUS
 62
    47
 10
-7.998905
 20
-33.50265
 11
-7.998905
 21
-33.20265
  0
LINE
  8
断面線04
  6
CONTINUOUS
 62
    47
 10
-8.098905
 20
-33.60265
 11
-8.83223
 21
-33.60265
  0
ARC
  8
断面線04
  6
CONTINUOUS
 62
    47
 10
-8.098913
 20
-33.502649
 40
0.1
 50
270.0
 51
360.0
  0
LINE
  8
断面線04
  6
CONTINUOUS
 62
    47
 10
-8.098905
 20
-33.10265
 11
-9.23223
 21
-33.10265
  0
LINE
  8
断面線04
  6
CONTINUOUS
 62
    47
 10
-9.33223
 20
-34.369315
 11
-9.33223
 21
-33.20265
  0
ARC
  8
断面線04
  6
CONTINUOUS
 62
    47
 10
-9.232246
 20
-33.202649
 40
0.1
 50
90.0
 51
180.0
  0
LINE
  8
断面線04
  6
CONTINUOUS
 62
    47
 10
-8.83223
 20
-34.369315
 11
-6.43223
 21
-34.369315
  0
LINE
  8
断面線04
  6
CONTINUOUS
 62
    47
 10
-13.598905
 20
-34.369315
 11
-13.598905
 21
-33.80265
  0
ARC
  8
断面線04
  6
CONTINUOUS
 62
    47
 10
-13.698913
 20
-33.802649
 40
0.1
 50
0.0
 51
90.0
  0
LINE
  8
断面線04
  6
CONTINUOUS
 62
    47
 10
-13.698905
 20
-33.70265
 11
-13.898905
 21
-33.70265
  0
ARC
  8
断面線04
  6
CONTINUOUS
 62
    47
 10
-13.898913
 20
-33.802649
 40
0.1
 50
90.0
 51
180.0
  0
LINE
  8
断面線04
  6
CONTINUOUS
 62
    47
 10
-16.93223
 20
-40.035982
 11
-16.93223
 21
-37.70265
  0
LINE
  8
断面線04
  6
CONTINUOUS
 62
    47
 10
-13.998905
 20
-39.369315
 11
-16.265563
 21
-39.369315
  0
LINE
  8
断面線04
  6
CONTINUOUS
 62
    47
 10
-9.33223
 20
-34.369315
 11
-13.598905
 21
-34.369315
  0
LINE
  8
断面線04
  6
CONTINUOUS
 62
    47
 10
-7.065563
 20
-28.369315
 11
-4.43223
 21
-28.369315
  0
LINE
  8
断面線04
  6
CONTINUOUS
 62
    47
 10
-6.43223
 20
-34.369315
 11
-6.43223
 21
-29.035982
  0
LINE
  8
断面線04
  6
CONTINUOUS
 62
    47
 10
-7.065563
 20
-29.035982
 11
-6.43223
 21
-29.035982
  0
LINE
  8
断面線04
  6
CONTINUOUS
 62
    47
 10
-0.03223
 20
-34.369315
 11
-0.03223
 21
-33.60265
  0
ARC
  8
断面線04
  6
CONTINUOUS
 62
    47
 10
-1.798913
 20
-28.469316
 40
0.1
 50
0.0
 51
90.0
  0
LINE
  8
断面線04
  6
CONTINUOUS
 62
    47
 10
-1.698905
 20
-28.935982
 11
-1.698905
 21
-28.469315
  0
ARC
  8
断面線04
  6
CONTINUOUS
 62
    47
 10
-1.798913
 20
-28.935983
 40
0.1
 50
270.0
 51
360.0
  0
ARC
  8
断面線04
  6
CONTINUOUS
 62
    47
 10
-0.76558
 20
-33.202649
 40
0.1
 50
90.0
 51
180.0
  0
LINE
  8
断面線04
  6
CONTINUOUS
 62
    47
 10
-0.865563
 20
-33.50265
 11
-0.865563
 21
-33.20265
  0
LINE
  8
断面線04
  6
CONTINUOUS
 62
    47
 10
-0.765563
 20
-33.60265
 11
-0.03223
 21
-33.60265
  0
ARC
  8
断面線04
  6
CONTINUOUS
 62
    47
 10
-0.76558
 20
-33.502649
 40
0.1
 50
180.0
 51
270.0
  0
LINE
  8
断面線04
  6
CONTINUOUS
 62
    47
 10
-0.765563
 20
-33.10265
 11
0.36777
 21
-33.10265
  0
LINE
  8
断面線04
  6
CONTINUOUS
 62
    47
 10
0.46777
 20
-34.369315
 11
0.46777
 21
-33.20265
  0
ARC
  8
断面線04
  6
CONTINUOUS
 62
    47
 10
0.367754
 20
-33.202649
 40
0.1
 50
0.0
 51
90.0
  0
LINE
  8
断面線04
  6
CONTINUOUS
 62
    47
 10
-0.03223
 20
-34.369315
 11
-2.43223
 21
-34.369315
  0
LINE
  8
断面線04
  6
CONTINUOUS
 62
    47
 10
4.734438
 20
-34.369315
 11
4.734438
 21
-33.80265
  0
ARC
  8
断面線04
  6
CONTINUOUS
 62
    47
 10
4.83442
 20
-33.802649
 40
0.1
 50
90.0
 51
180.0
  0
LINE
  8
断面線04
  6
CONTINUOUS
 62
    47
 10
4.834438
 20
-33.70265
 11
5.034438
 21
-33.70265
  0
ARC
  8
断面線04
  6
CONTINUOUS
 62
    47
 10
5.03442
 20
-33.802649
 40
0.1
 50
0.0
 51
90.0
  0
LINE
  8
断面線04
  6
CONTINUOUS
 62
    47
 10
5.134438
 20
-39.369315
 11
7.401095
 21
-39.369315
  0
LINE
  8
断面線04
  6
CONTINUOUS
 62
    47
 10
0.46777
 20
-34.369315
 11
4.734438
 21
-34.369315
  0
LINE
  8
断面線04
  6
CONTINUOUS
 62
    47
 10
-1.798905
 20
-28.369315
 11
-4.43223
 21
-28.369315
  0
LINE
  8
断面線04
  6
CONTINUOUS
 62
    47
 10
-2.43223
 20
-34.369315
 11
-2.43223
 21
-29.035982
  0
LINE
  8
断面線04
  6
CONTINUOUS
 62
    47
 10
-1.798905
 20
-29.035982
 11
-2.43223
 21
-29.035982
  0
LINE
  8
断面線04
  6
CONTINUOUS
 62
    47
 10
8.06777
 20
-37.70265
 11
7.734438
 21
-37.70265
  0
LINE
  8
断面線04
  6
CONTINUOUS
 62
    47
 10
-16.598905
 20
-37.70265
 11
-16.265563
 21
-39.369315
  0
LINE
  8
断面線04
  6
CONTINUOUS
 62
    47
 10
-16.93223
 20
-37.70265
 11
-16.598905
 21
-37.70265
  0
LINE
  8
断面線04
  6
CONTINUOUS
 62
    47
 10
-13.998905
 20
-33.80265
 11
-13.998905
 21
-39.369315
  0
LINE
  8
断面線04
  6
CONTINUOUS
 62
    47
 10
5.134438
 20
-33.80265
 11
5.134438
 21
-39.369315
  0
LINE
  8
断面線04
  6
CONTINUOUS
 62
    47
 10
8.06777
 20
-37.70265
 11
8.06777
 21
-40.035982
  0
LINE
  8
断面線04
  6
CONTINUOUS
 62
    47
 10
-13.998905
 20
-54.70265
 11
5.134438
 21
-54.70265
  0
LINE
  8
断面線04
  6
CONTINUOUS
 62
    47
 10
-13.998905
 20
-54.70265
 11
-13.998905
 21
-40.035982
  0
LINE
  8
断面線04
  6
CONTINUOUS
 62
    47
 10
5.134438
 20
-54.70265
 11
5.134438
 21
-40.035982
  0
LINE
  8
断面線04
  6
CONTINUOUS
 62
    47
 10
-16.93223
 20
-40.035982
 11
-13.998905
 21
-40.035982
  0
LINE
  8
断面線04
  6
CONTINUOUS
 62
    47
 10
5.134438
 20
-40.035982
 11
8.06777
 21
-40.035982
  0
ARC
  8
断面線04
  6
CONTINUOUS
 62
    47
 10
-12.268798
 20
-36.983329
 40
0.25
 50
312.542364
 51
492.542397
  0
ARC
  8
断面線04
  6
CONTINUOUS
 62
    47
 10
-12.832244
 20
-36.369348
 40
0.583333
 50
47.457615
 51
312.542407
  0
ARC
  8
断面線04
  6
CONTINUOUS
 62
    47
 10
-12.832244
 20
-36.369348
 40
1.083333
 50
252.079761
 51
312.542389
  0
ARC
  8
断面線04
  6
CONTINUOUS
 62
    47
 10
-12.268798
 20
-35.755367
 40
0.25
 50
227.457603
 51
407.457636
  0
LINE
  8
断面線04
  6
CONTINUOUS
 62
    47
 10
-5.598905
 20
-35.20265
 11
-12.832237
 21
-35.20265
  0
ARC
  8
断面線04
  6
CONTINUOUS
 62
    47
 10
-12.832244
 20
-36.369348
 40
1.083333
 50
47.457611
 51
90.000025
  0
LINE
  8
断面線04
  6
CONTINUOUS
 62
    47
 10
-12.832237
 20
-35.286015
 11
-12.832237
 21
-35.20265
  0
ARC
  8
断面線04
  6
CONTINUOUS
 62
    47
 10
3.404312
 20
-36.983329
 40
0.25
 50
47.457603
 51
227.457636
  0
ARC
  8
断面線04
  6
CONTINUOUS
 62
    47
 10
3.967758
 20
-36.369348
 40
0.583333
 50
227.457593
 51
492.542385
  0
ARC
  8
断面線04
  6
CONTINUOUS
 62
    47
 10
3.404312
 20
-35.755367
 40
0.25
 50
132.542364
 51
312.542397
  0
ARC
  8
断面線04
  6
CONTINUOUS
 62
    47
 10
3.967758
 20
-36.369348
 40
1.083333
 50
89.999975
 51
132.542389
  0
ARC
  8
断面線04
  6
CONTINUOUS
 62
    47
 10
3.967758
 20
-36.369348
 40
1.083333
 50
227.457611
 51
287.920239
  0
LINE
  8
断面線04
  6
CONTINUOUS
 62
    47
 10
3.96777
 20
-35.286015
 11
3.96777
 21
-35.20265
  0
LINE
  8
断面線04
  6
CONTINUOUS
 62
    47
 10
-3.265563
 20
-35.20265
 11
3.96777
 21
-35.20265
  0
LINE
  8
断面線04
  6
CONTINUOUS
 62
    47
 10
-3.265563
 20
-29.70265
 11
-5.598905
 21
-29.70265
  0
ARC
  8
断面線04
  6
CONTINUOUS
 62
    47
 10
-11.833013
 20
-53.071715
 40
0.25
 50
357.542364
 51
537.542397
  0
ARC
  8
断面線04
  6
CONTINUOUS
 62
    47
 10
-12.66558
 20
-53.035981
 40
0.583333
 50
92.457615
 51
357.542407
  0
ARC
  8
断面線04
  6
CONTINUOUS
 62
    47
 10
-12.701313
 20
-52.203414
 40
0.25
 50
272.457576
 51
452.457618
  0
ARC
  8
断面線04
  6
CONTINUOUS
 62
    47
 10
-12.66558
 20
-53.035981
 40
1.083333
 50
332.513353
 51
357.542389
  0
ARC
  8
断面線04
  6
CONTINUOUS
 62
    47
 10
2.968521
 20
-53.071715
 40
0.25
 50
2.457603
 51
182.457636
  0
ARC
  8
断面線04
  6
CONTINUOUS
 62
    47
 10
3.801088
 20
-53.035981
 40
0.583333
 50
182.457593
 51
447.542385
  0
ARC
  8
断面線04
  6
CONTINUOUS
 62
    47
 10
3.836821
 20
-52.203414
 40
0.25
 50
87.542382
 51
267.542424
  0
ARC
  8
断面線04
  6
CONTINUOUS
 62
    47
 10
3.801088
 20
-53.035981
 40
1.083333
 50
182.457611
 51
207.486647
  0
ARC
  8
断面線04
  6
CONTINUOUS
 62
    47
 10
3.801088
 20
-53.035982
 40
1.083333
 50
62.513336
 51
87.542389
  0
ARC
  8
断面線04
  6
CONTINUOUS
 62
    47
 10
-12.66558
 20
-53.035982
 40
1.083333
 50
92.457611
 51
117.486331
  0
LINE
  8
断面線04
  6
CONTINUOUS
 62
    47
 10
-3.598895
 20
-32.222925
 11
-3.598895
 21
-32.722925
  0
LINE
  8
断面線04
  6
CONTINUOUS
 62
    47
 10
-5.265563
 20
-32.722925
 11
-5.265563
 21
-32.222925
  0
LINE
  8
断面線04
  6
CONTINUOUS
 62
    47
 10
-5.265563
 20
-32.722925
 11
-5.598905
 21
-32.722925
  0
LINE
  8
断面線04
  6
CONTINUOUS
 62
    47
 10
-5.265563
 20
-32.222925
 11
-5.598905
 21
-32.222925
  0
LINE
  8
断面線04
  6
CONTINUOUS
 62
    47
 10
-3.598895
 20
-32.222925
 11
-3.265563
 21
-32.222925
  0
LINE
  8
断面線04
  6
CONTINUOUS
 62
    47
 10
-3.598895
 20
-32.722925
 11
-3.265563
 21
-32.722925
  0
LINE
  8
断面線04
  6
CONTINUOUS
 62
    47
 10
-3.265563
 20
-35.20265
 11
-3.265563
 21
-32.722925
  0
LINE
  8
断面線04
  6
CONTINUOUS
 62
    47
 10
-3.265563
 20
-32.222925
 11
-3.265563
 21
-29.70265
  0
LINE
  8
断面線04
  6
CONTINUOUS
 62
    47
 10
-5.598905
 20
-35.20265
 11
-5.598905
 21
-32.722925
  0
LINE
  8
断面線04
  6
CONTINUOUS
 62
    47
 10
-5.598905
 20
-32.222925
 11
-5.598905
 21
-29.70265
  0
LINE
  8
断面線04
  6
CONTINUOUS
 62
    47
 10
-3.098895
 20
-52.20265
 11
-3.598895
 21
-52.20265
  0
LINE
  8
断面線04
  6
CONTINUOUS
 62
    47
 10
-5.765563
 20
-52.20265
 11
-5.265563
 21
-52.20265
  0
LINE
  8
断面線04
  6
CONTINUOUS
 62
    47
 10
-3.598895
 20
-52.20265
 11
-3.598895
 21
-53.535982
  0
LINE
  8
断面線04
  6
CONTINUOUS
 62
    47
 10
-3.598895
 20
-53.535982
 11
-5.265563
 21
-53.535982
  0
LINE
  8
断面線04
  6
CONTINUOUS
 62
    47
 10
-5.265563
 20
-52.20265
 11
-5.265563
 21
-53.535982
  0
LINE
  8
断面線04
  6
CONTINUOUS
 62
    47
 10
-5.765563
 20
-52.20265
 11
-5.765563
 21
-53.535982
  0
LINE
  8
断面線04
  6
CONTINUOUS
 62
    47
 10
-11.70452
 20
-53.535982
 11
-5.765563
 21
-53.535982
  0
LINE
  8
断面線04
  6
CONTINUOUS
 62
    47
 10
-3.098895
 20
-52.20265
 11
-3.098895
 21
-53.535982
  0
LINE
  8
断面線04
  6
CONTINUOUS
 62
    47
 10
2.840055
 20
-53.535982
 11
-3.098895
 21
-53.535982
  0
LINE
  8
断面線04
  6
CONTINUOUS
 62
    47
 10
-13.16557
 20
-52.074932
 11
-13.16557
 21
-39.70265
  0
LINE
  8
断面線04
  6
CONTINUOUS
 62
    47
 10
-7.93223
 20
-39.70265
 11
-13.16557
 21
-39.70265
  0
LINE
  8
断面線04
  6
CONTINUOUS
 62
    47
 10
-0.93223
 20
-39.70265
 11
4.301105
 21
-39.70265
  0
LINE
  8
断面線04
  6
CONTINUOUS
 62
    47
 10
4.301105
 20
-52.074932
 11
4.301105
 21
-39.70265
  0
LINE
  8
断面線04
  6
CONTINUOUS
 62
    47
 10
-13.16557
 20
-37.400125
 11
-13.16557
 21
-39.035982
  0
LINE
  8
断面線04
  6
CONTINUOUS
 62
    47
 10
-13.16557
 20
-39.035982
 11
-7.93223
 21
-39.035982
  0
LINE
  8
断面線04
  6
CONTINUOUS
 62
    47
 10
-7.93223
 20
-39.70265
 11
-7.93223
 21
-39.035982
  0
LINE
  8
断面線04
  6
CONTINUOUS
 62
    47
 10
4.301105
 20
-37.400125
 11
4.301105
 21
-39.035982
  0
LINE
  8
断面線04
  6
CONTINUOUS
 62
    47
 10
4.301105
 20
-39.035982
 11
-0.93223
 21
-39.035982
  0
LINE
  8
断面線04
  6
CONTINUOUS
 62
    47
 10
-0.93223
 20
-39.70265
 11
-0.93223
 21
-39.035982
  0
ENDBLK
  0
BLOCK
  2
*GRP_0009
 70
    65
 10
0.0
 20
0.0
  0
LINE
  8
型材断面
  6
DOT
 10
-7.93223
 20
-28.369315
 11
-7.93223
 21
-33.70265
  0
LINE
  8
型材断面
  6
DOT
 10
-15.798895
 20
-28.369315
 11
-7.93223
 21
-28.369315
  0
ARC
  8
型材断面
  6
DOT
 10
-16.098902
 20
-27.80265
 40
0.1
 50
90.0
 51
180.0
  0
LINE
  8
型材断面
  6
DOT
 10
-15.798895
 20
-28.369315
 11
-15.798895
 21
-28.60265
  0
ARC
  8
型材断面
  6
DOT
 10
-15.898902
 20
-28.60265
 40
0.1
 50
270.0
 51
360.0
  0
LINE
  8
型材断面
  6
DOT
 10
-16.098895
 20
-28.70265
 11
-15.898895
 21
-28.70265
  0
LINE
  8
型材断面
  6
DOT
 10
-16.198895
 20
-28.60265
 11
-16.198895
 21
-27.80265
  0
ARC
  8
型材断面
  6
DOT
 10
-16.098902
 20
-28.60265
 40
0.1
 50
180.0
 51
270.0
  0
LINE
  8
型材断面
  6
DOT
 10
-16.098895
 20
-27.70265
 11
-7.365563
 21
-27.70265
  0
LINE
  8
型材断面
  6
DOT
 10
-7.265563
 20
-27.80265
 11
-7.265563
 21
-29.20265
  0
ARC
  8
型材断面
  6
DOT
 10
-7.365569
 20
-27.80265
 40
0.1
 50
0.0
 51
90.0
  0
LINE
  8
型材断面
  6
DOT
 10
-7.265563
 20
-29.70265
 11
-7.265563
 21
-34.269315
  0
ARC
  8
型材断面
  6
DOT
 10
-7.365569
 20
-34.269317
 40
0.1
 50
270.0
 51
360.0
  0
LINE
  8
型材断面
  6
DOT
 10
-8.73223
 20
-34.369315
 11
-7.365563
 21
-34.369315
  0
ARC
  8
型材断面
  6
DOT
 10
-8.732236
 20
-34.269317
 40
0.1
 50
180.0
 51
270.0
  0
LINE
  8
型材断面
  6
DOT
 10
-8.83223
 20
-33.80265
 11
-8.83223
 21
-34.269315
  0
LINE
  8
型材断面
  6
DOT
 10
-8.73223
 20
-33.70265
 11
-7.93223
 21
-33.70265
  0
ARC
  8
型材断面
  6
DOT
 10
-8.732236
 20
-33.80265
 40
0.1
 50
90.0
 51
180.0
  0
LINE
  8
型材断面
  6
DOT
 10
-6.765563
 20
-29.20265
 11
-7.265563
 21
-29.20265
  0
ARC
  8
型材断面
  6
DOT
 10
-6.765569
 20
-29.30265
 40
0.1
 50
0.0
 51
90.0
  0
LINE
  8
型材断面
  6
DOT
 10
-6.665563
 20
-29.30265
 11
-6.665563
 21
-29.60265
  0
LINE
  8
型材断面
  6
DOT
 10
-6.765563
 20
-29.70265
 11
-7.265563
 21
-29.70265
  0
ARC
  8
型材断面
  6
DOT
 10
-6.765569
 20
-29.60265
 40
0.1
 50
270.0
 51
360.0
  0
ENDBLK
  0
BLOCK
  2
*GRP_0010
 70
    65
 10
0.0
 20
0.0
  0
LINE
  8
型材断面
  6
DOT
 10
-0.93223
 20
-28.369315
 11
-0.93223
 21
-33.70265
  0
LINE
  8
型材断面
  6
DOT
 10
6.934435
 20
-28.369315
 11
-0.93223
 21
-28.369315
  0
ARC
  8
型材断面
  6
DOT
 10
7.234439
 20
-27.80265
 40
0.1
 50
0.0
 51
90.0
  0
LINE
  8
型材断面
  6
DOT
 10
6.934435
 20
-28.369315
 11
6.934435
 21
-28.60265
  0
ARC
  8
型材断面
  6
DOT
 10
7.034439
 20
-28.60265
 40
0.1
 50
180.0
 51
270.0
  0
LINE
  8
型材断面
  6
DOT
 10
7.234435
 20
-28.70265
 11
7.034435
 21
-28.70265
  0
LINE
  8
型材断面
  6
DOT
 10
7.334435
 20
-28.60265
 11
7.334435
 21
-27.80265
  0
ARC
  8
型材断面
  6
DOT
 10
7.234439
 20
-28.60265
 40
0.1
 50
270.0
 51
360.0
  0
LINE
  8
型材断面
  6
DOT
 10
7.234435
 20
-27.70265
 11
-1.498898
 21
-27.70265
  0
LINE
  8
型材断面
  6
DOT
 10
-1.598898
 20
-27.80265
 11
-1.598898
 21
-29.20265
  0
ARC
  8
型材断面
  6
DOT
 10
-1.498894
 20
-27.80265
 40
0.1
 50
90.0
 51
180.0
  0
LINE
  8
型材断面
  6
DOT
 10
-1.598898
 20
-29.70265
 11
-1.598898
 21
-34.269315
  0
ARC
  8
型材断面
  6
DOT
 10
-1.498894
 20
-34.269317
 40
0.1
 50
180.0
 51
270.0
  0
LINE
  8
型材断面
  6
DOT
 10
-0.13223
 20
-34.369315
 11
-1.498898
 21
-34.369315
  0
ARC
  8
型材断面
  6
DOT
 10
-0.132228
 20
-34.269317
 40
0.1
 50
270.0
 51
360.0
  0
LINE
  8
型材断面
  6
DOT
 10
-0.03223
 20
-33.80265
 11
-0.03223
 21
-34.269315
  0
LINE
  8
型材断面
  6
DOT
 10
-0.13223
 20
-33.70265
 11
-0.93223
 21
-33.70265
  0
ARC
  8
型材断面
  6
DOT
 10
-0.132228
 20
-33.80265
 40
0.1
 50
0.0
 51
90.0
  0
LINE
  8
型材断面
  6
DOT
 10
-2.098898
 20
-29.20265
 11
-1.598898
 21
-29.20265
  0
ARC
  8
型材断面
  6
DOT
 10
-2.098894
 20
-29.30265
 40
0.1
 50
90.0
 51
180.0
  0
LINE
  8
型材断面
  6
DOT
 10
-2.198898
 20
-29.30265
 11
-2.198898
 21
-29.60265
  0
LINE
  8
型材断面
  6
DOT
 10
-2.098898
 20
-29.70265
 11
-1.598898
 21
-29.70265
  0
ARC
  8
型材断面
  6
DOT
 10
-2.098894
 20
-29.60265
 40
0.1
 50
180.0
 51
270.0
  0
ENDBLK
  0
BLOCK
  2
*GRP_0011
 70
    65
 10
0.0
 20
0.0
  0
LINE
  8
型材断面
  6
DOT
 62
    47
 10
49.05316
 20
-28.702715
 11
49.05316
 21
-27.702718
  0
LINE
  8
型材断面
  6
DOT
 62
    47
 10
56.419737
 20
-33.702703
 11
57.31981
 21
-33.702703
  0
LINE
  8
型材断面
  6
DOT
 62
    47
 10
57.31981
 20
-33.702703
 11
57.31981
 21
-28.369385
  0
LINE
  8
型材断面
  6
DOT
 62
    47
 10
56.419737
 20
-34.36937
 11
56.419737
 21
-33.702703
  0
LINE
  8
型材断面
  6
DOT
 62
    47
 10
49.05316
 20
-28.702715
 11
49.453095
 21
-28.702715
  0
LINE
  8
型材断面
  6
DOT
 62
    47
 10
49.453095
 20
-28.702715
 11
49.453095
 21
-28.369385
  0
LINE
  8
型材断面
  6
DOT
 62
    47
 10
57.31981
 20
-28.369385
 11
49.453095
 21
-28.369385
  0
LINE
  8
型材断面
  6
DOT
 62
    47
 10
57.986465
 20
-29.702697
 11
58.586398
 21
-29.702697
  0
LINE
  8
型材断面
  6
DOT
 62
    47
 10
58.586398
 20
-29.702697
 11
58.586398
 21
-29.202747
  0
LINE
  8
型材断面
  6
DOT
 62
    47
 10
58.586398
 20
-29.202747
 11
57.986465
 21
-29.202747
  0
LINE
  8
型材断面
  6
DOT
 62
    47
 10
57.986465
 20
-29.702697
 11
57.986465
 21
-34.36937
  0
LINE
  8
型材断面
  6
DOT
 62
    47
 10
49.05316
 20
-27.702718
 11
57.986465
 21
-27.702718
  0
LINE
  8
型材断面
  6
DOT
 62
    47
 10
57.986465
 20
-29.202747
 11
57.986465
 21
-27.369405
  0
ENDBLK
  0
BLOCK
  2
*GRP_0012
 70
    65
 10
0.0
 20
0.0
  0
LINE
  8
型材断面
  6
DOT
 62
    47
 10
-57.91762
 20
-28.702715
 11
-57.91762
 21
-27.702718
  0
LINE
  8
型材断面
  6
DOT
 62
    47
 10
-65.284198
 20
-33.702703
 11
-66.18427
 21
-33.702703
  0
LINE
  8
型材断面
  6
DOT
 62
    47
 10
-66.18427
 20
-33.702703
 11
-66.18427
 21
-28.369385
  0
LINE
  8
型材断面
  6
DOT
 62
    47
 10
-65.284198
 20
-34.36937
 11
-65.284198
 21
-33.702703
  0
LINE
  8
型材断面
  6
DOT
 62
    47
 10
-57.91762
 20
-28.702715
 11
-58.317555
 21
-28.702715
  0
LINE
  8
型材断面
  6
DOT
 62
    47
 10
-58.317555
 20
-28.702715
 11
-58.317555
 21
-28.369385
  0
LINE
  8
型材断面
  6
DOT
 62
    47
 10
-66.18427
 20
-28.369385
 11
-58.317555
 21
-28.369385
  0
LINE
  8
型材断面
  6
DOT
 62
    47
 10
-66.850925
 20
-29.702697
 11
-67.450857
 21
-29.702697
  0
LINE
  8
型材断面
  6
DOT
 62
    47
 10
-67.450857
 20
-29.702697
 11
-67.450857
 21
-29.202747
  0
LINE
  8
型材断面
  6
DOT
 62
    47
 10
-67.450857
 20
-29.202747
 11
-66.850925
 21
-29.202747
  0
LINE
  8
型材断面
  6
DOT
 62
    47
 10
-66.850925
 20
-29.702697
 11
-66.850925
 21
-34.36937
  0
LINE
  8
型材断面
  6
DOT
 62
    47
 10
-57.91762
 20
-27.702718
 11
-66.850925
 21
-27.702718
  0
LINE
  8
型材断面
  6
DOT
 62
    47
 10
-66.850925
 20
-29.202747
 11
-66.850925
 21
-27.369405
  0
ENDBLK
  0
BLOCK
  2
*GRP_0013
 70
    65
 10
0.0
 20
0.0
  0
POLYLINE
  8
ガラス
  6
CONTINUOUS
 66
     1
 70
     4
  0
VERTEX
  8
ガラス
 10
-63.3
 20
-42.95
 70
     8
  0
VERTEX
  8
ガラス
 10
-63.25
 20
-42.95
 70
     8
  0
VERTEX
  8
ガラス
 10
-63.225
 20
-42.95
 70
     8
  0
VERTEX
  8
ガラス
 10
-63.2
 20
-42.95
 70
     8
  0
VERTEX
  8
ガラス
 10
-63.175
 20
-42.95
 70
     8
  0
VERTEX
  8
ガラス
 10
-63.15
 20
-42.95
 70
     8
  0
VERTEX
  8
ガラス
 10
-63.1
 20
-42.95
 70
     8
  0
VERTEX
  8
ガラス
 10
-63.075
 20
-42.95
 70
     8
  0
VERTEX
  8
ガラス
 10
-63.05
 20
-42.925
 70
     8
  0
VERTEX
  8
ガラス
 10
-63.025
 20
-42.925
 70
     8
  0
VERTEX
  8
ガラス
 10
-63.0
 20
-42.925
 70
     8
  0
VERTEX
  8
ガラス
 10
-62.95
 20
-42.925
 70
     8
  0
VERTEX
  8
ガラス
 10
-62.925
 20
-42.925
 70
     8
  0
VERTEX
  8
ガラス
 10
-62.9
 20
-42.95
 70
     8
  0
VERTEX
  8
ガラス
 10
-62.875
 20
-42.95
 70
     8
  0
VERTEX
  8
ガラス
 10
-62.85
 20
-42.95
 70
     8
  0
VERTEX
  8
ガラス
 10
-62.825
 20
-42.95
 70
     8
  0
VERTEX
  8
ガラス
 10
-62.8
 20
-42.95
 70
     8
  0
VERTEX
  8
ガラス
 10
-62.75
 20
-42.95
 70
     8
  0
VERTEX
  8
ガラス
 10
-62.725
 20
-42.975
 70
     8
  0
VERTEX
  8
ガラス
 10
-62.7
 20
-42.975
 70
     8
  0
VERTEX
  8
ガラス
 10
-62.675
 20
-42.975
 70
     8
  0
VERTEX
  8
ガラス
 10
-62.65
 20
-43.0
 70
     8
  0
VERTEX
  8
ガラス
 10
-62.625
 20
-43.0
 70
     8
  0
VERTEX
  8
ガラス
 10
-62.6
 20
-43.025
 70
     8
  0
VERTEX
  8
ガラス
 10
-62.575
 20
-43.05
 70
     8
  0
VERTEX
  8
ガラス
 10
-62.55
 20
-43.05
 70
     8
  0
VERTEX
  8
ガラス
 10
-62.55
 20
-43.075
 70
     8
  0
VERTEX
  8
ガラス
 10
-62.525
 20
-43.1
 70
     8
  0
VERTEX
  8
ガラス
 10
-62.5
 20
-43.1
 70
     8
  0
VERTEX
  8
ガラス
 10
-62.475
 20
-43.125
 70
     8
  0
VERTEX
  8
ガラス
 10
-62.45
 20
-43.15
 70
     8
  0
VERTEX
  8
ガラス
 10
-62.425
 20
-43.175
 70
     8
  0
VERTEX
  8
ガラス
 10
-62.4
 20
-43.2
 70
     8
  0
VERTEX
  8
ガラス
 10
-62.375
 20
-43.2
 70
     8
  0
VERTEX
  8
ガラス
 10
-62.375
 20
-43.225
 70
     8
  0
VERTEX
  8
ガラス
 10
-62.35
 20
-43.25
 70
     8
  0
VERTEX
  8
ガラス
 10
-62.325
 20
-43.275
 70
     8
  0
VERTEX
  8
ガラス
 10
-62.3
 20
-43.3
 70
     8
  0
VERTEX
  8
ガラス
 10
-62.275
 20
-43.325
 70
     8
  0
VERTEX
  8
ガラス
 10
-62.275
 20
-43.35
 70
     8
  0
SEQEND
  0
POLYLINE
  8
ガラス
  6
CONTINUOUS
 66
     1
 70
     4
  0
VERTEX
  8
ガラス
 10
-62.275
 20
-43.35
 70
     8
  0
VERTEX
  8
ガラス
 10
-62.275
 20
-43.35
 70
     8
  0
VERTEX
  8
ガラス
 10
-62.3
 20
-43.35
 70
     8
  0
VERTEX
  8
ガラス
 10
-62.325
 20
-43.35
 70
     8
  0
VERTEX
  8
ガラス
 10
-62.35
 20
-43.35
 70
     8
  0
VERTEX
  8
ガラス
 10
-62.375
 20
-43.35
 70
     8
  0
VERTEX
  8
ガラス
 10
-62.375
 20
-43.375
 70
     8
  0
VERTEX
  8
ガラス
 10
-62.4
 20
-43.375
 70
     8
  0
VERTEX
  8
ガラス
 10
-62.425
 20
-43.375
 70
     8
  0
VERTEX
  8
ガラス
 10
-62.45
 20
-43.375
 70
     8
  0
VERTEX
  8
ガラス
 10
-62.475
 20
-43.375
 70
     8
  0
VERTEX
  8
ガラス
 10
-62.5
 20
-43.375
 70
     8
  0
VERTEX
  8
ガラス
 10
-62.5
 20
-43.375
 70
     8
  0
VERTEX
  8
ガラス
 10
-62.525
 20
-43.375
 70
     8
  0
VERTEX
  8
ガラス
 10
-62.55
 20
-43.375
 70
     8
  0
VERTEX
  8
ガラス
 10
-62.575
 20
-43.4
 70
     8
  0
VERTEX
  8
ガラス
 10
-62.6
 20
-43.4
 70
     8
  0
VERTEX
  8
ガラス
 10
-62.6
 20
-43.4
 70
     8
  0
VERTEX
  8
ガラス
 10
-62.625
 20
-43.4
 70
     8
  0
VERTEX
  8
ガラス
 10
-62.65
 20
-43.4
 70
     8
  0
VERTEX
  8
ガラス
 10
-62.675
 20
-43.4
 70
     8
  0
VERTEX
  8
ガラス
 10
-62.675
 20
-43.425
 70
     8
  0
VERTEX
  8
ガラス
 10
-62.7
 20
-43.425
 70
     8
  0
VERTEX
  8
ガラス
 10
-62.725
 20
-43.425
 70
     8
  0
VERTEX
  8
ガラス
 10
-62.75
 20
-43.425
 70
     8
  0
VERTEX
  8
ガラス
 10
-62.775
 20
-43.45
 70
     8
  0
VERTEX
  8
ガラス
 10
-62.775
 20
-43.45
 70
     8
  0
VERTEX
  8
ガラス
 10
-62.8
 20
-43.45
 70
     8
  0
VERTEX
  8
ガラス
 10
-62.825
 20
-43.45
 70
     8
  0
VERTEX
  8
ガラス
 10
-62.85
 20
-43.475
 70
     8
  0
VERTEX
  8
ガラス
 10
-62.85
 20
-43.475
 70
     8
  0
VERTEX
  8
ガラス
 10
-62.875
 20
-43.475
 70
     8
  0
VERTEX
  8
ガラス
 10
-62.9
 20
-43.5
 70
     8
  0
VERTEX
  8
ガラス
 10
-62.925
 20
-43.5
 70
     8
  0
VERTEX
  8
ガラス
 10
-62.95
 20
-43.5
 70
     8
  0
VERTEX
  8
ガラス
 10
-62.95
 20
-43.5
 70
     8
  0
VERTEX
  8
ガラス
 10
-62.975
 20
-43.525
 70
     8
  0
VERTEX
  8
ガラス
 10
-63.0
 20
-43.525
 70
     8
  0
VERTEX
  8
ガラス
 10
-63.025
 20
-43.525
 70
     8
  0
VERTEX
  8
ガラス
 10
-63.025
 20
-43.55
 70
     8
  0
VERTEX
  8
ガラス
 10
-63.05
 20
-43.55
 70
     8
  0
SEQEND
  0
ARC
  8
ガラス
  6
CONTINUOUS
 10
-63.160286
 20
-43.242491
 40
0.318378
 50
112.264588
 51
292.264588
  0
ENDBLK
  0
BLOCK
  2
*GRP_0014
 70
    65
 10
0.0
 20
0.0
  0
POLYLINE
  8
ガラス
  6
CONTINUOUS
 66
     1
 70
     4
  0
VERTEX
  8
ガラス
 10
-67.35
 20
-43.65
 70
     8
  0
VERTEX
  8
ガラス
 10
-67.325
 20
-43.65
 70
     8
  0
VERTEX
  8
ガラス
 10
-67.3
 20
-43.65
 70
     8
  0
VERTEX
  8
ガラス
 10
-67.275
 20
-43.65
 70
     8
  0
VERTEX
  8
ガラス
 10
-67.225
 20
-43.625
 70
     8
  0
VERTEX
  8
ガラス
 10
-67.2
 20
-43.625
 70
     8
  0
VERTEX
  8
ガラス
 10
-67.175
 20
-43.625
 70
     8
  0
VERTEX
  8
ガラス
 10
-67.15
 20
-43.625
 70
     8
  0
VERTEX
  8
ガラス
 10
-67.125
 20
-43.625
 70
     8
  0
VERTEX
  8
ガラス
 10
-67.075
 20
-43.625
 70
     8
  0
VERTEX
  8
ガラス
 10
-67.05
 20
-43.625
 70
     8
  0
VERTEX
  8
ガラス
 10
-67.025
 20
-43.625
 70
     8
  0
VERTEX
  8
ガラス
 10
-67.0
 20
-43.625
 70
     8
  0
VERTEX
  8
ガラス
 10
-66.975
 20
-43.625
 70
     8
  0
VERTEX
  8
ガラス
 10
-66.925
 20
-43.625
 70
     8
  0
VERTEX
  8
ガラス
 10
-66.9
 20
-43.625
 70
     8
  0
VERTEX
  8
ガラス
 10
-66.875
 20
-43.625
 70
     8
  0
VERTEX
  8
ガラス
 10
-66.85
 20
-43.65
 70
     8
  0
VERTEX
  8
ガラス
 10
-66.825
 20
-43.65
 70
     8
  0
VERTEX
  8
ガラス
 10
-66.8
 20
-43.65
 70
     8
  0
VERTEX
  8
ガラス
 10
-66.775
 20
-43.675
 70
     8
  0
VERTEX
  8
ガラス
 10
-66.75
 20
-43.675
 70
     8
  0
VERTEX
  8
ガラス
 10
-66.725
 20
-43.675
 70
     8
  0
VERTEX
  8
ガラス
 10
-66.7
 20
-43.7
 70
     8
  0
VERTEX
  8
ガラス
 10
-66.675
 20
-43.725
 70
     8
  0
VERTEX
  8
ガラス
 10
-66.65
 20
-43.725
 70
     8
  0
VERTEX
  8
ガラス
 10
-66.625
 20
-43.75
 70
     8
  0
VERTEX
  8
ガラス
 10
-66.6
 20
-43.75
 70
     8
  0
VERTEX
  8
ガラス
 10
-66.575
 20
-43.775
 70
     8
  0
VERTEX
  8
ガラス
 10
-66.55
 20
-43.8
 70
     8
  0
VERTEX
  8
ガラス
 10
-66.525
 20
-43.825
 70
     8
  0
VERTEX
  8
ガラス
 10
-66.525
 20
-43.825
 70
     8
  0
VERTEX
  8
ガラス
 10
-66.5
 20
-43.85
 70
     8
  0
VERTEX
  8
ガラス
 10
-66.475
 20
-43.875
 70
     8
  0
VERTEX
  8
ガラス
 10
-66.45
 20
-43.9
 70
     8
  0
VERTEX
  8
ガラス
 10
-66.425
 20
-43.925
 70
     8
  0
VERTEX
  8
ガラス
 10
-66.4
 20
-43.95
 70
     8
  0
VERTEX
  8
ガラス
 10
-66.4
 20
-43.975
 70
     8
  0
VERTEX
  8
ガラス
 10
-66.375
 20
-44.0
 70
     8
  0
VERTEX
  8
ガラス
 10
-66.35
 20
-44.025
 70
     8
  0
VERTEX
  8
ガラス
 10
-66.325
 20
-44.05
 70
     8
  0
SEQEND
  0
POLYLINE
  8
ガラス
  6
CONTINUOUS
 66
     1
 70
     4
  0
VERTEX
  8
ガラス
 10
-66.325
 20
-44.05
 70
     8
  0
VERTEX
  8
ガラス
 10
-66.35
 20
-44.05
 70
     8
  0
VERTEX
  8
ガラス
 10
-66.375
 20
-44.05
 70
     8
  0
VERTEX
  8
ガラス
 10
-66.4
 20
-44.05
 70
     8
  0
VERTEX
  8
ガラス
 10
-66.4
 20
-44.05
 70
     8
  0
VERTEX
  8
ガラス
 10
-66.425
 20
-44.05
 70
     8
  0
VERTEX
  8
ガラス
 10
-66.45
 20
-44.05
 70
     8
  0
VERTEX
  8
ガラス
 10
-66.475
 20
-44.05
 70
     8
  0
VERTEX
  8
ガラス
 10
-66.5
 20
-44.05
 70
     8
  0
VERTEX
  8
ガラス
 10
-66.5
 20
-44.05
 70
     8
  0
VERTEX
  8
ガラス
 10
-66.525
 20
-44.075
 70
     8
  0
VERTEX
  8
ガラス
 10
-66.55
 20
-44.075
 70
     8
  0
VERTEX
  8
ガラス
 10
-66.575
 20
-44.075
 70
     8
  0
VERTEX
  8
ガラス
 10
-66.6
 20
-44.075
 70
     8
  0
VERTEX
  8
ガラス
 10
-66.625
 20
-44.075
 70
     8
  0
VERTEX
  8
ガラス
 10
-66.625
 20
-44.075
 70
     8
  0
VERTEX
  8
ガラス
 10
-66.65
 20
-44.075
 70
     8
  0
VERTEX
  8
ガラス
 10
-66.675
 20
-44.075
 70
     8
  0
VERTEX
  8
ガラス
 10
-66.7
 20
-44.1
 70
     8
  0
VERTEX
  8
ガラス
 10
-66.725
 20
-44.1
 70
     8
  0
VERTEX
  8
ガラス
 10
-66.725
 20
-44.1
 70
     8
  0
VERTEX
  8
ガラス
 10
-66.75
 20
-44.1
 70
     8
  0
VERTEX
  8
ガラス
 10
-66.775
 20
-44.1
 70
     8
  0
VERTEX
  8
ガラス
 10
-66.8
 20
-44.125
 70
     8
  0
VERTEX
  8
ガラス
 10
-66.8
 20
-44.125
 70
     8
  0
VERTEX
  8
ガラス
 10
-66.825
 20
-44.125
 70
     8
  0
VERTEX
  8
ガラス
 10
-66.85
 20
-44.125
 70
     8
  0
VERTEX
  8
ガラス
 10
-66.875
 20
-44.15
 70
     8
  0
VERTEX
  8
ガラス
 10
-66.9
 20
-44.15
 70
     8
  0
VERTEX
  8
ガラス
 10
-66.9
 20
-44.15
 70
     8
  0
VERTEX
  8
ガラス
 10
-66.925
 20
-44.15
 70
     8
  0
VERTEX
  8
ガラス
 10
-66.95
 20
-44.175
 70
     8
  0
VERTEX
  8
ガラス
 10
-66.975
 20
-44.175
 70
     8
  0
VERTEX
  8
ガラス
 10
-66.975
 20
-44.175
 70
     8
  0
VERTEX
  8
ガラス
 10
-67.0
 20
-44.2
 70
     8
  0
VERTEX
  8
ガラス
 10
-67.025
 20
-44.2
 70
     8
  0
VERTEX
  8
ガラス
 10
-67.05
 20
-44.2
 70
     8
  0
VERTEX
  8
ガラス
 10
-67.05
 20
-44.225
 70
     8
  0
VERTEX
  8
ガラス
 10
-67.075
 20
-44.225
 70
     8
  0
VERTEX
  8
ガラス
 10
-67.1
 20
-44.225
 70
     8
  0
VERTEX
  8
ガラス
 10
-67.125
 20
-44.25
 70
     8
  0
SEQEND
  0
ARC
  8
ガラス
  6
CONTINUOUS
 10
-67.225136
 20
-43.931426
 40
0.318378
 50
112.264588
 51
292.264588
  0
ENDBLK
  0
BLOCK
  2
*GRP_0015
 70
    65
 10
0.0
 20
0.0
  0
POLYLINE
  8
ガラス
  6
CONTINUOUS
 66
     1
 70
     4
  0
VERTEX
  8
ガラス
 10
-72.225
 20
-44.475
 70
     8
  0
VERTEX
  8
ガラス
 10
-72.2
 20
-44.475
 70
     8
  0
VERTEX
  8
ガラス
 10
-72.175
 20
-44.475
 70
     8
  0
VERTEX
  8
ガラス
 10
-72.125
 20
-44.475
 70
     8
  0
VERTEX
  8
ガラス
 10
-72.1
 20
-44.45
 70
     8
  0
VERTEX
  8
ガラス
 10
-72.075
 20
-44.45
 70
     8
  0
VERTEX
  8
ガラス
 10
-72.05
 20
-44.45
 70
     8
  0
VERTEX
  8
ガラス
 10
-72.0
 20
-44.45
 70
     8
  0
VERTEX
  8
ガラス
 10
-71.975
 20
-44.45
 70
     8
  0
VERTEX
  8
ガラス
 10
-71.95
 20
-44.45
 70
     8
  0
VERTEX
  8
ガラス
 10
-71.925
 20
-44.45
 70
     8
  0
VERTEX
  8
ガラス
 10
-71.9
 20
-44.45
 70
     8
  0
VERTEX
  8
ガラス
 10
-71.85
 20
-44.45
 70
     8
  0
VERTEX
  8
ガラス
 10
-71.825
 20
-44.45
 70
     8
  0
VERTEX
  8
ガラス
 10
-71.8
 20
-44.45
 70
     8
  0
VERTEX
  8
ガラス
 10
-71.775
 20
-44.45
 70
     8
  0
VERTEX
  8
ガラス
 10
-71.75
 20
-44.45
 70
     8
  0
VERTEX
  8
ガラス
 10
-71.725
 20
-44.475
 70
     8
  0
VERTEX
  8
ガラス
 10
-71.7
 20
-44.475
 70
     8
  0
VERTEX
  8
ガラス
 10
-71.675
 20
-44.475
 70
     8
  0
VERTEX
  8
ガラス
 10
-71.65
 20
-44.5
 70
     8
  0
VERTEX
  8
ガラス
 10
-71.625
 20
-44.5
 70
     8
  0
VERTEX
  8
ガラス
 10
-71.6
 20
-44.5
 70
     8
  0
VERTEX
  8
ガラス
 10
-71.575
 20
-44.525
 70
     8
  0
VERTEX
  8
ガラス
 10
-71.55
 20
-44.525
 70
     8
  0
VERTEX
  8
ガラス
 10
-71.525
 20
-44.55
 70
     8
  0
VERTEX
  8
ガラス
 10
-71.5
 20
-44.575
 70
     8
  0
VERTEX
  8
ガラス
 10
-71.475
 20
-44.575
 70
     8
  0
VERTEX
  8
ガラス
 10
-71.45
 20
-44.6
 70
     8
  0
VERTEX
  8
ガラス
 10
-71.425
 20
-44.625
 70
     8
  0
VERTEX
  8
ガラス
 10
-71.4
 20
-44.65
 70
     8
  0
VERTEX
  8
ガラス
 10
-71.375
 20
-44.65
 70
     8
  0
VERTEX
  8
ガラス
 10
-71.35
 20
-44.675
 70
     8
  0
VERTEX
  8
ガラス
 10
-71.35
 20
-44.7
 70
     8
  0
VERTEX
  8
ガラス
 10
-71.325
 20
-44.725
 70
     8
  0
VERTEX
  8
ガラス
 10
-71.3
 20
-44.75
 70
     8
  0
VERTEX
  8
ガラス
 10
-71.275
 20
-44.775
 70
     8
  0
VERTEX
  8
ガラス
 10
-71.25
 20
-44.8
 70
     8
  0
VERTEX
  8
ガラス
 10
-71.225
 20
-44.825
 70
     8
  0
VERTEX
  8
ガラス
 10
-71.225
 20
-44.85
 70
     8
  0
VERTEX
  8
ガラス
 10
-71.2
 20
-44.875
 70
     8
  0
SEQEND
  0
POLYLINE
  8
ガラス
  6
CONTINUOUS
 66
     1
 70
     4
  0
VERTEX
  8
ガラス
 10
-71.2
 20
-44.875
 70
     8
  0
VERTEX
  8
ガラス
 10
-71.225
 20
-44.875
 70
     8
  0
VERTEX
  8
ガラス
 10
-71.225
 20
-44.875
 70
     8
  0
VERTEX
  8
ガラス
 10
-71.25
 20
-44.875
 70
     8
  0
VERTEX
  8
ガラス
 10
-71.275
 20
-44.875
 70
     8
  0
VERTEX
  8
ガラス
 10
-71.3
 20
-44.875
 70
     8
  0
VERTEX
  8
ガラス
 10
-71.325
 20
-44.875
 70
     8
  0
VERTEX
  8
ガラス
 10
-71.35
 20
-44.875
 70
     8
  0
VERTEX
  8
ガラス
 10
-71.35
 20
-44.875
 70
     8
  0
VERTEX
  8
ガラス
 10
-71.375
 20
-44.875
 70
     8
  0
VERTEX
  8
ガラス
 10
-71.4
 20
-44.9
 70
     8
  0
VERTEX
  8
ガラス
 10
-71.425
 20
-44.9
 70
     8
  0
VERTEX
  8
ガラス
 10
-71.45
 20
-44.9
 70
     8
  0
VERTEX
  8
ガラス
 10
-71.45
 20
-44.9
 70
     8
  0
VERTEX
  8
ガラス
 10
-71.475
 20
-44.9
 70
     8
  0
VERTEX
  8
ガラス
 10
-71.5
 20
-44.9
 70
     8
  0
VERTEX
  8
ガラス
 10
-71.525
 20
-44.9
 70
     8
  0
VERTEX
  8
ガラス
 10
-71.55
 20
-44.9
 70
     8
  0
VERTEX
  8
ガラス
 10
-71.55
 20
-44.925
 70
     8
  0
VERTEX
  8
ガラス
 10
-71.575
 20
-44.925
 70
     8
  0
VERTEX
  8
ガラス
 10
-71.6
 20
-44.925
 70
     8
  0
VERTEX
  8
ガラス
 10
-71.625
 20
-44.925
 70
     8
  0
VERTEX
  8
ガラス
 10
-71.65
 20
-44.925
 70
     8
  0
VERTEX
  8
ガラス
 10
-71.65
 20
-44.95
 70
     8
  0
VERTEX
  8
ガラス
 10
-71.675
 20
-44.95
 70
     8
  0
VERTEX
  8
ガラス
 10
-71.7
 20
-44.95
 70
     8
  0
VERTEX
  8
ガラス
 10
-71.725
 20
-44.95
 70
     8
  0
VERTEX
  8
ガラス
 10
-71.725
 20
-44.975
 70
     8
  0
VERTEX
  8
ガラス
 10
-71.75
 20
-44.975
 70
     8
  0
VERTEX
  8
ガラス
 10
-71.775
 20
-44.975
 70
     8
  0
VERTEX
  8
ガラス
 10
-71.8
 20
-44.975
 70
     8
  0
VERTEX
  8
ガラス
 10
-71.8
 20
-45.0
 70
     8
  0
VERTEX
  8
ガラス
 10
-71.825
 20
-45.0
 70
     8
  0
VERTEX
  8
ガラス
 10
-71.85
 20
-45.0
 70
     8
  0
VERTEX
  8
ガラス
 10
-71.875
 20
-45.025
 70
     8
  0
VERTEX
  8
ガラス
 10
-71.9
 20
-45.025
 70
     8
  0
VERTEX
  8
ガラス
 10
-71.9
 20
-45.025
 70
     8
  0
VERTEX
  8
ガラス
 10
-71.925
 20
-45.05
 70
     8
  0
VERTEX
  8
ガラス
 10
-71.95
 20
-45.05
 70
     8
  0
VERTEX
  8
ガラス
 10
-71.975
 20
-45.05
 70
     8
  0
VERTEX
  8
ガラス
 10
-71.975
 20
-45.075
 70
     8
  0
SEQEND
  0
ARC
  8
ガラス
  6
CONTINUOUS
 10
-72.091449
 20
-44.756199
 40
0.318378
 50
112.264588
 51
292.264588
  0
ENDBLK
  0
BLOCK
  2
*GRP_0016
 70
    65
 10
0.0
 20
0.0
  0
POLYLINE
  8
ガラス
  6
CONTINUOUS
 66
     1
 70
     4
  0
VERTEX
  8
ガラス
 10
-59.8
 20
-35.35
 70
     8
  0
VERTEX
  8
ガラス
 10
-59.8
 20
-35.325
 70
     8
  0
VERTEX
  8
ガラス
 10
-59.775
 20
-35.275
 70
     8
  0
VERTEX
  8
ガラス
 10
-59.775
 20
-35.25
 70
     8
  0
VERTEX
  8
ガラス
 10
-59.775
 20
-35.225
 70
     8
  0
VERTEX
  8
ガラス
 10
-59.775
 20
-35.2
 70
     8
  0
VERTEX
  8
ガラス
 10
-59.775
 20
-35.15
 70
     8
  0
VERTEX
  8
ガラス
 10
-59.775
 20
-35.125
 70
     8
  0
VERTEX
  8
ガラス
 10
-59.775
 20
-35.1
 70
     8
  0
VERTEX
  8
ガラス
 10
-59.775
 20
-35.075
 70
     8
  0
VERTEX
  8
ガラス
 10
-59.775
 20
-35.05
 70
     8
  0
VERTEX
  8
ガラス
 10
-59.775
 20
-35.0
 70
     8
  0
VERTEX
  8
ガラス
 10
-59.775
 20
-34.975
 70
     8
  0
VERTEX
  8
ガラス
 10
-59.775
 20
-34.95
 70
     8
  0
VERTEX
  8
ガラス
 10
-59.775
 20
-34.925
 70
     8
  0
VERTEX
  8
ガラス
 10
-59.775
 20
-34.9
 70
     8
  0
VERTEX
  8
ガラス
 10
-59.775
 20
-34.875
 70
     8
  0
VERTEX
  8
ガラス
 10
-59.775
 20
-34.85
 70
     8
  0
VERTEX
  8
ガラス
 10
-59.8
 20
-34.825
 70
     8
  0
VERTEX
  8
ガラス
 10
-59.8
 20
-34.8
 70
     8
  0
VERTEX
  8
ガラス
 10
-59.8
 20
-34.75
 70
     8
  0
VERTEX
  8
ガラス
 10
-59.825
 20
-34.725
 70
     8
  0
VERTEX
  8
ガラス
 10
-59.825
 20
-34.7
 70
     8
  0
VERTEX
  8
ガラス
 10
-59.85
 20
-34.675
 70
     8
  0
VERTEX
  8
ガラス
 10
-59.85
 20
-34.65
 70
     8
  0
VERTEX
  8
ガラス
 10
-59.875
 20
-34.65
 70
     8
  0
VERTEX
  8
ガラス
 10
-59.9
 20
-34.625
 70
     8
  0
VERTEX
  8
ガラス
 10
-59.9
 20
-34.6
 70
     8
  0
VERTEX
  8
ガラス
 10
-59.925
 20
-34.575
 70
     8
  0
VERTEX
  8
ガラス
 10
-59.95
 20
-34.55
 70
     8
  0
VERTEX
  8
ガラス
 10
-59.95
 20
-34.525
 70
     8
  0
VERTEX
  8
ガラス
 10
-59.975
 20
-34.5
 70
     8
  0
VERTEX
  8
ガラス
 10
-60.0
 20
-34.475
 70
     8
  0
VERTEX
  8
ガラス
 10
-60.025
 20
-34.45
 70
     8
  0
VERTEX
  8
ガラス
 10
-60.05
 20
-34.45
 70
     8
  0
VERTEX
  8
ガラス
 10
-60.075
 20
-34.425
 70
     8
  0
VERTEX
  8
ガラス
 10
-60.1
 20
-34.4
 70
     8
  0
VERTEX
  8
ガラス
 10
-60.125
 20
-34.375
 70
     8
  0
VERTEX
  8
ガラス
 10
-60.125
 20
-34.35
 70
     8
  0
VERTEX
  8
ガラス
 10
-60.15
 20
-34.35
 70
     8
  0
VERTEX
  8
ガラス
 10
-60.175
 20
-34.325
 70
     8
  0
SEQEND
  0
POLYLINE
  8
ガラス
  6
CONTINUOUS
 66
     1
 70
     4
  0
VERTEX
  8
ガラス
 10
-60.175
 20
-34.325
 70
     8
  0
VERTEX
  8
ガラス
 10
-60.175
 20
-34.35
 70
     8
  0
VERTEX
  8
ガラス
 10
-60.2
 20
-34.35
 70
     8
  0
VERTEX
  8
ガラス
 10
-60.2
 20
-34.375
 70
     8
  0
VERTEX
  8
ガラス
 10
-60.2
 20
-34.4
 70
     8
  0
VERTEX
  8
ガラス
 10
-60.2
 20
-34.425
 70
     8
  0
VERTEX
  8
ガラス
 10
-60.2
 20
-34.45
 70
     8
  0
VERTEX
  8
ガラス
 10
-60.2
 20
-34.45
 70
     8
  0
VERTEX
  8
ガラス
 10
-60.2
 20
-34.475
 70
     8
  0
VERTEX
  8
ガラス
 10
-60.2
 20
-34.5
 70
     8
  0
VERTEX
  8
ガラス
 10
-60.2
 20
-34.525
 70
     8
  0
VERTEX
  8
ガラス
 10
-60.2
 20
-34.55
 70
     8
  0
VERTEX
  8
ガラス
 10
-60.225
 20
-34.55
 70
     8
  0
VERTEX
  8
ガラス
 10
-60.225
 20
-34.575
 70
     8
  0
VERTEX
  8
ガラス
 10
-60.225
 20
-34.6
 70
     8
  0
VERTEX
  8
ガラス
 10
-60.225
 20
-34.625
 70
     8
  0
VERTEX
  8
ガラス
 10
-60.225
 20
-34.65
 70
     8
  0
VERTEX
  8
ガラス
 10
-60.225
 20
-34.65
 70
     8
  0
VERTEX
  8
ガラス
 10
-60.225
 20
-34.675
 70
     8
  0
VERTEX
  8
ガラス
 10
-60.25
 20
-34.7
 70
     8
  0
VERTEX
  8
ガラス
 10
-60.25
 20
-34.725
 70
     8
  0
VERTEX
  8
ガラス
 10
-60.25
 20
-34.75
 70
     8
  0
VERTEX
  8
ガラス
 10
-60.25
 20
-34.75
 70
     8
  0
VERTEX
  8
ガラス
 10
-60.25
 20
-34.775
 70
     8
  0
VERTEX
  8
ガラス
 10
-60.275
 20
-34.8
 70
     8
  0
VERTEX
  8
ガラス
 10
-60.275
 20
-34.825
 70
     8
  0
VERTEX
  8
ガラス
 10
-60.275
 20
-34.85
 70
     8
  0
VERTEX
  8
ガラス
 10
-60.275
 20
-34.85
 70
     8
  0
VERTEX
  8
ガラス
 10
-60.3
 20
-34.875
 70
     8
  0
VERTEX
  8
ガラス
 10
-60.3
 20
-34.9
 70
     8
  0
VERTEX
  8
ガラス
 10
-60.3
 20
-34.925
 70
     8
  0
VERTEX
  8
ガラス
 10
-60.325
 20
-34.925
 70
     8
  0
VERTEX
  8
ガラス
 10
-60.325
 20
-34.95
 70
     8
  0
VERTEX
  8
ガラス
 10
-60.325
 20
-34.975
 70
     8
  0
VERTEX
  8
ガラス
 10
-60.325
 20
-35.0
 70
     8
  0
VERTEX
  8
ガラス
 10
-60.35
 20
-35.0
 70
     8
  0
VERTEX
  8
ガラス
 10
-60.35
 20
-35.025
 70
     8
  0
VERTEX
  8
ガラス
 10
-60.35
 20
-35.05
 70
     8
  0
VERTEX
  8
ガラス
 10
-60.375
 20
-35.075
 70
     8
  0
VERTEX
  8
ガラス
 10
-60.375
 20
-35.075
 70
     8
  0
VERTEX
  8
ガラス
 10
-60.375
 20
-35.1
 70
     8
  0
SEQEND
  0
ARC
  8
ガラス
  6
CONTINUOUS
 10
-60.075644
 20
-35.214211
 40
0.318378
 50
157.735412
 51
337.735412
  0
ENDBLK
  0
BLOCK
  2
*GRP_0017
 70
    65
 10
0.0
 20
0.0
  0
POLYLINE
  8
ガラス
  6
CONTINUOUS
 66
     1
 70
     4
  0
VERTEX
  8
ガラス
 10
-59.8
 20
-40.575
 70
     8
  0
VERTEX
  8
ガラス
 10
-59.8
 20
-40.55
 70
     8
  0
VERTEX
  8
ガラス
 10
-59.775
 20
-40.525
 70
     8
  0
VERTEX
  8
ガラス
 10
-59.775
 20
-40.5
 70
     8
  0
VERTEX
  8
ガラス
 10
-59.775
 20
-40.45
 70
     8
  0
VERTEX
  8
ガラス
 10
-59.775
 20
-40.425
 70
     8
  0
VERTEX
  8
ガラス
 10
-59.775
 20
-40.4
 70
     8
  0
VERTEX
  8
ガラス
 10
-59.775
 20
-40.375
 70
     8
  0
VERTEX
  8
ガラス
 10
-59.775
 20
-40.325
 70
     8
  0
VERTEX
  8
ガラス
 10
-59.775
 20
-40.3
 70
     8
  0
VERTEX
  8
ガラス
 10
-59.775
 20
-40.275
 70
     8
  0
VERTEX
  8
ガラス
 10
-59.775
 20
-40.25
 70
     8
  0
VERTEX
  8
ガラス
 10
-59.775
 20
-40.225
 70
     8
  0
VERTEX
  8
ガラス
 10
-59.775
 20
-40.2
 70
     8
  0
VERTEX
  8
ガラス
 10
-59.775
 20
-40.15
 70
     8
  0
VERTEX
  8
ガラス
 10
-59.775
 20
-40.125
 70
     8
  0
VERTEX
  8
ガラス
 10
-59.775
 20
-40.1
 70
     8
  0
VERTEX
  8
ガラス
 10
-59.775
 20
-40.075
 70
     8
  0
VERTEX
  8
ガラス
 10
-59.8
 20
-40.05
 70
     8
  0
VERTEX
  8
ガラス
 10
-59.8
 20
-40.025
 70
     8
  0
VERTEX
  8
ガラス
 10
-59.8
 20
-40.0
 70
     8
  0
VERTEX
  8
ガラス
 10
-59.825
 20
-39.975
 70
     8
  0
VERTEX
  8
ガラス
 10
-59.825
 20
-39.95
 70
     8
  0
VERTEX
  8
ガラス
 10
-59.85
 20
-39.925
 70
     8
  0
VERTEX
  8
ガラス
 10
-59.85
 20
-39.9
 70
     8
  0
VERTEX
  8
ガラス
 10
-59.875
 20
-39.875
 70
     8
  0
VERTEX
  8
ガラス
 10
-59.9
 20
-39.85
 70
     8
  0
VERTEX
  8
ガラス
 10
-59.9
 20
-39.825
 70
     8
  0
VERTEX
  8
ガラス
 10
-59.925
 20
-39.8
 70
     8
  0
VERTEX
  8
ガラス
 10
-59.95
 20
-39.775
 70
     8
  0
VERTEX
  8
ガラス
 10
-59.95
 20
-39.75
 70
     8
  0
VERTEX
  8
ガラス
 10
-59.975
 20
-39.75
 70
     8
  0
VERTEX
  8
ガラス
 10
-60.0
 20
-39.725
 70
     8
  0
VERTEX
  8
ガラス
 10
-60.025
 20
-39.7
 70
     8
  0
VERTEX
  8
ガラス
 10
-60.05
 20
-39.675
 70
     8
  0
VERTEX
  8
ガラス
 10
-60.075
 20
-39.65
 70
     8
  0
VERTEX
  8
ガラス
 10
-60.1
 20
-39.625
 70
     8
  0
VERTEX
  8
ガラス
 10
-60.125
 20
-39.625
 70
     8
  0
VERTEX
  8
ガラス
 10
-60.125
 20
-39.6
 70
     8
  0
VERTEX
  8
ガラス
 10
-60.15
 20
-39.575
 70
     8
  0
VERTEX
  8
ガラス
 10
-60.175
 20
-39.55
 70
     8
  0
SEQEND
  0
POLYLINE
  8
ガラス
  6
CONTINUOUS
 66
     1
 70
     4
  0
VERTEX
  8
ガラス
 10
-60.175
 20
-39.55
 70
     8
  0
VERTEX
  8
ガラス
 10
-60.175
 20
-39.575
 70
     8
  0
VERTEX
  8
ガラス
 10
-60.2
 20
-39.6
 70
     8
  0
VERTEX
  8
ガラス
 10
-60.2
 20
-39.625
 70
     8
  0
VERTEX
  8
ガラス
 10
-60.2
 20
-39.625
 70
     8
  0
VERTEX
  8
ガラス
 10
-60.2
 20
-39.65
 70
     8
  0
VERTEX
  8
ガラス
 10
-60.2
 20
-39.675
 70
     8
  0
VERTEX
  8
ガラス
 10
-60.2
 20
-39.7
 70
     8
  0
VERTEX
  8
ガラス
 10
-60.2
 20
-39.725
 70
     8
  0
VERTEX
  8
ガラス
 10
-60.2
 20
-39.725
 70
     8
  0
VERTEX
  8
ガラス
 10
-60.2
 20
-39.75
 70
     8
  0
VERTEX
  8
ガラス
 10
-60.2
 20
-39.775
 70
     8
  0
VERTEX
  8
ガラス
 10
-60.225
 20
-39.8
 70
     8
  0
VERTEX
  8
ガラス
 10
-60.225
 20
-39.825
 70
     8
  0
VERTEX
  8
ガラス
 10
-60.225
 20
-39.825
 70
     8
  0
VERTEX
  8
ガラス
 10
-60.225
 20
-39.85
 70
     8
  0
VERTEX
  8
ガラス
 10
-60.225
 20
-39.875
 70
     8
  0
VERTEX
  8
ガラス
 10
-60.225
 20
-39.9
 70
     8
  0
VERTEX
  8
ガラス
 10
-60.225
 20
-39.925
 70
     8
  0
VERTEX
  8
ガラス
 10
-60.25
 20
-39.925
 70
     8
  0
VERTEX
  8
ガラス
 10
-60.25
 20
-39.95
 70
     8
  0
VERTEX
  8
ガラス
 10
-60.25
 20
-39.975
 70
     8
  0
VERTEX
  8
ガラス
 10
-60.25
 20
-40.0
 70
     8
  0
VERTEX
  8
ガラス
 10
-60.25
 20
-40.025
 70
     8
  0
VERTEX
  8
ガラス
 10
-60.275
 20
-40.025
 70
     8
  0
VERTEX
  8
ガラス
 10
-60.275
 20
-40.05
 70
     8
  0
VERTEX
  8
ガラス
 10
-60.275
 20
-40.075
 70
     8
  0
VERTEX
  8
ガラス
 10
-60.275
 20
-40.1
 70
     8
  0
VERTEX
  8
ガラス
 10
-60.3
 20
-40.125
 70
     8
  0
VERTEX
  8
ガラス
 10
-60.3
 20
-40.125
 70
     8
  0
VERTEX
  8
ガラス
 10
-60.3
 20
-40.15
 70
     8
  0
VERTEX
  8
ガラス
 10
-60.325
 20
-40.175
 70
     8
  0
VERTEX
  8
ガラス
 10
-60.325
 20
-40.2
 70
     8
  0
VERTEX
  8
ガラス
 10
-60.325
 20
-40.2
 70
     8
  0
VERTEX
  8
ガラス
 10
-60.325
 20
-40.225
 70
     8
  0
VERTEX
  8
ガラス
 10
-60.35
 20
-40.25
 70
     8
  0
VERTEX
  8
ガラス
 10
-60.35
 20
-40.275
 70
     8
  0
VERTEX
  8
ガラス
 10
-60.35
 20
-40.275
 70
     8
  0
VERTEX
  8
ガラス
 10
-60.375
 20
-40.3
 70
     8
  0
VERTEX
  8
ガラス
 10
-60.375
 20
-40.325
 70
     8
  0
VERTEX
  8
ガラス
 10
-60.375
 20
-40.35
 70
     8
  0
SEQEND
  0
ARC
  8
ガラス
  6
CONTINUOUS
 10
-60.075644
 20
-40.449616
 40
0.318378
 50
157.735412
 51
337.735412
  0
ENDBLK
  0
BLOCK
  2
*GRP_0018
 70
    65
 10
0.0
 20
0.0
  0
POLYLINE
  8
ガラス
  6
CONTINUOUS
 66
     1
 70
     4
  0
VERTEX
  8
ガラス
 10
54.4
 20
-42.95
 70
     8
  0
VERTEX
  8
ガラス
 10
54.375
 20
-42.95
 70
     8
  0
VERTEX
  8
ガラス
 10
54.35
 20
-42.95
 70
     8
  0
VERTEX
  8
ガラス
 10
54.3
 20
-42.95
 70
     8
  0
VERTEX
  8
ガラス
 10
54.275
 20
-42.95
 70
     8
  0
VERTEX
  8
ガラス
 10
54.25
 20
-42.95
 70
     8
  0
VERTEX
  8
ガラス
 10
54.225
 20
-42.95
 70
     8
  0
VERTEX
  8
ガラス
 10
54.2
 20
-42.95
 70
     8
  0
VERTEX
  8
ガラス
 10
54.15
 20
-42.925
 70
     8
  0
VERTEX
  8
ガラス
 10
54.125
 20
-42.925
 70
     8
  0
VERTEX
  8
ガラス
 10
54.1
 20
-42.925
 70
     8
  0
VERTEX
  8
ガラス
 10
54.075
 20
-42.925
 70
     8
  0
VERTEX
  8
ガラス
 10
54.05
 20
-42.925
 70
     8
  0
VERTEX
  8
ガラス
 10
54.0
 20
-42.95
 70
     8
  0
VERTEX
  8
ガラス
 10
53.975
 20
-42.95
 70
     8
  0
VERTEX
  8
ガラス
 10
53.95
 20
-42.95
 70
     8
  0
VERTEX
  8
ガラス
 10
53.925
 20
-42.95
 70
     8
  0
VERTEX
  8
ガラス
 10
53.9
 20
-42.95
 70
     8
  0
VERTEX
  8
ガラス
 10
53.875
 20
-42.95
 70
     8
  0
VERTEX
  8
ガラス
 10
53.85
 20
-42.975
 70
     8
  0
VERTEX
  8
ガラス
 10
53.825
 20
-42.975
 70
     8
  0
VERTEX
  8
ガラス
 10
53.8
 20
-42.975
 70
     8
  0
VERTEX
  8
ガラス
 10
53.775
 20
-43.0
 70
     8
  0
VERTEX
  8
ガラス
 10
53.75
 20
-43.0
 70
     8
  0
VERTEX
  8
ガラス
 10
53.725
 20
-43.025
 70
     8
  0
VERTEX
  8
ガラス
 10
53.7
 20
-43.05
 70
     8
  0
VERTEX
  8
ガラス
 10
53.675
 20
-43.05
 70
     8
  0
VERTEX
  8
ガラス
 10
53.65
 20
-43.075
 70
     8
  0
VERTEX
  8
ガラス
 10
53.625
 20
-43.1
 70
     8
  0
VERTEX
  8
ガラス
 10
53.6
 20
-43.1
 70
     8
  0
VERTEX
  8
ガラス
 10
53.575
 20
-43.125
 70
     8
  0
VERTEX
  8
ガラス
 10
53.55
 20
-43.15
 70
     8
  0
VERTEX
  8
ガラス
 10
53.55
 20
-43.175
 70
     8
  0
VERTEX
  8
ガラス
 10
53.525
 20
-43.2
 70
     8
  0
VERTEX
  8
ガラス
 10
53.5
 20
-43.2
 70
     8
  0
VERTEX
  8
ガラス
 10
53.475
 20
-43.225
 70
     8
  0
VERTEX
  8
ガラス
 10
53.45
 20
-43.25
 70
     8
  0
VERTEX
  8
ガラス
 10
53.425
 20
-43.275
 70
     8
  0
VERTEX
  8
ガラス
 10
53.425
 20
-43.3
 70
     8
  0
VERTEX
  8
ガラス
 10
53.4
 20
-43.325
 70
     8
  0
VERTEX
  8
ガラス
 10
53.375
 20
-43.35
 70
     8
  0
SEQEND
  0
POLYLINE
  8
ガラス
  6
CONTINUOUS
 66
     1
 70
     4
  0
VERTEX
  8
ガラス
 10
53.375
 20
-43.35
 70
     8
  0
VERTEX
  8
ガラス
 10
53.4
 20
-43.35
 70
     8
  0
VERTEX
  8
ガラス
 10
53.425
 20
-43.35
 70
     8
  0
VERTEX
  8
ガラス
 10
53.425
 20
-43.35
 70
     8
  0
VERTEX
  8
ガラス
 10
53.45
 20
-43.35
 70
     8
  0
VERTEX
  8
ガラス
 10
53.475
 20
-43.35
 70
     8
  0
VERTEX
  8
ガラス
 10
53.5
 20
-43.375
 70
     8
  0
VERTEX
  8
ガラス
 10
53.525
 20
-43.375
 70
     8
  0
VERTEX
  8
ガラス
 10
53.525
 20
-43.375
 70
     8
  0
VERTEX
  8
ガラス
 10
53.55
 20
-43.375
 70
     8
  0
VERTEX
  8
ガラス
 10
53.575
 20
-43.375
 70
     8
  0
VERTEX
  8
ガラス
 10
53.6
 20
-43.375
 70
     8
  0
VERTEX
  8
ガラス
 10
53.625
 20
-43.375
 70
     8
  0
VERTEX
  8
ガラス
 10
53.65
 20
-43.375
 70
     8
  0
VERTEX
  8
ガラス
 10
53.65
 20
-43.375
 70
     8
  0
VERTEX
  8
ガラス
 10
53.675
 20
-43.4
 70
     8
  0
VERTEX
  8
ガラス
 10
53.7
 20
-43.4
 70
     8
  0
VERTEX
  8
ガラス
 10
53.725
 20
-43.4
 70
     8
  0
VERTEX
  8
ガラス
 10
53.75
 20
-43.4
 70
     8
  0
VERTEX
  8
ガラス
 10
53.75
 20
-43.4
 70
     8
  0
VERTEX
  8
ガラス
 10
53.775
 20
-43.4
 70
     8
  0
VERTEX
  8
ガラス
 10
53.8
 20
-43.425
 70
     8
  0
VERTEX
  8
ガラス
 10
53.825
 20
-43.425
 70
     8
  0
VERTEX
  8
ガラス
 10
53.825
 20
-43.425
 70
     8
  0
VERTEX
  8
ガラス
 10
53.85
 20
-43.425
 70
     8
  0
VERTEX
  8
ガラス
 10
53.875
 20
-43.45
 70
     8
  0
VERTEX
  8
ガラス
 10
53.9
 20
-43.45
 70
     8
  0
VERTEX
  8
ガラス
 10
53.925
 20
-43.45
 70
     8
  0
VERTEX
  8
ガラス
 10
53.925
 20
-43.45
 70
     8
  0
VERTEX
  8
ガラス
 10
53.95
 20
-43.475
 70
     8
  0
VERTEX
  8
ガラス
 10
53.975
 20
-43.475
 70
     8
  0
VERTEX
  8
ガラス
 10
54.0
 20
-43.475
 70
     8
  0
VERTEX
  8
ガラス
 10
54.0
 20
-43.5
 70
     8
  0
VERTEX
  8
ガラス
 10
54.025
 20
-43.5
 70
     8
  0
VERTEX
  8
ガラス
 10
54.05
 20
-43.5
 70
     8
  0
VERTEX
  8
ガラス
 10
54.075
 20
-43.5
 70
     8
  0
VERTEX
  8
ガラス
 10
54.075
 20
-43.525
 70
     8
  0
VERTEX
  8
ガラス
 10
54.1
 20
-43.525
 70
     8
  0
VERTEX
  8
ガラス
 10
54.125
 20
-43.525
 70
     8
  0
VERTEX
  8
ガラス
 10
54.15
 20
-43.55
 70
     8
  0
VERTEX
  8
ガラス
 10
54.175
 20
-43.55
 70
     8
  0
SEQEND
  0
ARC
  8
ガラス
  6
CONTINUOUS
 10
54.295826
 20
-43.242491
 40
0.318378
 50
247.735412
 51
427.735412
  0
ENDBLK
  0
BLOCK
  2
*GRP_0019
 70
    65
 10
0.0
 20
0.0
  0
POLYLINE
  8
ガラス
  6
CONTINUOUS
 66
     1
 70
     4
  0
VERTEX
  8
ガラス
 10
58.475
 20
-43.65
 70
     8
  0
VERTEX
  8
ガラス
 10
58.45
 20
-43.65
 70
     8
  0
VERTEX
  8
ガラス
 10
58.4
 20
-43.65
 70
     8
  0
VERTEX
  8
ガラス
 10
58.375
 20
-43.65
 70
     8
  0
VERTEX
  8
ガラス
 10
58.35
 20
-43.625
 70
     8
  0
VERTEX
  8
ガラス
 10
58.325
 20
-43.625
 70
     8
  0
VERTEX
  8
ガラス
 10
58.275
 20
-43.625
 70
     8
  0
VERTEX
  8
ガラス
 10
58.25
 20
-43.625
 70
     8
  0
VERTEX
  8
ガラス
 10
58.225
 20
-43.625
 70
     8
  0
VERTEX
  8
ガラス
 10
58.2
 20
-43.625
 70
     8
  0
VERTEX
  8
ガラス
 10
58.175
 20
-43.625
 70
     8
  0
VERTEX
  8
ガラス
 10
58.125
 20
-43.625
 70
     8
  0
VERTEX
  8
ガラス
 10
58.1
 20
-43.625
 70
     8
  0
VERTEX
  8
ガラス
 10
58.075
 20
-43.625
 70
     8
  0
VERTEX
  8
ガラス
 10
58.05
 20
-43.625
 70
     8
  0
VERTEX
  8
ガラス
 10
58.025
 20
-43.625
 70
     8
  0
VERTEX
  8
ガラス
 10
58.0
 20
-43.625
 70
     8
  0
VERTEX
  8
ガラス
 10
57.975
 20
-43.65
 70
     8
  0
VERTEX
  8
ガラス
 10
57.925
 20
-43.65
 70
     8
  0
VERTEX
  8
ガラス
 10
57.9
 20
-43.65
 70
     8
  0
VERTEX
  8
ガラス
 10
57.875
 20
-43.675
 70
     8
  0
VERTEX
  8
ガラス
 10
57.85
 20
-43.675
 70
     8
  0
VERTEX
  8
ガラス
 10
57.825
 20
-43.675
 70
     8
  0
VERTEX
  8
ガラス
 10
57.8
 20
-43.7
 70
     8
  0
VERTEX
  8
ガラス
 10
57.775
 20
-43.725
 70
     8
  0
VERTEX
  8
ガラス
 10
57.75
 20
-43.725
 70
     8
  0
VERTEX
  8
ガラス
 10
57.725
 20
-43.75
 70
     8
  0
VERTEX
  8
ガラス
 10
57.725
 20
-43.75
 70
     8
  0
VERTEX
  8
ガラス
 10
57.7
 20
-43.775
 70
     8
  0
VERTEX
  8
ガラス
 10
57.675
 20
-43.8
 70
     8
  0
VERTEX
  8
ガラス
 10
57.65
 20
-43.825
 70
     8
  0
VERTEX
  8
ガラス
 10
57.625
 20
-43.825
 70
     8
  0
VERTEX
  8
ガラス
 10
57.6
 20
-43.85
 70
     8
  0
VERTEX
  8
ガラス
 10
57.575
 20
-43.875
 70
     8
  0
VERTEX
  8
ガラス
 10
57.55
 20
-43.9
 70
     8
  0
VERTEX
  8
ガラス
 10
57.55
 20
-43.925
 70
     8
  0
VERTEX
  8
ガラス
 10
57.525
 20
-43.95
 70
     8
  0
VERTEX
  8
ガラス
 10
57.5
 20
-43.975
 70
     8
  0
VERTEX
  8
ガラス
 10
57.475
 20
-44.0
 70
     8
  0
VERTEX
  8
ガラス
 10
57.45
 20
-44.025
 70
     8
  0
VERTEX
  8
ガラス
 10
57.45
 20
-44.05
 70
     8
  0
SEQEND
  0
POLYLINE
  8
ガラス
  6
CONTINUOUS
 66
     1
 70
     4
  0
VERTEX
  8
ガラス
 10
57.45
 20
-44.05
 70
     8
  0
VERTEX
  8
ガラス
 10
57.45
 20
-44.05
 70
     8
  0
VERTEX
  8
ガラス
 10
57.475
 20
-44.05
 70
     8
  0
VERTEX
  8
ガラス
 10
57.5
 20
-44.05
 70
     8
  0
VERTEX
  8
ガラス
 10
57.525
 20
-44.05
 70
     8
  0
VERTEX
  8
ガラス
 10
57.55
 20
-44.05
 70
     8
  0
VERTEX
  8
ガラス
 10
57.55
 20
-44.05
 70
     8
  0
VERTEX
  8
ガラス
 10
57.575
 20
-44.05
 70
     8
  0
VERTEX
  8
ガラス
 10
57.6
 20
-44.05
 70
     8
  0
VERTEX
  8
ガラス
 10
57.625
 20
-44.05
 70
     8
  0
VERTEX
  8
ガラス
 10
57.65
 20
-44.075
 70
     8
  0
VERTEX
  8
ガラス
 10
57.675
 20
-44.075
 70
     8
  0
VERTEX
  8
ガラス
 10
57.675
 20
-44.075
 70
     8
  0
VERTEX
  8
ガラス
 10
57.7
 20
-44.075
 70
     8
  0
VERTEX
  8
ガラス
 10
57.725
 20
-44.075
 70
     8
  0
VERTEX
  8
ガラス
 10
57.75
 20
-44.075
 70
     8
  0
VERTEX
  8
ガラス
 10
57.775
 20
-44.075
 70
     8
  0
VERTEX
  8
ガラス
 10
57.775
 20
-44.075
 70
     8
  0
VERTEX
  8
ガラス
 10
57.8
 20
-44.1
 70
     8
  0
VERTEX
  8
ガラス
 10
57.825
 20
-44.1
 70
     8
  0
VERTEX
  8
ガラス
 10
57.85
 20
-44.1
 70
     8
  0
VERTEX
  8
ガラス
 10
57.875
 20
-44.1
 70
     8
  0
VERTEX
  8
ガラス
 10
57.875
 20
-44.1
 70
     8
  0
VERTEX
  8
ガラス
 10
57.9
 20
-44.125
 70
     8
  0
VERTEX
  8
ガラス
 10
57.925
 20
-44.125
 70
     8
  0
VERTEX
  8
ガラス
 10
57.95
 20
-44.125
 70
     8
  0
VERTEX
  8
ガラス
 10
57.95
 20
-44.125
 70
     8
  0
VERTEX
  8
ガラス
 10
57.975
 20
-44.15
 70
     8
  0
VERTEX
  8
ガラス
 10
58.0
 20
-44.15
 70
     8
  0
VERTEX
  8
ガラス
 10
58.025
 20
-44.15
 70
     8
  0
VERTEX
  8
ガラス
 10
58.025
 20
-44.15
 70
     8
  0
VERTEX
  8
ガラス
 10
58.05
 20
-44.175
 70
     8
  0
VERTEX
  8
ガラス
 10
58.075
 20
-44.175
 70
     8
  0
VERTEX
  8
ガラス
 10
58.1
 20
-44.175
 70
     8
  0
VERTEX
  8
ガラス
 10
58.125
 20
-44.2
 70
     8
  0
VERTEX
  8
ガラス
 10
58.125
 20
-44.2
 70
     8
  0
VERTEX
  8
ガラス
 10
58.15
 20
-44.2
 70
     8
  0
VERTEX
  8
ガラス
 10
58.175
 20
-44.225
 70
     8
  0
VERTEX
  8
ガラス
 10
58.2
 20
-44.225
 70
     8
  0
VERTEX
  8
ガラス
 10
58.2
 20
-44.225
 70
     8
  0
VERTEX
  8
ガラス
 10
58.225
 20
-44.25
 70
     8
  0
SEQEND
  0
ARC
  8
ガラス
  6
CONTINUOUS
 10
58.360676
 20
-43.931426
 40
0.318378
 50
247.735412
 51
427.735412
  0
ENDBLK
  0
BLOCK
  2
*GRP_0020
 70
    65
 10
0.0
 20
0.0
  0
POLYLINE
  8
ガラス
  6
CONTINUOUS
 66
     1
 70
     4
  0
VERTEX
  8
ガラス
 10
63.325
 20
-44.475
 70
     8
  0
VERTEX
  8
ガラス
 10
63.3
 20
-44.475
 70
     8
  0
VERTEX
  8
ガラス
 10
63.275
 20
-44.475
 70
     8
  0
VERTEX
  8
ガラス
 10
63.25
 20
-44.475
 70
     8
  0
VERTEX
  8
ガラス
 10
63.2
 20
-44.45
 70
     8
  0
VERTEX
  8
ガラス
 10
63.175
 20
-44.45
 70
     8
  0
VERTEX
  8
ガラス
 10
63.15
 20
-44.45
 70
     8
  0
VERTEX
  8
ガラス
 10
63.125
 20
-44.45
 70
     8
  0
VERTEX
  8
ガラス
 10
63.1
 20
-44.45
 70
     8
  0
VERTEX
  8
ガラス
 10
63.05
 20
-44.45
 70
     8
  0
VERTEX
  8
ガラス
 10
63.025
 20
-44.45
 70
     8
  0
VERTEX
  8
ガラス
 10
63.0
 20
-44.45
 70
     8
  0
VERTEX
  8
ガラス
 10
62.975
 20
-44.45
 70
     8
  0
VERTEX
  8
ガラス
 10
62.95
 20
-44.45
 70
     8
  0
VERTEX
  8
ガラス
 10
62.925
 20
-44.45
 70
     8
  0
VERTEX
  8
ガラス
 10
62.875
 20
-44.45
 70
     8
  0
VERTEX
  8
ガラス
 10
62.85
 20
-44.45
 70
     8
  0
VERTEX
  8
ガラス
 10
62.825
 20
-44.475
 70
     8
  0
VERTEX
  8
ガラス
 10
62.8
 20
-44.475
 70
     8
  0
VERTEX
  8
ガラス
 10
62.775
 20
-44.475
 70
     8
  0
VERTEX
  8
ガラス
 10
62.75
 20
-44.5
 70
     8
  0
VERTEX
  8
ガラス
 10
62.725
 20
-44.5
 70
     8
  0
VERTEX
  8
ガラス
 10
62.7
 20
-44.5
 70
     8
  0
VERTEX
  8
ガラス
 10
62.675
 20
-44.525
 70
     8
  0
VERTEX
  8
ガラス
 10
62.65
 20
-44.525
 70
     8
  0
VERTEX
  8
ガラス
 10
62.625
 20
-44.55
 70
     8
  0
VERTEX
  8
ガラス
 10
62.6
 20
-44.575
 70
     8
  0
VERTEX
  8
ガラス
 10
62.575
 20
-44.575
 70
     8
  0
VERTEX
  8
ガラス
 10
62.55
 20
-44.6
 70
     8
  0
VERTEX
  8
ガラス
 10
62.525
 20
-44.625
 70
     8
  0
VERTEX
  8
ガラス
 10
62.525
 20
-44.65
 70
     8
  0
VERTEX
  8
ガラス
 10
62.5
 20
-44.65
 70
     8
  0
VERTEX
  8
ガラス
 10
62.475
 20
-44.675
 70
     8
  0
VERTEX
  8
ガラス
 10
62.45
 20
-44.7
 70
     8
  0
VERTEX
  8
ガラス
 10
62.425
 20
-44.725
 70
     8
  0
VERTEX
  8
ガラス
 10
62.4
 20
-44.75
 70
     8
  0
VERTEX
  8
ガラス
 10
62.375
 20
-44.775
 70
     8
  0
VERTEX
  8
ガラス
 10
62.375
 20
-44.8
 70
     8
  0
VERTEX
  8
ガラス
 10
62.35
 20
-44.825
 70
     8
  0
VERTEX
  8
ガラス
 10
62.325
 20
-44.85
 70
     8
  0
VERTEX
  8
ガラス
 10
62.3
 20
-44.875
 70
     8
  0
SEQEND
  0
POLYLINE
  8
ガラス
  6
CONTINUOUS
 66
     1
 70
     4
  0
VERTEX
  8
ガラス
 10
62.3
 20
-44.875
 70
     8
  0
VERTEX
  8
ガラス
 10
62.325
 20
-44.875
 70
     8
  0
VERTEX
  8
ガラス
 10
62.35
 20
-44.875
 70
     8
  0
VERTEX
  8
ガラス
 10
62.375
 20
-44.875
 70
     8
  0
VERTEX
  8
ガラス
 10
62.375
 20
-44.875
 70
     8
  0
VERTEX
  8
ガラス
 10
62.4
 20
-44.875
 70
     8
  0
VERTEX
  8
ガラス
 10
62.425
 20
-44.875
 70
     8
  0
VERTEX
  8
ガラス
 10
62.45
 20
-44.875
 70
     8
  0
VERTEX
  8
ガラス
 10
62.475
 20
-44.875
 70
     8
  0
VERTEX
  8
ガラス
 10
62.5
 20
-44.875
 70
     8
  0
VERTEX
  8
ガラス
 10
62.5
 20
-44.9
 70
     8
  0
VERTEX
  8
ガラス
 10
62.525
 20
-44.9
 70
     8
  0
VERTEX
  8
ガラス
 10
62.55
 20
-44.9
 70
     8
  0
VERTEX
  8
ガラス
 10
62.575
 20
-44.9
 70
     8
  0
VERTEX
  8
ガラス
 10
62.6
 20
-44.9
 70
     8
  0
VERTEX
  8
ガラス
 10
62.6
 20
-44.9
 70
     8
  0
VERTEX
  8
ガラス
 10
62.625
 20
-44.9
 70
     8
  0
VERTEX
  8
ガラス
 10
62.65
 20
-44.9
 70
     8
  0
VERTEX
  8
ガラス
 10
62.675
 20
-44.925
 70
     8
  0
VERTEX
  8
ガラス
 10
62.7
 20
-44.925
 70
     8
  0
VERTEX
  8
ガラス
 10
62.7
 20
-44.925
 70
     8
  0
VERTEX
  8
ガラス
 10
62.725
 20
-44.925
 70
     8
  0
VERTEX
  8
ガラス
 10
62.75
 20
-44.925
 70
     8
  0
VERTEX
  8
ガラス
 10
62.775
 20
-44.95
 70
     8
  0
VERTEX
  8
ガラス
 10
62.8
 20
-44.95
 70
     8
  0
VERTEX
  8
ガラス
 10
62.8
 20
-44.95
 70
     8
  0
VERTEX
  8
ガラス
 10
62.825
 20
-44.95
 70
     8
  0
VERTEX
  8
ガラス
 10
62.85
 20
-44.975
 70
     8
  0
VERTEX
  8
ガラス
 10
62.875
 20
-44.975
 70
     8
  0
VERTEX
  8
ガラス
 10
62.875
 20
-44.975
 70
     8
  0
VERTEX
  8
ガラス
 10
62.9
 20
-44.975
 70
     8
  0
VERTEX
  8
ガラス
 10
62.925
 20
-45.0
 70
     8
  0
VERTEX
  8
ガラス
 10
62.95
 20
-45.0
 70
     8
  0
VERTEX
  8
ガラス
 10
62.95
 20
-45.0
 70
     8
  0
VERTEX
  8
ガラス
 10
62.975
 20
-45.025
 70
     8
  0
VERTEX
  8
ガラス
 10
63.0
 20
-45.025
 70
     8
  0
VERTEX
  8
ガラス
 10
63.025
 20
-45.025
 70
     8
  0
VERTEX
  8
ガラス
 10
63.025
 20
-45.05
 70
     8
  0
VERTEX
  8
ガラス
 10
63.05
 20
-45.05
 70
     8
  0
VERTEX
  8
ガラス
 10
63.075
 20
-45.05
 70
     8
  0
VERTEX
  8
ガラス
 10
63.1
 20
-45.075
 70
     8
  0
SEQEND
  0
ARC
  8
ガラス
  6
CONTINUOUS
 10
63.226989
 20
-44.756199
 40
0.318378
 50
247.735412
 51
427.735412
  0
ENDBLK
  0
BLOCK
  2
*GRP_0021
 70
    65
 10
0.0
 20
0.0
  0
POLYLINE
  8
ガラス
  6
CONTINUOUS
 66
     1
 70
     4
  0
VERTEX
  8
ガラス
 10
50.9
 20
-35.35
 70
     8
  0
VERTEX
  8
ガラス
 10
50.9
 20
-35.325
 70
     8
  0
VERTEX
  8
ガラス
 10
50.9
 20
-35.275
 70
     8
  0
VERTEX
  8
ガラス
 10
50.9
 20
-35.25
 70
     8
  0
VERTEX
  8
ガラス
 10
50.9
 20
-35.225
 70
     8
  0
VERTEX
  8
ガラス
 10
50.9
 20
-35.2
 70
     8
  0
VERTEX
  8
ガラス
 10
50.875
 20
-35.15
 70
     8
  0
VERTEX
  8
ガラス
 10
50.875
 20
-35.125
 70
     8
  0
VERTEX
  8
ガラス
 10
50.875
 20
-35.1
 70
     8
  0
VERTEX
  8
ガラス
 10
50.875
 20
-35.075
 70
     8
  0
VERTEX
  8
ガラス
 10
50.875
 20
-35.05
 70
     8
  0
VERTEX
  8
ガラス
 10
50.875
 20
-35.0
 70
     8
  0
VERTEX
  8
ガラス
 10
50.875
 20
-34.975
 70
     8
  0
VERTEX
  8
ガラス
 10
50.875
 20
-34.95
 70
     8
  0
VERTEX
  8
ガラス
 10
50.875
 20
-34.925
 70
     8
  0
VERTEX
  8
ガラス
 10
50.875
 20
-34.9
 70
     8
  0
VERTEX
  8
ガラス
 10
50.9
 20
-34.875
 70
     8
  0
VERTEX
  8
ガラス
 10
50.9
 20
-34.85
 70
     8
  0
VERTEX
  8
ガラス
 10
50.9
 20
-34.825
 70
     8
  0
VERTEX
  8
ガラス
 10
50.9
 20
-34.8
 70
     8
  0
VERTEX
  8
ガラス
 10
50.925
 20
-34.75
 70
     8
  0
VERTEX
  8
ガラス
 10
50.925
 20
-34.725
 70
     8
  0
VERTEX
  8
ガラス
 10
50.95
 20
-34.7
 70
     8
  0
VERTEX
  8
ガラス
 10
50.95
 20
-34.675
 70
     8
  0
VERTEX
  8
ガラス
 10
50.975
 20
-34.65
 70
     8
  0
VERTEX
  8
ガラス
 10
50.975
 20
-34.65
 70
     8
  0
VERTEX
  8
ガラス
 10
51.0
 20
-34.625
 70
     8
  0
VERTEX
  8
ガラス
 10
51.025
 20
-34.6
 70
     8
  0
VERTEX
  8
ガラス
 10
51.025
 20
-34.575
 70
     8
  0
VERTEX
  8
ガラス
 10
51.05
 20
-34.55
 70
     8
  0
VERTEX
  8
ガラス
 10
51.075
 20
-34.525
 70
     8
  0
VERTEX
  8
ガラス
 10
51.1
 20
-34.5
 70
     8
  0
VERTEX
  8
ガラス
 10
51.1
 20
-34.475
 70
     8
  0
VERTEX
  8
ガラス
 10
51.125
 20
-34.45
 70
     8
  0
VERTEX
  8
ガラス
 10
51.15
 20
-34.45
 70
     8
  0
VERTEX
  8
ガラス
 10
51.175
 20
-34.425
 70
     8
  0
VERTEX
  8
ガラス
 10
51.2
 20
-34.4
 70
     8
  0
VERTEX
  8
ガラス
 10
51.225
 20
-34.375
 70
     8
  0
VERTEX
  8
ガラス
 10
51.25
 20
-34.35
 70
     8
  0
VERTEX
  8
ガラス
 10
51.275
 20
-34.35
 70
     8
  0
VERTEX
  8
ガラス
 10
51.3
 20
-34.325
 70
     8
  0
SEQEND
  0
POLYLINE
  8
ガラス
  6
CONTINUOUS
 66
     1
 70
     4
  0
VERTEX
  8
ガラス
 10
51.3
 20
-34.325
 70
     8
  0
VERTEX
  8
ガラス
 10
51.3
 20
-34.35
 70
     8
  0
VERTEX
  8
ガラス
 10
51.3
 20
-34.35
 70
     8
  0
VERTEX
  8
ガラス
 10
51.3
 20
-34.375
 70
     8
  0
VERTEX
  8
ガラス
 10
51.3
 20
-34.4
 70
     8
  0
VERTEX
  8
ガラス
 10
51.3
 20
-34.425
 70
     8
  0
VERTEX
  8
ガラス
 10
51.3
 20
-34.45
 70
     8
  0
VERTEX
  8
ガラス
 10
51.3
 20
-34.45
 70
     8
  0
VERTEX
  8
ガラス
 10
51.325
 20
-34.475
 70
     8
  0
VERTEX
  8
ガラス
 10
51.325
 20
-34.5
 70
     8
  0
VERTEX
  8
ガラス
 10
51.325
 20
-34.525
 70
     8
  0
VERTEX
  8
ガラス
 10
51.325
 20
-34.55
 70
     8
  0
VERTEX
  8
ガラス
 10
51.325
 20
-34.55
 70
     8
  0
VERTEX
  8
ガラス
 10
51.325
 20
-34.575
 70
     8
  0
VERTEX
  8
ガラス
 10
51.325
 20
-34.6
 70
     8
  0
VERTEX
  8
ガラス
 10
51.325
 20
-34.625
 70
     8
  0
VERTEX
  8
ガラス
 10
51.35
 20
-34.65
 70
     8
  0
VERTEX
  8
ガラス
 10
51.35
 20
-34.65
 70
     8
  0
VERTEX
  8
ガラス
 10
51.35
 20
-34.675
 70
     8
  0
VERTEX
  8
ガラス
 10
51.35
 20
-34.7
 70
     8
  0
VERTEX
  8
ガラス
 10
51.35
 20
-34.725
 70
     8
  0
VERTEX
  8
ガラス
 10
51.35
 20
-34.75
 70
     8
  0
VERTEX
  8
ガラス
 10
51.375
 20
-34.75
 70
     8
  0
VERTEX
  8
ガラス
 10
51.375
 20
-34.775
 70
     8
  0
VERTEX
  8
ガラス
 10
51.375
 20
-34.8
 70
     8
  0
VERTEX
  8
ガラス
 10
51.375
 20
-34.825
 70
     8
  0
VERTEX
  8
ガラス
 10
51.4
 20
-34.85
 70
     8
  0
VERTEX
  8
ガラス
 10
51.4
 20
-34.85
 70
     8
  0
VERTEX
  8
ガラス
 10
51.4
 20
-34.875
 70
     8
  0
VERTEX
  8
ガラス
 10
51.4
 20
-34.9
 70
     8
  0
VERTEX
  8
ガラス
 10
51.425
 20
-34.925
 70
     8
  0
VERTEX
  8
ガラス
 10
51.425
 20
-34.925
 70
     8
  0
VERTEX
  8
ガラス
 10
51.425
 20
-34.95
 70
     8
  0
VERTEX
  8
ガラス
 10
51.45
 20
-34.975
 70
     8
  0
VERTEX
  8
ガラス
 10
51.45
 20
-35.0
 70
     8
  0
VERTEX
  8
ガラス
 10
51.45
 20
-35.0
 70
     8
  0
VERTEX
  8
ガラス
 10
51.45
 20
-35.025
 70
     8
  0
VERTEX
  8
ガラス
 10
51.475
 20
-35.05
 70
     8
  0
VERTEX
  8
ガラス
 10
51.475
 20
-35.075
 70
     8
  0
VERTEX
  8
ガラス
 10
51.475
 20
-35.075
 70
     8
  0
VERTEX
  8
ガラス
 10
51.5
 20
-35.1
 70
     8
  0
SEQEND
  0
ARC
  8
ガラス
  6
CONTINUOUS
 10
51.211184
 20
-35.214211
 40
0.318378
 50
202.264588
 51
382.264588
  0
ENDBLK
  0
BLOCK
  2
*GRP_0022
 70
    65
 10
0.0
 20
0.0
  0
POLYLINE
  8
ガラス
  6
CONTINUOUS
 66
     1
 70
     4
  0
VERTEX
  8
ガラス
 10
50.9
 20
-40.575
 70
     8
  0
VERTEX
  8
ガラス
 10
50.9
 20
-40.55
 70
     8
  0
VERTEX
  8
ガラス
 10
50.9
 20
-40.525
 70
     8
  0
VERTEX
  8
ガラス
 10
50.9
 20
-40.5
 70
     8
  0
VERTEX
  8
ガラス
 10
50.9
 20
-40.45
 70
     8
  0
VERTEX
  8
ガラス
 10
50.9
 20
-40.425
 70
     8
  0
VERTEX
  8
ガラス
 10
50.875
 20
-40.4
 70
     8
  0
VERTEX
  8
ガラス
 10
50.875
 20
-40.375
 70
     8
  0
VERTEX
  8
ガラス
 10
50.875
 20
-40.325
 70
     8
  0
VERTEX
  8
ガラス
 10
50.875
 20
-40.3
 70
     8
  0
VERTEX
  8
ガラス
 10
50.875
 20
-40.275
 70
     8
  0
VERTEX
  8
ガラス
 10
50.875
 20
-40.25
 70
     8
  0
VERTEX
  8
ガラス
 10
50.875
 20
-40.225
 70
     8
  0
VERTEX
  8
ガラス
 10
50.875
 20
-40.2
 70
     8
  0
VERTEX
  8
ガラス
 10
50.875
 20
-40.15
 70
     8
  0
VERTEX
  8
ガラス
 10
50.875
 20
-40.125
 70
     8
  0
VERTEX
  8
ガラス
 10
50.9
 20
-40.1
 70
     8
  0
VERTEX
  8
ガラス
 10
50.9
 20
-40.075
 70
     8
  0
VERTEX
  8
ガラス
 10
50.9
 20
-40.05
 70
     8
  0
VERTEX
  8
ガラス
 10
50.9
 20
-40.025
 70
     8
  0
VERTEX
  8
ガラス
 10
50.925
 20
-40.0
 70
     8
  0
VERTEX
  8
ガラス
 10
50.925
 20
-39.975
 70
     8
  0
VERTEX
  8
ガラス
 10
50.95
 20
-39.95
 70
     8
  0
VERTEX
  8
ガラス
 10
50.95
 20
-39.925
 70
     8
  0
VERTEX
  8
ガラス
 10
50.975
 20
-39.9
 70
     8
  0
VERTEX
  8
ガラス
 10
50.975
 20
-39.875
 70
     8
  0
VERTEX
  8
ガラス
 10
51.0
 20
-39.85
 70
     8
  0
VERTEX
  8
ガラス
 10
51.025
 20
-39.825
 70
     8
  0
VERTEX
  8
ガラス
 10
51.025
 20
-39.8
 70
     8
  0
VERTEX
  8
ガラス
 10
51.05
 20
-39.775
 70
     8
  0
VERTEX
  8
ガラス
 10
51.075
 20
-39.75
 70
     8
  0
VERTEX
  8
ガラス
 10
51.1
 20
-39.75
 70
     8
  0
VERTEX
  8
ガラス
 10
51.1
 20
-39.725
 70
     8
  0
VERTEX
  8
ガラス
 10
51.125
 20
-39.7
 70
     8
  0
VERTEX
  8
ガラス
 10
51.15
 20
-39.675
 70
     8
  0
VERTEX
  8
ガラス
 10
51.175
 20
-39.65
 70
     8
  0
VERTEX
  8
ガラス
 10
51.2
 20
-39.625
 70
     8
  0
VERTEX
  8
ガラス
 10
51.225
 20
-39.625
 70
     8
  0
VERTEX
  8
ガラス
 10
51.25
 20
-39.6
 70
     8
  0
VERTEX
  8
ガラス
 10
51.275
 20
-39.575
 70
     8
  0
VERTEX
  8
ガラス
 10
51.3
 20
-39.55
 70
     8
  0
SEQEND
  0
POLYLINE
  8
ガラス
  6
CONTINUOUS
 66
     1
 70
     4
  0
VERTEX
  8
ガラス
 10
51.3
 20
-39.55
 70
     8
  0
VERTEX
  8
ガラス
 10
51.3
 20
-39.575
 70
     8
  0
VERTEX
  8
ガラス
 10
51.3
 20
-39.6
 70
     8
  0
VERTEX
  8
ガラス
 10
51.3
 20
-39.625
 70
     8
  0
VERTEX
  8
ガラス
 10
51.3
 20
-39.625
 70
     8
  0
VERTEX
  8
ガラス
 10
51.3
 20
-39.65
 70
     8
  0
VERTEX
  8
ガラス
 10
51.3
 20
-39.675
 70
     8
  0
VERTEX
  8
ガラス
 10
51.3
 20
-39.7
 70
     8
  0
VERTEX
  8
ガラス
 10
51.325
 20
-39.725
 70
     8
  0
VERTEX
  8
ガラス
 10
51.325
 20
-39.725
 70
     8
  0
VERTEX
  8
ガラス
 10
51.325
 20
-39.75
 70
     8
  0
VERTEX
  8
ガラス
 10
51.325
 20
-39.775
 70
     8
  0
VERTEX
  8
ガラス
 10
51.325
 20
-39.8
 70
     8
  0
VERTEX
  8
ガラス
 10
51.325
 20
-39.825
 70
     8
  0
VERTEX
  8
ガラス
 10
51.325
 20
-39.825
 70
     8
  0
VERTEX
  8
ガラス
 10
51.325
 20
-39.85
 70
     8
  0
VERTEX
  8
ガラス
 10
51.35
 20
-39.875
 70
     8
  0
VERTEX
  8
ガラス
 10
51.35
 20
-39.9
 70
     8
  0
VERTEX
  8
ガラス
 10
51.35
 20
-39.925
 70
     8
  0
VERTEX
  8
ガラス
 10
51.35
 20
-39.925
 70
     8
  0
VERTEX
  8
ガラス
 10
51.35
 20
-39.95
 70
     8
  0
VERTEX
  8
ガラス
 10
51.35
 20
-39.975
 70
     8
  0
VERTEX
  8
ガラス
 10
51.375
 20
-40.0
 70
     8
  0
VERTEX
  8
ガラス
 10
51.375
 20
-40.025
 70
     8
  0
VERTEX
  8
ガラス
 10
51.375
 20
-40.025
 70
     8
  0
VERTEX
  8
ガラス
 10
51.375
 20
-40.05
 70
     8
  0
VERTEX
  8
ガラス
 10
51.4
 20
-40.075
 70
     8
  0
VERTEX
  8
ガラス
 10
51.4
 20
-40.1
 70
     8
  0
VERTEX
  8
ガラス
 10
51.4
 20
-40.125
 70
     8
  0
VERTEX
  8
ガラス
 10
51.4
 20
-40.125
 70
     8
  0
VERTEX
  8
ガラス
 10
51.425
 20
-40.15
 70
     8
  0
VERTEX
  8
ガラス
 10
51.425
 20
-40.175
 70
     8
  0
VERTEX
  8
ガラス
 10
51.425
 20
-40.2
 70
     8
  0
VERTEX
  8
ガラス
 10
51.45
 20
-40.2
 70
     8
  0
VERTEX
  8
ガラス
 10
51.45
 20
-40.225
 70
     8
  0
VERTEX
  8
ガラス
 10
51.45
 20
-40.25
 70
     8
  0
VERTEX
  8
ガラス
 10
51.45
 20
-40.275
 70
     8
  0
VERTEX
  8
ガラス
 10
51.475
 20
-40.275
 70
     8
  0
VERTEX
  8
ガラス
 10
51.475
 20
-40.3
 70
     8
  0
VERTEX
  8
ガラス
 10
51.475
 20
-40.325
 70
     8
  0
VERTEX
  8
ガラス
 10
51.5
 20
-40.35
 70
     8
  0
SEQEND
  0
ARC
  8
ガラス
  6
CONTINUOUS
 10
51.211184
 20
-40.449616
 40
0.318378
 50
202.264588
 51
382.264588
  0
ENDBLK
  0
BLOCK
  2
*GRP_0023
 70
    65
 10
0.0
 20
0.0
  0
LINE
  8
ゴム等
  6
CONTINUOUS
 10
-64.417468
 20
-32.702632
 11
-61.084135
 21
-32.702632
  0
LINE
  8
ゴム等
  6
CONTINUOUS
 10
-61.084135
 20
-32.702632
 11
-61.084135
 21
-34.3693
  0
LINE
  8
ゴム等
  6
CONTINUOUS
 10
-61.084135
 20
-34.3693
 11
-64.417468
 21
-34.3693
  0
LINE
  8
ゴム等
  6
CONTINUOUS
 10
-64.417468
 20
-32.702632
 11
-64.417468
 21
-34.3693
  0
INSERT
  2
*HAT_0001
  8
ゴム等
 10
0.0
 20
0.0
  0
ENDBLK
  0
BLOCK
  2
*GRP_0024
 70
    65
 10
0.0
 20
0.0
  0
LINE
  8
ゴム等
  6
CONTINUOUS
 10
55.553008
 20
-32.702632
 11
52.219675
 21
-32.702632
  0
LINE
  8
ゴム等
  6
CONTINUOUS
 10
52.219675
 20
-32.702632
 11
52.219675
 21
-34.3693
  0
LINE
  8
ゴム等
  6
CONTINUOUS
 10
52.219675
 20
-34.3693
 11
55.553008
 21
-34.3693
  0
LINE
  8
ゴム等
  6
CONTINUOUS
 10
55.553008
 20
-32.702632
 11
55.553008
 21
-34.3693
  0
INSERT
  2
*HAT_0002
  8
ゴム等
 10
0.0
 20
0.0
  0
ENDBLK
  0
BLOCK
  2
*GRP_0025
 70
    65
 10
0.0
 20
0.0
  0
LINE
  8
ゴム等
  6
CONTINUOUS
 10
-10.265572
 20
-32.702647
 11
-13.598905
 21
-32.702647
  0
LINE
  8
ゴム等
  6
CONTINUOUS
 10
-13.598905
 20
-32.702647
 11
-13.598905
 21
-34.369315
  0
LINE
  8
ゴム等
  6
CONTINUOUS
 10
-13.598905
 20
-34.369315
 11
-10.265572
 21
-34.369315
  0
LINE
  8
ゴム等
  6
CONTINUOUS
 10
-10.265572
 20
-32.702647
 11
-10.265572
 21
-34.369315
  0
INSERT
  2
*HAT_0003
  8
ゴム等
 10
0.0
 20
0.0
  0
ENDBLK
  0
BLOCK
  2
*GRP_0026
 70
    65
 10
0.0
 20
0.0
  0
LINE
  8
ゴム等
  6
DOT
 10
-15.798895
 20
-28.369315
 11
-15.798895
 21
-30.435982
  0
LINE
  8
ゴム等
  6
DOT
 10
-15.798895
 20
-30.435982
 11
-12.465563
 21
-30.435982
  0
LINE
  8
ゴム等
  6
DOT
 10
-12.465563
 20
-30.435982
 11
-12.465563
 21
-28.369315
  0
LINE
  8
ゴム等
  6
DOT
 10
-15.798895
 20
-28.369315
 11
-12.465563
 21
-28.369315
  0
INSERT
  2
*HAT_0004
  8
ゴム等
 10
0.0
 20
0.0
  0
ENDBLK
  0
BLOCK
  2
*GRP_0027
 70
    65
 10
0.0
 20
0.0
  0
LINE
  8
ゴム等
  6
DOT
 10
6.934435
 20
-28.369315
 11
6.934435
 21
-30.435982
  0
LINE
  8
ゴム等
  6
DOT
 10
6.934435
 20
-30.435982
 11
3.601102
 21
-30.435982
  0
LINE
  8
ゴム等
  6
DOT
 10
3.601102
 20
-30.435982
 11
3.601102
 21
-28.369315
  0
LINE
  8
ゴム等
  6
DOT
 10
6.934435
 20
-28.369315
 11
3.601102
 21
-28.369315
  0
INSERT
  2
*HAT_0005
  8
ゴム等
 10
0.0
 20
0.0
  0
ENDBLK
  0
BLOCK
  2
*GRP_0028
 70
    65
 10
0.0
 20
0.0
  0
LINE
  8
ゴム等
  6
CONTINUOUS
 10
1.401113
 20
-32.702647
 11
4.734445
 21
-32.702647
  0
LINE
  8
ゴム等
  6
CONTINUOUS
 10
4.734445
 20
-32.702647
 11
4.734445
 21
-34.369315
  0
LINE
  8
ゴム等
  6
CONTINUOUS
 10
4.734445
 20
-34.369315
 11
1.401113
 21
-34.369315
  0
LINE
  8
ゴム等
  6
CONTINUOUS
 10
1.401113
 20
-32.702647
 11
1.401113
 21
-34.369315
  0
INSERT
  2
*HAT_0006
  8
ゴム等
 10
0.0
 20
0.0
  0
ENDBLK
  0
BLOCK
  2
*GRP_0029
 70
    65
 10
0.0
 20
0.0
  0
ARC
  8
ゴム等
  6
CONTINUOUS
 10
-80.083604
 20
-21.703833
 40
0.333333
 50
180.0
 51
270.0
  0
LINE
  8
ゴム等
  6
CONTINUOUS
 10
-80.416938
 20
-21.370497
 11
-80.416938
 21
-21.703833
  0
ARC
  8
ゴム等
  6
CONTINUOUS
 10
-80.083604
 20
-21.3705
 40
0.333333
 50
90.0
 51
180.0
  0
LINE
  8
ゴム等
  6
CONTINUOUS
 10
-72.815258
 20
-21.037165
 11
-73.815258
 21
-22.037165
  0
LINE
  8
ゴム等
  6
CONTINUOUS
 10
-72.108152
 20
-21.037165
 11
-73.108152
 21
-22.037165
  0
LINE
  8
ゴム等
  6
CONTINUOUS
 10
-71.401048
 20
-21.037165
 11
-72.401048
 21
-22.037165
  0
LINE
  8
ゴム等
  6
CONTINUOUS
 10
-70.693937
 20
-21.037165
 11
-71.693937
 21
-22.037165
  0
LINE
  8
ゴム等
  6
CONTINUOUS
 10
-74.936582
 20
-21.037165
 11
-75.936582
 21
-22.037165
  0
LINE
  8
ゴム等
  6
CONTINUOUS
 10
-74.229472
 20
-21.037165
 11
-75.229472
 21
-22.037165
  0
LINE
  8
ゴム等
  6
CONTINUOUS
 10
-73.522368
 20
-21.037165
 11
-74.522368
 21
-22.037165
  0
LINE
  8
ゴム等
  6
CONTINUOUS
 10
-78.472113
 20
-21.037165
 11
-79.472113
 21
-22.037165
  0
LINE
  8
ゴム等
  6
CONTINUOUS
 10
-77.765007
 20
-21.037165
 11
-78.765007
 21
-22.037165
  0
LINE
  8
ゴム等
  6
CONTINUOUS
 10
-77.057902
 20
-21.037165
 11
-78.057902
 21
-22.037165
  0
LINE
  8
ゴム等
  6
CONTINUOUS
 10
-76.350792
 20
-21.037165
 11
-77.350792
 21
-22.037165
  0
LINE
  8
ゴム等
  6
CONTINUOUS
 10
-75.643688
 20
-21.037165
 11
-76.643688
 21
-22.037165
  0
LINE
  8
ゴム等
  6
CONTINUOUS
 10
-79.179223
 20
-21.037165
 11
-80.168288
 21
-22.02623
  0
LINE
  8
ゴム等
  6
CONTINUOUS
 10
-79.886327
 20
-21.037165
 11
-80.416938
 21
-21.567775
  0
ARC
  8
ゴム等
  6
CONTINUOUS
 10
-70.750271
 20
-21.3705
 40
0.333333
 50
0.0
 51
90.0
  0
LINE
  8
ゴム等
  6
CONTINUOUS
 10
-70.416938
 20
-21.370497
 11
-70.416938
 21
-21.703833
  0
ARC
  8
ゴム等
  6
CONTINUOUS
 10
-70.750271
 20
-21.703833
 40
0.333333
 50
-90.0
 51
0.0
  0
LINE
  8
ゴム等
  6
CONTINUOUS
 10
-80.083605
 20
-21.037165
 11
-70.75027
 21
-21.037165
  0
LINE
  8
ゴム等
  6
CONTINUOUS
 10
-80.083605
 20
-22.037165
 11
-70.75027
 21
-22.037165
  0
LINE
  8
ゴム等
  6
CONTINUOUS
 10
-70.986833
 20
-22.037165
 11
-70.416938
 21
-21.46727
  0
ENDBLK
  0
BLOCK
  2
*GRP_0030
 70
    65
 10
0.0
 20
0.0
  0
ARC
  8
ゴム等
  6
CONTINUOUS
 10
-80.083604
 20
-27.702625
 40
0.333333
 50
180.0
 51
270.0
  0
LINE
  8
ゴム等
  6
CONTINUOUS
 10
-80.416938
 20
-27.36929
 11
-80.416938
 21
-27.702625
  0
ARC
  8
ゴム等
  6
CONTINUOUS
 10
-80.083604
 20
-27.369292
 40
0.333333
 50
90.0
 51
180.0
  0
LINE
  8
ゴム等
  6
CONTINUOUS
 10
-72.815258
 20
-27.035958
 11
-73.815258
 21
-28.035958
  0
LINE
  8
ゴム等
  6
CONTINUOUS
 10
-72.108152
 20
-27.035958
 11
-73.108152
 21
-28.035958
  0
LINE
  8
ゴム等
  6
CONTINUOUS
 10
-71.401048
 20
-27.035958
 11
-72.401048
 21
-28.035958
  0
LINE
  8
ゴム等
  6
CONTINUOUS
 10
-70.693937
 20
-27.035958
 11
-71.693937
 21
-28.035958
  0
LINE
  8
ゴム等
  6
CONTINUOUS
 10
-74.936582
 20
-27.035958
 11
-75.936582
 21
-28.035958
  0
LINE
  8
ゴム等
  6
CONTINUOUS
 10
-74.229472
 20
-27.035958
 11
-75.229472
 21
-28.035958
  0
LINE
  8
ゴム等
  6
CONTINUOUS
 10
-73.522368
 20
-27.035958
 11
-74.522368
 21
-28.035958
  0
LINE
  8
ゴム等
  6
CONTINUOUS
 10
-78.472113
 20
-27.035958
 11
-79.472113
 21
-28.035958
  0
LINE
  8
ゴム等
  6
CONTINUOUS
 10
-77.765007
 20
-27.035958
 11
-78.765007
 21
-28.035958
  0
LINE
  8
ゴム等
  6
CONTINUOUS
 10
-77.057902
 20
-27.035958
 11
-78.057902
 21
-28.035958
  0
LINE
  8
ゴム等
  6
CONTINUOUS
 10
-76.350792
 20
-27.035958
 11
-77.350792
 21
-28.035958
  0
LINE
  8
ゴム等
  6
CONTINUOUS
 10
-75.643688
 20
-27.035958
 11
-76.643688
 21
-28.035958
  0
LINE
  8
ゴム等
  6
CONTINUOUS
 10
-79.179223
 20
-27.035958
 11
-80.168288
 21
-28.025022
  0
LINE
  8
ゴム等
  6
CONTINUOUS
 10
-79.886327
 20
-27.035958
 11
-80.416938
 21
-27.566568
  0
ARC
  8
ゴム等
  6
CONTINUOUS
 10
-70.750271
 20
-27.369292
 40
0.333333
 50
0.0
 51
90.0
  0
LINE
  8
ゴム等
  6
CONTINUOUS
 10
-70.416938
 20
-27.36929
 11
-70.416938
 21
-27.702625
  0
ARC
  8
ゴム等
  6
CONTINUOUS
 10
-70.750271
 20
-27.702625
 40
0.333333
 50
-90.0
 51
0.0
  0
LINE
  8
ゴム等
  6
CONTINUOUS
 10
-80.083605
 20
-27.035958
 11
-70.75027
 21
-27.035958
  0
LINE
  8
ゴム等
  6
CONTINUOUS
 10
-80.083605
 20
-28.035958
 11
-70.75027
 21
-28.035958
  0
LINE
  8
ゴム等
  6
CONTINUOUS
 10
-70.986833
 20
-28.035958
 11
-70.416938
 21
-27.466063
  0
ENDBLK
  0
BLOCK
  2
*GRP_0031
 70
    65
 10
0.0
 20
0.0
  0
ARC
  8
ゴム等
  6
CONTINUOUS
 10
71.219144
 20
-21.703833
 40
0.333333
 50
-90.0
 51
0.0
  0
LINE
  8
ゴム等
  6
CONTINUOUS
 10
71.552477
 20
-21.370497
 11
71.552477
 21
-21.703833
  0
ARC
  8
ゴム等
  6
CONTINUOUS
 10
71.219144
 20
-21.3705
 40
0.333333
 50
0.0
 51
90.0
  0
LINE
  8
ゴム等
  6
CONTINUOUS
 10
63.950798
 20
-21.037165
 11
64.950798
 21
-22.037165
  0
LINE
  8
ゴム等
  6
CONTINUOUS
 10
63.243692
 20
-21.037165
 11
64.243692
 21
-22.037165
  0
LINE
  8
ゴム等
  6
CONTINUOUS
 10
62.536587
 20
-21.037165
 11
63.536587
 21
-22.037165
  0
LINE
  8
ゴム等
  6
CONTINUOUS
 10
61.829478
 20
-21.037165
 11
62.829478
 21
-22.037165
  0
LINE
  8
ゴム等
  6
CONTINUOUS
 10
66.072122
 20
-21.037165
 11
67.072122
 21
-22.037165
  0
LINE
  8
ゴム等
  6
CONTINUOUS
 10
65.365013
 20
-21.037165
 11
66.365013
 21
-22.037165
  0
LINE
  8
ゴム等
  6
CONTINUOUS
 10
64.657907
 20
-21.037165
 11
65.657907
 21
-22.037165
  0
LINE
  8
ゴム等
  6
CONTINUOUS
 10
69.607653
 20
-21.037165
 11
70.607653
 21
-22.037165
  0
LINE
  8
ゴム等
  6
CONTINUOUS
 10
68.900547
 20
-21.037165
 11
69.900547
 21
-22.037165
  0
LINE
  8
ゴム等
  6
CONTINUOUS
 10
68.193442
 20
-21.037165
 11
69.193442
 21
-22.037165
  0
LINE
  8
ゴム等
  6
CONTINUOUS
 10
67.486333
 20
-21.037165
 11
68.486333
 21
-22.037165
  0
LINE
  8
ゴム等
  6
CONTINUOUS
 10
66.779227
 20
-21.037165
 11
67.779227
 21
-22.037165
  0
LINE
  8
ゴム等
  6
CONTINUOUS
 10
70.314762
 20
-21.037165
 11
71.303828
 21
-22.02623
  0
LINE
  8
ゴム等
  6
CONTINUOUS
 10
71.021868
 20
-21.037165
 11
71.552477
 21
-21.567775
  0
ARC
  8
ゴム等
  6
CONTINUOUS
 10
61.885811
 20
-21.3705
 40
0.333333
 50
90.0
 51
180.0
  0
LINE
  8
ゴム等
  6
CONTINUOUS
 10
61.552477
 20
-21.370497
 11
61.552477
 21
-21.703833
  0
ARC
  8
ゴム等
  6
CONTINUOUS
 10
61.885811
 20
-21.703833
 40
0.333333
 50
180.0
 51
270.0
  0
LINE
  8
ゴム等
  6
CONTINUOUS
 10
71.219145
 20
-21.037165
 11
61.88581
 21
-21.037165
  0
LINE
  8
ゴム等
  6
CONTINUOUS
 10
71.219145
 20
-22.037165
 11
61.88581
 21
-22.037165
  0
LINE
  8
ゴム等
  6
CONTINUOUS
 10
62.122372
 20
-22.037165
 11
61.552477
 21
-21.46727
  0
ENDBLK
  0
BLOCK
  2
*GRP_0032
 70
    65
 10
0.0
 20
0.0
  0
ARC
  8
ゴム等
  6
CONTINUOUS
 10
71.219144
 20
-27.702625
 40
0.333333
 50
-90.0
 51
0.0
  0
LINE
  8
ゴム等
  6
CONTINUOUS
 10
71.552477
 20
-27.36929
 11
71.552477
 21
-27.702625
  0
ARC
  8
ゴム等
  6
CONTINUOUS
 10
71.219144
 20
-27.369292
 40
0.333333
 50
0.0
 51
90.0
  0
LINE
  8
ゴム等
  6
CONTINUOUS
 10
63.950798
 20
-27.035958
 11
64.950798
 21
-28.035958
  0
LINE
  8
ゴム等
  6
CONTINUOUS
 10
63.243692
 20
-27.035958
 11
64.243692
 21
-28.035958
  0
LINE
  8
ゴム等
  6
CONTINUOUS
 10
62.536587
 20
-27.035958
 11
63.536587
 21
-28.035958
  0
LINE
  8
ゴム等
  6
CONTINUOUS
 10
61.829478
 20
-27.035958
 11
62.829478
 21
-28.035958
  0
LINE
  8
ゴム等
  6
CONTINUOUS
 10
66.072122
 20
-27.035958
 11
67.072122
 21
-28.035958
  0
LINE
  8
ゴム等
  6
CONTINUOUS
 10
65.365013
 20
-27.035958
 11
66.365013
 21
-28.035958
  0
LINE
  8
ゴム等
  6
CONTINUOUS
 10
64.657907
 20
-27.035958
 11
65.657907
 21
-28.035958
  0
LINE
  8
ゴム等
  6
CONTINUOUS
 10
69.607653
 20
-27.035958
 11
70.607653
 21
-28.035958
  0
LINE
  8
ゴム等
  6
CONTINUOUS
 10
68.900547
 20
-27.035958
 11
69.900547
 21
-28.035958
  0
LINE
  8
ゴム等
  6
CONTINUOUS
 10
68.193442
 20
-27.035958
 11
69.193442
 21
-28.035958
  0
LINE
  8
ゴム等
  6
CONTINUOUS
 10
67.486333
 20
-27.035958
 11
68.486333
 21
-28.035958
  0
LINE
  8
ゴム等
  6
CONTINUOUS
 10
66.779227
 20
-27.035958
 11
67.779227
 21
-28.035958
  0
LINE
  8
ゴム等
  6
CONTINUOUS
 10
70.314762
 20
-27.035958
 11
71.303828
 21
-28.025022
  0
LINE
  8
ゴム等
  6
CONTINUOUS
 10
71.021868
 20
-27.035958
 11
71.552477
 21
-27.566568
  0
ARC
  8
ゴム等
  6
CONTINUOUS
 10
61.885811
 20
-27.369292
 40
0.333333
 50
90.0
 51
180.0
  0
LINE
  8
ゴム等
  6
CONTINUOUS
 10
61.552477
 20
-27.36929
 11
61.552477
 21
-27.702625
  0
ARC
  8
ゴム等
  6
CONTINUOUS
 10
61.885811
 20
-27.702625
 40
0.333333
 50
180.0
 51
270.0
  0
LINE
  8
ゴム等
  6
CONTINUOUS
 10
71.219145
 20
-27.035958
 11
61.88581
 21
-27.035958
  0
LINE
  8
ゴム等
  6
CONTINUOUS
 10
71.219145
 20
-28.035958
 11
61.88581
 21
-28.035958
  0
LINE
  8
ゴム等
  6
CONTINUOUS
 10
62.122372
 20
-28.035958
 11
61.552477
 21
-27.466063
  0
ENDBLK
  0
BLOCK
  2
*GRP_0033
 70
    65
 10
0.0
 20
0.0
  0
LINE
  8
ゴム等
  6
DOT
 10
49.453095
 20
-28.369385
 11
49.453095
 21
-30.436053
  0
LINE
  8
ゴム等
  6
DOT
 10
49.453095
 20
-30.436053
 11
52.786427
 21
-30.436053
  0
LINE
  8
ゴム等
  6
DOT
 10
52.786427
 20
-30.436053
 11
52.786427
 21
-28.369385
  0
LINE
  8
ゴム等
  6
DOT
 10
49.453095
 20
-28.369385
 11
52.786427
 21
-28.369385
  0
INSERT
  2
*HAT_0007
  8
ゴム等
 10
0.0
 20
0.0
  0
ENDBLK
  0
BLOCK
  2
*GRP_0034
 70
    65
 10
0.0
 20
0.0
  0
LINE
  8
ゴム等
  6
DOT
 10
-58.317555
 20
-28.369385
 11
-58.317555
 21
-30.436053
  0
LINE
  8
ゴム等
  6
DOT
 10
-58.317555
 20
-30.436053
 11
-61.650888
 21
-30.436053
  0
LINE
  8
ゴム等
  6
DOT
 10
-61.650888
 20
-30.436053
 11
-61.650888
 21
-28.369385
  0
LINE
  8
ゴム等
  6
DOT
 10
-58.317555
 20
-28.369385
 11
-61.650888
 21
-28.369385
  0
INSERT
  2
*HAT_0008
  8
ゴム等
 10
0.0
 20
0.0
  0
ENDBLK
  0
BLOCK
  2
*GRP_0035
 70
    65
 10
0.0
 20
0.0
  0
LINE
  8
ボルト／ビス
  6
CONTINUOUS
 62
    64
 10
-93.88421
 20
-56.029135
 11
-94.233598
 21
-56.059703
  0
ARC
  8
ボルト／ビス
  6
CONTINUOUS
 62
    64
 10
-94.18421
 20
-56.624216
 40
0.566667
 50
94.999989
 51
180.0
  0
LINE
  8
ボルト／ビス
  6
CONTINUOUS
 62
    64
 10
-94.750878
 20
-56.624212
 11
-94.750878
 21
-57.195802
  0
LINE
  8
ボルト／ビス
  6
CONTINUOUS
 62
    64
 10
-93.88421
 20
-58.36247
 11
-94.233598
 21
-58.331902
  0
ARC
  8
ボルト／ビス
  6
CONTINUOUS
 62
    64
 10
-94.18421
 20
-57.767394
 40
0.566667
 50
180.0
 51
265.000011
  0
LINE
  8
ボルト／ビス
  6
CONTINUOUS
 62
    64
 10
-94.750878
 20
-57.767393
 11
-94.750878
 21
-57.195802
  0
LINE
  8
ボルト／ビス
  6
CONTINUOUS
 62
    64
 10
-94.622575
 20
-56.396922
 11
-94.703295
 21
-56.396922
  0
LINE
  8
ボルト／ビス
  6
CONTINUOUS
 62
    64
 10
-94.40588
 20
-56.96247
 11
-94.40588
 21
-57.195802
  0
LINE
  8
ボルト／ビス
  6
CONTINUOUS
 62
    64
 10
-94.622575
 20
-56.829135
 11
-94.622575
 21
-56.396922
  0
LINE
  8
ボルト／ビス
  6
CONTINUOUS
 62
    64
 10
-94.40588
 20
-56.96247
 11
-94.489243
 21
-56.96247
  0
ARC
  8
ボルト／ビス
  6
CONTINUOUS
 62
    64
 10
-94.489242
 20
-56.829139
 40
0.133333
 50
180.0
 51
270.0
  0
LINE
  8
ボルト／ビス
  6
CONTINUOUS
 62
    64
 10
-94.622575
 20
-57.994682
 11
-94.703295
 21
-57.994682
  0
LINE
  8
ボルト／ビス
  6
CONTINUOUS
 62
    64
 10
-94.40588
 20
-57.429135
 11
-94.40588
 21
-57.195802
  0
LINE
  8
ボルト／ビス
  6
CONTINUOUS
 62
    64
 10
-94.622575
 20
-57.56247
 11
-94.622575
 21
-57.994682
  0
LINE
  8
ボルト／ビス
  6
CONTINUOUS
 62
    64
 10
-94.40588
 20
-57.429135
 11
-94.489243
 21
-57.429135
  0
ARC
  8
ボルト／ビス
  6
CONTINUOUS
 62
    64
 10
-94.489242
 20
-57.562472
 40
0.133333
 50
90.0
 51
180.0
  0
LINE
  8
ボルト／ビス
  6
CONTINUOUS
 62
    64
 10
-93.88421
 20
-56.029135
 11
-93.88421
 21
-58.36247
  0
LINE
  8
ボルト／ビス
  6
CONTINUOUS
 62
    64
 10
-90.717543
 20
-56.529135
 11
-90.550878
 21
-56.695802
  0
LINE
  8
ボルト／ビス
  6
CONTINUOUS
 62
    64
 10
-90.717543
 20
-57.86247
 11
-90.550878
 21
-57.695802
  0
LINE
  8
ボルト／ビス
  6
CONTINUOUS
 62
    64
 10
-90.717543
 20
-56.529135
 11
-90.717543
 21
-57.86247
  0
LINE
  8
ボルト／ビス
  6
CONTINUOUS
 62
    64
 10
-90.550878
 20
-56.695802
 11
-90.550878
 21
-57.695802
  0
LINE
  8
ボルト／ビス
  6
CONTINUOUS
 62
    64
 10
-95.408005
 20
-57.195802
 11
-90.02592
 21
-57.195802
  0
LINE
  8
ボルト／ビス
  6
CONTINUOUS
 62
    64
 10
-93.88421
 20
-56.529135
 11
-90.717543
 21
-56.529135
  0
LINE
  8
ボルト／ビス
  6
CONTINUOUS
 62
    64
 10
-93.88421
 20
-57.86247
 11
-90.717543
 21
-57.86247
  0
LINE
  8
ボルト／ビス
  6
CONTINUOUS
 62
    64
 10
-93.88421
 20
-57.695802
 11
-90.550878
 21
-57.695802
  0
LINE
  8
ボルト／ビス
  6
CONTINUOUS
 62
    64
 10
-93.88421
 20
-56.695802
 11
-90.550878
 21
-56.695802
  0
ENDBLK
  0
BLOCK
  2
*GRP_0036
 70
    65
 10
0.0
 20
0.0
  0
LINE
  8
ボルト／ビス
  6
CONTINUOUS
 62
    64
 10
85.01975
 20
-56.029135
 11
85.369138
 21
-56.059703
  0
ARC
  8
ボルト／ビス
  6
CONTINUOUS
 62
    64
 10
85.31975
 20
-56.624216
 40
0.566667
 50
0.0
 51
85.000011
  0
LINE
  8
ボルト／ビス
  6
CONTINUOUS
 62
    64
 10
85.886418
 20
-56.624212
 11
85.886418
 21
-57.195802
  0
LINE
  8
ボルト／ビス
  6
CONTINUOUS
 62
    64
 10
85.01975
 20
-58.36247
 11
85.369138
 21
-58.331902
  0
ARC
  8
ボルト／ビス
  6
CONTINUOUS
 62
    64
 10
85.31975
 20
-57.767394
 40
0.566667
 50
274.999989
 51
360.0
  0
LINE
  8
ボルト／ビス
  6
CONTINUOUS
 62
    64
 10
85.886418
 20
-57.767393
 11
85.886418
 21
-57.195802
  0
LINE
  8
ボルト／ビス
  6
CONTINUOUS
 62
    64
 10
85.758115
 20
-56.396922
 11
85.838835
 21
-56.396922
  0
LINE
  8
ボルト／ビス
  6
CONTINUOUS
 62
    64
 10
85.54142
 20
-56.96247
 11
85.54142
 21
-57.195802
  0
LINE
  8
ボルト／ビス
  6
CONTINUOUS
 62
    64
 10
85.758115
 20
-56.829135
 11
85.758115
 21
-56.396922
  0
LINE
  8
ボルト／ビス
  6
CONTINUOUS
 62
    64
 10
85.54142
 20
-56.96247
 11
85.624783
 21
-56.96247
  0
ARC
  8
ボルト／ビス
  6
CONTINUOUS
 62
    64
 10
85.624782
 20
-56.829139
 40
0.133333
 50
270.0
 51
360.0
  0
LINE
  8
ボルト／ビス
  6
CONTINUOUS
 62
    64
 10
85.758115
 20
-57.994682
 11
85.838835
 21
-57.994682
  0
LINE
  8
ボルト／ビス
  6
CONTINUOUS
 62
    64
 10
85.54142
 20
-57.429135
 11
85.54142
 21
-57.195802
  0
LINE
  8
ボルト／ビス
  6
CONTINUOUS
 62
    64
 10
85.758115
 20
-57.56247
 11
85.758115
 21
-57.994682
  0
LINE
  8
ボルト／ビス
  6
CONTINUOUS
 62
    64
 10
85.54142
 20
-57.429135
 11
85.624783
 21
-57.429135
  0
ARC
  8
ボルト／ビス
  6
CONTINUOUS
 62
    64
 10
85.624782
 20
-57.562472
 40
0.133333
 50
0.0
 51
90.0
  0
LINE
  8
ボルト／ビス
  6
CONTINUOUS
 62
    64
 10
85.01975
 20
-56.029135
 11
85.01975
 21
-58.36247
  0
LINE
  8
ボルト／ビス
  6
CONTINUOUS
 62
    64
 10
81.853082
 20
-56.529135
 11
81.686418
 21
-56.695802
  0
LINE
  8
ボルト／ビス
  6
CONTINUOUS
 62
    64
 10
81.853082
 20
-57.86247
 11
81.686418
 21
-57.695802
  0
LINE
  8
ボルト／ビス
  6
CONTINUOUS
 62
    64
 10
81.853082
 20
-56.529135
 11
81.853082
 21
-57.86247
  0
LINE
  8
ボルト／ビス
  6
CONTINUOUS
 62
    64
 10
81.686418
 20
-56.695802
 11
81.686418
 21
-57.695802
  0
LINE
  8
ボルト／ビス
  6
CONTINUOUS
 62
    64
 10
86.543545
 20
-57.195802
 11
81.16146
 21
-57.195802
  0
LINE
  8
ボルト／ビス
  6
CONTINUOUS
 62
    64
 10
85.01975
 20
-56.529135
 11
81.853082
 21
-56.529135
  0
LINE
  8
ボルト／ビス
  6
CONTINUOUS
 62
    64
 10
85.01975
 20
-57.86247
 11
81.853082
 21
-57.86247
  0
LINE
  8
ボルト／ビス
  6
CONTINUOUS
 62
    64
 10
85.01975
 20
-57.695802
 11
81.686418
 21
-57.695802
  0
LINE
  8
ボルト／ビス
  6
CONTINUOUS
 62
    64
 10
85.01975
 20
-56.695802
 11
81.686418
 21
-56.695802
  0
ENDBLK
  0
BLOCK
  2
*GRP_0037
 70
    65
 10
0.0
 20
0.0
  0
LINE
  8
ボルト／ビス
  6
DOT
 62
    64
 10
-69.017468
 20
-37.76931
 11
-68.117468
 21
-37.035975
  0
LINE
  8
ボルト／ビス
  6
DOT
 62
    64
 10
-69.017468
 20
-34.96931
 11
-68.117468
 21
-35.702643
  0
LINE
  8
ボルト／ビス
  6
DOT
 62
    64
 10
-69.017468
 20
-34.96931
 11
-69.017468
 21
-37.76931
  0
LINE
  8
ボルト／ビス
  6
DOT
 62
    64
 10
-68.117468
 20
-35.702643
 11
-68.117468
 21
-37.035975
  0
LINE
  8
ボルト／ビス
  6
DOT
 62
    64
 10
-70.42349
 20
-36.36931
 11
-50.684657
 21
-36.36931
  0
LINE
  8
ボルト／ビス
  6
DOT
 62
    64
 10
-52.517468
 20
-35.702643
 11
-52.3508
 21
-35.86931
  0
LINE
  8
ボルト／ビス
  6
DOT
 62
    64
 10
-52.517468
 20
-37.035975
 11
-52.3508
 21
-36.86931
  0
LINE
  8
ボルト／ビス
  6
DOT
 62
    64
 10
-52.3508
 20
-36.86931
 11
-52.3508
 21
-35.86931
  0
LINE
  8
ボルト／ビス
  6
DOT
 62
    64
 10
-52.517468
 20
-37.035975
 11
-52.517468
 21
-35.702643
  0
LINE
  8
ボルト／ビス
  6
DOT
 62
    64
 10
-68.117468
 20
-35.86931
 11
-52.3508
 21
-35.86931
  0
LINE
  8
ボルト／ビス
  6
DOT
 62
    64
 10
-68.117468
 20
-36.86931
 11
-52.3508
 21
-36.86931
  0
LINE
  8
ボルト／ビス
  6
DOT
 62
    64
 10
-68.117468
 20
-35.702643
 11
-52.517468
 21
-35.702643
  0
LINE
  8
ボルト／ビス
  6
DOT
 62
    64
 10
-68.117468
 20
-37.035975
 11
-52.517468
 21
-37.035975
  0
ENDBLK
  0
BLOCK
  2
*GRP_0038
 70
    65
 10
0.0
 20
0.0
  0
LINE
  8
ボルト／ビス
  6
DOT
 62
    64
 10
60.153008
 20
-37.76931
 11
59.253008
 21
-37.035975
  0
LINE
  8
ボルト／ビス
  6
DOT
 62
    64
 10
60.153008
 20
-34.96931
 11
59.253008
 21
-35.702643
  0
LINE
  8
ボルト／ビス
  6
DOT
 62
    64
 10
60.153008
 20
-34.96931
 11
60.153008
 21
-37.76931
  0
LINE
  8
ボルト／ビス
  6
DOT
 62
    64
 10
59.253008
 20
-35.702643
 11
59.253008
 21
-37.035975
  0
LINE
  8
ボルト／ビス
  6
DOT
 62
    64
 10
61.55903
 20
-36.36931
 11
41.820197
 21
-36.36931
  0
LINE
  8
ボルト／ビス
  6
DOT
 62
    64
 10
43.653008
 20
-35.702643
 11
43.48634
 21
-35.86931
  0
LINE
  8
ボルト／ビス
  6
DOT
 62
    64
 10
43.653008
 20
-37.035975
 11
43.48634
 21
-36.86931
  0
LINE
  8
ボルト／ビス
  6
DOT
 62
    64
 10
43.48634
 20
-36.86931
 11
43.48634
 21
-35.86931
  0
LINE
  8
ボルト／ビス
  6
DOT
 62
    64
 10
43.653008
 20
-37.035975
 11
43.653008
 21
-35.702643
  0
LINE
  8
ボルト／ビス
  6
DOT
 62
    64
 10
59.253008
 20
-35.86931
 11
43.48634
 21
-35.86931
  0
LINE
  8
ボルト／ビス
  6
DOT
 62
    64
 10
59.253008
 20
-36.86931
 11
43.48634
 21
-36.86931
  0
LINE
  8
ボルト／ビス
  6
DOT
 62
    64
 10
59.253008
 20
-35.702643
 11
43.653008
 21
-35.702643
  0
LINE
  8
ボルト／ビス
  6
DOT
 62
    64
 10
59.253008
 20
-37.035975
 11
43.653008
 21
-37.035975
  0
ENDBLK
  0
BLOCK
  2
*GRP_0039
 70
    65
 10
0.0
 20
0.0
  0
POLYLINE
  8
ボルト／ビス
  6
CONTINUOUS
 62
    64
 66
     1
  0
VERTEX
  8
ボルト／ビス
 10
55.985602
 20
-56.435965
  0
VERTEX
  8
ボルト／ビス
 10
55.981603
 20
-56.45229
  0
VERTEX
  8
ボルト／ビス
 10
55.969602
 20
-56.468465
  0
VERTEX
  8
ボルト／ビス
 10
55.949725
 20
-56.484345
  0
VERTEX
  8
ボルト／ビス
 10
55.922172
 20
-56.499745
  0
VERTEX
  8
ボルト／ビス
 10
55.887203
 20
-56.514517
  0
VERTEX
  8
ボルト／ビス
 10
55.845175
 20
-56.528545
  0
VERTEX
  8
ボルト／ビス
 10
55.796445
 20
-56.54169
  0
VERTEX
  8
ボルト／ビス
 10
55.741525
 20
-56.553817
  0
VERTEX
  8
ボルト／ビス
 10
55.680925
 20
-56.56479
  0
VERTEX
  8
ボルト／ビス
 10
55.615245
 20
-56.574545
  0
VERTEX
  8
ボルト／ビス
 10
55.545103
 20
-56.582945
  0
VERTEX
  8
ボルト／ビス
 10
55.471185
 20
-56.589945
  0
VERTEX
  8
ボルト／ビス
 10
55.394175
 20
-56.595445
  0
VERTEX
  8
ボルト／ビス
 10
55.314862
 20
-56.599417
  0
VERTEX
  8
ボルト／ビス
 10
55.233945
 20
-56.601818
  0
VERTEX
  8
ボルト／ビス
 10
55.152285
 20
-56.602617
  0
VERTEX
  8
ボルト／ビス
 10
55.070605
 20
-56.601818
  0
VERTEX
  8
ボルト／ビス
 10
54.989705
 20
-56.599417
  0
VERTEX
  8
ボルト／ビス
 10
54.910385
 20
-56.595445
  0
VERTEX
  8
ボルト／ビス
 10
54.833385
 20
-56.589945
  0
VERTEX
  8
ボルト／ビス
 10
54.759462
 20
-56.582945
  0
VERTEX
  8
ボルト／ビス
 10
54.689305
 20
-56.574545
  0
VERTEX
  8
ボルト／ビス
 10
54.623632
 20
-56.56479
  0
VERTEX
  8
ボルト／ビス
 10
54.563033
 20
-56.553817
  0
VERTEX
  8
ボルト／ビス
 10
54.508105
 20
-56.54169
  0
VERTEX
  8
ボルト／ビス
 10
54.459385
 20
-56.528545
  0
VERTEX
  8
ボルト／ビス
 10
54.417362
 20
-56.514517
  0
VERTEX
  8
ボルト／ビス
 10
54.382385
 20
-56.499745
  0
VERTEX
  8
ボルト／ビス
 10
54.354835
 20
-56.484345
  0
VERTEX
  8
ボルト／ビス
 10
54.334963
 20
-56.468465
  0
VERTEX
  8
ボルト／ビス
 10
54.322945
 20
-56.45229
  0
VERTEX
  8
ボルト／ビス
 10
54.318963
 20
-56.435965
  0
SEQEND
  0
LINE
  8
ボルト／ビス
  6
CONTINUOUS
 62
    64
 10
55.985602
 20
-56.435965
 11
56.152275
 21
-55.993225
  0
LINE
  8
ボルト／ビス
  6
CONTINUOUS
 62
    64
 10
54.322945
 20
-56.45229
 11
54.152285
 21
-55.993225
  0
LINE
  8
ボルト／ビス
  6
CONTINUOUS
 62
    64
 10
54.152285
 20
-55.76929
 11
54.152285
 21
-55.993225
  0
LINE
  8
ボルト／ビス
  6
CONTINUOUS
 62
    64
 10
56.152275
 20
-55.76929
 11
56.152275
 21
-55.993225
  0
ARC
  8
ボルト／ビス
  6
CONTINUOUS
 62
    64
 10
55.152279
 20
-56.325975
 40
0.033333
 50
9.840875
 51
170.159125
  0
LINE
  8
ボルト／ビス
  6
CONTINUOUS
 62
    64
 10
55.220472
 20
-56.524065
 11
55.545103
 21
-56.582945
  0
LINE
  8
ボルト／ビス
  6
CONTINUOUS
 62
    64
 10
55.084085
 20
-56.524065
 11
54.759462
 21
-56.582945
  0
LINE
  8
ボルト／ビス
  6
CONTINUOUS
 62
    64
 10
55.185132
 20
-56.320265
 11
55.220472
 21
-56.524065
  0
LINE
  8
ボルト／ビス
  6
CONTINUOUS
 62
    64
 10
55.119425
 20
-56.320265
 11
55.084085
 21
-56.524065
  0
LINE
  8
ボルト／ビス
  6
CONTINUOUS
 62
    64
 10
56.152275
 20
-55.76929
 11
54.152285
 21
-55.76929
  0
LINE
  8
ボルト／ビス
  6
CONTINUOUS
 62
    64
 10
55.818945
 20
-52.935985
 11
55.652275
 21
-52.76931
  0
LINE
  8
ボルト／ビス
  6
CONTINUOUS
 62
    64
 10
54.652285
 20
-52.76931
 11
54.485605
 21
-52.935985
  0
LINE
  8
ボルト／ビス
  6
CONTINUOUS
 62
    64
 10
54.652285
 20
-55.76929
 11
54.652285
 21
-52.76931
  0
LINE
  8
ボルト／ビス
  6
CONTINUOUS
 62
    64
 10
54.652285
 20
-52.76931
 11
55.652275
 21
-52.76931
  0
LINE
  8
ボルト／ビス
  6
CONTINUOUS
 62
    64
 10
55.652275
 20
-55.76929
 11
55.652275
 21
-52.76931
  0
LINE
  8
ボルト／ビス
  6
CONTINUOUS
 62
    64
 10
55.818945
 20
-55.76929
 11
55.818945
 21
-52.935985
  0
LINE
  8
ボルト／ビス
  6
CONTINUOUS
 62
    64
 10
55.818945
 20
-52.935985
 11
54.485605
 21
-52.935985
  0
LINE
  8
ボルト／ビス
  6
CONTINUOUS
 62
    64
 10
54.485605
 20
-55.76929
 11
54.485605
 21
-52.935985
  0
LINE
  8
ボルト／ビス
  6
CONTINUOUS
 62
    64
 10
55.152285
 20
-58.07221
 11
55.152285
 21
-52.183637
  0
ENDBLK
  0
BLOCK
  2
*GRP_0040
 70
    65
 10
0.0
 20
0.0
  0
POLYLINE
  8
ボルト／ビス
  6
CONTINUOUS
 62
    64
 66
     1
  0
VERTEX
  8
ボルト／ビス
 10
82.986335
 20
-56.435965
  0
VERTEX
  8
ボルト／ビス
 10
82.982332
 20
-56.45229
  0
VERTEX
  8
ボルト／ビス
 10
82.970333
 20
-56.468465
  0
VERTEX
  8
ボルト／ビス
 10
82.950462
 20
-56.484345
  0
VERTEX
  8
ボルト／ビス
 10
82.922905
 20
-56.499745
  0
VERTEX
  8
ボルト／ビス
 10
82.887935
 20
-56.514517
  0
VERTEX
  8
ボルト／ビス
 10
82.845905
 20
-56.528545
  0
VERTEX
  8
ボルト／ビス
 10
82.797183
 20
-56.54169
  0
VERTEX
  8
ボルト／ビス
 10
82.742262
 20
-56.553817
  0
VERTEX
  8
ボルト／ビス
 10
82.681662
 20
-56.56479
  0
VERTEX
  8
ボルト／ビス
 10
82.615983
 20
-56.574545
  0
VERTEX
  8
ボルト／ビス
 10
82.545832
 20
-56.582945
  0
VERTEX
  8
ボルト／ビス
 10
82.471923
 20
-56.589945
  0
VERTEX
  8
ボルト／ビス
 10
82.394905
 20
-56.595445
  0
VERTEX
  8
ボルト／ビス
 10
82.315592
 20
-56.599417
  0
VERTEX
  8
ボルト／ビス
 10
82.234683
 20
-56.601818
  0
VERTEX
  8
ボルト／ビス
 10
82.153023
 20
-56.602617
  0
VERTEX
  8
ボルト／ビス
 10
82.071342
 20
-56.601818
  0
VERTEX
  8
ボルト／ビス
 10
81.990443
 20
-56.599417
  0
VERTEX
  8
ボルト／ビス
 10
81.911123
 20
-56.595445
  0
VERTEX
  8
ボルト／ビス
 10
81.834123
 20
-56.589945
  0
VERTEX
  8
ボルト／ビス
 10
81.760193
 20
-56.582945
  0
VERTEX
  8
ボルト／ビス
 10
81.690042
 20
-56.574545
  0
VERTEX
  8
ボルト／ビス
 10
81.624365
 20
-56.56479
  0
VERTEX
  8
ボルト／ビス
 10
81.563765
 20
-56.553817
  0
VERTEX
  8
ボルト／ビス
 10
81.508842
 20
-56.54169
  0
VERTEX
  8
ボルト／ビス
 10
81.460123
 20
-56.528545
  0
VERTEX
  8
ボルト／ビス
 10
81.418095
 20
-56.514517
  0
VERTEX
  8
ボルト／ビス
 10
81.383122
 20
-56.499745
  0
VERTEX
  8
ボルト／ビス
 10
81.355565
 20
-56.484345
  0
VERTEX
  8
ボルト／ビス
 10
81.335693
 20
-56.468465
  0
VERTEX
  8
ボルト／ビス
 10
81.323682
 20
-56.45229
  0
VERTEX
  8
ボルト／ビス
 10
81.319695
 20
-56.435965
  0
SEQEND
  0
LINE
  8
ボルト／ビス
  6
CONTINUOUS
 62
    64
 10
82.986335
 20
-56.435965
 11
83.153005
 21
-55.993225
  0
LINE
  8
ボルト／ビス
  6
CONTINUOUS
 62
    64
 10
81.323682
 20
-56.45229
 11
81.153023
 21
-55.993225
  0
LINE
  8
ボルト／ビス
  6
CONTINUOUS
 62
    64
 10
81.153023
 20
-55.76929
 11
81.153023
 21
-55.993225
  0
LINE
  8
ボルト／ビス
  6
CONTINUOUS
 62
    64
 10
83.153005
 20
-55.76929
 11
83.153005
 21
-55.993225
  0
ARC
  8
ボルト／ビス
  6
CONTINUOUS
 62
    64
 10
82.153014
 20
-56.325975
 40
0.033333
 50
9.840875
 51
170.159125
  0
LINE
  8
ボルト／ビス
  6
CONTINUOUS
 62
    64
 10
82.221205
 20
-56.524065
 11
82.545832
 21
-56.582945
  0
LINE
  8
ボルト／ビス
  6
CONTINUOUS
 62
    64
 10
82.084822
 20
-56.524065
 11
81.760193
 21
-56.582945
  0
LINE
  8
ボルト／ビス
  6
CONTINUOUS
 62
    64
 10
82.185865
 20
-56.320265
 11
82.221205
 21
-56.524065
  0
LINE
  8
ボルト／ビス
  6
CONTINUOUS
 62
    64
 10
82.120162
 20
-56.320265
 11
82.084822
 21
-56.524065
  0
LINE
  8
ボルト／ビス
  6
CONTINUOUS
 62
    64
 10
83.153005
 20
-55.76929
 11
81.153023
 21
-55.76929
  0
LINE
  8
ボルト／ビス
  6
CONTINUOUS
 62
    64
 10
82.819683
 20
-52.935985
 11
82.653005
 21
-52.76931
  0
LINE
  8
ボルト／ビス
  6
CONTINUOUS
 62
    64
 10
81.653023
 20
-52.76931
 11
81.486342
 21
-52.935985
  0
LINE
  8
ボルト／ビス
  6
CONTINUOUS
 62
    64
 10
81.653023
 20
-55.76929
 11
81.653023
 21
-52.76931
  0
LINE
  8
ボルト／ビス
  6
CONTINUOUS
 62
    64
 10
81.653023
 20
-52.76931
 11
82.653005
 21
-52.76931
  0
LINE
  8
ボルト／ビス
  6
CONTINUOUS
 62
    64
 10
82.653005
 20
-55.76929
 11
82.653005
 21
-52.76931
  0
LINE
  8
ボルト／ビス
  6
CONTINUOUS
 62
    64
 10
82.819683
 20
-55.76929
 11
82.819683
 21
-52.935985
  0
LINE
  8
ボルト／ビス
  6
CONTINUOUS
 62
    64
 10
82.819683
 20
-52.935985
 11
81.486342
 21
-52.935985
  0
LINE
  8
ボルト／ビス
  6
CONTINUOUS
 62
    64
 10
81.486342
 20
-55.76929
 11
81.486342
 21
-52.935985
  0
LINE
  8
ボルト／ビス
  6
CONTINUOUS
 62
    64
 10
82.153023
 20
-58.07221
 11
82.153023
 21
-52.183637
  0
ENDBLK
  0
BLOCK
  2
*GRP_0041
 70
    65
 10
0.0
 20
0.0
  0
LINE
  8
ボルト／ビス
  6
CONTINUOUS
 62
    64
 10
74.870003
 20
-68.45418
 11
74.718235
 21
-68.871155
  0
ARC
  8
ボルト／ビス
  6
CONTINUOUS
 62
    64
 10
73.50528
 20
-68.245695
 40
1.364723
 50
0.0
 51
27.277966
  0
LINE
  8
ボルト／ビス
  6
CONTINUOUS
 62
    64
 10
74.870003
 20
-64.284428
 11
74.718235
 21
-63.867453
  0
ARC
  8
ボルト／ビス
  6
CONTINUOUS
 62
    64
 10
73.50528
 20
-64.492917
 40
1.364723
 50
332.722034
 51
360.0
  0
ARC
  8
ボルト／ビス
  6
CONTINUOUS
 62
    64
 10
69.638759
 20
-66.369306
 40
5.231244
 50
346.165046
 51
373.834954
  0
LINE
  8
ボルト／ビス
  6
CONTINUOUS
 62
    64
 10
73.153335
 20
-68.871155
 11
74.718235
 21
-68.871155
  0
LINE
  8
ボルト／ビス
  6
CONTINUOUS
 62
    64
 10
73.153335
 20
-63.867453
 11
74.718235
 21
-63.867453
  0
LINE
  8
ボルト／ビス
  6
CONTINUOUS
 62
    64
 10
74.870003
 20
-64.284428
 11
74.870003
 21
-68.45418
  0
LINE
  8
ボルト／ビス
  6
CONTINUOUS
 62
    64
 10
74.718235
 20
-65.118378
 11
73.153335
 21
-65.118378
  0
LINE
  8
ボルト／ビス
  6
CONTINUOUS
 62
    64
 10
74.718235
 20
-67.62023
 11
73.153335
 21
-67.62023
  0
LINE
  8
ボルト／ビス
  6
CONTINUOUS
 62
    64
 10
73.153335
 20
-63.867453
 11
73.153335
 21
-68.871155
  0
LINE
  8
ボルト／ビス
  6
CONTINUOUS
 62
    64
 10
72.553335
 20
-69.28597
 11
72.220003
 21
-69.28597
  0
LINE
  8
ボルト／ビス
  6
CONTINUOUS
 62
    64
 10
72.553335
 20
-63.452638
 11
72.220003
 21
-63.452638
  0
LINE
  8
ボルト／ビス
  6
CONTINUOUS
 62
    64
 10
72.553335
 20
-69.28597
 11
72.553335
 21
-63.452638
  0
LINE
  8
ボルト／ビス
  6
CONTINUOUS
 62
    64
 10
72.220003
 20
-69.28597
 11
72.220003
 21
-63.452638
  0
LINE
  8
ボルト／ビス
  6
CONTINUOUS
 62
    64
 10
73.153335
 20
-66.369302
 11
72.553335
 21
-66.369302
  0
LINE
  8
ボルト／ビス
  6
CONTINUOUS
 62
    64
 10
73.153335
 20
-63.73597
 11
72.553335
 21
-63.73597
  0
LINE
  8
ボルト／ビス
  6
CONTINUOUS
 62
    64
 10
73.153335
 20
-69.002638
 11
72.553335
 21
-69.002638
  0
LINE
  8
ボルト／ビス
  6
CONTINUOUS
 62
    64
 10
73.153335
 20
-63.73597
 11
73.153335
 21
-69.002638
  0
LINE
  8
ボルト／ビス
  6
CONTINUOUS
 62
    64
 10
76.536667
 20
-66.369302
 11
63.153335
 21
-66.369302
  0
LINE
  8
ボルト／ビス
  6
CONTINUOUS
 62
    64
 10
64.820003
 20
-65.302638
 11
64.820003
 21
-67.43597
  0
LINE
  8
ボルト／ビス
  6
CONTINUOUS
 62
    64
 10
65.220003
 20
-65.03597
 11
64.820003
 21
-65.302638
  0
LINE
  8
ボルト／ビス
  6
CONTINUOUS
 62
    64
 10
65.220003
 20
-67.702638
 11
64.820003
 21
-67.43597
  0
LINE
  8
ボルト／ビス
  6
CONTINUOUS
 62
    64
 10
64.820003
 20
-65.302638
 11
64.820003
 21
-67.43597
  0
LINE
  8
ボルト／ビス
  6
CONTINUOUS
 62
    64
 10
65.220003
 20
-65.03597
 11
65.220003
 21
-67.702638
  0
LINE
  8
ボルト／ビス
  6
CONTINUOUS
 62
    64
 10
72.220003
 20
-65.03597
 11
65.220003
 21
-65.03597
  0
LINE
  8
ボルト／ビス
  6
CONTINUOUS
 62
    64
 10
72.220003
 20
-67.702638
 11
65.220003
 21
-67.702638
  0
LINE
  8
ボルト／ビス
  6
CONTINUOUS
 62
    64
 10
72.220003
 20
-65.302638
 11
64.820003
 21
-65.302638
  0
LINE
  8
ボルト／ビス
  6
CONTINUOUS
 62
    64
 10
72.220003
 20
-67.43597
 11
64.820003
 21
-67.43597
  0
ENDBLK
  0
BLOCK
  2
*GRP_0042
 70
    65
 10
0.0
 20
0.0
  0
LINE
  8
ボルト／ビス
  6
CONTINUOUS
 62
    64
 10
67.436667
 20
-68.454177
 11
67.588433
 21
-68.871152
  0
ARC
  8
ボルト／ビス
  6
CONTINUOUS
 62
    64
 10
68.80139
 20
-68.245694
 40
1.364723
 50
152.722034
 51
180.0
  0
LINE
  8
ボルト／ビス
  6
CONTINUOUS
 62
    64
 10
67.436667
 20
-64.284425
 11
67.588433
 21
-63.86745
  0
ARC
  8
ボルト／ビス
  6
CONTINUOUS
 62
    64
 10
68.80139
 20
-64.492916
 40
1.364723
 50
180.0
 51
207.277966
  0
ARC
  8
ボルト／ビス
  6
CONTINUOUS
 62
    64
 10
72.667911
 20
-66.369305
 40
5.231244
 50
166.165046
 51
193.834954
  0
LINE
  8
ボルト／ビス
  6
CONTINUOUS
 62
    64
 10
69.153335
 20
-68.871152
 11
67.588433
 21
-68.871152
  0
LINE
  8
ボルト／ビス
  6
CONTINUOUS
 62
    64
 10
69.153335
 20
-63.86745
 11
67.588433
 21
-63.86745
  0
LINE
  8
ボルト／ビス
  6
CONTINUOUS
 62
    64
 10
67.436667
 20
-64.284425
 11
67.436667
 21
-68.454177
  0
LINE
  8
ボルト／ビス
  6
CONTINUOUS
 62
    64
 10
67.588433
 20
-65.118375
 11
69.153335
 21
-65.118375
  0
LINE
  8
ボルト／ビス
  6
CONTINUOUS
 62
    64
 10
67.588433
 20
-67.620227
 11
69.153335
 21
-67.620227
  0
LINE
  8
ボルト／ビス
  6
CONTINUOUS
 62
    64
 10
69.153335
 20
-63.86745
 11
69.153335
 21
-68.871152
  0
LINE
  8
ボルト／ビス
  6
CONTINUOUS
 62
    64
 10
69.753335
 20
-69.285967
 11
70.086667
 21
-69.285967
  0
LINE
  8
ボルト／ビス
  6
CONTINUOUS
 62
    64
 10
69.753335
 20
-63.452635
 11
70.086667
 21
-63.452635
  0
LINE
  8
ボルト／ビス
  6
CONTINUOUS
 62
    64
 10
69.753335
 20
-69.285967
 11
69.753335
 21
-63.452635
  0
LINE
  8
ボルト／ビス
  6
CONTINUOUS
 62
    64
 10
70.086667
 20
-69.285967
 11
70.086667
 21
-63.452635
  0
LINE
  8
ボルト／ビス
  6
CONTINUOUS
 62
    64
 10
69.153335
 20
-66.3693
 11
69.753335
 21
-66.3693
  0
LINE
  8
ボルト／ビス
  6
CONTINUOUS
 62
    64
 10
69.153335
 20
-63.735967
 11
69.753335
 21
-63.735967
  0
LINE
  8
ボルト／ビス
  6
CONTINUOUS
 62
    64
 10
69.153335
 20
-69.002635
 11
69.753335
 21
-69.002635
  0
LINE
  8
ボルト／ビス
  6
CONTINUOUS
 62
    64
 10
69.153335
 20
-63.735967
 11
69.153335
 21
-69.002635
  0
ENDBLK
  0
BLOCK
  2
*GRP_0043
 70
    65
 10
0.0
 20
0.0
  0
POLYLINE
  8
ボルト／ビス
  6
CONTINUOUS
 62
    64
 66
     1
  0
VERTEX
  8
ボルト／ビス
 10
-64.850062
 20
-56.435965
  0
VERTEX
  8
ボルト／ビス
 10
-64.846062
 20
-56.45229
  0
VERTEX
  8
ボルト／ビス
 10
-64.834062
 20
-56.468465
  0
VERTEX
  8
ボルト／ビス
 10
-64.814185
 20
-56.484345
  0
VERTEX
  8
ボルト／ビス
 10
-64.786632
 20
-56.499745
  0
VERTEX
  8
ボルト／ビス
 10
-64.751663
 20
-56.514517
  0
VERTEX
  8
ボルト／ビス
 10
-64.709635
 20
-56.528545
  0
VERTEX
  8
ボルト／ビス
 10
-64.660905
 20
-56.54169
  0
VERTEX
  8
ボルト／ビス
 10
-64.605985
 20
-56.553817
  0
VERTEX
  8
ボルト／ビス
 10
-64.545385
 20
-56.56479
  0
VERTEX
  8
ボルト／ビス
 10
-64.479705
 20
-56.574545
  0
VERTEX
  8
ボルト／ビス
 10
-64.409562
 20
-56.582945
  0
VERTEX
  8
ボルト／ビス
 10
-64.335645
 20
-56.589945
  0
VERTEX
  8
ボルト／ビス
 10
-64.258635
 20
-56.595445
  0
VERTEX
  8
ボルト／ビス
 10
-64.179323
 20
-56.599417
  0
VERTEX
  8
ボルト／ビス
 10
-64.098405
 20
-56.601818
  0
VERTEX
  8
ボルト／ビス
 10
-64.016745
 20
-56.602617
  0
VERTEX
  8
ボルト／ビス
 10
-63.935065
 20
-56.601818
  0
VERTEX
  8
ボルト／ビス
 10
-63.854165
 20
-56.599417
  0
VERTEX
  8
ボルト／ビス
 10
-63.774845
 20
-56.595445
  0
VERTEX
  8
ボルト／ビス
 10
-63.697845
 20
-56.589945
  0
VERTEX
  8
ボルト／ビス
 10
-63.623923
 20
-56.582945
  0
VERTEX
  8
ボルト／ビス
 10
-63.553765
 20
-56.574545
  0
VERTEX
  8
ボルト／ビス
 10
-63.488093
 20
-56.56479
  0
VERTEX
  8
ボルト／ビス
 10
-63.427492
 20
-56.553817
  0
VERTEX
  8
ボルト／ビス
 10
-63.372565
 20
-56.54169
  0
VERTEX
  8
ボルト／ビス
 10
-63.323845
 20
-56.528545
  0
VERTEX
  8
ボルト／ビス
 10
-63.281822
 20
-56.514517
  0
VERTEX
  8
ボルト／ビス
 10
-63.246845
 20
-56.499745
  0
VERTEX
  8
ボルト／ビス
 10
-63.219295
 20
-56.484345
  0
VERTEX
  8
ボルト／ビス
 10
-63.199423
 20
-56.468465
  0
VERTEX
  8
ボルト／ビス
 10
-63.187405
 20
-56.45229
  0
VERTEX
  8
ボルト／ビス
 10
-63.183422
 20
-56.435965
  0
SEQEND
  0
LINE
  8
ボルト／ビス
  6
CONTINUOUS
 62
    64
 10
-64.850062
 20
-56.435965
 11
-65.016735
 21
-55.993225
  0
LINE
  8
ボルト／ビス
  6
CONTINUOUS
 62
    64
 10
-63.187405
 20
-56.45229
 11
-63.016745
 21
-55.993225
  0
LINE
  8
ボルト／ビス
  6
CONTINUOUS
 62
    64
 10
-63.016745
 20
-55.76929
 11
-63.016745
 21
-55.993225
  0
LINE
  8
ボルト／ビス
  6
CONTINUOUS
 62
    64
 10
-65.016735
 20
-55.76929
 11
-65.016735
 21
-55.993225
  0
ARC
  8
ボルト／ビス
  6
CONTINUOUS
 62
    64
 10
-64.016739
 20
-56.325975
 40
0.033333
 50
9.840875
 51
170.159125
  0
LINE
  8
ボルト／ビス
  6
CONTINUOUS
 62
    64
 10
-64.084933
 20
-56.524065
 11
-64.409562
 21
-56.582945
  0
LINE
  8
ボルト／ビス
  6
CONTINUOUS
 62
    64
 10
-63.948545
 20
-56.524065
 11
-63.623923
 21
-56.582945
  0
LINE
  8
ボルト／ビス
  6
CONTINUOUS
 62
    64
 10
-64.049593
 20
-56.320265
 11
-64.084933
 21
-56.524065
  0
LINE
  8
ボルト／ビス
  6
CONTINUOUS
 62
    64
 10
-63.983885
 20
-56.320265
 11
-63.948545
 21
-56.524065
  0
LINE
  8
ボルト／ビス
  6
CONTINUOUS
 62
    64
 10
-65.016735
 20
-55.76929
 11
-63.016745
 21
-55.76929
  0
LINE
  8
ボルト／ビス
  6
CONTINUOUS
 62
    64
 10
-64.683405
 20
-52.935985
 11
-64.516735
 21
-52.76931
  0
LINE
  8
ボルト／ビス
  6
CONTINUOUS
 62
    64
 10
-63.516745
 20
-52.76931
 11
-63.350065
 21
-52.935985
  0
LINE
  8
ボルト／ビス
  6
CONTINUOUS
 62
    64
 10
-63.516745
 20
-55.76929
 11
-63.516745
 21
-52.76931
  0
LINE
  8
ボルト／ビス
  6
CONTINUOUS
 62
    64
 10
-63.516745
 20
-52.76931
 11
-64.516735
 21
-52.76931
  0
LINE
  8
ボルト／ビス
  6
CONTINUOUS
 62
    64
 10
-64.516735
 20
-55.76929
 11
-64.516735
 21
-52.76931
  0
LINE
  8
ボルト／ビス
  6
CONTINUOUS
 62
    64
 10
-64.683405
 20
-55.76929
 11
-64.683405
 21
-52.935985
  0
LINE
  8
ボルト／ビス
  6
CONTINUOUS
 62
    64
 10
-64.683405
 20
-52.935985
 11
-63.350065
 21
-52.935985
  0
LINE
  8
ボルト／ビス
  6
CONTINUOUS
 62
    64
 10
-63.350065
 20
-55.76929
 11
-63.350065
 21
-52.935985
  0
LINE
  8
ボルト／ビス
  6
CONTINUOUS
 62
    64
 10
-64.016745
 20
-58.07221
 11
-64.016745
 21
-52.183637
  0
ENDBLK
  0
BLOCK
  2
*GRP_0044
 70
    65
 10
0.0
 20
0.0
  0
POLYLINE
  8
ボルト／ビス
  6
CONTINUOUS
 62
    64
 66
     1
  0
VERTEX
  8
ボルト／ビス
 10
-91.850795
 20
-56.435965
  0
VERTEX
  8
ボルト／ビス
 10
-91.846792
 20
-56.45229
  0
VERTEX
  8
ボルト／ビス
 10
-91.834793
 20
-56.468465
  0
VERTEX
  8
ボルト／ビス
 10
-91.814923
 20
-56.484345
  0
VERTEX
  8
ボルト／ビス
 10
-91.787365
 20
-56.499745
  0
VERTEX
  8
ボルト／ビス
 10
-91.752395
 20
-56.514517
  0
VERTEX
  8
ボルト／ビス
 10
-91.710365
 20
-56.528545
  0
VERTEX
  8
ボルト／ビス
 10
-91.661643
 20
-56.54169
  0
VERTEX
  8
ボルト／ビス
 10
-91.606722
 20
-56.553817
  0
VERTEX
  8
ボルト／ビス
 10
-91.546122
 20
-56.56479
  0
VERTEX
  8
ボルト／ビス
 10
-91.480443
 20
-56.574545
  0
VERTEX
  8
ボルト／ビス
 10
-91.410293
 20
-56.582945
  0
VERTEX
  8
ボルト／ビス
 10
-91.336383
 20
-56.589945
  0
VERTEX
  8
ボルト／ビス
 10
-91.259365
 20
-56.595445
  0
VERTEX
  8
ボルト／ビス
 10
-91.180052
 20
-56.599417
  0
VERTEX
  8
ボルト／ビス
 10
-91.099143
 20
-56.601818
  0
VERTEX
  8
ボルト／ビス
 10
-91.017483
 20
-56.602617
  0
VERTEX
  8
ボルト／ビス
 10
-90.935803
 20
-56.601818
  0
VERTEX
  8
ボルト／ビス
 10
-90.854903
 20
-56.599417
  0
VERTEX
  8
ボルト／ビス
 10
-90.775583
 20
-56.595445
  0
VERTEX
  8
ボルト／ビス
 10
-90.698582
 20
-56.589945
  0
VERTEX
  8
ボルト／ビス
 10
-90.624652
 20
-56.582945
  0
VERTEX
  8
ボルト／ビス
 10
-90.554503
 20
-56.574545
  0
VERTEX
  8
ボルト／ビス
 10
-90.488825
 20
-56.56479
  0
VERTEX
  8
ボルト／ビス
 10
-90.428225
 20
-56.553817
  0
VERTEX
  8
ボルト／ビス
 10
-90.373303
 20
-56.54169
  0
VERTEX
  8
ボルト／ビス
 10
-90.324582
 20
-56.528545
  0
VERTEX
  8
ボルト／ビス
 10
-90.282555
 20
-56.514517
  0
VERTEX
  8
ボルト／ビス
 10
-90.247583
 20
-56.499745
  0
VERTEX
  8
ボルト／ビス
 10
-90.220025
 20
-56.484345
  0
VERTEX
  8
ボルト／ビス
 10
-90.200152
 20
-56.468465
  0
VERTEX
  8
ボルト／ビス
 10
-90.188142
 20
-56.45229
  0
VERTEX
  8
ボルト／ビス
 10
-90.184155
 20
-56.435965
  0
SEQEND
  0
LINE
  8
ボルト／ビス
  6
CONTINUOUS
 62
    64
 10
-91.850795
 20
-56.435965
 11
-92.017465
 21
-55.993225
  0
LINE
  8
ボルト／ビス
  6
CONTINUOUS
 62
    64
 10
-90.188142
 20
-56.45229
 11
-90.017483
 21
-55.993225
  0
LINE
  8
ボルト／ビス
  6
CONTINUOUS
 62
    64
 10
-90.017483
 20
-55.76929
 11
-90.017483
 21
-55.993225
  0
LINE
  8
ボルト／ビス
  6
CONTINUOUS
 62
    64
 10
-92.017465
 20
-55.76929
 11
-92.017465
 21
-55.993225
  0
ARC
  8
ボルト／ビス
  6
CONTINUOUS
 62
    64
 10
-91.017474
 20
-56.325975
 40
0.033333
 50
9.840875
 51
170.159125
  0
LINE
  8
ボルト／ビス
  6
CONTINUOUS
 62
    64
 10
-91.085665
 20
-56.524065
 11
-91.410293
 21
-56.582945
  0
LINE
  8
ボルト／ビス
  6
CONTINUOUS
 62
    64
 10
-90.949283
 20
-56.524065
 11
-90.624652
 21
-56.582945
  0
LINE
  8
ボルト／ビス
  6
CONTINUOUS
 62
    64
 10
-91.050325
 20
-56.320265
 11
-91.085665
 21
-56.524065
  0
LINE
  8
ボルト／ビス
  6
CONTINUOUS
 62
    64
 10
-90.984623
 20
-56.320265
 11
-90.949283
 21
-56.524065
  0
LINE
  8
ボルト／ビス
  6
CONTINUOUS
 62
    64
 10
-92.017465
 20
-55.76929
 11
-90.017483
 21
-55.76929
  0
LINE
  8
ボルト／ビス
  6
CONTINUOUS
 62
    64
 10
-91.684142
 20
-52.935985
 11
-91.517465
 21
-52.76931
  0
LINE
  8
ボルト／ビス
  6
CONTINUOUS
 62
    64
 10
-90.517483
 20
-52.76931
 11
-90.350803
 21
-52.935985
  0
LINE
  8
ボルト／ビス
  6
CONTINUOUS
 62
    64
 10
-90.517483
 20
-55.76929
 11
-90.517483
 21
-52.76931
  0
LINE
  8
ボルト／ビス
  6
CONTINUOUS
 62
    64
 10
-90.517483
 20
-52.76931
 11
-91.517465
 21
-52.76931
  0
LINE
  8
ボルト／ビス
  6
CONTINUOUS
 62
    64
 10
-91.517465
 20
-55.76929
 11
-91.517465
 21
-52.76931
  0
LINE
  8
ボルト／ビス
  6
CONTINUOUS
 62
    64
 10
-91.684142
 20
-55.76929
 11
-91.684142
 21
-52.935985
  0
LINE
  8
ボルト／ビス
  6
CONTINUOUS
 62
    64
 10
-91.684142
 20
-52.935985
 11
-90.350803
 21
-52.935985
  0
LINE
  8
ボルト／ビス
  6
CONTINUOUS
 62
    64
 10
-90.350803
 20
-55.76929
 11
-90.350803
 21
-52.935985
  0
LINE
  8
ボルト／ビス
  6
CONTINUOUS
 62
    64
 10
-91.017483
 20
-58.07221
 11
-91.017483
 21
-52.183637
  0
ENDBLK
  0
BLOCK
  2
*GRP_0045
 70
    65
 10
0.0
 20
0.0
  0
LINE
  8
ボルト／ビス
  6
CONTINUOUS
 62
    64
 10
-83.734462
 20
-68.45418
 11
-83.582695
 21
-68.871155
  0
ARC
  8
ボルト／ビス
  6
CONTINUOUS
 62
    64
 10
-82.36974
 20
-68.245695
 40
1.364723
 50
152.722034
 51
180.0
  0
LINE
  8
ボルト／ビス
  6
CONTINUOUS
 62
    64
 10
-83.734462
 20
-64.284428
 11
-83.582695
 21
-63.867453
  0
ARC
  8
ボルト／ビス
  6
CONTINUOUS
 62
    64
 10
-82.36974
 20
-64.492917
 40
1.364723
 50
180.0
 51
207.277966
  0
ARC
  8
ボルト／ビス
  6
CONTINUOUS
 62
    64
 10
-78.503219
 20
-66.369306
 40
5.231244
 50
166.165046
 51
193.834954
  0
LINE
  8
ボルト／ビス
  6
CONTINUOUS
 62
    64
 10
-82.017795
 20
-68.871155
 11
-83.582695
 21
-68.871155
  0
LINE
  8
ボルト／ビス
  6
CONTINUOUS
 62
    64
 10
-82.017795
 20
-63.867453
 11
-83.582695
 21
-63.867453
  0
LINE
  8
ボルト／ビス
  6
CONTINUOUS
 62
    64
 10
-83.734462
 20
-64.284428
 11
-83.734462
 21
-68.45418
  0
LINE
  8
ボルト／ビス
  6
CONTINUOUS
 62
    64
 10
-83.582695
 20
-65.118378
 11
-82.017795
 21
-65.118378
  0
LINE
  8
ボルト／ビス
  6
CONTINUOUS
 62
    64
 10
-83.582695
 20
-67.62023
 11
-82.017795
 21
-67.62023
  0
LINE
  8
ボルト／ビス
  6
CONTINUOUS
 62
    64
 10
-82.017795
 20
-63.867453
 11
-82.017795
 21
-68.871155
  0
LINE
  8
ボルト／ビス
  6
CONTINUOUS
 62
    64
 10
-81.417795
 20
-69.28597
 11
-81.084462
 21
-69.28597
  0
LINE
  8
ボルト／ビス
  6
CONTINUOUS
 62
    64
 10
-81.417795
 20
-63.452638
 11
-81.084462
 21
-63.452638
  0
LINE
  8
ボルト／ビス
  6
CONTINUOUS
 62
    64
 10
-81.417795
 20
-69.28597
 11
-81.417795
 21
-63.452638
  0
LINE
  8
ボルト／ビス
  6
CONTINUOUS
 62
    64
 10
-81.084462
 20
-69.28597
 11
-81.084462
 21
-63.452638
  0
LINE
  8
ボルト／ビス
  6
CONTINUOUS
 62
    64
 10
-82.017795
 20
-66.369302
 11
-81.417795
 21
-66.369302
  0
LINE
  8
ボルト／ビス
  6
CONTINUOUS
 62
    64
 10
-82.017795
 20
-63.73597
 11
-81.417795
 21
-63.73597
  0
LINE
  8
ボルト／ビス
  6
CONTINUOUS
 62
    64
 10
-82.017795
 20
-69.002638
 11
-81.417795
 21
-69.002638
  0
LINE
  8
ボルト／ビス
  6
CONTINUOUS
 62
    64
 10
-82.017795
 20
-63.73597
 11
-82.017795
 21
-69.002638
  0
LINE
  8
ボルト／ビス
  6
CONTINUOUS
 62
    64
 10
-85.401127
 20
-66.369302
 11
-72.017795
 21
-66.369302
  0
LINE
  8
ボルト／ビス
  6
CONTINUOUS
 62
    64
 10
-73.684462
 20
-65.302638
 11
-73.684462
 21
-67.43597
  0
LINE
  8
ボルト／ビス
  6
CONTINUOUS
 62
    64
 10
-74.084462
 20
-65.03597
 11
-73.684462
 21
-65.302638
  0
LINE
  8
ボルト／ビス
  6
CONTINUOUS
 62
    64
 10
-74.084462
 20
-67.702638
 11
-73.684462
 21
-67.43597
  0
LINE
  8
ボルト／ビス
  6
CONTINUOUS
 62
    64
 10
-73.684462
 20
-65.302638
 11
-73.684462
 21
-67.43597
  0
LINE
  8
ボルト／ビス
  6
CONTINUOUS
 62
    64
 10
-74.084462
 20
-65.03597
 11
-74.084462
 21
-67.702638
  0
LINE
  8
ボルト／ビス
  6
CONTINUOUS
 62
    64
 10
-81.084462
 20
-65.03597
 11
-74.084462
 21
-65.03597
  0
LINE
  8
ボルト／ビス
  6
CONTINUOUS
 62
    64
 10
-81.084462
 20
-67.702638
 11
-74.084462
 21
-67.702638
  0
LINE
  8
ボルト／ビス
  6
CONTINUOUS
 62
    64
 10
-81.084462
 20
-65.302638
 11
-73.684462
 21
-65.302638
  0
LINE
  8
ボルト／ビス
  6
CONTINUOUS
 62
    64
 10
-81.084462
 20
-67.43597
 11
-73.684462
 21
-67.43597
  0
ENDBLK
  0
BLOCK
  2
*GRP_0046
 70
    65
 10
0.0
 20
0.0
  0
LINE
  8
ボルト／ビス
  6
CONTINUOUS
 62
    64
 10
-76.301127
 20
-68.454177
 11
-76.452892
 21
-68.871152
  0
ARC
  8
ボルト／ビス
  6
CONTINUOUS
 62
    64
 10
-77.66585
 20
-68.245694
 40
1.364723
 50
0.0
 51
27.277966
  0
LINE
  8
ボルト／ビス
  6
CONTINUOUS
 62
    64
 10
-76.301127
 20
-64.284425
 11
-76.452892
 21
-63.86745
  0
ARC
  8
ボルト／ビス
  6
CONTINUOUS
 62
    64
 10
-77.66585
 20
-64.492916
 40
1.364723
 50
332.722034
 51
360.0
  0
ARC
  8
ボルト／ビス
  6
CONTINUOUS
 62
    64
 10
-81.532371
 20
-66.369305
 40
5.231244
 50
346.165046
 51
373.834954
  0
LINE
  8
ボルト／ビス
  6
CONTINUOUS
 62
    64
 10
-78.017795
 20
-68.871152
 11
-76.452892
 21
-68.871152
  0
LINE
  8
ボルト／ビス
  6
CONTINUOUS
 62
    64
 10
-78.017795
 20
-63.86745
 11
-76.452892
 21
-63.86745
  0
LINE
  8
ボルト／ビス
  6
CONTINUOUS
 62
    64
 10
-76.301127
 20
-64.284425
 11
-76.301127
 21
-68.454177
  0
LINE
  8
ボルト／ビス
  6
CONTINUOUS
 62
    64
 10
-76.452892
 20
-65.118375
 11
-78.017795
 21
-65.118375
  0
LINE
  8
ボルト／ビス
  6
CONTINUOUS
 62
    64
 10
-76.452892
 20
-67.620227
 11
-78.017795
 21
-67.620227
  0
LINE
  8
ボルト／ビス
  6
CONTINUOUS
 62
    64
 10
-78.017795
 20
-63.86745
 11
-78.017795
 21
-68.871152
  0
LINE
  8
ボルト／ビス
  6
CONTINUOUS
 62
    64
 10
-78.617795
 20
-69.285967
 11
-78.951127
 21
-69.285967
  0
LINE
  8
ボルト／ビス
  6
CONTINUOUS
 62
    64
 10
-78.617795
 20
-63.452635
 11
-78.951127
 21
-63.452635
  0
LINE
  8
ボルト／ビス
  6
CONTINUOUS
 62
    64
 10
-78.617795
 20
-69.285967
 11
-78.617795
 21
-63.452635
  0
LINE
  8
ボルト／ビス
  6
CONTINUOUS
 62
    64
 10
-78.951127
 20
-69.285967
 11
-78.951127
 21
-63.452635
  0
LINE
  8
ボルト／ビス
  6
CONTINUOUS
 62
    64
 10
-78.017795
 20
-66.3693
 11
-78.617795
 21
-66.3693
  0
LINE
  8
ボルト／ビス
  6
CONTINUOUS
 62
    64
 10
-78.017795
 20
-63.735967
 11
-78.617795
 21
-63.735967
  0
LINE
  8
ボルト／ビス
  6
CONTINUOUS
 62
    64
 10
-78.017795
 20
-69.002635
 11
-78.617795
 21
-69.002635
  0
LINE
  8
ボルト／ビス
  6
CONTINUOUS
 62
    64
 10
-78.017795
 20
-63.735967
 11
-78.017795
 21
-69.002635
  0
ENDBLK
  0
BLOCK
  2
*GRP_0047
 70
    65
 10
0.0
 20
0.0
  0
INSERT
  2
*GRP_0124
  8
補助線
  6
DOT
 62
    64
 10
0.0
 20
0.0
  0
CIRCLE
  8
ボルト／ビス
  6
DOT
 62
    64
 10
-12.83223
 20
-36.369315
 40
1.166668
  0
LINE
  8
ボルト／ビス
  6
DOT
 62
    64
 10
-12.645562
 20
-35.995982
 11
-12.645562
 21
-35.730198
  0
LINE
  8
ボルト／ビス
  6
DOT
 62
    64
 10
-12.458897
 20
-36.182647
 11
-12.19313
 21
-36.182647
  0
ARC
  8
ボルト／ビス
  6
DOT
 62
    64
 10
-12.458897
 20
-35.995979
 40
0.186667
 50
180.0
 51
270.0
  0
LINE
  8
ボルト／ビス
  6
DOT
 62
    64
 10
-12.19313
 20
-36.182647
 11
-12.19313
 21
-36.369315
  0
LINE
  8
ボルト／ビス
  6
DOT
 62
    64
 10
-12.645562
 20
-35.730198
 11
-12.83223
 21
-35.730198
  0
LINE
  8
ボルト／ビス
  6
DOT
 62
    64
 10
-12.645562
 20
-36.742648
 11
-12.645562
 21
-37.008415
  0
LINE
  8
ボルト／ビス
  6
DOT
 62
    64
 10
-12.458897
 20
-36.555983
 11
-12.19313
 21
-36.555983
  0
ARC
  8
ボルト／ビス
  6
DOT
 62
    64
 10
-12.458897
 20
-36.742646
 40
0.186667
 50
90.0
 51
180.0
  0
LINE
  8
ボルト／ビス
  6
DOT
 62
    64
 10
-12.19313
 20
-36.555983
 11
-12.19313
 21
-36.369315
  0
LINE
  8
ボルト／ビス
  6
DOT
 62
    64
 10
-12.645562
 20
-37.008415
 11
-12.83223
 21
-37.008415
  0
LINE
  8
ボルト／ビス
  6
DOT
 62
    64
 10
-13.018898
 20
-36.742648
 11
-13.018898
 21
-37.008415
  0
LINE
  8
ボルト／ビス
  6
DOT
 62
    64
 10
-13.205562
 20
-36.555983
 11
-13.47133
 21
-36.555983
  0
ARC
  8
ボルト／ビス
  6
DOT
 62
    64
 10
-13.205564
 20
-36.742646
 40
0.186667
 50
0.0
 51
90.0
  0
LINE
  8
ボルト／ビス
  6
DOT
 62
    64
 10
-13.47133
 20
-36.555983
 11
-13.47133
 21
-36.369315
  0
LINE
  8
ボルト／ビス
  6
DOT
 62
    64
 10
-13.018898
 20
-37.008415
 11
-12.83223
 21
-37.008415
  0
LINE
  8
ボルト／ビス
  6
DOT
 62
    64
 10
-13.018898
 20
-35.995982
 11
-13.018898
 21
-35.730198
  0
LINE
  8
ボルト／ビス
  6
DOT
 62
    64
 10
-13.205562
 20
-36.182647
 11
-13.47133
 21
-36.182647
  0
ARC
  8
ボルト／ビス
  6
DOT
 62
    64
 10
-13.205564
 20
-35.995979
 40
0.186667
 50
270.0
 51
360.0
  0
LINE
  8
ボルト／ビス
  6
DOT
 62
    64
 10
-13.47133
 20
-36.182647
 11
-13.47133
 21
-36.369315
  0
LINE
  8
ボルト／ビス
  6
DOT
 62
    64
 10
-13.018898
 20
-35.730198
 11
-12.83223
 21
-35.730198
  0
ENDBLK
  0
BLOCK
  2
*GRP_0048
 70
    65
 10
0.0
 20
0.0
  0
INSERT
  2
*GRP_0125
  8
補助線
  6
DOT
 62
    64
 10
0.0
 20
0.0
  0
CIRCLE
  8
ボルト／ビス
  6
DOT
 62
    64
 10
3.96777
 20
-36.369315
 40
1.166668
  0
LINE
  8
ボルト／ビス
  6
DOT
 62
    64
 10
3.781103
 20
-35.995982
 11
3.781103
 21
-35.730198
  0
LINE
  8
ボルト／ビス
  6
DOT
 62
    64
 10
3.594437
 20
-36.182647
 11
3.32867
 21
-36.182647
  0
ARC
  8
ボルト／ビス
  6
DOT
 62
    64
 10
3.594439
 20
-35.995979
 40
0.186667
 50
270.0
 51
360.0
  0
LINE
  8
ボルト／ビス
  6
DOT
 62
    64
 10
3.32867
 20
-36.182647
 11
3.32867
 21
-36.369315
  0
LINE
  8
ボルト／ビス
  6
DOT
 62
    64
 10
3.781103
 20
-35.730198
 11
3.96777
 21
-35.730198
  0
LINE
  8
ボルト／ビス
  6
DOT
 62
    64
 10
3.781103
 20
-36.742648
 11
3.781103
 21
-37.008415
  0
LINE
  8
ボルト／ビス
  6
DOT
 62
    64
 10
3.594437
 20
-36.555983
 11
3.32867
 21
-36.555983
  0
ARC
  8
ボルト／ビス
  6
DOT
 62
    64
 10
3.594439
 20
-36.742646
 40
0.186667
 50
0.0
 51
90.0
  0
LINE
  8
ボルト／ビス
  6
DOT
 62
    64
 10
3.32867
 20
-36.555983
 11
3.32867
 21
-36.369315
  0
LINE
  8
ボルト／ビス
  6
DOT
 62
    64
 10
3.781103
 20
-37.008415
 11
3.96777
 21
-37.008415
  0
LINE
  8
ボルト／ビス
  6
DOT
 62
    64
 10
4.154437
 20
-36.742648
 11
4.154437
 21
-37.008415
  0
LINE
  8
ボルト／ビス
  6
DOT
 62
    64
 10
4.341102
 20
-36.555983
 11
4.60687
 21
-36.555983
  0
ARC
  8
ボルト／ビス
  6
DOT
 62
    64
 10
4.341106
 20
-36.742646
 40
0.186667
 50
90.0
 51
180.0
  0
LINE
  8
ボルト／ビス
  6
DOT
 62
    64
 10
4.60687
 20
-36.555983
 11
4.60687
 21
-36.369315
  0
LINE
  8
ボルト／ビス
  6
DOT
 62
    64
 10
4.154437
 20
-37.008415
 11
3.96777
 21
-37.008415
  0
LINE
  8
ボルト／ビス
  6
DOT
 62
    64
 10
4.154437
 20
-35.995982
 11
4.154437
 21
-35.730198
  0
LINE
  8
ボルト／ビス
  6
DOT
 62
    64
 10
4.341102
 20
-36.182647
 11
4.60687
 21
-36.182647
  0
ARC
  8
ボルト／ビス
  6
DOT
 62
    64
 10
4.341106
 20
-35.995979
 40
0.186667
 50
180.0
 51
270.0
  0
LINE
  8
ボルト／ビス
  6
DOT
 62
    64
 10
4.60687
 20
-36.182647
 11
4.60687
 21
-36.369315
  0
LINE
  8
ボルト／ビス
  6
DOT
 62
    64
 10
4.154437
 20
-35.730198
 11
3.96777
 21
-35.730198
  0
ENDBLK
  0
BLOCK
  2
*GRP_0049
 70
    65
 10
0.0
 20
0.0
  0
INSERT
  2
*GRP_0126
  8
補助線
  6
CONTINUOUS
 62
    64
 10
0.0
 20
0.0
  0
CIRCLE
  8
ボルト／ビス
  6
CONTINUOUS
 62
    64
 10
-18.43223
 20
-36.369315
 40
1.166668
  0
LINE
  8
ボルト／ビス
  6
CONTINUOUS
 62
    64
 10
-18.245562
 20
-35.995982
 11
-18.245562
 21
-35.73021
  0
LINE
  8
ボルト／ビス
  6
CONTINUOUS
 62
    64
 10
-18.058897
 20
-36.182647
 11
-17.793125
 21
-36.182647
  0
ARC
  8
ボルト／ビス
  6
CONTINUOUS
 62
    64
 10
-18.058898
 20
-35.995983
 40
0.186667
 50
180.0
 51
270.0
  0
LINE
  8
ボルト／ビス
  6
CONTINUOUS
 62
    64
 10
-17.793125
 20
-36.182647
 11
-17.793125
 21
-36.369315
  0
LINE
  8
ボルト／ビス
  6
CONTINUOUS
 62
    64
 10
-18.245562
 20
-35.73021
 11
-18.43223
 21
-35.73021
  0
LINE
  8
ボルト／ビス
  6
CONTINUOUS
 62
    64
 10
-18.245562
 20
-36.742648
 11
-18.245562
 21
-37.00842
  0
LINE
  8
ボルト／ビス
  6
CONTINUOUS
 62
    64
 10
-18.058897
 20
-36.555983
 11
-17.793125
 21
-36.555983
  0
ARC
  8
ボルト／ビス
  6
CONTINUOUS
 62
    64
 10
-18.058898
 20
-36.74265
 40
0.186667
 50
90.0
 51
180.0
  0
LINE
  8
ボルト／ビス
  6
CONTINUOUS
 62
    64
 10
-17.793125
 20
-36.555983
 11
-17.793125
 21
-36.369315
  0
LINE
  8
ボルト／ビス
  6
CONTINUOUS
 62
    64
 10
-18.245562
 20
-37.00842
 11
-18.43223
 21
-37.00842
  0
LINE
  8
ボルト／ビス
  6
CONTINUOUS
 62
    64
 10
-18.618898
 20
-36.742648
 11
-18.618898
 21
-37.00842
  0
LINE
  8
ボルト／ビス
  6
CONTINUOUS
 62
    64
 10
-18.805562
 20
-36.555983
 11
-19.071335
 21
-36.555983
  0
ARC
  8
ボルト／ビス
  6
CONTINUOUS
 62
    64
 10
-18.805565
 20
-36.74265
 40
0.186667
 50
0.0
 51
90.0
  0
LINE
  8
ボルト／ビス
  6
CONTINUOUS
 62
    64
 10
-19.071335
 20
-36.555983
 11
-19.071335
 21
-36.369315
  0
LINE
  8
ボルト／ビス
  6
CONTINUOUS
 62
    64
 10
-18.618898
 20
-37.00842
 11
-18.43223
 21
-37.00842
  0
LINE
  8
ボルト／ビス
  6
CONTINUOUS
 62
    64
 10
-18.618898
 20
-35.995982
 11
-18.618898
 21
-35.73021
  0
LINE
  8
ボルト／ビス
  6
CONTINUOUS
 62
    64
 10
-18.805562
 20
-36.182647
 11
-19.071335
 21
-36.182647
  0
ARC
  8
ボルト／ビス
  6
CONTINUOUS
 62
    64
 10
-18.805565
 20
-35.995983
 40
0.186667
 50
270.0
 51
360.0
  0
LINE
  8
ボルト／ビス
  6
CONTINUOUS
 62
    64
 10
-19.071335
 20
-36.182647
 11
-19.071335
 21
-36.369315
  0
LINE
  8
ボルト／ビス
  6
CONTINUOUS
 62
    64
 10
-18.618898
 20
-35.73021
 11
-18.43223
 21
-35.73021
  0
ENDBLK
  0
BLOCK
  2
*GRP_0050
 70
    65
 10
0.0
 20
0.0
  0
INSERT
  2
*GRP_0127
  8
補助線
  6
CONTINUOUS
 62
    64
 10
0.0
 20
0.0
  0
CIRCLE
  8
ボルト／ビス
  6
CONTINUOUS
 62
    64
 10
9.56777
 20
-36.369315
 40
1.166668
  0
LINE
  8
ボルト／ビス
  6
CONTINUOUS
 62
    64
 10
9.381103
 20
-35.995982
 11
9.381103
 21
-35.73021
  0
LINE
  8
ボルト／ビス
  6
CONTINUOUS
 62
    64
 10
9.194437
 20
-36.182647
 11
8.928665
 21
-36.182647
  0
ARC
  8
ボルト／ビス
  6
CONTINUOUS
 62
    64
 10
9.194435
 20
-35.995983
 40
0.186667
 50
270.0
 51
360.0
  0
LINE
  8
ボルト／ビス
  6
CONTINUOUS
 62
    64
 10
8.928665
 20
-36.182647
 11
8.928665
 21
-36.369315
  0
LINE
  8
ボルト／ビス
  6
CONTINUOUS
 62
    64
 10
9.381103
 20
-35.73021
 11
9.56777
 21
-35.73021
  0
LINE
  8
ボルト／ビス
  6
CONTINUOUS
 62
    64
 10
9.381103
 20
-36.742648
 11
9.381103
 21
-37.00842
  0
LINE
  8
ボルト／ビス
  6
CONTINUOUS
 62
    64
 10
9.194437
 20
-36.555983
 11
8.928665
 21
-36.555983
  0
ARC
  8
ボルト／ビス
  6
CONTINUOUS
 62
    64
 10
9.194435
 20
-36.74265
 40
0.186667
 50
0.0
 51
90.0
  0
LINE
  8
ボルト／ビス
  6
CONTINUOUS
 62
    64
 10
8.928665
 20
-36.555983
 11
8.928665
 21
-36.369315
  0
LINE
  8
ボルト／ビス
  6
CONTINUOUS
 62
    64
 10
9.381103
 20
-37.00842
 11
9.56777
 21
-37.00842
  0
LINE
  8
ボルト／ビス
  6
CONTINUOUS
 62
    64
 10
9.754437
 20
-36.742648
 11
9.754437
 21
-37.00842
  0
LINE
  8
ボルト／ビス
  6
CONTINUOUS
 62
    64
 10
9.941102
 20
-36.555983
 11
10.206875
 21
-36.555983
  0
ARC
  8
ボルト／ビス
  6
CONTINUOUS
 62
    64
 10
9.941102
 20
-36.74265
 40
0.186667
 50
90.0
 51
180.0
  0
LINE
  8
ボルト／ビス
  6
CONTINUOUS
 62
    64
 10
10.206875
 20
-36.555983
 11
10.206875
 21
-36.369315
  0
LINE
  8
ボルト／ビス
  6
CONTINUOUS
 62
    64
 10
9.754437
 20
-37.00842
 11
9.56777
 21
-37.00842
  0
LINE
  8
ボルト／ビス
  6
CONTINUOUS
 62
    64
 10
9.754437
 20
-35.995982
 11
9.754437
 21
-35.73021
  0
LINE
  8
ボルト／ビス
  6
CONTINUOUS
 62
    64
 10
9.941102
 20
-36.182647
 11
10.206875
 21
-36.182647
  0
ARC
  8
ボルト／ビス
  6
CONTINUOUS
 62
    64
 10
9.941102
 20
-35.995983
 40
0.186667
 50
180.0
 51
270.0
  0
LINE
  8
ボルト／ビス
  6
CONTINUOUS
 62
    64
 10
10.206875
 20
-36.182647
 11
10.206875
 21
-36.369315
  0
LINE
  8
ボルト／ビス
  6
CONTINUOUS
 62
    64
 10
9.754437
 20
-35.73021
 11
9.56777
 21
-35.73021
  0
ENDBLK
  0
BLOCK
  2
*GRP_0051
 70
    65
 10
0.0
 20
0.0
  0
INSERT
  2
*GRP_0128
  8
補助線
  6
CONTINUOUS
 62
    64
 10
0.0
 20
0.0
  0
CIRCLE
  8
ボルト／ビス
  6
CONTINUOUS
 62
    64
 10
-12.832233
 20
-36.369315
 40
1.166668
  0
LINE
  8
ボルト／ビス
  6
CONTINUOUS
 62
    64
 10
-12.645565
 20
-35.995982
 11
-12.645565
 21
-35.73021
  0
LINE
  8
ボルト／ビス
  6
CONTINUOUS
 62
    64
 10
-12.4589
 20
-36.182647
 11
-12.193127
 21
-36.182647
  0
ARC
  8
ボルト／ビス
  6
CONTINUOUS
 62
    64
 10
-12.458901
 20
-35.995983
 40
0.186667
 50
180.0
 51
270.0
  0
LINE
  8
ボルト／ビス
  6
CONTINUOUS
 62
    64
 10
-12.193127
 20
-36.182647
 11
-12.193127
 21
-36.369315
  0
LINE
  8
ボルト／ビス
  6
CONTINUOUS
 62
    64
 10
-12.645565
 20
-35.73021
 11
-12.832233
 21
-35.73021
  0
LINE
  8
ボルト／ビス
  6
CONTINUOUS
 62
    64
 10
-12.645565
 20
-36.742648
 11
-12.645565
 21
-37.00842
  0
LINE
  8
ボルト／ビス
  6
CONTINUOUS
 62
    64
 10
-12.4589
 20
-36.555983
 11
-12.193127
 21
-36.555983
  0
ARC
  8
ボルト／ビス
  6
CONTINUOUS
 62
    64
 10
-12.458901
 20
-36.74265
 40
0.186667
 50
90.0
 51
180.0
  0
LINE
  8
ボルト／ビス
  6
CONTINUOUS
 62
    64
 10
-12.193127
 20
-36.555983
 11
-12.193127
 21
-36.369315
  0
LINE
  8
ボルト／ビス
  6
CONTINUOUS
 62
    64
 10
-12.645565
 20
-37.00842
 11
-12.832233
 21
-37.00842
  0
LINE
  8
ボルト／ビス
  6
CONTINUOUS
 62
    64
 10
-13.0189
 20
-36.742648
 11
-13.0189
 21
-37.00842
  0
LINE
  8
ボルト／ビス
  6
CONTINUOUS
 62
    64
 10
-13.205565
 20
-36.555983
 11
-13.471338
 21
-36.555983
  0
ARC
  8
ボルト／ビス
  6
CONTINUOUS
 62
    64
 10
-13.205568
 20
-36.74265
 40
0.186667
 50
0.0
 51
90.0
  0
LINE
  8
ボルト／ビス
  6
CONTINUOUS
 62
    64
 10
-13.471338
 20
-36.555983
 11
-13.471338
 21
-36.369315
  0
LINE
  8
ボルト／ビス
  6
CONTINUOUS
 62
    64
 10
-13.0189
 20
-37.00842
 11
-12.832233
 21
-37.00842
  0
LINE
  8
ボルト／ビス
  6
CONTINUOUS
 62
    64
 10
-13.0189
 20
-35.995982
 11
-13.0189
 21
-35.73021
  0
LINE
  8
ボルト／ビス
  6
CONTINUOUS
 62
    64
 10
-13.205565
 20
-36.182647
 11
-13.471338
 21
-36.182647
  0
ARC
  8
ボルト／ビス
  6
CONTINUOUS
 62
    64
 10
-13.205568
 20
-35.995983
 40
0.186667
 50
270.0
 51
360.0
  0
LINE
  8
ボルト／ビス
  6
CONTINUOUS
 62
    64
 10
-13.471338
 20
-36.182647
 11
-13.471338
 21
-36.369315
  0
LINE
  8
ボルト／ビス
  6
CONTINUOUS
 62
    64
 10
-13.0189
 20
-35.73021
 11
-12.832233
 21
-35.73021
  0
ENDBLK
  0
BLOCK
  2
*GRP_0052
 70
    65
 10
0.0
 20
0.0
  0
INSERT
  2
*GRP_0129
  8
補助線
  6
CONTINUOUS
 62
    64
 10
0.0
 20
0.0
  0
CIRCLE
  8
ボルト／ビス
  6
CONTINUOUS
 62
    64
 10
3.967772
 20
-36.369315
 40
1.166668
  0
LINE
  8
ボルト／ビス
  6
CONTINUOUS
 62
    64
 10
4.15444
 20
-35.995982
 11
4.15444
 21
-35.73021
  0
LINE
  8
ボルト／ビス
  6
CONTINUOUS
 62
    64
 10
4.341105
 20
-36.182647
 11
4.606877
 21
-36.182647
  0
ARC
  8
ボルト／ビス
  6
CONTINUOUS
 62
    64
 10
4.341104
 20
-35.995983
 40
0.186667
 50
180.0
 51
270.0
  0
LINE
  8
ボルト／ビス
  6
CONTINUOUS
 62
    64
 10
4.606877
 20
-36.182647
 11
4.606877
 21
-36.369315
  0
LINE
  8
ボルト／ビス
  6
CONTINUOUS
 62
    64
 10
4.15444
 20
-35.73021
 11
3.967772
 21
-35.73021
  0
LINE
  8
ボルト／ビス
  6
CONTINUOUS
 62
    64
 10
4.15444
 20
-36.742648
 11
4.15444
 21
-37.00842
  0
LINE
  8
ボルト／ビス
  6
CONTINUOUS
 62
    64
 10
4.341105
 20
-36.555983
 11
4.606877
 21
-36.555983
  0
ARC
  8
ボルト／ビス
  6
CONTINUOUS
 62
    64
 10
4.341104
 20
-36.74265
 40
0.186667
 50
90.0
 51
180.0
  0
LINE
  8
ボルト／ビス
  6
CONTINUOUS
 62
    64
 10
4.606877
 20
-36.555983
 11
4.606877
 21
-36.369315
  0
LINE
  8
ボルト／ビス
  6
CONTINUOUS
 62
    64
 10
4.15444
 20
-37.00842
 11
3.967772
 21
-37.00842
  0
LINE
  8
ボルト／ビス
  6
CONTINUOUS
 62
    64
 10
3.781105
 20
-36.742648
 11
3.781105
 21
-37.00842
  0
LINE
  8
ボルト／ビス
  6
CONTINUOUS
 62
    64
 10
3.59444
 20
-36.555983
 11
3.328667
 21
-36.555983
  0
ARC
  8
ボルト／ビス
  6
CONTINUOUS
 62
    64
 10
3.594437
 20
-36.74265
 40
0.186667
 50
0.0
 51
90.0
  0
LINE
  8
ボルト／ビス
  6
CONTINUOUS
 62
    64
 10
3.328667
 20
-36.555983
 11
3.328667
 21
-36.369315
  0
LINE
  8
ボルト／ビス
  6
CONTINUOUS
 62
    64
 10
3.781105
 20
-37.00842
 11
3.967772
 21
-37.00842
  0
LINE
  8
ボルト／ビス
  6
CONTINUOUS
 62
    64
 10
3.781105
 20
-35.995982
 11
3.781105
 21
-35.73021
  0
LINE
  8
ボルト／ビス
  6
CONTINUOUS
 62
    64
 10
3.59444
 20
-36.182647
 11
3.328667
 21
-36.182647
  0
ARC
  8
ボルト／ビス
  6
CONTINUOUS
 62
    64
 10
3.594437
 20
-35.995983
 40
0.186667
 50
270.0
 51
360.0
  0
LINE
  8
ボルト／ビス
  6
CONTINUOUS
 62
    64
 10
3.328667
 20
-36.182647
 11
3.328667
 21
-36.369315
  0
LINE
  8
ボルト／ビス
  6
CONTINUOUS
 62
    64
 10
3.781105
 20
-35.73021
 11
3.967772
 21
-35.73021
  0
ENDBLK
  0
BLOCK
  2
*GRP_0053
 70
    65
 10
0.0
 20
0.0
  0
LINE
  8
ボルト／ビス
  6
CONTINUOUS
 10
-78.683667
 20
-20.03597
 11
-78.683667
 21
-19.369302
  0
LINE
  8
ボルト／ビス
  6
CONTINUOUS
 10
-78.683667
 20
-19.369302
 11
-71.350332
 21
-19.369302
  0
LINE
  8
ボルト／ビス
  6
CONTINUOUS
 10
-71.350332
 20
-19.369302
 11
-71.350332
 21
-20.03597
  0
LINE
  8
ボルト／ビス
  6
CONTINUOUS
 10
-78.683667
 20
-20.03597
 11
-71.350332
 21
-20.03597
  0
LINE
  8
ボルト／ビス
  6
CONTINUOUS
 10
-78.017
 20
-19.03597
 11
-78.017
 21
-19.369302
  0
LINE
  8
ボルト／ビス
  6
CONTINUOUS
 10
-78.017
 20
-19.03597
 11
-72.017
 21
-19.03597
  0
LINE
  8
ボルト／ビス
  6
CONTINUOUS
 10
-72.017
 20
-19.03597
 11
-72.017
 21
-19.369302
  0
LINE
  8
ボルト／ビス
  6
CONTINUOUS
 62
    64
 10
-76.62075
 20
-17.03597
 11
-76.9415
 21
-17.152712
  0
ARC
  8
ボルト／ビス
  6
CONTINUOUS
 62
    64
 10
-76.460376
 20
-18.085755
 40
1.049784
 50
62.721967
 51
90.0
  0
ARC
  8
ボルト／ビス
  6
CONTINUOUS
 62
    64
 10
-75.017
 20
-21.059993
 40
4.024022
 50
76.165002
 51
103.834985
  0
LINE
  8
ボルト／ビス
  6
CONTINUOUS
 62
    64
 10
-73.41325
 20
-17.03597
 11
-73.0925
 21
-17.152712
  0
ARC
  8
ボルト／ビス
  6
CONTINUOUS
 62
    64
 10
-73.573624
 20
-18.085755
 40
1.049784
 50
90.0
 51
117.278033
  0
LINE
  8
ボルト／ビス
  6
CONTINUOUS
 62
    64
 10
-76.62075
 20
-17.03597
 11
-73.41325
 21
-17.03597
  0
LINE
  8
ボルト／ビス
  6
CONTINUOUS
 62
    64
 10
-73.0925
 20
-17.152712
 11
-73.0925
 21
-18.369302
  0
LINE
  8
ボルト／ビス
  6
CONTINUOUS
 62
    64
 10
-74.05475
 20
-17.152712
 11
-74.05475
 21
-18.369302
  0
LINE
  8
ボルト／ビス
  6
CONTINUOUS
 62
    64
 10
-76.9415
 20
-17.152712
 11
-76.9415
 21
-18.369302
  0
LINE
  8
ボルト／ビス
  6
CONTINUOUS
 62
    64
 10
-75.97925
 20
-17.152712
 11
-75.97925
 21
-18.369302
  0
LINE
  8
ボルト／ビス
  6
CONTINUOUS
 10
-76.9415
 20
-18.369302
 11
-73.0925
 21
-18.369302
  0
LINE
  8
ボルト／ビス
  6
CONTINUOUS
 10
-77.017
 20
-18.369302
 11
-77.017
 21
-19.03597
  0
LINE
  8
ボルト／ビス
  6
CONTINUOUS
 10
-77.017
 20
-18.369302
 11
-73.017
 21
-18.369302
  0
LINE
  8
ボルト／ビス
  6
CONTINUOUS
 10
-73.017
 20
-18.369302
 11
-73.017
 21
-19.03597
  0
LINE
  8
ボルト／ビス
  6
CONTINUOUS
 62
    64
 10
-75.783667
 20
-20.03597
 11
-75.783667
 21
-31.702635
  0
LINE
  8
ボルト／ビス
  6
CONTINUOUS
 62
    64
 10
-74.250332
 20
-20.03597
 11
-74.250332
 21
-31.702635
  0
LINE
  8
ボルト／ビス
  6
CONTINUOUS
 62
    64
 10
-75.783667
 20
-31.702635
 11
-74.250332
 21
-31.702635
  0
LINE
  8
ボルト／ビス
  6
CONTINUOUS
 62
    64
 10
-74.017
 20
-31.369302
 11
-74.250332
 21
-31.702635
  0
LINE
  8
ボルト／ビス
  6
CONTINUOUS
 62
    64
 10
-76.017
 20
-31.369302
 11
-75.783667
 21
-31.702635
  0
LINE
  8
ボルト／ビス
  6
CONTINUOUS
 62
    64
 10
-76.017
 20
-31.369302
 11
-74.017
 21
-31.369302
  0
LINE
  8
ボルト／ビス
  6
CONTINUOUS
 62
    64
 10
-75.783667
 20
-31.702635
 11
-74.250332
 21
-31.702635
  0
LINE
  8
ボルト／ビス
  6
CONTINUOUS
 62
    64
 10
-76.017
 20
-20.03597
 11
-76.017
 21
-31.369302
  0
LINE
  8
ボルト／ビス
  6
CONTINUOUS
 62
    64
 10
-74.017
 20
-20.03597
 11
-74.017
 21
-31.369302
  0
ENDBLK
  0
BLOCK
  2
*GRP_0054
 70
    65
 10
0.0
 20
0.0
  0
LINE
  8
ボルト／ビス
  6
CONTINUOUS
 62
    64
 10
-79.15027
 20
-23.837168
 11
-79.15027
 21
-25.1705
  0
LINE
  8
ボルト／ビス
  6
CONTINUOUS
 62
    64
 10
-77.25027
 20
-23.837168
 11
-77.083602
 21
-24.003833
  0
LINE
  8
ボルト／ビス
  6
CONTINUOUS
 62
    64
 10
-77.25027
 20
-25.1705
 11
-77.083602
 21
-25.003833
  0
LINE
  8
ボルト／ビス
  6
CONTINUOUS
 62
    64
 10
-77.083602
 20
-24.003833
 11
-77.083602
 21
-25.003833
  0
LINE
  8
ボルト／ビス
  6
CONTINUOUS
 62
    64
 10
-77.25027
 20
-23.837168
 11
-77.25027
 21
-25.1705
  0
LINE
  8
ボルト／ビス
  6
CONTINUOUS
 62
    64
 10
-79.15027
 20
-24.003833
 11
-77.083602
 21
-24.003833
  0
LINE
  8
ボルト／ビス
  6
CONTINUOUS
 62
    64
 10
-79.15027
 20
-25.003833
 11
-77.083602
 21
-25.003833
  0
LINE
  8
ボルト／ビス
  6
CONTINUOUS
 62
    64
 10
-79.15027
 20
-25.1705
 11
-77.25027
 21
-25.1705
  0
LINE
  8
ボルト／ビス
  6
CONTINUOUS
 62
    64
 10
-79.15027
 20
-23.837168
 11
-77.25027
 21
-23.837168
  0
LINE
  8
ボルト／ビス
  6
DASHDOT
 62
    64
 10
-80.75027
 20
-24.503833
 11
-76.083602
 21
-24.503833
  0
LINE
  8
ボルト／ビス
  6
DOT
 62
    64
 10
-79.75027
 20
-23.503833
 11
-79.15027
 21
-23.837168
  0
LINE
  8
ボルト／ビス
  6
DOT
 62
    64
 10
-79.75027
 20
-23.503833
 11
-79.75027
 21
-25.503833
  0
LINE
  8
ボルト／ビス
  6
DOT
 62
    64
 10
-79.75027
 20
-25.503833
 11
-79.15027
 21
-25.1705
  0
ENDBLK
  0
BLOCK
  2
*GRP_0055
 70
    65
 10
0.0
 20
0.0
  0
LINE
  8
ボルト／ビス
  6
CONTINUOUS
 62
    64
 10
-65.350335
 20
-23.837168
 11
-65.350335
 21
-25.1705
  0
LINE
  8
ボルト／ビス
  6
CONTINUOUS
 62
    64
 10
-67.250335
 20
-23.837168
 11
-67.417003
 21
-24.003833
  0
LINE
  8
ボルト／ビス
  6
CONTINUOUS
 62
    64
 10
-67.250335
 20
-25.1705
 11
-67.417003
 21
-25.003833
  0
LINE
  8
ボルト／ビス
  6
CONTINUOUS
 62
    64
 10
-67.417003
 20
-24.003833
 11
-67.417003
 21
-25.003833
  0
LINE
  8
ボルト／ビス
  6
CONTINUOUS
 62
    64
 10
-67.250335
 20
-23.837168
 11
-67.250335
 21
-25.1705
  0
LINE
  8
ボルト／ビス
  6
CONTINUOUS
 62
    64
 10
-65.350335
 20
-24.003833
 11
-67.417003
 21
-24.003833
  0
LINE
  8
ボルト／ビス
  6
CONTINUOUS
 62
    64
 10
-65.350335
 20
-25.003833
 11
-67.417003
 21
-25.003833
  0
LINE
  8
ボルト／ビス
  6
CONTINUOUS
 62
    64
 10
-65.350335
 20
-25.1705
 11
-67.250335
 21
-25.1705
  0
LINE
  8
ボルト／ビス
  6
CONTINUOUS
 62
    64
 10
-65.350335
 20
-23.837168
 11
-67.250335
 21
-23.837168
  0
LINE
  8
ボルト／ビス
  6
DASHDOT
 62
    64
 10
-63.750335
 20
-24.503833
 11
-68.417003
 21
-24.503833
  0
LINE
  8
ボルト／ビス
  6
DOT
 62
    64
 10
-64.750335
 20
-23.503833
 11
-65.350335
 21
-23.837168
  0
LINE
  8
ボルト／ビス
  6
DOT
 62
    64
 10
-64.750335
 20
-23.503833
 11
-64.750335
 21
-25.503833
  0
LINE
  8
ボルト／ビス
  6
DOT
 62
    64
 10
-64.750335
 20
-25.503833
 11
-65.350335
 21
-25.1705
  0
ENDBLK
  0
BLOCK
  2
*GRP_0056
 70
    65
 10
0.0
 20
0.0
  0
LINE
  8
ボルト／ビス
  6
CONTINUOUS
 10
69.819208
 20
-20.03597
 11
69.819208
 21
-19.369302
  0
LINE
  8
ボルト／ビス
  6
CONTINUOUS
 10
69.819208
 20
-19.369302
 11
62.485873
 21
-19.369302
  0
LINE
  8
ボルト／ビス
  6
CONTINUOUS
 10
62.485873
 20
-19.369302
 11
62.485873
 21
-20.03597
  0
LINE
  8
ボルト／ビス
  6
CONTINUOUS
 10
69.819208
 20
-20.03597
 11
62.485873
 21
-20.03597
  0
LINE
  8
ボルト／ビス
  6
CONTINUOUS
 10
69.15254
 20
-19.03597
 11
69.15254
 21
-19.369302
  0
LINE
  8
ボルト／ビス
  6
CONTINUOUS
 10
69.15254
 20
-19.03597
 11
63.15254
 21
-19.03597
  0
LINE
  8
ボルト／ビス
  6
CONTINUOUS
 10
63.15254
 20
-19.03597
 11
63.15254
 21
-19.369302
  0
LINE
  8
ボルト／ビス
  6
CONTINUOUS
 62
    64
 10
67.75629
 20
-17.03597
 11
68.07704
 21
-17.152712
  0
ARC
  8
ボルト／ビス
  6
CONTINUOUS
 62
    64
 10
67.595916
 20
-18.085755
 40
1.049784
 50
90.0
 51
117.278033
  0
ARC
  8
ボルト／ビス
  6
CONTINUOUS
 62
    64
 10
66.15254
 20
-21.059993
 40
4.024022
 50
76.165015
 51
103.834998
  0
LINE
  8
ボルト／ビス
  6
CONTINUOUS
 62
    64
 10
64.54879
 20
-17.03597
 11
64.22804
 21
-17.152712
  0
ARC
  8
ボルト／ビス
  6
CONTINUOUS
 62
    64
 10
64.709164
 20
-18.085755
 40
1.049784
 50
62.721967
 51
90.0
  0
LINE
  8
ボルト／ビス
  6
CONTINUOUS
 62
    64
 10
67.75629
 20
-17.03597
 11
64.54879
 21
-17.03597
  0
LINE
  8
ボルト／ビス
  6
CONTINUOUS
 62
    64
 10
64.22804
 20
-17.152712
 11
64.22804
 21
-18.369302
  0
LINE
  8
ボルト／ビス
  6
CONTINUOUS
 62
    64
 10
65.19029
 20
-17.152712
 11
65.19029
 21
-18.369302
  0
LINE
  8
ボルト／ビス
  6
CONTINUOUS
 62
    64
 10
68.07704
 20
-17.152712
 11
68.07704
 21
-18.369302
  0
LINE
  8
ボルト／ビス
  6
CONTINUOUS
 62
    64
 10
67.11479
 20
-17.152712
 11
67.11479
 21
-18.369302
  0
LINE
  8
ボルト／ビス
  6
CONTINUOUS
 10
68.07704
 20
-18.369302
 11
64.22804
 21
-18.369302
  0
LINE
  8
ボルト／ビス
  6
CONTINUOUS
 10
68.15254
 20
-18.369302
 11
68.15254
 21
-19.03597
  0
LINE
  8
ボルト／ビス
  6
CONTINUOUS
 10
68.15254
 20
-18.369302
 11
64.15254
 21
-18.369302
  0
LINE
  8
ボルト／ビス
  6
CONTINUOUS
 10
64.15254
 20
-18.369302
 11
64.15254
 21
-19.03597
  0
LINE
  8
ボルト／ビス
  6
CONTINUOUS
 62
    64
 10
66.919208
 20
-20.03597
 11
66.919208
 21
-31.702635
  0
LINE
  8
ボルト／ビス
  6
CONTINUOUS
 62
    64
 10
65.385873
 20
-20.03597
 11
65.385873
 21
-31.702635
  0
LINE
  8
ボルト／ビス
  6
CONTINUOUS
 62
    64
 10
66.919208
 20
-31.702635
 11
65.385873
 21
-31.702635
  0
LINE
  8
ボルト／ビス
  6
CONTINUOUS
 62
    64
 10
65.15254
 20
-31.369302
 11
65.385873
 21
-31.702635
  0
LINE
  8
ボルト／ビス
  6
CONTINUOUS
 62
    64
 10
67.15254
 20
-31.369302
 11
66.919208
 21
-31.702635
  0
LINE
  8
ボルト／ビス
  6
CONTINUOUS
 62
    64
 10
67.15254
 20
-31.369302
 11
65.15254
 21
-31.369302
  0
LINE
  8
ボルト／ビス
  6
CONTINUOUS
 62
    64
 10
66.919208
 20
-31.702635
 11
65.385873
 21
-31.702635
  0
LINE
  8
ボルト／ビス
  6
CONTINUOUS
 62
    64
 10
67.15254
 20
-20.03597
 11
67.15254
 21
-31.369302
  0
LINE
  8
ボルト／ビス
  6
CONTINUOUS
 62
    64
 10
65.15254
 20
-20.03597
 11
65.15254
 21
-31.369302
  0
ENDBLK
  0
BLOCK
  2
*GRP_0057
 70
    65
 10
0.0
 20
0.0
  0
LINE
  8
ボルト／ビス
  6
CONTINUOUS
 62
    64
 10
70.28581
 20
-23.837168
 11
70.28581
 21
-25.1705
  0
LINE
  8
ボルト／ビス
  6
CONTINUOUS
 62
    64
 10
68.38581
 20
-23.837168
 11
68.219143
 21
-24.003833
  0
LINE
  8
ボルト／ビス
  6
CONTINUOUS
 62
    64
 10
68.38581
 20
-25.1705
 11
68.219143
 21
-25.003833
  0
LINE
  8
ボルト／ビス
  6
CONTINUOUS
 62
    64
 10
68.219143
 20
-24.003833
 11
68.219143
 21
-25.003833
  0
LINE
  8
ボルト／ビス
  6
CONTINUOUS
 62
    64
 10
68.38581
 20
-23.837168
 11
68.38581
 21
-25.1705
  0
LINE
  8
ボルト／ビス
  6
CONTINUOUS
 62
    64
 10
70.28581
 20
-24.003833
 11
68.219143
 21
-24.003833
  0
LINE
  8
ボルト／ビス
  6
CONTINUOUS
 62
    64
 10
70.28581
 20
-25.003833
 11
68.219143
 21
-25.003833
  0
LINE
  8
ボルト／ビス
  6
CONTINUOUS
 62
    64
 10
70.28581
 20
-25.1705
 11
68.38581
 21
-25.1705
  0
LINE
  8
ボルト／ビス
  6
CONTINUOUS
 62
    64
 10
70.28581
 20
-23.837168
 11
68.38581
 21
-23.837168
  0
LINE
  8
ボルト／ビス
  6
DASHDOT
 62
    64
 10
71.88581
 20
-24.503833
 11
67.219143
 21
-24.503833
  0
LINE
  8
ボルト／ビス
  6
DOT
 62
    64
 10
70.88581
 20
-23.503833
 11
70.28581
 21
-23.837168
  0
LINE
  8
ボルト／ビス
  6
DOT
 62
    64
 10
70.88581
 20
-23.503833
 11
70.88581
 21
-25.503833
  0
LINE
  8
ボルト／ビス
  6
DOT
 62
    64
 10
70.88581
 20
-25.503833
 11
70.28581
 21
-25.1705
  0
ENDBLK
  0
BLOCK
  2
*GRP_0058
 70
    65
 10
0.0
 20
0.0
  0
LINE
  8
ボルト／ビス
  6
CONTINUOUS
 62
    64
 10
56.485875
 20
-23.837168
 11
56.485875
 21
-25.1705
  0
LINE
  8
ボルト／ビス
  6
CONTINUOUS
 62
    64
 10
58.385875
 20
-23.837168
 11
58.552542
 21
-24.003833
  0
LINE
  8
ボルト／ビス
  6
CONTINUOUS
 62
    64
 10
58.385875
 20
-25.1705
 11
58.552542
 21
-25.003833
  0
LINE
  8
ボルト／ビス
  6
CONTINUOUS
 62
    64
 10
58.552542
 20
-24.003833
 11
58.552542
 21
-25.003833
  0
LINE
  8
ボルト／ビス
  6
CONTINUOUS
 62
    64
 10
58.385875
 20
-23.837168
 11
58.385875
 21
-25.1705
  0
LINE
  8
ボルト／ビス
  6
CONTINUOUS
 62
    64
 10
56.485875
 20
-24.003833
 11
58.552542
 21
-24.003833
  0
LINE
  8
ボルト／ビス
  6
CONTINUOUS
 62
    64
 10
56.485875
 20
-25.003833
 11
58.552542
 21
-25.003833
  0
LINE
  8
ボルト／ビス
  6
CONTINUOUS
 62
    64
 10
56.485875
 20
-25.1705
 11
58.385875
 21
-25.1705
  0
LINE
  8
ボルト／ビス
  6
CONTINUOUS
 62
    64
 10
56.485875
 20
-23.837168
 11
58.385875
 21
-23.837168
  0
LINE
  8
ボルト／ビス
  6
DASHDOT
 62
    64
 10
54.885875
 20
-24.503833
 11
59.552542
 21
-24.503833
  0
LINE
  8
ボルト／ビス
  6
DOT
 62
    64
 10
55.885875
 20
-23.503833
 11
56.485875
 21
-23.837168
  0
LINE
  8
ボルト／ビス
  6
DOT
 62
    64
 10
55.885875
 20
-23.503833
 11
55.885875
 21
-25.503833
  0
LINE
  8
ボルト／ビス
  6
DOT
 62
    64
 10
55.885875
 20
-25.503833
 11
56.485875
 21
-25.1705
  0
ENDBLK
  0
BLOCK
  2
*GRP_0059
 70
    65
 10
0.0
 20
0.0
  0
LINE
  8
ボルト／ビス
  6
CONTINUOUS
 62
    64
 10
-13.398898
 20
-23.837165
 11
-13.398898
 21
-25.1705
  0
LINE
  8
ボルト／ビス
  6
CONTINUOUS
 62
    64
 10
-11.498898
 20
-23.837165
 11
-11.33223
 21
-24.003833
  0
LINE
  8
ボルト／ビス
  6
CONTINUOUS
 62
    64
 10
-11.498898
 20
-25.1705
 11
-11.33223
 21
-25.003833
  0
LINE
  8
ボルト／ビス
  6
CONTINUOUS
 62
    64
 10
-11.33223
 20
-24.003833
 11
-11.33223
 21
-25.003833
  0
LINE
  8
ボルト／ビス
  6
CONTINUOUS
 62
    64
 10
-11.498898
 20
-23.837165
 11
-11.498898
 21
-25.1705
  0
LINE
  8
ボルト／ビス
  6
CONTINUOUS
 62
    64
 10
-13.398898
 20
-24.003833
 11
-11.33223
 21
-24.003833
  0
LINE
  8
ボルト／ビス
  6
CONTINUOUS
 62
    64
 10
-13.398898
 20
-25.003833
 11
-11.33223
 21
-25.003833
  0
LINE
  8
ボルト／ビス
  6
CONTINUOUS
 62
    64
 10
-13.398898
 20
-25.1705
 11
-11.498898
 21
-25.1705
  0
LINE
  8
ボルト／ビス
  6
CONTINUOUS
 62
    64
 10
-13.398898
 20
-23.837165
 11
-11.498898
 21
-23.837165
  0
LINE
  8
ボルト／ビス
  6
DASHDOT
 62
    64
 10
-14.998898
 20
-24.503833
 11
-10.33223
 21
-24.503833
  0
LINE
  8
ボルト／ビス
  6
DOT
 62
    64
 10
-13.998898
 20
-23.503833
 11
-13.398898
 21
-23.837165
  0
LINE
  8
ボルト／ビス
  6
DOT
 62
    64
 10
-13.998898
 20
-23.503833
 11
-13.998898
 21
-25.503833
  0
LINE
  8
ボルト／ビス
  6
DOT
 62
    64
 10
-13.998898
 20
-25.503833
 11
-13.398898
 21
-25.1705
  0
ENDBLK
  0
BLOCK
  2
*GRP_0060
 70
    65
 10
0.0
 20
0.0
  0
LINE
  8
ボルト／ビス
  6
CONTINUOUS
 62
    64
 10
4.534438
 20
-23.837165
 11
4.534438
 21
-25.1705
  0
LINE
  8
ボルト／ビス
  6
CONTINUOUS
 62
    64
 10
2.634438
 20
-23.837165
 11
2.46777
 21
-24.003833
  0
LINE
  8
ボルト／ビス
  6
CONTINUOUS
 62
    64
 10
2.634438
 20
-25.1705
 11
2.46777
 21
-25.003833
  0
LINE
  8
ボルト／ビス
  6
CONTINUOUS
 62
    64
 10
2.46777
 20
-24.003833
 11
2.46777
 21
-25.003833
  0
LINE
  8
ボルト／ビス
  6
CONTINUOUS
 62
    64
 10
2.634438
 20
-23.837165
 11
2.634438
 21
-25.1705
  0
LINE
  8
ボルト／ビス
  6
CONTINUOUS
 62
    64
 10
4.534438
 20
-24.003833
 11
2.46777
 21
-24.003833
  0
LINE
  8
ボルト／ビス
  6
CONTINUOUS
 62
    64
 10
4.534438
 20
-25.003833
 11
2.46777
 21
-25.003833
  0
LINE
  8
ボルト／ビス
  6
CONTINUOUS
 62
    64
 10
4.534438
 20
-25.1705
 11
2.634438
 21
-25.1705
  0
LINE
  8
ボルト／ビス
  6
CONTINUOUS
 62
    64
 10
4.534438
 20
-23.837165
 11
2.634438
 21
-23.837165
  0
LINE
  8
ボルト／ビス
  6
DASHDOT
 62
    64
 10
6.134438
 20
-24.503833
 11
1.46777
 21
-24.503833
  0
LINE
  8
ボルト／ビス
  6
DOT
 62
    64
 10
5.134438
 20
-23.503833
 11
4.534438
 21
-23.837165
  0
LINE
  8
ボルト／ビス
  6
DOT
 62
    64
 10
5.134438
 20
-23.503833
 11
5.134438
 21
-25.503833
  0
LINE
  8
ボルト／ビス
  6
DOT
 62
    64
 10
5.134438
 20
-25.503833
 11
4.534438
 21
-25.1705
  0
ENDBLK
  0
BLOCK
  2
*GRP_0061
 70
    65
 10
0.0
 20
0.0
  0
LINE
  8
ボルト／ビス
  6
CONTINUOUS
 62
    64
 10
-5.598898
 20
-26.503833
 11
-5.56833
 21
-26.15445
  0
ARC
  8
ボルト／ビス
  6
CONTINUOUS
 62
    64
 10
-5.003816
 20
-26.203817
 40
0.566667
 50
90.0
 51
175.000011
  0
LINE
  8
ボルト／ビス
  6
CONTINUOUS
 62
    64
 10
-5.003813
 20
-25.637165
 11
-4.43223
 21
-25.637165
  0
LINE
  8
ボルト／ビス
  6
CONTINUOUS
 62
    64
 10
-3.265563
 20
-26.503833
 11
-3.29613
 21
-26.15445
  0
ARC
  8
ボルト／ビス
  6
CONTINUOUS
 62
    64
 10
-3.860638
 20
-26.203817
 40
0.566667
 50
4.999989
 51
90.0
  0
LINE
  8
ボルト／ビス
  6
CONTINUOUS
 62
    64
 10
-3.860647
 20
-25.637165
 11
-4.43223
 21
-25.637165
  0
LINE
  8
ボルト／ビス
  6
CONTINUOUS
 62
    64
 10
-5.231113
 20
-25.765465
 11
-5.231113
 21
-25.68475
  0
LINE
  8
ボルト／ビス
  6
CONTINUOUS
 62
    64
 10
-4.665563
 20
-25.982165
 11
-4.43223
 21
-25.982165
  0
LINE
  8
ボルト／ビス
  6
CONTINUOUS
 62
    64
 10
-4.798898
 20
-25.765465
 11
-5.231113
 21
-25.765465
  0
LINE
  8
ボルト／ビス
  6
CONTINUOUS
 62
    64
 10
-4.665563
 20
-25.982165
 11
-4.665563
 21
-25.8988
  0
ARC
  8
ボルト／ビス
  6
CONTINUOUS
 62
    64
 10
-4.798894
 20
-25.898786
 40
0.133333
 50
0.0
 51
90.0
  0
LINE
  8
ボルト／ビス
  6
CONTINUOUS
 62
    64
 10
-3.633348
 20
-25.765465
 11
-3.633348
 21
-25.68475
  0
LINE
  8
ボルト／ビス
  6
CONTINUOUS
 62
    64
 10
-4.198898
 20
-25.982165
 11
-4.43223
 21
-25.982165
  0
LINE
  8
ボルト／ビス
  6
CONTINUOUS
 62
    64
 10
-4.065563
 20
-25.765465
 11
-3.633348
 21
-25.765465
  0
LINE
  8
ボルト／ビス
  6
CONTINUOUS
 62
    64
 10
-4.198898
 20
-25.982165
 11
-4.198898
 21
-25.8988
  0
ARC
  8
ボルト／ビス
  6
CONTINUOUS
 62
    64
 10
-4.06556
 20
-25.898786
 40
0.133333
 50
90.0
 51
180.0
  0
LINE
  8
ボルト／ビス
  6
CONTINUOUS
 62
    64
 10
-5.598898
 20
-26.503833
 11
-3.265563
 21
-26.503833
  0
LINE
  8
ボルト／ビス
  6
CONTINUOUS
 62
    64
 10
-5.098898
 20
-31.003833
 11
-4.93223
 21
-31.1705
  0
LINE
  8
ボルト／ビス
  6
CONTINUOUS
 62
    64
 10
-3.765563
 20
-31.003833
 11
-3.93223
 21
-31.1705
  0
LINE
  8
ボルト／ビス
  6
CONTINUOUS
 62
    64
 10
-5.098898
 20
-31.003833
 11
-3.765563
 21
-31.003833
  0
LINE
  8
ボルト／ビス
  6
CONTINUOUS
 62
    64
 10
-4.93223
 20
-31.1705
 11
-3.93223
 21
-31.1705
  0
LINE
  8
ボルト／ビス
  6
CONTINUOUS
 62
    64
 10
-3.765563
 20
-26.503833
 11
-3.765563
 21
-31.003833
  0
LINE
  8
ボルト／ビス
  6
CONTINUOUS
 62
    64
 10
-5.098898
 20
-26.503833
 11
-5.098898
 21
-31.003833
  0
LINE
  8
ボルト／ビス
  6
CONTINUOUS
 62
    64
 10
-4.93223
 20
-26.503833
 11
-4.93223
 21
-31.1705
  0
LINE
  8
ボルト／ビス
  6
CONTINUOUS
 62
    64
 10
-3.93223
 20
-26.503833
 11
-3.93223
 21
-31.1705
  0
LINE
  8
ボルト／ビス
  6
DASHDOT
 62
    64
 10
-4.43223
 20
-24.637165
 11
-4.43223
 21
-32.1705
  0
ENDBLK
  0
BLOCK
  2
*GRP_0062
 70
    65
 10
0.0
 20
0.0
  0
POLYLINE
  8
寸法
  6
BYBLOCK
 62
     0
 66
     1
  0
VERTEX
  8
寸法
 10
-107.834213
 20
-59.139412
  0
VERTEX
  8
寸法
 10
-105.236135
 20
-60.639412
  0
VERTEX
  8
寸法
 10
-106.736135
 20
-58.041335
  0
SEQEND
  0
POLYLINE
  8
寸法
  6
BYBLOCK
 62
     0
 66
     1
  0
VERTEX
  8
寸法
 10
-105.236135
 20
-60.639412
  0
VERTEX
  8
寸法
 10
-114.274377
 20
-51.60117
  0
VERTEX
  8
寸法
 10
-117.19589
 20
-51.60117
  0
SEQEND
  0
ENDBLK
  0
BLOCK
  2
*DIM_0063
 70
    65
 10
0.0
 20
0.0
  0
LINE
  8
寸法
  6
BYBLOCK
 62
     0
 10
49.486385
 20
-55.702635
 11
49.486385
 21
-107.404003
  0
LINE
  8
寸法
  6
BYBLOCK
 62
     0
 10
51.153205
 20
-93.77646
 11
51.153205
 21
-107.404003
  0
LINE
  8
寸法
  6
BYBLOCK
 62
     0
 10
49.486385
 20
-107.404003
 11
51.153205
 21
-107.404003
  0
POINT
  8
寸法
 62
     0
 10
49.486385
 20
-107.404003
  0
POINT
  8
寸法
 62
     0
 10
51.153205
 20
-107.404003
  0
TEXT
  7
TextStyle03
  8
寸法
  6
CONTINUOUS
 62
     0
 10
47.875
 20
-107.025
  1
5
 40
3.0
 72
     5
 11
49.375
 21
-107.025
  0
ENDBLK
  0
BLOCK
  2
*DIM_0064
 70
    65
 10
0.0
 20
0.0
  0
LINE
  8
寸法
  6
BYBLOCK
 62
     0
 10
62.81987
 20
-93.77646
 11
62.81987
 21
-107.404003
  0
LINE
  8
寸法
  6
BYBLOCK
 62
     0
 10
51.153205
 20
-107.404003
 11
62.81987
 21
-107.404003
  0
POINT
  8
寸法
 62
     0
 10
62.81987
 20
-107.404003
  0
TEXT
  7
TextStyle03
  8
寸法
  6
CONTINUOUS
 62
     0
 10
55.38125
 20
-107.025
  1
35
 40
3.0
 72
     5
 11
58.56875
 21
-107.025
  0
ENDBLK
  0
BLOCK
  2
*DIM_0065
 70
    65
 10
0.0
 20
0.0
  0
LINE
  8
寸法
  6
BYBLOCK
 62
     0
 10
112.81991
 20
-93.77646
 11
112.81991
 21
-107.404003
  0
LINE
  8
寸法
  6
BYBLOCK
 62
     0
 10
62.81987
 20
-107.404003
 11
112.81991
 21
-107.404003
  0
POINT
  8
寸法
 62
     0
 10
112.81991
 20
-107.404003
  0
TEXT
  7
TextStyle03
  8
寸法
  6
CONTINUOUS
 62
     0
 10
85.3625
 20
-107.025
  1
150
 40
3.0
 72
     5
 11
90.2375
 21
-107.025
  0
ENDBLK
  0
BLOCK
  2
*DIM_0066
 70
    65
 10
0.0
 20
0.0
  0
LINE
  8
寸法
  6
BYBLOCK
 62
     0
 10
116.15324
 20
-93.77646
 11
116.15324
 21
-107.404003
  0
LINE
  8
寸法
  6
BYBLOCK
 62
     0
 10
112.81991
 20
-107.404003
 11
116.15324
 21
-107.404003
  0
POINT
  8
寸法
 62
     0
 10
116.15324
 20
-107.404003
  0
TEXT
  7
TextStyle03
  8
寸法
  6
CONTINUOUS
 62
     0
 10
112.88125
 20
-110.4
  1
10
 40
3.0
 72
     5
 11
116.06875
 21
-110.4
  0
ENDBLK
  0
BLOCK
  2
*DIM_0067
 70
    65
 10
0.0
 20
0.0
  0
LINE
  8
寸法
  6
BYBLOCK
 62
     0
 10
122.81979
 20
-85.23779
 11
122.81979
 21
-107.404003
  0
LINE
  8
寸法
  6
BYBLOCK
 62
     0
 10
116.15324
 20
-107.404003
 11
122.81979
 21
-107.404003
  0
POINT
  8
寸法
 62
     0
 10
122.81979
 20
-107.404003
  0
TEXT
  7
TextStyle03
  8
寸法
  6
CONTINUOUS
 62
     0
 10
117.88125
 20
-107.025
  1
20
 40
3.0
 72
     5
 11
121.06875
 21
-107.025
  0
ENDBLK
  0
BLOCK
  2
*DIM_0068
 70
    65
 10
0.0
 20
0.0
  0
LINE
  8
寸法
  6
BYBLOCK
 62
     0
 10
-60.017665
 20
-93.77646
 11
-60.017665
 21
-107.404003
  0
LINE
  8
寸法
  6
BYBLOCK
 62
     0
 10
-71.68433
 20
-93.77646
 11
-71.68433
 21
-107.404003
  0
LINE
  8
寸法
  6
BYBLOCK
 62
     0
 10
-60.017665
 20
-107.404003
 11
-71.68433
 21
-107.404003
  0
POINT
  8
寸法
 62
     0
 10
-71.68433
 20
-107.404003
  0
TEXT
  7
TextStyle03
  8
寸法
  6
CONTINUOUS
 62
     0
 10
-67.46875
 20
-107.025
  1
35
 40
3.0
 72
     5
 11
-64.28125
 21
-107.025
  0
ENDBLK
  0
BLOCK
  2
*DIM_0069
 70
    65
 10
0.0
 20
0.0
  0
LINE
  8
寸法
  6
BYBLOCK
 62
     0
 10
-71.68433
 20
-93.77646
 11
-71.68433
 21
-107.404003
  0
LINE
  8
寸法
  6
BYBLOCK
 62
     0
 10
-121.68437
 20
-93.77646
 11
-121.68437
 21
-107.404003
  0
LINE
  8
寸法
  6
BYBLOCK
 62
     0
 10
-71.68433
 20
-107.404003
 11
-121.68437
 21
-107.404003
  0
POINT
  8
寸法
 62
     0
 10
-121.68437
 20
-107.404003
  0
TEXT
  7
TextStyle03
  8
寸法
  6
CONTINUOUS
 62
     0
 10
-99.1375
 20
-107.025
  1
150
 40
3.0
 72
     5
 11
-94.2625
 21
-107.025
  0
ENDBLK
  0
BLOCK
  2
*DIM_0070
 70
    65
 10
0.0
 20
0.0
  0
LINE
  8
寸法
  6
BYBLOCK
 62
     0
 10
-121.68437
 20
-93.77646
 11
-121.68437
 21
-107.404003
  0
LINE
  8
寸法
  6
BYBLOCK
 62
     0
 10
-125.0177
 20
-93.77646
 11
-125.0177
 21
-107.404003
  0
LINE
  8
寸法
  6
BYBLOCK
 62
     0
 10
-121.68437
 20
-107.404003
 11
-125.0177
 21
-107.404003
  0
POINT
  8
寸法
 62
     0
 10
-125.0177
 20
-107.404003
  0
TEXT
  7
TextStyle03
  8
寸法
  6
CONTINUOUS
 62
     0
 10
-124.96875
 20
-110.4
  1
10
 40
3.0
 72
     5
 11
-121.78125
 21
-110.4
  0
ENDBLK
  0
BLOCK
  2
*DIM_0071
 70
    65
 10
0.0
 20
0.0
  0
LINE
  8
寸法
  6
BYBLOCK
 62
     0
 10
-125.0177
 20
-93.77646
 11
-125.0177
 21
-107.404003
  0
LINE
  8
寸法
  6
BYBLOCK
 62
     0
 10
-131.68425
 20
-85.23779
 11
-131.68425
 21
-107.404003
  0
LINE
  8
寸法
  6
BYBLOCK
 62
     0
 10
-125.0177
 20
-107.404003
 11
-131.68425
 21
-107.404003
  0
POINT
  8
寸法
 62
     0
 10
-131.68425
 20
-107.404003
  0
TEXT
  7
TextStyle03
  8
寸法
  6
CONTINUOUS
 62
     0
 10
-129.96875
 20
-107.025
  1
20
 40
3.0
 72
     5
 11
-126.78125
 21
-107.025
  0
ENDBLK
  0
BLOCK
  2
*GRP_0072
 70
    65
 10
0.0
 20
0.0
  0
POLYLINE
  8
寸法
  6
CONTINUOUS
 66
     1
  0
VERTEX
  8
寸法
 10
119.230142
 20
-78.414575
  0
VERTEX
  8
寸法
 10
127.878655
 20
-69.766065
  0
VERTEX
  8
寸法
 10
133.481285
 20
-69.766065
  0
SEQEND
  0
ENDBLK
  0
BLOCK
  2
*DIM_0073
 70
    65
 10
0.0
 20
0.0
  0
LINE
  8
寸法
  6
CONTINUOUS
 10
-171.343318
 20
113.420882
 11
-174.33379
 21
113.420882
  0
LINE
  8
寸法
  6
CONTINUOUS
 10
-171.343318
 20
97.420882
 11
-174.33379
 21
97.420882
  0
LINE
  8
寸法
  6
CONTINUOUS
 10
-174.33379
 20
113.420882
 11
-174.33379
 21
97.420882
  0
POINT
  8
寸法
 10
-174.33379
 20
113.420882
  0
POINT
  8
寸法
 10
-174.33379
 20
97.420882
  0
TEXT
  7
TextStyle03
  8
寸法
  6
CONTINUOUS
 10
-174.725
 20
100.43125
  1
□1600
 40
3.0
 50
90.0
 72
     5
 11
-174.725
 21
110.36875
  0
ENDBLK
  0
BLOCK
  2
*GRP_0074
 70
    65
 10
0.0
 20
0.0
  0
POLYLINE
  8
寸法
  6
CONTINUOUS
 66
     1
  0
VERTEX
  8
寸法
 10
-161.29809
 20
104.506783
  0
VERTEX
  8
寸法
 10
-158.343318
 20
103.987823
  0
VERTEX
  8
寸法
 10
-160.642745
 20
105.91464
  0
SEQEND
  0
LINE
  8
寸法
  6
CONTINUOUS
 10
-158.343318
 20
103.987823
 11
-163.18778
 21
106.24287
  0
ENDBLK
  0
BLOCK
  2
*DIM_0075
 70
    65
 10
0.0
 20
0.0
  0
LINE
  8
寸法
  6
CONTINUOUS
 10
-131.332975
 20
97.420882
 11
-136.44739
 21
97.420882
  0
LINE
  8
寸法
  6
CONTINUOUS
 10
-131.332975
 20
115.420882
 11
-136.44739
 21
115.420882
  0
LINE
  8
寸法
  6
CONTINUOUS
 10
-136.44739
 20
97.420882
 11
-136.44739
 21
115.420882
  0
POINT
  8
寸法
 10
-136.44739
 20
97.420882
  0
POINT
  8
寸法
 10
-136.44739
 20
115.420882
  0
TEXT
  7
TextStyle03
  8
寸法
  6
CONTINUOUS
 10
-136.825
 20
101.45625
  1
□1800
 40
3.0
 50
90.0
 72
     5
 11
-136.825
 21
111.39375
  0
ENDBLK
  0
BLOCK
  2
*GRP_0076
 70
    65
 10
0.0
 20
0.0
  0
POLYLINE
  8
寸法
  6
CONTINUOUS
 66
     1
  0
VERTEX
  8
寸法
 10
-120.287748
 20
109.67315
  0
VERTEX
  8
寸法
 10
-117.332975
 20
109.15419
  0
VERTEX
  8
寸法
 10
-119.632402
 20
111.081007
  0
SEQEND
  0
LINE
  8
寸法
  6
CONTINUOUS
 10
-117.332975
 20
109.15419
 11
-122.177438
 21
111.409238
  0
ENDBLK
  0
BLOCK
  2
*GRP_0077
 70
    65
 10
0.0
 20
0.0
  0
POLYLINE
  8
寸法
  6
CONTINUOUS
 66
     1
  0
VERTEX
  8
寸法
 10
-112.125363
 20
104.33354
  0
VERTEX
  8
寸法
 10
-114.280125
 20
106.420882
  0
VERTEX
  8
寸法
 10
-113.457715
 20
103.53581
  0
SEQEND
  0
LINE
  8
寸法
  6
CONTINUOUS
 10
-114.280125
 20
106.420882
 11
-111.754068
 21
102.20191
  0
ENDBLK
  0
BLOCK
  2
*GRP_0078
 70
    65
 10
0.0
 20
0.0
  0
POLYLINE
  8
寸法
  6
CONTINUOUS
 66
     1
  0
VERTEX
  8
寸法
 10
-121.894988
 20
104.33354
  0
VERTEX
  8
寸法
 10
-124.04975
 20
106.420882
  0
VERTEX
  8
寸法
 10
-123.22734
 20
103.53581
  0
SEQEND
  0
LINE
  8
寸法
  6
CONTINUOUS
 10
-124.04975
 20
106.420882
 11
-121.523693
 21
102.20191
  0
ENDBLK
  0
BLOCK
  2
*DIM_0079
 70
    65
 10
0.0
 20
0.0
  0
LINE
  8
寸法
  6
CONTINUOUS
 10
-90.77589
 20
97.420882
 11
-94.670677
 21
97.420882
  0
LINE
  8
寸法
  6
CONTINUOUS
 10
-90.77589
 20
117.420882
 11
-94.670677
 21
117.420882
  0
LINE
  8
寸法
  6
CONTINUOUS
 10
-94.670677
 20
97.420882
 11
-94.670677
 21
117.420882
  0
POINT
  8
寸法
 10
-94.670677
 20
97.420882
  0
POINT
  8
寸法
 10
-94.670677
 20
117.420882
  0
TEXT
  7
TextStyle03
  8
寸法
  6
CONTINUOUS
 10
-95.075
 20
102.43125
  1
□2000
 40
3.0
 50
90.0
 72
     5
 11
-95.075
 21
112.36875
  0
ENDBLK
  0
BLOCK
  2
*GRP_0080
 70
    65
 10
0.0
 20
0.0
  0
POLYLINE
  8
寸法
  6
CONTINUOUS
 66
     1
  0
VERTEX
  8
寸法
 10
-70.519065
 20
105.33354
  0
VERTEX
  8
寸法
 10
-72.673827
 20
107.420882
  0
VERTEX
  8
寸法
 10
-71.851418
 20
104.53581
  0
SEQEND
  0
LINE
  8
寸法
  6
CONTINUOUS
 10
-72.673827
 20
107.420882
 11
-70.14777
 21
103.20191
  0
ENDBLK
  0
BLOCK
  2
*GRP_0081
 70
    65
 10
0.0
 20
0.0
  0
POLYLINE
  8
寸法
  6
CONTINUOUS
 66
     1
  0
VERTEX
  8
寸法
 10
-80.528185
 20
105.33354
  0
VERTEX
  8
寸法
 10
-82.682947
 20
107.420882
  0
VERTEX
  8
寸法
 10
-81.860538
 20
104.53581
  0
SEQEND
  0
LINE
  8
寸法
  6
CONTINUOUS
 10
-82.682947
 20
107.420882
 11
-80.15689
 21
103.20191
  0
ENDBLK
  0
BLOCK
  2
*GRP_0082
 70
    65
 10
0.0
 20
0.0
  0
POLYLINE
  8
寸法
  6
CONTINUOUS
 66
     1
  0
VERTEX
  8
寸法
 10
-78.730663
 20
111.425592
  0
VERTEX
  8
寸法
 10
-75.77589
 20
110.906632
  0
VERTEX
  8
寸法
 10
-78.075317
 20
112.83345
  0
SEQEND
  0
LINE
  8
寸法
  6
CONTINUOUS
 10
-75.77589
 20
110.906632
 11
-80.620352
 21
113.16168
  0
ENDBLK
  0
BLOCK
  2
*DIM_0083
 70
    65
 10
0.0
 20
0.0
  0
LINE
  8
寸法
  6
CONTINUOUS
 10
-171.556818
 20
74.373608
 11
-174.33304
 21
74.373608
  0
LINE
  8
寸法
  6
CONTINUOUS
 10
-171.556818
 20
68.373608
 11
-174.33304
 21
68.373608
  0
LINE
  8
寸法
  6
CONTINUOUS
 10
-174.33304
 20
74.373608
 11
-174.33304
 21
68.373608
  0
POINT
  8
寸法
 10
-174.33304
 20
74.373608
  0
POINT
  8
寸法
 10
-174.33304
 20
68.373608
  0
TEXT
  7
TextStyle03
  8
寸法
  6
CONTINUOUS
 10
-174.7
 20
68.8875
  1
600
 40
3.0
 50
90.0
 72
     5
 11
-174.7
 21
73.7625
  0
ENDBLK
  0
BLOCK
  2
*DIM_0084
 70
    65
 10
0.0
 20
0.0
  0
LINE
  8
寸法
  6
CONTINUOUS
 10
-171.556818
 20
52.767745
 11
-174.33304
 21
52.767745
  0
LINE
  8
寸法
  6
CONTINUOUS
 10
-171.556818
 20
43.767745
 11
-174.33304
 21
43.767745
  0
LINE
  8
寸法
  6
CONTINUOUS
 10
-174.33304
 20
52.767745
 11
-174.33304
 21
43.767745
  0
POINT
  8
寸法
 10
-174.33304
 20
52.767745
  0
POINT
  8
寸法
 10
-174.33304
 20
43.767745
  0
TEXT
  7
TextStyle03
  8
寸法
  6
CONTINUOUS
 10
-174.7
 20
45.7875
  1
900
 40
3.0
 50
90.0
 72
     5
 11
-174.7
 21
50.6625
  0
ENDBLK
  0
BLOCK
  2
*DIM_0085
 70
    65
 10
0.0
 20
0.0
  0
LINE
  8
寸法
  6
CONTINUOUS
 10
-171.556818
 20
26.969698
 11
-174.33304
 21
26.969698
  0
LINE
  8
寸法
  6
CONTINUOUS
 10
-171.556818
 20
13.969698
 11
-174.33304
 21
13.969698
  0
LINE
  8
寸法
  6
CONTINUOUS
 10
-174.33304
 20
26.969698
 11
-174.33304
 21
13.969698
  0
POINT
  8
寸法
 10
-174.33304
 20
26.969698
  0
POINT
  8
寸法
 10
-174.33304
 20
13.969698
  0
TEXT
  7
TextStyle03
  8
寸法
  6
CONTINUOUS
 10
-174.7
 20
17.16875
  1
1300
 40
3.0
 50
90.0
 72
     5
 11
-174.7
 21
23.73125
  0
ENDBLK
  0
BLOCK
  2
*DIM_0086
 70
    65
 10
0.0
 20
0.0
  0
LINE
  8
寸法
  6
CONTINUOUS
 10
-171.556818
 20
-2.698057
 11
-174.33304
 21
-2.698057
  0
LINE
  8
寸法
  6
CONTINUOUS
 10
-171.556818
 20
-22.698057
 11
-174.33304
 21
-22.698057
  0
LINE
  8
寸法
  6
CONTINUOUS
 10
-174.33304
 20
-2.698057
 11
-174.33304
 21
-22.698057
  0
POINT
  8
寸法
 10
-174.33304
 20
-2.698057
  0
POINT
  8
寸法
 10
-174.33304
 20
-22.698057
  0
TEXT
  7
TextStyle03
  8
寸法
  6
CONTINUOUS
 10
-174.7
 20
-15.98125
  1
2000
 40
3.0
 50
90.0
 72
     5
 11
-174.7
 21
-9.41875
  0
ENDBLK
  0
BLOCK
  2
*GRP_0087
 70
    65
 10
0.0
 20
0.0
  0
POLYLINE
  8
寸法
  6
CONTINUOUS
 66
     1
  0
VERTEX
  8
寸法
 10
-159.51159
 20
70.122048
  0
VERTEX
  8
寸法
 10
-156.556818
 20
69.603088
  0
VERTEX
  8
寸法
 10
-158.856245
 20
71.529905
  0
SEQEND
  0
LINE
  8
寸法
  6
CONTINUOUS
 10
-156.556818
 20
69.603088
 11
-161.40128
 21
71.858135
  0
ENDBLK
  0
BLOCK
  2
*GRP_0088
 70
    65
 10
0.0
 20
0.0
  0
POLYLINE
  8
寸法
  6
CONTINUOUS
 66
     1
  0
VERTEX
  8
寸法
 10
-149.51159
 20
70.122048
  0
VERTEX
  8
寸法
 10
-146.556818
 20
69.603088
  0
VERTEX
  8
寸法
 10
-148.856245
 20
71.529905
  0
SEQEND
  0
LINE
  8
寸法
  6
CONTINUOUS
 10
-146.556818
 20
69.603088
 11
-151.40128
 21
71.858135
  0
ENDBLK
  0
BLOCK
  2
*GRP_0089
 70
    65
 10
0.0
 20
0.0
  0
POLYLINE
  8
寸法
  6
CONTINUOUS
 66
     1
  0
VERTEX
  8
寸法
 10
-139.51159
 20
70.122048
  0
VERTEX
  8
寸法
 10
-136.556818
 20
69.603088
  0
VERTEX
  8
寸法
 10
-138.856245
 20
71.529905
  0
SEQEND
  0
LINE
  8
寸法
  6
CONTINUOUS
 10
-136.556818
 20
69.603088
 11
-141.40128
 21
71.858135
  0
ENDBLK
  0
BLOCK
  2
*GRP_0090
 70
    65
 10
0.0
 20
0.0
  0
POLYLINE
  8
寸法
  6
CONTINUOUS
 66
     1
  0
VERTEX
  8
寸法
 10
-159.51159
 20
47.709995
  0
VERTEX
  8
寸法
 10
-156.556818
 20
47.191035
  0
VERTEX
  8
寸法
 10
-158.856245
 20
49.117852
  0
SEQEND
  0
LINE
  8
寸法
  6
CONTINUOUS
 10
-156.556818
 20
47.191035
 11
-161.40128
 21
49.446083
  0
ENDBLK
  0
BLOCK
  2
*GRP_0091
 70
    65
 10
0.0
 20
0.0
  0
POLYLINE
  8
寸法
  6
CONTINUOUS
 66
     1
  0
VERTEX
  8
寸法
 10
-149.51159
 20
47.709995
  0
VERTEX
  8
寸法
 10
-146.556818
 20
47.191035
  0
VERTEX
  8
寸法
 10
-148.856245
 20
49.117852
  0
SEQEND
  0
LINE
  8
寸法
  6
CONTINUOUS
 10
-146.556818
 20
47.191035
 11
-151.40128
 21
49.446083
  0
ENDBLK
  0
BLOCK
  2
*GRP_0092
 70
    65
 10
0.0
 20
0.0
  0
POLYLINE
  8
寸法
  6
CONTINUOUS
 66
     1
  0
VERTEX
  8
寸法
 10
-139.51159
 20
47.709995
  0
VERTEX
  8
寸法
 10
-136.556818
 20
47.191035
  0
VERTEX
  8
寸法
 10
-138.856245
 20
49.117852
  0
SEQEND
  0
LINE
  8
寸法
  6
CONTINUOUS
 10
-136.556818
 20
47.191035
 11
-141.40128
 21
49.446083
  0
ENDBLK
  0
BLOCK
  2
*GRP_0093
 70
    65
 10
0.0
 20
0.0
  0
POLYLINE
  8
寸法
  6
CONTINUOUS
 66
     1
  0
VERTEX
  8
寸法
 10
-159.51159
 20
19.170908
  0
VERTEX
  8
寸法
 10
-156.556818
 20
18.651947
  0
VERTEX
  8
寸法
 10
-158.856245
 20
20.578765
  0
SEQEND
  0
LINE
  8
寸法
  6
CONTINUOUS
 10
-156.556818
 20
18.651947
 11
-161.40128
 21
20.906995
  0
ENDBLK
  0
BLOCK
  2
*GRP_0094
 70
    65
 10
0.0
 20
0.0
  0
POLYLINE
  8
寸法
  6
CONTINUOUS
 66
     1
  0
VERTEX
  8
寸法
 10
-149.51159
 20
19.170908
  0
VERTEX
  8
寸法
 10
-146.556818
 20
18.651947
  0
VERTEX
  8
寸法
 10
-148.856245
 20
20.578765
  0
SEQEND
  0
LINE
  8
寸法
  6
CONTINUOUS
 10
-146.556818
 20
18.651947
 11
-151.40128
 21
20.906995
  0
ENDBLK
  0
BLOCK
  2
*GRP_0095
 70
    65
 10
0.0
 20
0.0
  0
POLYLINE
  8
寸法
  6
CONTINUOUS
 66
     1
  0
VERTEX
  8
寸法
 10
-139.51159
 20
19.170908
  0
VERTEX
  8
寸法
 10
-136.556818
 20
18.651947
  0
VERTEX
  8
寸法
 10
-138.856245
 20
20.578765
  0
SEQEND
  0
LINE
  8
寸法
  6
CONTINUOUS
 10
-136.556818
 20
18.651947
 11
-141.40128
 21
20.906995
  0
ENDBLK
  0
BLOCK
  2
*GRP_0096
 70
    65
 10
0.0
 20
0.0
  0
POLYLINE
  8
寸法
  6
CONTINUOUS
 66
     1
  0
VERTEX
  8
寸法
 10
-159.51159
 20
-8.72323
  0
VERTEX
  8
寸法
 10
-156.556818
 20
-9.24219
  0
VERTEX
  8
寸法
 10
-158.856245
 20
-7.315373
  0
SEQEND
  0
LINE
  8
寸法
  6
CONTINUOUS
 10
-156.556818
 20
-9.24219
 11
-161.40128
 21
-6.987143
  0
ENDBLK
  0
BLOCK
  2
*GRP_0097
 70
    65
 10
0.0
 20
0.0
  0
POLYLINE
  8
寸法
  6
CONTINUOUS
 66
     1
  0
VERTEX
  8
寸法
 10
-149.51159
 20
-8.72323
  0
VERTEX
  8
寸法
 10
-146.556818
 20
-9.24219
  0
VERTEX
  8
寸法
 10
-148.856245
 20
-7.315373
  0
SEQEND
  0
LINE
  8
寸法
  6
CONTINUOUS
 10
-146.556818
 20
-9.24219
 11
-151.40128
 21
-6.987143
  0
ENDBLK
  0
BLOCK
  2
*GRP_0098
 70
    65
 10
0.0
 20
0.0
  0
POLYLINE
  8
寸法
  6
CONTINUOUS
 66
     1
  0
VERTEX
  8
寸法
 10
-139.51159
 20
-8.72323
  0
VERTEX
  8
寸法
 10
-136.556818
 20
-9.24219
  0
VERTEX
  8
寸法
 10
-138.856245
 20
-7.315373
  0
SEQEND
  0
LINE
  8
寸法
  6
CONTINUOUS
 10
-136.556818
 20
-9.24219
 11
-141.40128
 21
-6.987143
  0
ENDBLK
  0
BLOCK
  2
*GRP_0099
 70
    65
 10
0.0
 20
0.0
  0
POLYLINE
  8
寸法
  6
CONTINUOUS
 66
     1
  0
VERTEX
  8
寸法
 10
-161.399938
 20
-14.7854
  0
VERTEX
  8
寸法
 10
-163.5547
 20
-12.698057
  0
VERTEX
  8
寸法
 10
-162.73229
 20
-15.58313
  0
SEQEND
  0
LINE
  8
寸法
  6
CONTINUOUS
 10
-163.5547
 20
-12.698057
 11
-161.028643
 21
-16.91703
  0
ENDBLK
  0
BLOCK
  2
*GRP_0100
 70
    65
 10
0.0
 20
0.0
  0
POLYLINE
  8
寸法
  6
CONTINUOUS
 66
     1
  0
VERTEX
  8
寸法
 10
-151.940655
 20
-14.7854
  0
VERTEX
  8
寸法
 10
-154.095418
 20
-12.698057
  0
VERTEX
  8
寸法
 10
-153.273008
 20
-15.58313
  0
SEQEND
  0
LINE
  8
寸法
  6
CONTINUOUS
 10
-154.095418
 20
-12.698057
 11
-151.56936
 21
-16.91703
  0
ENDBLK
  0
BLOCK
  2
*GRP_0101
 70
    65
 10
0.0
 20
0.0
  0
POLYLINE
  8
寸法
  6
CONTINUOUS
 66
     1
  0
VERTEX
  8
寸法
 10
-142.095215
 20
-14.7854
  0
VERTEX
  8
寸法
 10
-144.249978
 20
-12.698057
  0
VERTEX
  8
寸法
 10
-143.427567
 20
-15.58313
  0
SEQEND
  0
LINE
  8
寸法
  6
CONTINUOUS
 10
-144.249978
 20
-12.698057
 11
-141.72392
 21
-16.91703
  0
ENDBLK
  0
BLOCK
  2
*GRP_0102
 70
    65
 10
0.0
 20
0.0
  0
POLYLINE
  8
寸法
  6
CONTINUOUS
 66
     1
  0
VERTEX
  8
寸法
 10
-131.67453
 20
-14.7854
  0
VERTEX
  8
寸法
 10
-133.829292
 20
-12.698057
  0
VERTEX
  8
寸法
 10
-133.006883
 20
-15.58313
  0
SEQEND
  0
LINE
  8
寸法
  6
CONTINUOUS
 10
-133.829292
 20
-12.698057
 11
-131.303235
 21
-16.91703
  0
ENDBLK
  0
BLOCK
  2
*DIM_0103
 70
    65
 10
0.0
 20
0.0
  0
LINE
  8
寸法
  6
CONTINUOUS
 10
-68.350335
 20
4.095732
 11
-68.350335
 21
71.547252
  0
LINE
  8
寸法
  6
CONTINUOUS
 10
-98.350782
 20
-48.702657
 11
-98.350782
 21
71.547252
  0
LINE
  8
寸法
  6
CONTINUOUS
 10
-68.350335
 20
71.547252
 11
-98.350782
 21
71.547252
  0
POINT
  8
寸法
 10
-68.350335
 20
71.547252
  0
POINT
  8
寸法
 10
-98.350782
 20
71.547252
  0
TEXT
  7
TextStyle03
  8
寸法
  6
CONTINUOUS
 10
-85.5
 20
71.9
  1
90
 40
4.0
 72
     5
 11
-81.25
 21
71.9
  0
ENDBLK
  0
BLOCK
  2
*DIM_0104
 70
    65
 10
0.0
 20
0.0
  0
LINE
  8
寸法
  6
CONTINUOUS
 10
-85.017
 20
56.385943
 11
-98.350782
 21
56.385943
  0
POINT
  8
寸法
 10
-85.017
 20
56.385943
  0
POINT
  8
寸法
 10
-98.350782
 20
56.385943
  0
TEXT
  7
TextStyle03
  8
寸法
  6
CONTINUOUS
 10
-93.825
 20
56.725
  1
40
 40
4.0
 72
     5
 11
-89.575
 21
56.725
  0
ENDBLK
  0
BLOCK
  2
*DIM_0105
 70
    65
 10
0.0
 20
0.0
  0
LINE
  8
寸法
  6
CONTINUOUS
 10
-98.350782
 20
63.614627
 11
-98.350782
 21
64.215768
  0
LINE
  8
寸法
  6
CONTINUOUS
 10
-58.350845
 20
-40.36932
 11
-58.350845
 21
64.215768
  0
LINE
  8
寸法
  6
CONTINUOUS
 10
-98.350782
 20
64.215768
 11
-58.350845
 21
64.215768
  0
POINT
  8
寸法
 10
-98.350782
 20
64.215768
  0
POINT
  8
寸法
 10
-58.350845
 20
64.215768
  0
TEXT
  7
TextStyle03
  8
寸法
  6
CONTINUOUS
 10
-81.625
 20
64.575
  1
120
 40
4.0
 72
     5
 11
-75.125
 21
64.575
  0
ENDBLK
  0
BLOCK
  2
*DIM_0106
 70
    65
 10
0.0
 20
0.0
  0
LINE
  8
寸法
  6
CONTINUOUS
 10
-68.350335
 20
56.385943
 11
-58.350845
 21
56.385943
  0
POINT
  8
寸法
 10
-68.350335
 20
56.385943
  0
POINT
  8
寸法
 10
-58.350845
 20
56.385943
  0
TEXT
  7
TextStyle03
  8
寸法
  6
CONTINUOUS
 10
-65.5
 20
56.725
  1
30
 40
4.0
 72
     5
 11
-61.25
 21
56.725
  0
ENDBLK
  0
BLOCK
  2
*DIM_0107
 70
    65
 10
0.0
 20
0.0
  0
LINE
  8
寸法
  6
CONTINUOUS
 10
-75.017
 20
-14.03597
 11
-75.017
 21
56.385943
  0
LINE
  8
寸法
  6
CONTINUOUS
 10
-68.350335
 20
56.385943
 11
-75.017
 21
56.385943
  0
POINT
  8
寸法
 10
-68.350335
 20
56.385943
  0
POINT
  8
寸法
 10
-75.017
 20
56.385943
  0
TEXT
  7
TextStyle03
  8
寸法
  6
CONTINUOUS
 10
-73.825
 20
56.725
  1
20
 40
4.0
 72
     5
 11
-69.575
 21
56.725
  0
ENDBLK
  0
BLOCK
  2
*DIM_0108
 70
    65
 10
0.0
 20
0.0
  0
LINE
  8
寸法
  6
CONTINUOUS
 10
-85.017
 20
-17.03597
 11
-85.017
 21
56.385943
  0
LINE
  8
寸法
  6
CONTINUOUS
 10
-75.017
 20
56.385943
 11
-85.017
 21
56.385943
  0
POINT
  8
寸法
 10
-85.017
 20
56.385943
  0
TEXT
  7
TextStyle03
  8
寸法
  6
CONTINUOUS
 10
-82.15
 20
56.725
  1
30
 40
4.0
 72
     5
 11
-77.9
 21
56.725
  0
ENDBLK
  0
BLOCK
  2
*DIM_0109
 70
    65
 10
0.0
 20
0.0
  0
LINE
  8
寸法
  6
CONTINUOUS
 10
59.485875
 20
4.095732
 11
59.485875
 21
71.547252
  0
LINE
  8
寸法
  6
CONTINUOUS
 10
-68.351315
 20
4.095732
 11
-68.351315
 21
71.547252
  0
LINE
  8
寸法
  6
CONTINUOUS
 10
59.485875
 20
71.547252
 11
-68.351315
 21
71.547252
  0
POINT
  8
寸法
 10
-68.351315
 20
71.547252
  0
TEXT
  7
TextStyle03
  8
寸法
  6
CONTINUOUS
 10
-19.95
 20
71.9
  1
ドーム呼称寸法
 40
4.0
 72
     5
 11
11.05
 21
71.9
  0
ENDBLK
  0
BLOCK
  2
*DIM_0110
 70
    65
 10
0.0
 20
0.0
  0
LINE
  8
寸法
  6
CONTINUOUS
 10
59.485875
 20
4.095732
 11
59.485875
 21
71.547252
  0
LINE
  8
寸法
  6
CONTINUOUS
 10
89.486322
 20
-48.702657
 11
89.486322
 21
71.547252
  0
LINE
  8
寸法
  6
CONTINUOUS
 10
59.485875
 20
71.547252
 11
89.486322
 21
71.547252
  0
POINT
  8
寸法
 10
59.485875
 20
71.547252
  0
POINT
  8
寸法
 10
89.486322
 20
71.547252
  0
TEXT
  7
TextStyle03
  8
寸法
  6
CONTINUOUS
 10
72.35
 20
71.9
  1
90
 40
4.0
 50
360.0
 72
     5
 11
76.6
 21
71.9
  0
ENDBLK
  0
BLOCK
  2
*DIM_0111
 70
    65
 10
0.0
 20
0.0
  0
LINE
  8
寸法
  6
CONTINUOUS
 10
76.15254
 20
56.385943
 11
89.486322
 21
56.385943
  0
POINT
  8
寸法
 10
76.15254
 20
56.385943
  0
POINT
  8
寸法
 10
89.486322
 20
56.385943
  0
TEXT
  7
TextStyle03
  8
寸法
  6
CONTINUOUS
 10
80.675
 20
56.75
  1
40
 40
4.0
 50
360.0
 72
     5
 11
84.925
 21
56.75
  0
ENDBLK
  0
BLOCK
  2
*DIM_0112
 70
    65
 10
0.0
 20
0.0
  0
LINE
  8
寸法
  6
CONTINUOUS
 10
89.486322
 20
63.614627
 11
89.486322
 21
64.215768
  0
LINE
  8
寸法
  6
CONTINUOUS
 10
49.486385
 20
-40.36932
 11
49.486385
 21
64.215768
  0
LINE
  8
寸法
  6
CONTINUOUS
 10
89.486322
 20
64.215768
 11
49.486385
 21
64.215768
  0
POINT
  8
寸法
 10
89.486322
 20
64.215768
  0
POINT
  8
寸法
 10
49.486385
 20
64.215768
  0
TEXT
  7
TextStyle03
  8
寸法
  6
CONTINUOUS
 10
66.225
 20
64.575
  1
120
 40
4.0
 72
     5
 11
72.725
 21
64.575
  0
ENDBLK
  0
BLOCK
  2
*DIM_0113
 70
    65
 10
0.0
 20
0.0
  0
LINE
  8
寸法
  6
CONTINUOUS
 10
49.486385
 20
-40.36932
 11
49.486385
 21
64.215768
  0
LINE
  8
寸法
  6
CONTINUOUS
 10
-58.350845
 20
-40.36932
 11
-58.350845
 21
64.215768
  0
LINE
  8
寸法
  6
CONTINUOUS
 10
49.486385
 20
64.215768
 11
-58.350845
 21
64.215768
  0
POINT
  8
寸法
 10
-58.350845
 20
64.215768
  0
TEXT
  7
TextStyle03
  8
寸法
  6
CONTINUOUS
 10
-13.2
 20
64.575
  1
有効開口
 40
4.0
 72
     5
 11
4.3
 21
64.575
  0
ENDBLK
  0
BLOCK
  2
*DIM_0114
 70
    65
 10
0.0
 20
0.0
  0
LINE
  8
寸法
  6
CONTINUOUS
 10
59.485875
 20
56.385943
 11
49.486385
 21
56.385943
  0
POINT
  8
寸法
 10
59.485875
 20
56.385943
  0
POINT
  8
寸法
 10
49.486385
 20
56.385943
  0
TEXT
  7
TextStyle03
  8
寸法
  6
CONTINUOUS
 10
52.35
 20
56.75
  1
30
 40
4.0
 72
     5
 11
56.6
 21
56.75
  0
ENDBLK
  0
BLOCK
  2
*DIM_0115
 70
    65
 10
0.0
 20
0.0
  0
LINE
  8
寸法
  6
CONTINUOUS
 10
66.15254
 20
-14.03597
 11
66.15254
 21
56.385943
  0
LINE
  8
寸法
  6
CONTINUOUS
 10
59.485875
 20
56.385943
 11
66.15254
 21
56.385943
  0
POINT
  8
寸法
 10
59.485875
 20
56.385943
  0
POINT
  8
寸法
 10
66.15254
 20
56.385943
  0
TEXT
  7
TextStyle03
  8
寸法
  6
CONTINUOUS
 10
60.675
 20
56.75
  1
20
 40
4.0
 50
360.0
 72
     5
 11
64.925
 21
56.75
  0
ENDBLK
  0
BLOCK
  2
*DIM_0116
 70
    65
 10
0.0
 20
0.0
  0
LINE
  8
寸法
  6
CONTINUOUS
 10
66.15254
 20
-14.03597
 11
66.15254
 21
56.385943
  0
LINE
  8
寸法
  6
CONTINUOUS
 10
76.15254
 20
-17.03597
 11
76.15254
 21
56.385943
  0
LINE
  8
寸法
  6
CONTINUOUS
 10
66.15254
 20
56.385943
 11
76.15254
 21
56.385943
  0
POINT
  8
寸法
 10
76.15254
 20
56.385943
  0
TEXT
  7
TextStyle03
  8
寸法
  6
CONTINUOUS
 10
69.025
 20
56.75
  1
30
 40
4.0
 50
360.0
 72
     5
 11
73.275
 21
56.75
  0
ENDBLK
  0
BLOCK
  2
*GRP_0117
 70
    65
 10
0.0
 20
0.0
  0
LINE
  8
ボルト／ビス
  6
CONTINUOUS
 62
    64
 10
84.486667
 20
-67.568795
 11
84.486667
 21
-90.815695
  0
LINE
  8
ボルト／ビス
  6
CONTINUOUS
 62
    64
 10
83.32005
 20
-70.20502
 11
83.555725
 21
-69.96918
  0
LINE
  8
ボルト／ビス
  6
CONTINUOUS
 62
    64
 10
83.32005
 20
-70.20502
 11
83.32005
 21
-72.302505
  0
LINE
  8
ボルト／ビス
  6
CONTINUOUS
 62
    64
 10
83.32005
 20
-70.20502
 11
83.084375
 21
-69.96918
  0
LINE
  8
ボルト／ビス
  6
CONTINUOUS
 62
    64
 10
83.389085
 20
-68.302588
 11
83.389085
 21
-69.96918
  0
LINE
  8
ボルト／ビス
  6
CONTINUOUS
 62
    64
 10
81.820035
 20
-72.302505
 11
81.820035
 21
-73.13588
  0
LINE
  8
ボルト／ビス
  6
CONTINUOUS
 62
    64
 10
83.15331
 20
-79.96922
 11
83.389085
 21
-79.733545
  0
LINE
  8
ボルト／ビス
  6
CONTINUOUS
 62
    64
 10
83.389085
 20
-73.63597
 11
83.389085
 21
-79.733545
  0
LINE
  8
ボルト／ビス
  6
CONTINUOUS
 62
    64
 10
83.15331
 20
-83.10232
 11
81.859243
 21
-87.931988
  0
LINE
  8
ボルト／ビス
  6
CONTINUOUS
 62
    64
 10
83.15331
 20
-73.63597
 11
83.15331
 21
-83.10232
  0
LINE
  8
ボルト／ビス
  6
CONTINUOUS
 62
    64
 10
83.32005
 20
-70.20502
 11
83.555725
 21
-69.96918
  0
LINE
  8
ボルト／ビス
  6
CONTINUOUS
 62
    64
 10
85.633135
 20
-70.20502
 11
85.86881
 21
-69.96918
  0
LINE
  8
ボルト／ビス
  6
CONTINUOUS
 62
    64
 10
85.633135
 20
-70.20502
 11
85.633135
 21
-72.302505
  0
LINE
  8
ボルト／ビス
  6
CONTINUOUS
 62
    64
 10
85.633135
 20
-70.20502
 11
85.39746
 21
-69.96918
  0
LINE
  8
ボルト／ビス
  6
CONTINUOUS
 62
    64
 10
85.58431
 20
-68.302588
 11
85.58431
 21
-69.96918
  0
LINE
  8
ボルト／ビス
  6
CONTINUOUS
 62
    64
 10
87.1534
 20
-72.302505
 11
87.1534
 21
-73.13588
  0
LINE
  8
ボルト／ビス
  6
CONTINUOUS
 62
    64
 10
85.819993
 20
-79.96922
 11
85.58431
 21
-79.733545
  0
LINE
  8
ボルト／ビス
  6
CONTINUOUS
 62
    64
 10
85.58431
 20
-73.63597
 11
85.58431
 21
-79.733545
  0
LINE
  8
ボルト／ビス
  6
CONTINUOUS
 62
    64
 10
85.819993
 20
-83.10232
 11
87.114092
 21
-87.931988
  0
LINE
  8
ボルト／ビス
  6
CONTINUOUS
 62
    64
 10
85.819993
 20
-73.63597
 11
85.819993
 21
-83.10232
  0
LINE
  8
ボルト／ビス
  6
CONTINUOUS
 62
    64
 10
85.819993
 20
-68.538263
 11
85.58431
 21
-68.302588
  0
LINE
  8
ボルト／ビス
  6
CONTINUOUS
 62
    64
 10
85.819993
 20
-69.96918
 11
85.819993
 21
-68.538263
  0
LINE
  8
ボルト／ビス
  6
CONTINUOUS
 62
    64
 10
85.58431
 20
-68.302588
 11
83.389085
 21
-68.302588
  0
LINE
  8
ボルト／ビス
  6
CONTINUOUS
 62
    64
 10
83.389085
 20
-68.302588
 11
83.15331
 21
-68.538263
  0
LINE
  8
ボルト／ビス
  6
CONTINUOUS
 62
    64
 10
85.819993
 20
-68.538263
 11
83.15331
 21
-68.538263
  0
LINE
  8
ボルト／ビス
  6
CONTINUOUS
 62
    64
 10
83.15331
 20
-69.96918
 11
83.15331
 21
-68.538263
  0
LINE
  8
ボルト／ビス
  6
CONTINUOUS
 62
    64
 10
81.553375
 20
-70.20502
 11
81.78905
 21
-69.96918
  0
LINE
  8
ボルト／ビス
  6
CONTINUOUS
 62
    64
 10
81.553375
 20
-70.20502
 11
81.553375
 21
-72.302505
  0
LINE
  8
ボルト／ビス
  6
CONTINUOUS
 62
    64
 10
81.78905
 20
-69.96918
 11
87.184285
 21
-69.96918
  0
LINE
  8
ボルト／ビス
  6
CONTINUOUS
 62
    64
 10
87.41996
 20
-70.20502
 11
87.184285
 21
-69.96918
  0
LINE
  8
ボルト／ビス
  6
CONTINUOUS
 62
    64
 10
87.41996
 20
-70.20502
 11
87.41996
 21
-72.302505
  0
LINE
  8
ボルト／ビス
  6
CONTINUOUS
 62
    64
 10
81.553375
 20
-72.302505
 11
87.41996
 21
-72.302505
  0
LINE
  8
ボルト／ビス
  6
CONTINUOUS
 62
    64
 10
87.736725
 20
-73.13588
 11
87.736725
 21
-73.63597
  0
LINE
  8
ボルト／ビス
  6
CONTINUOUS
 62
    64
 10
87.736725
 20
-73.13588
 11
81.236667
 21
-73.13588
  0
LINE
  8
ボルト／ビス
  6
CONTINUOUS
 62
    64
 10
81.236667
 20
-73.13588
 11
81.236667
 21
-73.63597
  0
LINE
  8
ボルト／ビス
  6
CONTINUOUS
 62
    64
 10
87.736725
 20
-73.63597
 11
81.236667
 21
-73.63597
  0
LINE
  8
ボルト／ビス
  6
CONTINUOUS
 62
    64
 10
84.486667
 20
-83.321813
 11
85.81531
 21
-88.280037
  0
LINE
  8
ボルト／ビス
  6
CONTINUOUS
 62
    64
 10
87.114092
 20
-87.931988
 11
85.81531
 21
-88.280037
  0
LINE
  8
ボルト／ビス
  6
CONTINUOUS
 62
    64
 10
84.486667
 20
-83.321813
 11
83.158117
 21
-88.280037
  0
LINE
  8
ボルト／ビス
  6
CONTINUOUS
 62
    64
 10
81.859243
 20
-87.931988
 11
83.158117
 21
-88.280037
  0
LINE
  8
ボルト／ビス
  6
CONTINUOUS
 62
    64
 10
83.15331
 20
-88.96917
 11
83.58331
 21
-86.53047
  0
LINE
  8
ボルト／ビス
  6
CONTINUOUS
 62
    64
 10
85.819993
 20
-88.96917
 11
85.390025
 21
-86.53047
  0
LINE
  8
ボルト／ビス
  6
CONTINUOUS
 62
    64
 10
83.15331
 20
-88.96917
 11
85.819993
 21
-88.96917
  0
LINE
  8
ボルト／ビス
  6
CONTINUOUS
 62
    64
 10
83.58331
 20
-86.53047
 11
85.390025
 21
-86.53047
  0
ENDBLK
  0
BLOCK
  2
*GRP_0118
 70
    65
 10
0.0
 20
0.0
  0
LINE
  8
ボルト／ビス
  6
CONTINUOUS
 62
    64
 10
-93.351127
 20
-67.568795
 11
-93.351127
 21
-90.815695
  0
LINE
  8
ボルト／ビス
  6
CONTINUOUS
 62
    64
 10
-94.517745
 20
-70.20502
 11
-94.28207
 21
-69.96918
  0
LINE
  8
ボルト／ビス
  6
CONTINUOUS
 62
    64
 10
-94.517745
 20
-70.20502
 11
-94.517745
 21
-72.302505
  0
LINE
  8
ボルト／ビス
  6
CONTINUOUS
 62
    64
 10
-94.517745
 20
-70.20502
 11
-94.75342
 21
-69.96918
  0
LINE
  8
ボルト／ビス
  6
CONTINUOUS
 62
    64
 10
-94.44871
 20
-68.302588
 11
-94.44871
 21
-69.96918
  0
LINE
  8
ボルト／ビス
  6
CONTINUOUS
 62
    64
 10
-96.01776
 20
-72.302505
 11
-96.01776
 21
-73.13588
  0
LINE
  8
ボルト／ビス
  6
CONTINUOUS
 62
    64
 10
-94.684485
 20
-79.96922
 11
-94.44871
 21
-79.733545
  0
LINE
  8
ボルト／ビス
  6
CONTINUOUS
 62
    64
 10
-94.44871
 20
-73.63597
 11
-94.44871
 21
-79.733545
  0
LINE
  8
ボルト／ビス
  6
CONTINUOUS
 62
    64
 10
-94.684485
 20
-83.10232
 11
-95.978553
 21
-87.931988
  0
LINE
  8
ボルト／ビス
  6
CONTINUOUS
 62
    64
 10
-94.684485
 20
-73.63597
 11
-94.684485
 21
-83.10232
  0
LINE
  8
ボルト／ビス
  6
CONTINUOUS
 62
    64
 10
-94.517745
 20
-70.20502
 11
-94.28207
 21
-69.96918
  0
LINE
  8
ボルト／ビス
  6
CONTINUOUS
 62
    64
 10
-92.20466
 20
-70.20502
 11
-91.968985
 21
-69.96918
  0
LINE
  8
ボルト／ビス
  6
CONTINUOUS
 62
    64
 10
-92.20466
 20
-70.20502
 11
-92.20466
 21
-72.302505
  0
LINE
  8
ボルト／ビス
  6
CONTINUOUS
 62
    64
 10
-92.20466
 20
-70.20502
 11
-92.440335
 21
-69.96918
  0
LINE
  8
ボルト／ビス
  6
CONTINUOUS
 62
    64
 10
-92.253485
 20
-68.302588
 11
-92.253485
 21
-69.96918
  0
LINE
  8
ボルト／ビス
  6
CONTINUOUS
 62
    64
 10
-90.684395
 20
-72.302505
 11
-90.684395
 21
-73.13588
  0
LINE
  8
ボルト／ビス
  6
CONTINUOUS
 62
    64
 10
-92.017803
 20
-79.96922
 11
-92.253485
 21
-79.733545
  0
LINE
  8
ボルト／ビス
  6
CONTINUOUS
 62
    64
 10
-92.253485
 20
-73.63597
 11
-92.253485
 21
-79.733545
  0
LINE
  8
ボルト／ビス
  6
CONTINUOUS
 62
    64
 10
-92.017803
 20
-83.10232
 11
-90.723703
 21
-87.931988
  0
LINE
  8
ボルト／ビス
  6
CONTINUOUS
 62
    64
 10
-92.017803
 20
-73.63597
 11
-92.017803
 21
-83.10232
  0
LINE
  8
ボルト／ビス
  6
CONTINUOUS
 62
    64
 10
-92.017803
 20
-68.538263
 11
-92.253485
 21
-68.302588
  0
LINE
  8
ボルト／ビス
  6
CONTINUOUS
 62
    64
 10
-92.017803
 20
-69.96918
 11
-92.017803
 21
-68.538263
  0
LINE
  8
ボルト／ビス
  6
CONTINUOUS
 62
    64
 10
-92.253485
 20
-68.302588
 11
-94.44871
 21
-68.302588
  0
LINE
  8
ボルト／ビス
  6
CONTINUOUS
 62
    64
 10
-94.44871
 20
-68.302588
 11
-94.684485
 21
-68.538263
  0
LINE
  8
ボルト／ビス
  6
CONTINUOUS
 62
    64
 10
-92.017803
 20
-68.538263
 11
-94.684485
 21
-68.538263
  0
LINE
  8
ボルト／ビス
  6
CONTINUOUS
 62
    64
 10
-94.684485
 20
-69.96918
 11
-94.684485
 21
-68.538263
  0
LINE
  8
ボルト／ビス
  6
CONTINUOUS
 62
    64
 10
-96.28442
 20
-70.20502
 11
-96.048745
 21
-69.96918
  0
LINE
  8
ボルト／ビス
  6
CONTINUOUS
 62
    64
 10
-96.28442
 20
-70.20502
 11
-96.28442
 21
-72.302505
  0
LINE
  8
ボルト／ビス
  6
CONTINUOUS
 62
    64
 10
-96.048745
 20
-69.96918
 11
-90.65351
 21
-69.96918
  0
LINE
  8
ボルト／ビス
  6
CONTINUOUS
 62
    64
 10
-90.417835
 20
-70.20502
 11
-90.65351
 21
-69.96918
  0
LINE
  8
ボルト／ビス
  6
CONTINUOUS
 62
    64
 10
-90.417835
 20
-70.20502
 11
-90.417835
 21
-72.302505
  0
LINE
  8
ボルト／ビス
  6
CONTINUOUS
 62
    64
 10
-96.28442
 20
-72.302505
 11
-90.417835
 21
-72.302505
  0
LINE
  8
ボルト／ビス
  6
CONTINUOUS
 62
    64
 10
-90.10107
 20
-73.13588
 11
-90.10107
 21
-73.63597
  0
LINE
  8
ボルト／ビス
  6
CONTINUOUS
 62
    64
 10
-90.10107
 20
-73.13588
 11
-96.601127
 21
-73.13588
  0
LINE
  8
ボルト／ビス
  6
CONTINUOUS
 62
    64
 10
-96.601127
 20
-73.13588
 11
-96.601127
 21
-73.63597
  0
LINE
  8
ボルト／ビス
  6
CONTINUOUS
 62
    64
 10
-90.10107
 20
-73.63597
 11
-96.601127
 21
-73.63597
  0
LINE
  8
ボルト／ビス
  6
CONTINUOUS
 62
    64
 10
-93.351127
 20
-83.321813
 11
-92.022485
 21
-88.280037
  0
LINE
  8
ボルト／ビス
  6
CONTINUOUS
 62
    64
 10
-90.723703
 20
-87.931988
 11
-92.022485
 21
-88.280037
  0
LINE
  8
ボルト／ビス
  6
CONTINUOUS
 62
    64
 10
-93.351127
 20
-83.321813
 11
-94.679677
 21
-88.280037
  0
LINE
  8
ボルト／ビス
  6
CONTINUOUS
 62
    64
 10
-95.978553
 20
-87.931988
 11
-94.679677
 21
-88.280037
  0
LINE
  8
ボルト／ビス
  6
CONTINUOUS
 62
    64
 10
-94.684485
 20
-88.96917
 11
-94.254485
 21
-86.53047
  0
LINE
  8
ボルト／ビス
  6
CONTINUOUS
 62
    64
 10
-92.017803
 20
-88.96917
 11
-92.44777
 21
-86.53047
  0
LINE
  8
ボルト／ビス
  6
CONTINUOUS
 62
    64
 10
-94.684485
 20
-88.96917
 11
-92.017803
 21
-88.96917
  0
LINE
  8
ボルト／ビス
  6
CONTINUOUS
 62
    64
 10
-94.254485
 20
-86.53047
 11
-92.44777
 21
-86.53047
  0
ENDBLK
  0
BLOCK
  2
*GRP_0119
 70
    65
 10
0.0
 20
0.0
  0
LINE
  8
曲げ物
  6
CONTINUOUS
 10
-7.265563
 20
-34.369315
 11
-7.798895
 21
-34.369315
  0
LINE
  8
曲げ物
  6
CONTINUOUS
 10
-1.598898
 20
-34.369315
 11
-1.065565
 21
-34.369315
  0
ARC
  8
曲げ物
  6
CONTINUOUS
 10
-1.5989
 20
-27.570498
 40
0.533333
 50
0.0
 51
90.0
  0
LINE
  8
曲げ物
  6
CONTINUOUS
 10
-7.265563
 20
-27.037165
 11
-1.598898
 21
-27.037165
  0
ARC
  8
曲げ物
  6
CONTINUOUS
 10
-7.265563
 20
-27.570498
 40
0.533333
 50
90.0
 51
180.0
  0
LINE
  8
曲げ物
  6
CONTINUOUS
 10
-7.265563
 20
-27.570497
 11
-1.598898
 21
-27.570497
  0
LINE
  8
曲げ物
  6
CONTINUOUS
 10
-1.598898
 20
-34.369315
 11
-1.598898
 21
-27.570497
  0
LINE
  8
曲げ物
  6
CONTINUOUS
 10
-1.065565
 20
-34.369315
 11
-1.065565
 21
-27.570497
  0
LINE
  8
曲げ物
  6
CONTINUOUS
 10
-7.265563
 20
-34.369315
 11
-7.265563
 21
-27.570497
  0
LINE
  8
曲げ物
  6
CONTINUOUS
 10
-7.798895
 20
-34.369315
 11
-7.798895
 21
-27.570497
  0
ENDBLK
  0
BLOCK
  2
*GRP_0120
 70
    65
 10
0.0
 20
0.0
  0
ARC
  8
St
  6
CONTINUOUS
 62
   127
 10
70.086668
 20
-55.769304
 40
1.066667
 50
360.0
 51
450.0
  0
LINE
  8
St
  6
CONTINUOUS
 62
   127
 10
83.81969
 20
-54.702635
 11
53.819982
 21
-54.702635
  0
LINE
  8
St
  6
CONTINUOUS
 62
   127
 10
83.81969
 20
-55.7693
 11
53.819982
 21
-55.7693
  0
LINE
  8
St
  6
CONTINUOUS
 62
   127
 10
53.819982
 20
-54.702635
 11
53.819982
 21
-55.7693
  0
LINE
  8
St
  6
CONTINUOUS
 10
56.421912
 20
-54.702635
 11
57.488578
 21
-55.7693
  0
LINE
  8
St
  6
CONTINUOUS
 10
56.18621
 20
-54.702635
 11
57.252875
 21
-55.7693
  0
LINE
  8
St
  6
CONTINUOUS
 10
77.497703
 20
-54.702635
 11
78.564367
 21
-55.7693
  0
LINE
  8
St
  6
CONTINUOUS
 10
77.262
 20
-54.702635
 11
78.328665
 21
-55.7693
  0
LINE
  8
St
  6
CONTINUOUS
 62
   127
 10
71.153335
 20
-71.3693
 11
70.08667
 21
-71.3693
  0
LINE
  8
St
  6
CONTINUOUS
 62
   127
 10
70.08667
 20
-55.7693
 11
70.08667
 21
-71.3693
  0
LINE
  8
St
  6
CONTINUOUS
 62
   127
 10
71.153335
 20
-55.7693
 11
71.153335
 21
-71.3693
  0
LINE
  8
St
  6
CONTINUOUS
 10
83.81969
 20
-54.702635
 11
83.81969
 21
-55.7693
  0
LINE
  8
St
  6
CONTINUOUS
 10
55.902422
 20
-54.702622
 11
55.902422
 21
-55.76929
  0
LINE
  8
St
  6
CONTINUOUS
 10
54.402422
 20
-54.702622
 11
54.402422
 21
-55.76929
  0
LINE
  8
St
  6
CONTINUOUS
 10
54.402422
 20
-54.96929
 11
55.902422
 21
-54.96929
  0
LINE
  8
St
  6
CONTINUOUS
 10
54.402422
 20
-55.235955
 11
55.902422
 21
-55.235955
  0
LINE
  8
St
  6
CONTINUOUS
 10
54.402422
 20
-55.502622
 11
55.902422
 21
-55.502622
  0
LINE
  8
St
  6
CONTINUOUS
 10
55.152422
 20
-56.786247
 11
55.152422
 21
-53.628702
  0
LINE
  8
St
  6
CONTINUOUS
 10
82.903023
 20
-54.702622
 11
82.903023
 21
-55.76929
  0
LINE
  8
St
  6
CONTINUOUS
 10
81.403023
 20
-54.702622
 11
81.403023
 21
-55.76929
  0
LINE
  8
St
  6
CONTINUOUS
 10
81.403023
 20
-54.96929
 11
82.903023
 21
-54.96929
  0
LINE
  8
St
  6
CONTINUOUS
 10
81.403023
 20
-55.235955
 11
82.903023
 21
-55.235955
  0
LINE
  8
St
  6
CONTINUOUS
 10
81.403023
 20
-55.502622
 11
82.903023
 21
-55.502622
  0
LINE
  8
St
  6
CONTINUOUS
 10
82.153023
 20
-56.786247
 11
82.153023
 21
-53.628702
  0
LINE
  8
St
  6
CONTINUOUS
 10
70.08667
 20
-68.03597
 11
71.153335
 21
-68.03597
  0
LINE
  8
St
  6
CONTINUOUS
 10
70.08667
 20
-64.702635
 11
71.153335
 21
-64.702635
  0
LINE
  8
St
  6
CONTINUOUS
 10
70.353338
 20
-64.702635
 11
70.353338
 21
-68.03597
  0
LINE
  8
St
  6
CONTINUOUS
 10
70.620003
 20
-64.702635
 11
70.620003
 21
-68.03597
  0
LINE
  8
St
  6
CONTINUOUS
 10
70.88667
 20
-64.702635
 11
70.88667
 21
-68.03597
  0
LINE
  8
St
  6
CONTINUOUS
 10
69.109245
 20
-66.369302
 11
72.089072
 21
-66.369302
  0
ENDBLK
  0
BLOCK
  2
*GRP_0121
 70
    65
 10
0.0
 20
0.0
  0
ARC
  8
St
  6
CONTINUOUS
 62
   127
 10
-78.951128
 20
-55.769304
 40
1.066667
 50
90.0
 51
180.0
  0
LINE
  8
St
  6
CONTINUOUS
 62
   127
 10
-92.68415
 20
-54.702635
 11
-62.684443
 21
-54.702635
  0
LINE
  8
St
  6
CONTINUOUS
 62
   127
 10
-92.68415
 20
-55.7693
 11
-62.684443
 21
-55.7693
  0
LINE
  8
St
  6
CONTINUOUS
 62
   127
 10
-62.684443
 20
-54.702635
 11
-62.684443
 21
-55.7693
  0
LINE
  8
St
  6
CONTINUOUS
 10
-65.286373
 20
-54.702635
 11
-66.353038
 21
-55.7693
  0
LINE
  8
St
  6
CONTINUOUS
 10
-65.05067
 20
-54.702635
 11
-66.117335
 21
-55.7693
  0
LINE
  8
St
  6
CONTINUOUS
 10
-86.362162
 20
-54.702635
 11
-87.428827
 21
-55.7693
  0
LINE
  8
St
  6
CONTINUOUS
 10
-86.12646
 20
-54.702635
 11
-87.193125
 21
-55.7693
  0
LINE
  8
St
  6
CONTINUOUS
 62
   127
 10
-80.017795
 20
-71.3693
 11
-78.95113
 21
-71.3693
  0
LINE
  8
St
  6
CONTINUOUS
 62
   127
 10
-78.95113
 20
-55.7693
 11
-78.95113
 21
-71.3693
  0
LINE
  8
St
  6
CONTINUOUS
 62
   127
 10
-80.017795
 20
-55.7693
 11
-80.017795
 21
-71.3693
  0
LINE
  8
St
  6
CONTINUOUS
 10
-92.68415
 20
-54.702635
 11
-92.68415
 21
-55.7693
  0
LINE
  8
St
  6
CONTINUOUS
 10
-64.766882
 20
-54.702622
 11
-64.766882
 21
-55.76929
  0
LINE
  8
St
  6
CONTINUOUS
 10
-63.266882
 20
-54.702622
 11
-63.266882
 21
-55.76929
  0
LINE
  8
St
  6
CONTINUOUS
 10
-63.266882
 20
-54.96929
 11
-64.766882
 21
-54.96929
  0
LINE
  8
St
  6
CONTINUOUS
 10
-63.266882
 20
-55.235955
 11
-64.766882
 21
-55.235955
  0
LINE
  8
St
  6
CONTINUOUS
 10
-63.266882
 20
-55.502622
 11
-64.766882
 21
-55.502622
  0
LINE
  8
St
  6
CONTINUOUS
 10
-64.016882
 20
-56.786247
 11
-64.016882
 21
-53.628702
  0
LINE
  8
St
  6
CONTINUOUS
 10
-91.767483
 20
-54.702622
 11
-91.767483
 21
-55.76929
  0
LINE
  8
St
  6
CONTINUOUS
 10
-90.267483
 20
-54.702622
 11
-90.267483
 21
-55.76929
  0
LINE
  8
St
  6
CONTINUOUS
 10
-90.267483
 20
-54.96929
 11
-91.767483
 21
-54.96929
  0
LINE
  8
St
  6
CONTINUOUS
 10
-90.267483
 20
-55.235955
 11
-91.767483
 21
-55.235955
  0
LINE
  8
St
  6
CONTINUOUS
 10
-90.267483
 20
-55.502622
 11
-91.767483
 21
-55.502622
  0
LINE
  8
St
  6
CONTINUOUS
 10
-91.017483
 20
-56.786247
 11
-91.017483
 21
-53.628702
  0
LINE
  8
St
  6
CONTINUOUS
 10
-78.95113
 20
-68.03597
 11
-80.017795
 21
-68.03597
  0
LINE
  8
St
  6
CONTINUOUS
 10
-78.95113
 20
-64.702635
 11
-80.017795
 21
-64.702635
  0
LINE
  8
St
  6
CONTINUOUS
 10
-79.217797
 20
-64.702635
 11
-79.217797
 21
-68.03597
  0
LINE
  8
St
  6
CONTINUOUS
 10
-79.484462
 20
-64.702635
 11
-79.484462
 21
-68.03597
  0
LINE
  8
St
  6
CONTINUOUS
 10
-79.75113
 20
-64.702635
 11
-79.75113
 21
-68.03597
  0
LINE
  8
St
  6
CONTINUOUS
 10
-77.973705
 20
-66.369302
 11
-80.953532
 21
-66.369302
  0
ENDBLK
  0
BLOCK
  2
*GRP_0122
 70
    65
 10
0.0
 20
0.0
  0
ARC
  8
St
  6
CONTINUOUS
 62
   127
 10
72.220007
 20
-73.635969
 40
1.066667
 50
180.0
 51
270.0
  0
LINE
  8
St
  6
CONTINUOUS
 10
100.367205
 20
-73.635967
 11
101.43387
 21
-74.702635
  0
LINE
  8
St
  6
CONTINUOUS
 10
100.60291
 20
-73.635967
 11
101.669575
 21
-74.702635
  0
LINE
  8
St
  6
CONTINUOUS
 62
   127
 10
72.220003
 20
-73.635967
 11
104.486667
 21
-73.635967
  0
LINE
  8
St
  6
CONTINUOUS
 10
104.486667
 20
-73.635967
 11
104.486667
 21
-74.702635
  0
LINE
  8
St
  6
CONTINUOUS
 62
   127
 10
72.220003
 20
-74.702635
 11
104.486667
 21
-74.702635
  0
LINE
  8
St
  6
CONTINUOUS
 10
79.285013
 20
-74.702635
 11
78.218347
 21
-73.635967
  0
LINE
  8
St
  6
CONTINUOUS
 10
79.520717
 20
-74.702635
 11
78.454053
 21
-73.635967
  0
LINE
  8
St
  6
CONTINUOUS
 10
72.220003
 20
-63.286528
 11
71.153335
 21
-62.219858
  0
LINE
  8
St
  6
CONTINUOUS
 10
72.220003
 20
-63.050822
 11
71.153335
 21
-61.984152
  0
LINE
  8
St
  6
CONTINUOUS
 10
72.220003
 20
-61.3693
 11
71.153335
 21
-61.3693
  0
LINE
  8
St
  6
CONTINUOUS
 62
   127
 10
71.153335
 20
-73.635967
 11
71.153335
 21
-61.3693
  0
LINE
  8
St
  6
CONTINUOUS
 62
   127
 10
72.220003
 20
-73.635967
 11
72.220003
 21
-61.3693
  0
LINE
  8
St
  6
DOT
 10
69.537628
 20
-66.3693
 11
73.753875
 21
-66.3693
  0
LINE
  8
St
  6
DOT
 62
   127
 10
88.4084
 20
-75.567763
 11
88.4084
 21
-75.56776
  0
LINE
  8
St
  6
DOT
 10
81.153335
 20
-73.635967
 11
81.153335
 21
-74.702635
  0
LINE
  8
St
  6
DOT
 10
87.82
 20
-73.635967
 11
87.82
 21
-74.702635
  0
LINE
  8
St
  6
DOT
 10
92.82
 20
-73.635967
 11
92.82
 21
-74.702635
  0
LINE
  8
St
  6
DOT
 10
96.153335
 20
-73.635967
 11
96.153335
 21
-74.702635
  0
LINE
  8
St
  6
DOT
 10
84.486667
 20
-72.281322
 11
84.486667
 21
-76.107522
  0
LINE
  8
St
  6
DOT
 62
   127
 10
87.82
 20
-73.902635
 11
81.153335
 21
-73.902635
  0
LINE
  8
St
  6
DOT
 62
   127
 10
87.82
 20
-74.1693
 11
81.153335
 21
-74.1693
  0
LINE
  8
St
  6
DOT
 62
   127
 10
87.82
 20
-74.435967
 11
81.153335
 21
-74.435967
  0
LINE
  8
St
  6
DOT
 10
92.82
 20
-73.902635
 11
96.153335
 21
-73.902635
  0
LINE
  8
St
  6
DOT
 10
92.82
 20
-74.1693
 11
96.153335
 21
-74.1693
  0
LINE
  8
St
  6
DOT
 10
92.82
 20
-74.435967
 11
96.153335
 21
-74.435967
  0
LINE
  8
St
  6
DOT
 10
94.486667
 20
-72.281322
 11
94.486667
 21
-76.107522
  0
LINE
  8
St
  6
DOT
 10
71.153335
 20
-73.635967
 11
72.220003
 21
-73.635967
  0
LINE
  8
St
  6
DOT
 10
71.153335
 20
-63.035965
 11
72.220003
 21
-63.035965
  0
LINE
  8
St
  6
DOT
 10
72.220003
 20
-67.3693
 11
71.153335
 21
-67.3693
  0
LINE
  8
St
  6
DOT
 10
72.220003
 20
-65.3693
 11
71.153335
 21
-65.3693
  0
LINE
  8
St
  6
DOT
 62
   127
 10
71.953335
 20
-73.635967
 11
71.953335
 21
-63.035965
  0
LINE
  8
St
  6
DOT
 62
   127
 10
71.68667
 20
-73.635967
 11
71.68667
 21
-63.035965
  0
LINE
  8
St
  6
DOT
 62
   127
 10
71.420003
 20
-73.635967
 11
71.420003
 21
-63.035965
  0
ENDBLK
  0
BLOCK
  2
*GRP_0123
 70
    65
 10
0.0
 20
0.0
  0
ARC
  8
St
  6
CONTINUOUS
 62
   127
 10
-81.084467
 20
-73.635969
 40
1.066667
 50
-90.0
 51
0.0
  0
LINE
  8
St
  6
CONTINUOUS
 10
-109.231665
 20
-73.635967
 11
-110.29833
 21
-74.702635
  0
LINE
  8
St
  6
CONTINUOUS
 10
-109.46737
 20
-73.635967
 11
-110.534035
 21
-74.702635
  0
LINE
  8
St
  6
CONTINUOUS
 62
   127
 10
-81.084462
 20
-73.635967
 11
-113.351127
 21
-73.635967
  0
LINE
  8
St
  6
CONTINUOUS
 10
-113.351127
 20
-73.635967
 11
-113.351127
 21
-74.702635
  0
LINE
  8
St
  6
CONTINUOUS
 62
   127
 10
-81.084462
 20
-74.702635
 11
-113.351127
 21
-74.702635
  0
LINE
  8
St
  6
CONTINUOUS
 10
-88.149472
 20
-74.702635
 11
-87.082808
 21
-73.635967
  0
LINE
  8
St
  6
CONTINUOUS
 10
-88.385178
 20
-74.702635
 11
-87.318512
 21
-73.635967
  0
LINE
  8
St
  6
CONTINUOUS
 10
-81.084462
 20
-63.286528
 11
-80.017795
 21
-62.219858
  0
LINE
  8
St
  6
CONTINUOUS
 10
-81.084462
 20
-63.050822
 11
-80.017795
 21
-61.984152
  0
LINE
  8
St
  6
CONTINUOUS
 10
-81.084462
 20
-61.3693
 11
-80.017795
 21
-61.3693
  0
LINE
  8
St
  6
CONTINUOUS
 62
   127
 10
-80.017795
 20
-73.635967
 11
-80.017795
 21
-61.3693
  0
LINE
  8
St
  6
CONTINUOUS
 62
   127
 10
-81.084462
 20
-73.635967
 11
-81.084462
 21
-61.3693
  0
LINE
  8
St
  6
DOT
 10
-78.402088
 20
-66.3693
 11
-82.618335
 21
-66.3693
  0
LINE
  8
St
  6
DOT
 62
   127
 10
-97.27286
 20
-75.567763
 11
-97.27286
 21
-75.56776
  0
LINE
  8
St
  6
DOT
 10
-90.017795
 20
-73.635967
 11
-90.017795
 21
-74.702635
  0
LINE
  8
St
  6
DOT
 10
-96.68446
 20
-73.635967
 11
-96.68446
 21
-74.702635
  0
LINE
  8
St
  6
DOT
 10
-101.68446
 20
-73.635967
 11
-101.68446
 21
-74.702635
  0
LINE
  8
St
  6
DOT
 10
-105.017795
 20
-73.635967
 11
-105.017795
 21
-74.702635
  0
LINE
  8
St
  6
DOT
 10
-93.351127
 20
-72.281322
 11
-93.351127
 21
-76.107522
  0
LINE
  8
St
  6
DOT
 62
   127
 10
-96.68446
 20
-73.902635
 11
-90.017795
 21
-73.902635
  0
LINE
  8
St
  6
DOT
 62
   127
 10
-96.68446
 20
-74.1693
 11
-90.017795
 21
-74.1693
  0
LINE
  8
St
  6
DOT
 62
   127
 10
-96.68446
 20
-74.435967
 11
-90.017795
 21
-74.435967
  0
LINE
  8
St
  6
DOT
 10
-101.68446
 20
-73.902635
 11
-105.017795
 21
-73.902635
  0
LINE
  8
St
  6
DOT
 10
-101.68446
 20
-74.1693
 11
-105.017795
 21
-74.1693
  0
LINE
  8
St
  6
DOT
 10
-101.68446
 20
-74.435967
 11
-105.017795
 21
-74.435967
  0
LINE
  8
St
  6
DOT
 10
-103.351127
 20
-72.281322
 11
-103.351127
 21
-76.107522
  0
LINE
  8
St
  6
DOT
 10
-80.017795
 20
-73.635967
 11
-81.084462
 21
-73.635967
  0
LINE
  8
St
  6
DOT
 10
-80.017795
 20
-63.035965
 11
-81.084462
 21
-63.035965
  0
LINE
  8
St
  6
DOT
 10
-81.084462
 20
-67.3693
 11
-80.017795
 21
-67.3693
  0
LINE
  8
St
  6
DOT
 10
-81.084462
 20
-65.3693
 11
-80.017795
 21
-65.3693
  0
LINE
  8
St
  6
DOT
 62
   127
 10
-80.817795
 20
-73.635967
 11
-80.817795
 21
-63.035965
  0
LINE
  8
St
  6
DOT
 62
   127
 10
-80.55113
 20
-73.635967
 11
-80.55113
 21
-63.035965
  0
LINE
  8
St
  6
DOT
 62
   127
 10
-80.284462
 20
-73.635967
 11
-80.284462
 21
-63.035965
  0
ENDBLK
  0
BLOCK
  2
*GRP_0124
 70
    65
 10
0.0
 20
0.0
  0
LINE
  8
補助線
  6
DOT
 62
    64
 10
-11.098898
 20
-36.369315
 11
-14.565563
 21
-36.369315
  0
LINE
  8
補助線
  6
DOT
 62
    64
 10
-12.83223
 20
-34.635982
 11
-12.83223
 21
-38.102647
  0
ENDBLK
  0
BLOCK
  2
*GRP_0125
 70
    65
 10
0.0
 20
0.0
  0
LINE
  8
補助線
  6
DOT
 62
    64
 10
2.234438
 20
-36.369315
 11
5.701102
 21
-36.369315
  0
LINE
  8
補助線
  6
DOT
 62
    64
 10
3.96777
 20
-34.635982
 11
3.96777
 21
-38.102647
  0
ENDBLK
  0
BLOCK
  2
*GRP_0126
 70
    65
 10
0.0
 20
0.0
  0
LINE
  8
補助線
  6
BYBLOCK
 62
    64
 10
-16.698898
 20
-36.369315
 11
-20.165563
 21
-36.369315
  0
LINE
  8
補助線
  6
BYBLOCK
 62
    64
 10
-18.43223
 20
-34.635982
 11
-18.43223
 21
-38.102647
  0
ENDBLK
  0
BLOCK
  2
*GRP_0127
 70
    65
 10
0.0
 20
0.0
  0
LINE
  8
補助線
  6
BYBLOCK
 62
    64
 10
7.834438
 20
-36.369315
 11
11.301102
 21
-36.369315
  0
LINE
  8
補助線
  6
BYBLOCK
 62
    64
 10
9.56777
 20
-34.635982
 11
9.56777
 21
-38.102647
  0
ENDBLK
  0
BLOCK
  2
*GRP_0128
 70
    65
 10
0.0
 20
0.0
  0
LINE
  8
補助線
  6
BYBLOCK
 62
    64
 10
-11.0989
 20
-36.369315
 11
-14.565565
 21
-36.369315
  0
LINE
  8
補助線
  6
BYBLOCK
 62
    64
 10
-12.832233
 20
-34.635982
 11
-12.832233
 21
-38.102647
  0
ENDBLK
  0
BLOCK
  2
*GRP_0129
 70
    65
 10
0.0
 20
0.0
  0
LINE
  8
補助線
  6
BYBLOCK
 62
    64
 10
5.701105
 20
-36.369315
 11
2.23444
 21
-36.369315
  0
LINE
  8
補助線
  6
BYBLOCK
 62
    64
 10
3.967772
 20
-34.635982
 11
3.967772
 21
-38.102647
  0
ENDBLK
  0
BLOCK
  2
*DIM_0130
 70
    65
 10
0.0
 20
0.0
  0
LINE
  8
寸法
  6
CONTINUOUS
 10
8.06777
 20
-45.035982
 11
8.06777
 21
-62.045015
  0
LINE
  8
寸法
  6
CONTINUOUS
 10
5.134438
 20
-59.70265
 11
5.134438
 21
-62.045015
  0
LINE
  8
寸法
  6
CONTINUOUS
 10
8.06777
 20
-62.045015
 11
5.134438
 21
-62.045015
  0
POINT
  8
寸法
 10
8.06777
 20
-62.045015
  0
POINT
  8
寸法
 10
5.134438
 20
-62.045015
  0
TEXT
  7
TextStyle03
  8
寸法
  6
CONTINUOUS
 10
9.1875
 20
-61.65
  1
8.8
 40
3.0
 72
     5
 11
14.0625
 21
-61.65
  0
ENDBLK
  0
BLOCK
  2
*DIM_0131
 70
    65
 10
0.0
 20
0.0
  0
LINE
  8
寸法
  6
CONTINUOUS
 10
-13.998905
 20
-59.70265
 11
-13.998905
 21
-62.045015
  0
LINE
  8
寸法
  6
CONTINUOUS
 10
5.134438
 20
-62.045015
 11
-13.998905
 21
-62.045015
  0
POINT
  8
寸法
 10
-13.998905
 20
-62.045015
  0
TEXT
  7
TextStyle03
  8
寸法
  6
CONTINUOUS
 10
-7.73125
 20
-61.65
  1
57.4
 40
3.0
 72
     5
 11
-1.16875
 21
-61.65
  0
ENDBLK
  0
BLOCK
  2
*DIM_0132
 70
    65
 10
0.0
 20
0.0
  0
LINE
  8
寸法
  6
CONTINUOUS
 10
-16.93223
 20
-45.035982
 11
-16.93223
 21
-62.045015
  0
LINE
  8
寸法
  6
CONTINUOUS
 10
-13.998905
 20
-62.045015
 11
-16.93223
 21
-62.045015
  0
POINT
  8
寸法
 10
-16.93223
 20
-62.045015
  0
TEXT
  7
TextStyle03
  8
寸法
  6
CONTINUOUS
 10
-22.9625
 20
-61.65
  1
8.8
 40
3.0
 72
     5
 11
-18.0875
 21
-61.65
  0
ENDBLK
  0
BLOCK
  2
*DIM_0133
 70
    65
 10
0.0
 20
0.0
  0
LINE
  8
寸法
  6
CONTINUOUS
 10
8.06777
 20
-45.035982
 11
8.06777
 21
-67.99646
  0
LINE
  8
寸法
  6
CONTINUOUS
 10
-16.93223
 20
-45.035982
 11
-16.93223
 21
-67.99646
  0
LINE
  8
寸法
  6
CONTINUOUS
 10
8.06777
 20
-67.99646
 11
-16.93223
 21
-67.99646
  0
POINT
  8
寸法
 10
8.06777
 20
-67.99646
  0
POINT
  8
寸法
 10
-16.93223
 20
-67.99646
  0
TEXT
  7
TextStyle03
  8
寸法
  6
CONTINUOUS
 10
-6.01875
 20
-67.6
  1
75
 40
3.0
 72
     5
 11
-2.83125
 21
-67.6
  0
ENDBLK
  0
BLOCK
  2
*GRP_0134
 70
    65
 10
0.0
 20
0.0
  0
LINE
  8
型材断面
  6
CONTINUOUS
 10
7.734438
 20
-96.93769
 11
7.401102
 21
-98.604355
  0
LINE
  8
型材断面
  6
CONTINUOUS
 62
    47
 10
-8.83223
 20
-93.604355
 11
-8.83223
 21
-92.83769
  0
ARC
  8
型材断面
  6
CONTINUOUS
 62
    47
 10
-7.065557
 20
-87.70434
 40
0.1
 50
90.0
 51
180.0
  0
LINE
  8
型材断面
  6
CONTINUOUS
 62
    47
 10
-7.165563
 20
-88.171022
 11
-7.165563
 21
-87.704355
  0
ARC
  8
型材断面
  6
CONTINUOUS
 62
    47
 10
-7.065557
 20
-88.171007
 40
0.1
 50
180.0
 51
270.0
  0
ARC
  8
型材断面
  6
CONTINUOUS
 62
    47
 10
-8.098891
 20
-92.437674
 40
0.1
 50
0.0
 51
90.0
  0
LINE
  8
型材断面
  6
CONTINUOUS
 62
    47
 10
-7.998898
 20
-92.73769
 11
-7.998898
 21
-92.43769
  0
LINE
  8
型材断面
  6
CONTINUOUS
 62
    47
 10
-8.098898
 20
-92.83769
 11
-8.83223
 21
-92.83769
  0
ARC
  8
型材断面
  6
CONTINUOUS
 62
    47
 10
-8.098891
 20
-92.737674
 40
0.1
 50
270.0
 51
360.0
  0
LINE
  8
型材断面
  6
CONTINUOUS
 62
    47
 10
-8.098898
 20
-92.33769
 11
-9.23223
 21
-92.33769
  0
LINE
  8
型材断面
  6
CONTINUOUS
 62
    47
 10
-9.33223
 20
-93.604355
 11
-9.33223
 21
-92.43769
  0
ARC
  8
型材断面
  6
CONTINUOUS
 62
    47
 10
-9.232224
 20
-92.437674
 40
0.1
 50
90.0
 51
180.0
  0
LINE
  8
型材断面
  6
CONTINUOUS
 62
    47
 10
-8.83223
 20
-93.604355
 11
-6.43223
 21
-93.604355
  0
LINE
  8
型材断面
  6
CONTINUOUS
 62
    47
 10
-13.598898
 20
-93.604355
 11
-13.598898
 21
-93.03769
  0
ARC
  8
型材断面
  6
CONTINUOUS
 62
    47
 10
-13.698891
 20
-93.037674
 40
0.1
 50
0.0
 51
90.0
  0
LINE
  8
型材断面
  6
CONTINUOUS
 62
    47
 10
-13.698898
 20
-92.93769
 11
-13.898898
 21
-92.93769
  0
ARC
  8
型材断面
  6
CONTINUOUS
 62
    47
 10
-13.898891
 20
-93.037674
 40
0.1
 50
90.0
 51
180.0
  0
LINE
  8
型材断面
  6
CONTINUOUS
 62
    47
 10
-13.998898
 20
-93.03769
 11
-13.998898
 21
-98.604355
  0
LINE
  8
型材断面
  6
CONTINUOUS
 62
    47
 10
-13.748898
 20
-95.604355
 11
-11.915563
 21
-95.604355
  0
ARC
  8
型材断面
  6
CONTINUOUS
 62
    47
 10
-12.268778
 20
-96.218321
 40
0.25
 50
312.542364
 51
492.542397
  0
ARC
  8
型材断面
  6
CONTINUOUS
 62
    47
 10
-12.832224
 20
-95.60434
 40
0.583333
 50
47.457615
 51
312.542407
  0
ARC
  8
型材断面
  6
CONTINUOUS
 62
    47
 10
-12.268778
 20
-94.990359
 40
0.25
 50
227.457576
 51
407.457618
  0
ARC
  8
型材断面
  6
CONTINUOUS
 62
    47
 10
-12.832224
 20
-95.604341
 40
1.083333
 50
47.457611
 51
90.000044
  0
LINE
  8
型材断面
  6
CONTINUOUS
 10
-16.93223
 20
-99.271022
 11
-16.93223
 21
-96.93769
  0
LINE
  8
型材断面
  6
CONTINUOUS
 10
-13.998898
 20
-98.604355
 11
-16.265563
 21
-98.604355
  0
LINE
  8
型材断面
  6
CONTINUOUS
 62
    47
 10
-4.43223
 20
-99.271022
 11
-16.93223
 21
-99.271022
  0
LINE
  8
型材断面
  6
CONTINUOUS
 62
    47
 10
-12.83223
 20
-94.68769
 11
-12.83223
 21
-96.68769
  0
LINE
  8
型材断面
  6
CONTINUOUS
 10
-4.43223
 20
-98.43769
 11
-13.165563
 21
-98.43769
  0
LINE
  8
型材断面
  6
CONTINUOUS
 10
-13.165563
 20
-98.43769
 11
-13.165563
 21
-96.635123
  0
LINE
  8
型材断面
  6
CONTINUOUS
 10
-12.83223
 20
-94.521022
 11
-12.83223
 21
-94.43769
  0
ARC
  8
型材断面
  6
CONTINUOUS
 62
    47
 10
-12.832224
 20
-95.60434
 40
1.083333
 50
252.079718
 51
312.542389
  0
LINE
  8
型材断面
  6
CONTINUOUS
 10
-12.83223
 20
-94.43769
 11
-5.598898
 21
-94.43769
  0
LINE
  8
型材断面
  6
CONTINUOUS
 62
    47
 10
-9.33223
 20
-93.604355
 11
-13.598898
 21
-93.604355
  0
LINE
  8
型材断面
  6
CONTINUOUS
 62
    47
 10
-7.065563
 20
-87.604355
 11
-4.43223
 21
-87.604355
  0
LINE
  8
型材断面
  6
CONTINUOUS
 10
-5.598898
 20
-94.43769
 11
-5.598898
 21
-88.271022
  0
LINE
  8
型材断面
  6
CONTINUOUS
 62
    47
 10
-6.43223
 20
-93.604355
 11
-6.43223
 21
-88.271022
  0
LINE
  8
型材断面
  6
CONTINUOUS
 62
    47
 10
-7.065563
 20
-88.271022
 11
-6.43223
 21
-88.271022
  0
LINE
  8
型材断面
  6
CONTINUOUS
 62
    47
 10
-5.598898
 20
-88.271022
 11
-4.43223
 21
-88.271022
  0
LINE
  8
型材断面
  6
CONTINUOUS
 62
    47
 10
-0.03223
 20
-93.604355
 11
-0.03223
 21
-92.83769
  0
ARC
  8
型材断面
  6
CONTINUOUS
 62
    47
 10
-1.798891
 20
-87.70434
 40
0.1
 50
0.0
 51
90.0
  0
LINE
  8
型材断面
  6
CONTINUOUS
 62
    47
 10
-1.698898
 20
-88.171022
 11
-1.698898
 21
-87.704355
  0
ARC
  8
型材断面
  6
CONTINUOUS
 62
    47
 10
-1.798891
 20
-88.171007
 40
0.1
 50
270.0
 51
360.0
  0
ARC
  8
型材断面
  6
CONTINUOUS
 62
    47
 10
-0.765557
 20
-92.437674
 40
0.1
 50
90.0
 51
180.0
  0
LINE
  8
型材断面
  6
CONTINUOUS
 62
    47
 10
-0.865563
 20
-92.73769
 11
-0.865563
 21
-92.43769
  0
LINE
  8
型材断面
  6
CONTINUOUS
 62
    47
 10
-0.765563
 20
-92.83769
 11
-0.03223
 21
-92.83769
  0
ARC
  8
型材断面
  6
CONTINUOUS
 62
    47
 10
-0.765557
 20
-92.737674
 40
0.1
 50
180.0
 51
270.0
  0
LINE
  8
型材断面
  6
CONTINUOUS
 62
    47
 10
-0.765563
 20
-92.33769
 11
0.36777
 21
-92.33769
  0
LINE
  8
型材断面
  6
CONTINUOUS
 62
    47
 10
0.46777
 20
-93.604355
 11
0.46777
 21
-92.43769
  0
ARC
  8
型材断面
  6
CONTINUOUS
 62
    47
 10
0.367776
 20
-92.437674
 40
0.1
 50
0.0
 51
90.0
  0
LINE
  8
型材断面
  6
CONTINUOUS
 62
    47
 10
-0.03223
 20
-93.604355
 11
-2.43223
 21
-93.604355
  0
LINE
  8
型材断面
  6
CONTINUOUS
 62
    47
 10
4.734438
 20
-93.604355
 11
4.734438
 21
-93.03769
  0
ARC
  8
型材断面
  6
CONTINUOUS
 62
    47
 10
4.834443
 20
-93.037674
 40
0.1
 50
90.0
 51
180.0
  0
LINE
  8
型材断面
  6
CONTINUOUS
 62
    47
 10
4.834438
 20
-92.93769
 11
5.034438
 21
-92.93769
  0
ARC
  8
型材断面
  6
CONTINUOUS
 62
    47
 10
5.034443
 20
-93.037674
 40
0.1
 50
0.0
 51
90.0
  0
LINE
  8
型材断面
  6
CONTINUOUS
 62
    47
 10
5.134438
 20
-93.03769
 11
5.134438
 21
-98.604355
  0
LINE
  8
型材断面
  6
CONTINUOUS
 62
    47
 10
4.884438
 20
-95.604355
 11
3.051102
 21
-95.604355
  0
ARC
  8
型材断面
  6
CONTINUOUS
 62
    47
 10
3.40433
 20
-96.218321
 40
0.25
 50
47.457603
 51
227.457636
  0
ARC
  8
型材断面
  6
CONTINUOUS
 62
    47
 10
3.967776
 20
-95.60434
 40
0.583333
 50
227.457593
 51
492.542385
  0
ARC
  8
型材断面
  6
CONTINUOUS
 62
    47
 10
3.40433
 20
-94.990359
 40
0.25
 50
132.542382
 51
312.542424
  0
ARC
  8
型材断面
  6
CONTINUOUS
 62
    47
 10
3.967776
 20
-95.604341
 40
1.083333
 50
89.999956
 51
132.542389
  0
LINE
  8
型材断面
  6
CONTINUOUS
 10
8.06777
 20
-99.271022
 11
8.06777
 21
-96.93769
  0
LINE
  8
型材断面
  6
CONTINUOUS
 10
5.134438
 20
-98.604355
 11
7.401102
 21
-98.604355
  0
LINE
  8
型材断面
  6
CONTINUOUS
 62
    47
 10
-4.43223
 20
-99.271022
 11
8.06777
 21
-99.271022
  0
LINE
  8
型材断面
  6
CONTINUOUS
 62
    47
 10
3.96777
 20
-94.68769
 11
3.96777
 21
-96.68769
  0
LINE
  8
型材断面
  6
CONTINUOUS
 10
-4.43223
 20
-98.43769
 11
4.301102
 21
-98.43769
  0
LINE
  8
型材断面
  6
CONTINUOUS
 10
4.301102
 20
-98.43769
 11
4.301102
 21
-96.635123
  0
LINE
  8
型材断面
  6
CONTINUOUS
 10
3.96777
 20
-94.521022
 11
3.96777
 21
-94.43769
  0
ARC
  8
型材断面
  6
CONTINUOUS
 62
    47
 10
3.967776
 20
-95.60434
 40
1.083333
 50
227.457611
 51
287.920282
  0
LINE
  8
型材断面
  6
CONTINUOUS
 10
3.96777
 20
-94.43769
 11
-3.265563
 21
-94.43769
  0
LINE
  8
型材断面
  6
CONTINUOUS
 62
    47
 10
0.46777
 20
-93.604355
 11
4.734438
 21
-93.604355
  0
LINE
  8
型材断面
  6
CONTINUOUS
 62
    47
 10
-1.798898
 20
-87.604355
 11
-4.43223
 21
-87.604355
  0
LINE
  8
型材断面
  6
CONTINUOUS
 10
-3.265563
 20
-94.43769
 11
-3.265563
 21
-88.271022
  0
LINE
  8
型材断面
  6
CONTINUOUS
 62
    47
 10
-2.43223
 20
-93.604355
 11
-2.43223
 21
-88.271022
  0
LINE
  8
型材断面
  6
CONTINUOUS
 62
    47
 10
-1.798898
 20
-88.271022
 11
-2.43223
 21
-88.271022
  0
LINE
  8
型材断面
  6
CONTINUOUS
 62
    47
 10
-3.265563
 20
-88.271022
 11
-4.43223
 21
-88.271022
  0
LINE
  8
型材断面
  6
CONTINUOUS
 10
8.06777
 20
-96.93769
 11
7.734438
 21
-96.93769
  0
LINE
  8
型材断面
  6
CONTINUOUS
 10
-16.598898
 20
-96.93769
 11
-16.265563
 21
-98.604355
  0
LINE
  8
型材断面
  6
CONTINUOUS
 10
-16.93223
 20
-96.93769
 11
-16.598898
 21
-96.93769
  0
ENDBLK
  0
BLOCK
  2
*GRP_0135
 70
    65
 10
0.0
 20
0.0
  0
LINE
  8
型材断面
  6
DOT
 10
-1.031098
 20
-87.604355
 11
-1.031098
 21
-92.93769
  0
LINE
  8
型材断面
  6
DOT
 10
6.835553
 20
-87.604355
 11
-1.031098
 21
-87.604355
  0
ARC
  8
型材断面
  6
DOT
 10
7.135568
 20
-87.037677
 40
0.1
 50
0.0
 51
90.0
  0
LINE
  8
型材断面
  6
DOT
 10
6.835553
 20
-87.604355
 11
6.835553
 21
-87.83769
  0
ARC
  8
型材断面
  6
DOT
 10
6.935568
 20
-87.837677
 40
0.1
 50
180.0
 51
270.0
  0
LINE
  8
型材断面
  6
DOT
 10
7.135553
 20
-87.93769
 11
6.935553
 21
-87.93769
  0
LINE
  8
型材断面
  6
DOT
 10
7.235553
 20
-87.83769
 11
7.235553
 21
-87.03769
  0
ARC
  8
型材断面
  6
DOT
 10
7.135568
 20
-87.837677
 40
0.1
 50
270.0
 51
360.0
  0
LINE
  8
型材断面
  6
DOT
 10
7.135553
 20
-86.93769
 11
-1.59778
 21
-86.93769
  0
LINE
  8
型材断面
  6
DOT
 10
-1.69778
 20
-87.03769
 11
-1.69778
 21
-88.43769
  0
ARC
  8
型材断面
  6
DOT
 10
-1.597766
 20
-87.037677
 40
0.1
 50
90.0
 51
180.0
  0
LINE
  8
型材断面
  6
DOT
 10
-1.69778
 20
-88.93769
 11
-1.69778
 21
-93.504355
  0
ARC
  8
型材断面
  6
DOT
 10
-1.597766
 20
-93.504343
 40
0.1
 50
180.0
 51
270.0
  0
LINE
  8
型材断面
  6
DOT
 10
-0.231098
 20
-93.604355
 11
-1.59778
 21
-93.604355
  0
ARC
  8
型材断面
  6
DOT
 10
-0.231099
 20
-93.504343
 40
0.1
 50
270.0
 51
360.0
  0
LINE
  8
型材断面
  6
DOT
 10
-0.131098
 20
-93.03769
 11
-0.131098
 21
-93.504355
  0
LINE
  8
型材断面
  6
DOT
 10
-0.231098
 20
-92.93769
 11
-1.031098
 21
-92.93769
  0
ARC
  8
型材断面
  6
DOT
 10
-0.231099
 20
-93.037677
 40
0.1
 50
0.0
 51
90.0
  0
LINE
  8
型材断面
  6
DOT
 10
-2.19778
 20
-88.43769
 11
-1.69778
 21
-88.43769
  0
ARC
  8
型材断面
  6
DOT
 10
-2.197766
 20
-88.537677
 40
0.1
 50
90.0
 51
180.0
  0
LINE
  8
型材断面
  6
DOT
 10
-2.29778
 20
-88.53769
 11
-2.29778
 21
-88.83769
  0
LINE
  8
型材断面
  6
DOT
 10
-2.19778
 20
-88.93769
 11
-1.69778
 21
-88.93769
  0
ARC
  8
型材断面
  6
DOT
 10
-2.197766
 20
-88.837677
 40
0.1
 50
180.0
 51
270.0
  0
ENDBLK
  0
BLOCK
  2
*GRP_0136
 70
    65
 10
0.0
 20
0.0
  0
LINE
  8
型材断面
  6
DOT
 10
-7.833348
 20
-87.604355
 11
-7.833348
 21
-92.93769
  0
LINE
  8
型材断面
  6
DOT
 10
-15.700012
 20
-87.604355
 11
-7.833348
 21
-87.604355
  0
ARC
  8
型材断面
  6
DOT
 10
-16.000015
 20
-87.037677
 40
0.1
 50
90.0
 51
180.0
  0
LINE
  8
型材断面
  6
DOT
 10
-15.700012
 20
-87.604355
 11
-15.700012
 21
-87.83769
  0
ARC
  8
型材断面
  6
DOT
 10
-15.800015
 20
-87.837677
 40
0.1
 50
270.0
 51
360.0
  0
LINE
  8
型材断面
  6
DOT
 10
-16.000012
 20
-87.93769
 11
-15.800012
 21
-87.93769
  0
LINE
  8
型材断面
  6
DOT
 10
-16.100012
 20
-87.83769
 11
-16.100012
 21
-87.03769
  0
ARC
  8
型材断面
  6
DOT
 10
-16.000015
 20
-87.837677
 40
0.1
 50
180.0
 51
270.0
  0
LINE
  8
型材断面
  6
DOT
 10
-16.000012
 20
-86.93769
 11
-7.26668
 21
-86.93769
  0
LINE
  8
型材断面
  6
DOT
 10
-7.16668
 20
-87.03769
 11
-7.16668
 21
-88.43769
  0
ARC
  8
型材断面
  6
DOT
 10
-7.266682
 20
-87.037677
 40
0.1
 50
0.0
 51
90.0
  0
LINE
  8
型材断面
  6
DOT
 10
-7.16668
 20
-88.93769
 11
-7.16668
 21
-93.504355
  0
ARC
  8
型材断面
  6
DOT
 10
-7.266682
 20
-93.504343
 40
0.1
 50
270.0
 51
360.0
  0
LINE
  8
型材断面
  6
DOT
 10
-8.633348
 20
-93.604355
 11
-7.26668
 21
-93.604355
  0
ARC
  8
型材断面
  6
DOT
 10
-8.633349
 20
-93.504343
 40
0.1
 50
180.0
 51
270.0
  0
LINE
  8
型材断面
  6
DOT
 10
-8.733348
 20
-93.03769
 11
-8.733348
 21
-93.504355
  0
LINE
  8
型材断面
  6
DOT
 10
-8.633348
 20
-92.93769
 11
-7.833348
 21
-92.93769
  0
ARC
  8
型材断面
  6
DOT
 10
-8.633349
 20
-93.037677
 40
0.1
 50
90.0
 51
180.0
  0
LINE
  8
型材断面
  6
DOT
 10
-6.66668
 20
-88.43769
 11
-7.16668
 21
-88.43769
  0
ARC
  8
型材断面
  6
DOT
 10
-6.666682
 20
-88.537677
 40
0.1
 50
0.0
 51
90.0
  0
LINE
  8
型材断面
  6
DOT
 10
-6.56668
 20
-88.53769
 11
-6.56668
 21
-88.83769
  0
LINE
  8
型材断面
  6
DOT
 10
-6.66668
 20
-88.93769
 11
-7.16668
 21
-88.93769
  0
ARC
  8
型材断面
  6
DOT
 10
-6.666682
 20
-88.837677
 40
0.1
 50
270.0
 51
360.0
  0
ENDBLK
  0
BLOCK
  2
*GRP_0137
 70
    65
 10
0.0
 20
0.0
  0
LINE
  8
ゴム等
  6
CONTINUOUS
 10
-13.598898
 20
-91.93769
 11
-13.598898
 21
-93.604357
  0
LINE
  8
ゴム等
  6
CONTINUOUS
 10
-13.598898
 20
-91.93769
 11
-10.265563
 21
-91.93769
  0
LINE
  8
ゴム等
  6
CONTINUOUS
 10
-10.265563
 20
-91.93769
 11
-10.265563
 21
-93.604357
  0
LINE
  8
ゴム等
  6
CONTINUOUS
 10
-13.598898
 20
-93.604357
 11
-10.265563
 21
-93.604357
  0
LINE
  8
ゴム等
  6
CONTINUOUS
 10
-10.265563
 20
-93.160982
 11
-10.708937
 21
-93.604357
  0
LINE
  8
ゴム等
  6
CONTINUOUS
 10
-10.265563
 20
-92.689577
 11
-11.180343
 21
-93.604357
  0
LINE
  8
ゴム等
  6
CONTINUOUS
 10
-10.265563
 20
-92.218175
 11
-11.651747
 21
-93.604357
  0
LINE
  8
ゴム等
  6
CONTINUOUS
 10
-11.399292
 20
-91.93769
 11
-13.06596
 21
-93.604357
  0
LINE
  8
ゴム等
  6
CONTINUOUS
 10
-10.92789
 20
-91.93769
 11
-12.594555
 21
-93.604357
  0
LINE
  8
ゴム等
  6
CONTINUOUS
 10
-10.456485
 20
-91.93769
 11
-12.123153
 21
-93.604357
  0
LINE
  8
ゴム等
  6
CONTINUOUS
 10
-11.870698
 20
-91.93769
 11
-13.537365
 21
-93.604357
  0
LINE
  8
ゴム等
  6
CONTINUOUS
 10
-12.342102
 20
-91.93769
 11
-13.598898
 21
-93.194485
  0
LINE
  8
ゴム等
  6
CONTINUOUS
 10
-12.813508
 20
-91.93769
 11
-13.598898
 21
-92.72308
  0
LINE
  8
ゴム等
  6
CONTINUOUS
 10
-13.284912
 20
-91.93769
 11
-13.598898
 21
-92.251675
  0
ENDBLK
  0
BLOCK
  2
*GRP_0138
 70
    65
 10
0.0
 20
0.0
  0
LINE
  8
ゴム等
  6
CONTINUOUS
 10
1.401102
 20
-91.937687
 11
1.401102
 21
-93.604355
  0
LINE
  8
ゴム等
  6
CONTINUOUS
 10
1.401102
 20
-91.937687
 11
4.734438
 21
-91.937687
  0
LINE
  8
ゴム等
  6
CONTINUOUS
 10
4.734438
 20
-91.937687
 11
4.734438
 21
-93.604355
  0
LINE
  8
ゴム等
  6
CONTINUOUS
 10
1.401102
 20
-93.604355
 11
4.734438
 21
-93.604355
  0
LINE
  8
ゴム等
  6
CONTINUOUS
 10
4.734438
 20
-93.16098
 11
4.291063
 21
-93.604355
  0
LINE
  8
ゴム等
  6
CONTINUOUS
 10
4.734438
 20
-92.689575
 11
3.819657
 21
-93.604355
  0
LINE
  8
ゴム等
  6
CONTINUOUS
 10
4.734438
 20
-92.218173
 11
3.348252
 21
-93.604355
  0
LINE
  8
ゴム等
  6
CONTINUOUS
 10
3.600707
 20
-91.937687
 11
1.93404
 21
-93.604355
  0
LINE
  8
ゴム等
  6
CONTINUOUS
 10
4.07211
 20
-91.937687
 11
2.405445
 21
-93.604355
  0
LINE
  8
ゴム等
  6
CONTINUOUS
 10
4.543515
 20
-91.937687
 11
2.876848
 21
-93.604355
  0
LINE
  8
ゴム等
  6
CONTINUOUS
 10
3.129303
 20
-91.937687
 11
1.462635
 21
-93.604355
  0
LINE
  8
ゴム等
  6
CONTINUOUS
 10
2.657898
 20
-91.937687
 11
1.401102
 21
-93.194482
  0
LINE
  8
ゴム等
  6
CONTINUOUS
 10
2.186492
 20
-91.937687
 11
1.401102
 21
-92.723078
  0
LINE
  8
ゴム等
  6
CONTINUOUS
 10
1.715087
 20
-91.937687
 11
1.401102
 21
-92.251673
  0
ENDBLK
  0
BLOCK
  2
*GRP_0139
 70
    65
 10
0.0
 20
0.0
  0
INSERT
  2
*GRP_0155
  8
補助線
  6
CONTINUOUS
 62
    64
 10
0.0
 20
0.0
  0
CIRCLE
  8
ボルト／ビス
  6
CONTINUOUS
 62
    64
 10
-12.83223
 20
-95.604355
 40
1.166668
  0
LINE
  8
ボルト／ビス
  6
CONTINUOUS
 62
    64
 10
-12.645562
 20
-95.231023
 11
-12.645562
 21
-94.96524
  0
LINE
  8
ボルト／ビス
  6
CONTINUOUS
 62
    64
 10
-12.458897
 20
-95.41769
 11
-12.19313
 21
-95.41769
  0
ARC
  8
ボルト／ビス
  6
CONTINUOUS
 62
    64
 10
-12.458893
 20
-95.231009
 40
0.186667
 50
180.0
 51
270.0
  0
LINE
  8
ボルト／ビス
  6
CONTINUOUS
 62
    64
 10
-12.19313
 20
-95.41769
 11
-12.19313
 21
-95.604355
  0
LINE
  8
ボルト／ビス
  6
CONTINUOUS
 62
    64
 10
-12.645562
 20
-94.96524
 11
-12.83223
 21
-94.96524
  0
LINE
  8
ボルト／ビス
  6
CONTINUOUS
 62
    64
 10
-12.645562
 20
-95.97769
 11
-12.645562
 21
-96.243455
  0
LINE
  8
ボルト／ビス
  6
CONTINUOUS
 62
    64
 10
-12.458897
 20
-95.791022
 11
-12.19313
 21
-95.791022
  0
ARC
  8
ボルト／ビス
  6
CONTINUOUS
 62
    64
 10
-12.458893
 20
-95.977676
 40
0.186667
 50
90.0
 51
180.0
  0
LINE
  8
ボルト／ビス
  6
CONTINUOUS
 62
    64
 10
-12.19313
 20
-95.791022
 11
-12.19313
 21
-95.604355
  0
LINE
  8
ボルト／ビス
  6
CONTINUOUS
 62
    64
 10
-12.645562
 20
-96.243455
 11
-12.83223
 21
-96.243455
  0
LINE
  8
ボルト／ビス
  6
CONTINUOUS
 62
    64
 10
-13.018898
 20
-95.97769
 11
-13.018898
 21
-96.243455
  0
LINE
  8
ボルト／ビス
  6
CONTINUOUS
 62
    64
 10
-13.205562
 20
-95.791022
 11
-13.47133
 21
-95.791022
  0
ARC
  8
ボルト／ビス
  6
CONTINUOUS
 62
    64
 10
-13.20556
 20
-95.977676
 40
0.186667
 50
0.0
 51
90.0
  0
LINE
  8
ボルト／ビス
  6
CONTINUOUS
 62
    64
 10
-13.47133
 20
-95.791022
 11
-13.47133
 21
-95.604355
  0
LINE
  8
ボルト／ビス
  6
CONTINUOUS
 62
    64
 10
-13.018898
 20
-96.243455
 11
-12.83223
 21
-96.243455
  0
LINE
  8
ボルト／ビス
  6
CONTINUOUS
 62
    64
 10
-13.018898
 20
-95.231023
 11
-13.018898
 21
-94.96524
  0
LINE
  8
ボルト／ビス
  6
CONTINUOUS
 62
    64
 10
-13.205562
 20
-95.41769
 11
-13.47133
 21
-95.41769
  0
ARC
  8
ボルト／ビス
  6
CONTINUOUS
 62
    64
 10
-13.20556
 20
-95.231009
 40
0.186667
 50
270.0
 51
360.0
  0
LINE
  8
ボルト／ビス
  6
CONTINUOUS
 62
    64
 10
-13.47133
 20
-95.41769
 11
-13.47133
 21
-95.604355
  0
LINE
  8
ボルト／ビス
  6
CONTINUOUS
 62
    64
 10
-13.018898
 20
-94.96524
 11
-12.83223
 21
-94.96524
  0
ENDBLK
  0
BLOCK
  2
*GRP_0140
 70
    65
 10
0.0
 20
0.0
  0
INSERT
  2
*GRP_0156
  8
補助線
  6
CONTINUOUS
 62
    64
 10
0.0
 20
0.0
  0
CIRCLE
  8
ボルト／ビス
  6
CONTINUOUS
 62
    64
 10
3.96777
 20
-95.604355
 40
1.166668
  0
LINE
  8
ボルト／ビス
  6
CONTINUOUS
 62
    64
 10
4.154437
 20
-95.231023
 11
4.154437
 21
-94.96524
  0
LINE
  8
ボルト／ビス
  6
CONTINUOUS
 62
    64
 10
4.341102
 20
-95.41769
 11
4.606888
 21
-95.41769
  0
ARC
  8
ボルト／ビス
  6
CONTINUOUS
 62
    64
 10
4.341112
 20
-95.231009
 40
0.186667
 50
180.0
 51
270.0
  0
LINE
  8
ボルト／ビス
  6
CONTINUOUS
 62
    64
 10
4.606888
 20
-95.41769
 11
4.606888
 21
-95.604355
  0
LINE
  8
ボルト／ビス
  6
CONTINUOUS
 62
    64
 10
4.154437
 20
-94.96524
 11
3.96777
 21
-94.96524
  0
LINE
  8
ボルト／ビス
  6
CONTINUOUS
 62
    64
 10
4.154437
 20
-95.97769
 11
4.154437
 21
-96.243455
  0
LINE
  8
ボルト／ビス
  6
CONTINUOUS
 62
    64
 10
4.341102
 20
-95.791022
 11
4.606888
 21
-95.791022
  0
ARC
  8
ボルト／ビス
  6
CONTINUOUS
 62
    64
 10
4.341112
 20
-95.977676
 40
0.186667
 50
90.0
 51
180.0
  0
LINE
  8
ボルト／ビス
  6
CONTINUOUS
 62
    64
 10
4.606888
 20
-95.791022
 11
4.606888
 21
-95.604355
  0
LINE
  8
ボルト／ビス
  6
CONTINUOUS
 62
    64
 10
4.154437
 20
-96.243455
 11
3.96777
 21
-96.243455
  0
LINE
  8
ボルト／ビス
  6
CONTINUOUS
 62
    64
 10
3.781103
 20
-95.97769
 11
3.781103
 21
-96.243455
  0
LINE
  8
ボルト／ビス
  6
CONTINUOUS
 62
    64
 10
3.594437
 20
-95.791022
 11
3.32867
 21
-95.791022
  0
ARC
  8
ボルト／ビス
  6
CONTINUOUS
 62
    64
 10
3.594445
 20
-95.977676
 40
0.186667
 50
0.0
 51
90.0
  0
LINE
  8
ボルト／ビス
  6
CONTINUOUS
 62
    64
 10
3.32867
 20
-95.791022
 11
3.32867
 21
-95.604355
  0
LINE
  8
ボルト／ビス
  6
CONTINUOUS
 62
    64
 10
3.781103
 20
-96.243455
 11
3.96777
 21
-96.243455
  0
LINE
  8
ボルト／ビス
  6
CONTINUOUS
 62
    64
 10
3.781103
 20
-95.231023
 11
3.781103
 21
-94.96524
  0
LINE
  8
ボルト／ビス
  6
CONTINUOUS
 62
    64
 10
3.594437
 20
-95.41769
 11
3.32867
 21
-95.41769
  0
ARC
  8
ボルト／ビス
  6
CONTINUOUS
 62
    64
 10
3.594445
 20
-95.231009
 40
0.186667
 50
270.0
 51
360.0
  0
LINE
  8
ボルト／ビス
  6
CONTINUOUS
 62
    64
 10
3.32867
 20
-95.41769
 11
3.32867
 21
-95.604355
  0
LINE
  8
ボルト／ビス
  6
CONTINUOUS
 62
    64
 10
3.781103
 20
-94.96524
 11
3.96777
 21
-94.96524
  0
ENDBLK
  0
BLOCK
  2
*GRP_0141
 70
    65
 10
0.0
 20
0.0
  0
INSERT
  2
*GRP_0157
  8
補助線
  6
CONTINUOUS
 62
    64
 10
0.0
 20
0.0
  0
CIRCLE
  8
ボルト／ビス
  6
CONTINUOUS
 62
    64
 10
-12.83223
 20
-95.604355
 40
1.166668
  0
LINE
  8
ボルト／ビス
  6
CONTINUOUS
 62
    64
 10
-12.645562
 20
-95.231023
 11
-12.645562
 21
-94.96524
  0
LINE
  8
ボルト／ビス
  6
CONTINUOUS
 62
    64
 10
-12.458897
 20
-95.41769
 11
-12.19313
 21
-95.41769
  0
ARC
  8
ボルト／ビス
  6
CONTINUOUS
 62
    64
 10
-12.458893
 20
-95.231009
 40
0.186667
 50
180.0
 51
270.0
  0
LINE
  8
ボルト／ビス
  6
CONTINUOUS
 62
    64
 10
-12.19313
 20
-95.41769
 11
-12.19313
 21
-95.604355
  0
LINE
  8
ボルト／ビス
  6
CONTINUOUS
 62
    64
 10
-12.645562
 20
-94.96524
 11
-12.83223
 21
-94.96524
  0
LINE
  8
ボルト／ビス
  6
CONTINUOUS
 62
    64
 10
-12.645562
 20
-95.97769
 11
-12.645562
 21
-96.243455
  0
LINE
  8
ボルト／ビス
  6
CONTINUOUS
 62
    64
 10
-12.458897
 20
-95.791022
 11
-12.19313
 21
-95.791022
  0
ARC
  8
ボルト／ビス
  6
CONTINUOUS
 62
    64
 10
-12.458893
 20
-95.977676
 40
0.186667
 50
90.0
 51
180.0
  0
LINE
  8
ボルト／ビス
  6
CONTINUOUS
 62
    64
 10
-12.19313
 20
-95.791022
 11
-12.19313
 21
-95.604355
  0
LINE
  8
ボルト／ビス
  6
CONTINUOUS
 62
    64
 10
-12.645562
 20
-96.243455
 11
-12.83223
 21
-96.243455
  0
LINE
  8
ボルト／ビス
  6
CONTINUOUS
 62
    64
 10
-13.018898
 20
-95.97769
 11
-13.018898
 21
-96.243455
  0
LINE
  8
ボルト／ビス
  6
CONTINUOUS
 62
    64
 10
-13.205562
 20
-95.791022
 11
-13.47133
 21
-95.791022
  0
ARC
  8
ボルト／ビス
  6
CONTINUOUS
 62
    64
 10
-13.20556
 20
-95.977676
 40
0.186667
 50
0.0
 51
90.0
  0
LINE
  8
ボルト／ビス
  6
CONTINUOUS
 62
    64
 10
-13.47133
 20
-95.791022
 11
-13.47133
 21
-95.604355
  0
LINE
  8
ボルト／ビス
  6
CONTINUOUS
 62
    64
 10
-13.018898
 20
-96.243455
 11
-12.83223
 21
-96.243455
  0
LINE
  8
ボルト／ビス
  6
CONTINUOUS
 62
    64
 10
-13.018898
 20
-95.231023
 11
-13.018898
 21
-94.96524
  0
LINE
  8
ボルト／ビス
  6
CONTINUOUS
 62
    64
 10
-13.205562
 20
-95.41769
 11
-13.47133
 21
-95.41769
  0
ARC
  8
ボルト／ビス
  6
CONTINUOUS
 62
    64
 10
-13.20556
 20
-95.231009
 40
0.186667
 50
270.0
 51
360.0
  0
LINE
  8
ボルト／ビス
  6
CONTINUOUS
 62
    64
 10
-13.47133
 20
-95.41769
 11
-13.47133
 21
-95.604355
  0
LINE
  8
ボルト／ビス
  6
CONTINUOUS
 62
    64
 10
-13.018898
 20
-94.96524
 11
-12.83223
 21
-94.96524
  0
ENDBLK
  0
BLOCK
  2
*GRP_0142
 70
    65
 10
0.0
 20
0.0
  0
INSERT
  2
*GRP_0158
  8
補助線
  6
CONTINUOUS
 62
    64
 10
0.0
 20
0.0
  0
CIRCLE
  8
ボルト／ビス
  6
CONTINUOUS
 62
    64
 10
3.96777
 20
-95.604355
 40
1.166668
  0
LINE
  8
ボルト／ビス
  6
CONTINUOUS
 62
    64
 10
4.154437
 20
-95.231023
 11
4.154437
 21
-94.96524
  0
LINE
  8
ボルト／ビス
  6
CONTINUOUS
 62
    64
 10
4.341102
 20
-95.41769
 11
4.606888
 21
-95.41769
  0
ARC
  8
ボルト／ビス
  6
CONTINUOUS
 62
    64
 10
4.341112
 20
-95.231009
 40
0.186667
 50
180.0
 51
270.0
  0
LINE
  8
ボルト／ビス
  6
CONTINUOUS
 62
    64
 10
4.606888
 20
-95.41769
 11
4.606888
 21
-95.604355
  0
LINE
  8
ボルト／ビス
  6
CONTINUOUS
 62
    64
 10
4.154437
 20
-94.96524
 11
3.96777
 21
-94.96524
  0
LINE
  8
ボルト／ビス
  6
CONTINUOUS
 62
    64
 10
4.154437
 20
-95.97769
 11
4.154437
 21
-96.243455
  0
LINE
  8
ボルト／ビス
  6
CONTINUOUS
 62
    64
 10
4.341102
 20
-95.791022
 11
4.606888
 21
-95.791022
  0
ARC
  8
ボルト／ビス
  6
CONTINUOUS
 62
    64
 10
4.341112
 20
-95.977676
 40
0.186667
 50
90.0
 51
180.0
  0
LINE
  8
ボルト／ビス
  6
CONTINUOUS
 62
    64
 10
4.606888
 20
-95.791022
 11
4.606888
 21
-95.604355
  0
LINE
  8
ボルト／ビス
  6
CONTINUOUS
 62
    64
 10
4.154437
 20
-96.243455
 11
3.96777
 21
-96.243455
  0
LINE
  8
ボルト／ビス
  6
CONTINUOUS
 62
    64
 10
3.781103
 20
-95.97769
 11
3.781103
 21
-96.243455
  0
LINE
  8
ボルト／ビス
  6
CONTINUOUS
 62
    64
 10
3.594437
 20
-95.791022
 11
3.32867
 21
-95.791022
  0
ARC
  8
ボルト／ビス
  6
CONTINUOUS
 62
    64
 10
3.594445
 20
-95.977676
 40
0.186667
 50
0.0
 51
90.0
  0
LINE
  8
ボルト／ビス
  6
CONTINUOUS
 62
    64
 10
3.32867
 20
-95.791022
 11
3.32867
 21
-95.604355
  0
LINE
  8
ボルト／ビス
  6
CONTINUOUS
 62
    64
 10
3.781103
 20
-96.243455
 11
3.96777
 21
-96.243455
  0
LINE
  8
ボルト／ビス
  6
CONTINUOUS
 62
    64
 10
3.781103
 20
-95.231023
 11
3.781103
 21
-94.96524
  0
LINE
  8
ボルト／ビス
  6
CONTINUOUS
 62
    64
 10
3.594437
 20
-95.41769
 11
3.32867
 21
-95.41769
  0
ARC
  8
ボルト／ビス
  6
CONTINUOUS
 62
    64
 10
3.594445
 20
-95.231009
 40
0.186667
 50
270.0
 51
360.0
  0
LINE
  8
ボルト／ビス
  6
CONTINUOUS
 62
    64
 10
3.32867
 20
-95.41769
 11
3.32867
 21
-95.604355
  0
LINE
  8
ボルト／ビス
  6
CONTINUOUS
 62
    64
 10
3.781103
 20
-94.96524
 11
3.96777
 21
-94.96524
  0
ENDBLK
  0
BLOCK
  2
*GRP_0143
 70
    65
 10
0.0
 20
0.0
  0
INSERT
  2
*GRP_0159
  8
補助線
  6
CONTINUOUS
 62
    64
 10
0.0
 20
0.0
  0
CIRCLE
  8
ボルト／ビス
  6
CONTINUOUS
 62
    64
 10
-18.43223
 20
-95.604355
 40
1.166668
  0
LINE
  8
ボルト／ビス
  6
CONTINUOUS
 62
    64
 10
-18.245562
 20
-95.231023
 11
-18.245562
 21
-94.96524
  0
LINE
  8
ボルト／ビス
  6
CONTINUOUS
 62
    64
 10
-18.058897
 20
-95.41769
 11
-17.79313
 21
-95.41769
  0
ARC
  8
ボルト／ビス
  6
CONTINUOUS
 62
    64
 10
-18.058891
 20
-95.23101
 40
0.186667
 50
180.0
 51
270.0
  0
LINE
  8
ボルト／ビス
  6
CONTINUOUS
 62
    64
 10
-17.79313
 20
-95.41769
 11
-17.79313
 21
-95.604355
  0
LINE
  8
ボルト／ビス
  6
CONTINUOUS
 62
    64
 10
-18.245562
 20
-94.96524
 11
-18.43223
 21
-94.96524
  0
LINE
  8
ボルト／ビス
  6
CONTINUOUS
 62
    64
 10
-18.245562
 20
-95.97769
 11
-18.245562
 21
-96.243455
  0
LINE
  8
ボルト／ビス
  6
CONTINUOUS
 62
    64
 10
-18.058897
 20
-95.791022
 11
-17.79313
 21
-95.791022
  0
ARC
  8
ボルト／ビス
  6
CONTINUOUS
 62
    64
 10
-18.058891
 20
-95.977677
 40
0.186667
 50
90.0
 51
180.0
  0
LINE
  8
ボルト／ビス
  6
CONTINUOUS
 62
    64
 10
-17.79313
 20
-95.791022
 11
-17.79313
 21
-95.604355
  0
LINE
  8
ボルト／ビス
  6
CONTINUOUS
 62
    64
 10
-18.245562
 20
-96.243455
 11
-18.43223
 21
-96.243455
  0
LINE
  8
ボルト／ビス
  6
CONTINUOUS
 62
    64
 10
-18.618898
 20
-95.97769
 11
-18.618898
 21
-96.243455
  0
LINE
  8
ボルト／ビス
  6
CONTINUOUS
 62
    64
 10
-18.805562
 20
-95.791022
 11
-19.07133
 21
-95.791022
  0
ARC
  8
ボルト／ビス
  6
CONTINUOUS
 62
    64
 10
-18.805558
 20
-95.977677
 40
0.186667
 50
0.0
 51
90.0
  0
LINE
  8
ボルト／ビス
  6
CONTINUOUS
 62
    64
 10
-19.07133
 20
-95.791022
 11
-19.07133
 21
-95.604355
  0
LINE
  8
ボルト／ビス
  6
CONTINUOUS
 62
    64
 10
-18.618898
 20
-96.243455
 11
-18.43223
 21
-96.243455
  0
LINE
  8
ボルト／ビス
  6
CONTINUOUS
 62
    64
 10
-18.618898
 20
-95.231023
 11
-18.618898
 21
-94.96524
  0
LINE
  8
ボルト／ビス
  6
CONTINUOUS
 62
    64
 10
-18.805562
 20
-95.41769
 11
-19.07133
 21
-95.41769
  0
ARC
  8
ボルト／ビス
  6
CONTINUOUS
 62
    64
 10
-18.805558
 20
-95.23101
 40
0.186667
 50
270.0
 51
360.0
  0
LINE
  8
ボルト／ビス
  6
CONTINUOUS
 62
    64
 10
-19.07133
 20
-95.41769
 11
-19.07133
 21
-95.604355
  0
LINE
  8
ボルト／ビス
  6
CONTINUOUS
 62
    64
 10
-18.618898
 20
-94.96524
 11
-18.43223
 21
-94.96524
  0
ENDBLK
  0
BLOCK
  2
*GRP_0144
 70
    65
 10
0.0
 20
0.0
  0
INSERT
  2
*GRP_0160
  8
補助線
  6
CONTINUOUS
 62
    64
 10
0.0
 20
0.0
  0
CIRCLE
  8
ボルト／ビス
  6
CONTINUOUS
 62
    64
 10
9.56777
 20
-95.604355
 40
1.166668
  0
LINE
  8
ボルト／ビス
  6
CONTINUOUS
 62
    64
 10
9.381103
 20
-95.231023
 11
9.381103
 21
-94.96524
  0
LINE
  8
ボルト／ビス
  6
CONTINUOUS
 62
    64
 10
9.194437
 20
-95.41769
 11
8.92867
 21
-95.41769
  0
ARC
  8
ボルト／ビス
  6
CONTINUOUS
 62
    64
 10
9.194443
 20
-95.23101
 40
0.186667
 50
270.0
 51
360.0
  0
LINE
  8
ボルト／ビス
  6
CONTINUOUS
 62
    64
 10
8.92867
 20
-95.41769
 11
8.92867
 21
-95.604355
  0
LINE
  8
ボルト／ビス
  6
CONTINUOUS
 62
    64
 10
9.381103
 20
-94.96524
 11
9.56777
 21
-94.96524
  0
LINE
  8
ボルト／ビス
  6
CONTINUOUS
 62
    64
 10
9.381103
 20
-95.97769
 11
9.381103
 21
-96.243455
  0
LINE
  8
ボルト／ビス
  6
CONTINUOUS
 62
    64
 10
9.194437
 20
-95.791022
 11
8.92867
 21
-95.791022
  0
ARC
  8
ボルト／ビス
  6
CONTINUOUS
 62
    64
 10
9.194443
 20
-95.977677
 40
0.186667
 50
0.0
 51
90.0
  0
LINE
  8
ボルト／ビス
  6
CONTINUOUS
 62
    64
 10
8.92867
 20
-95.791022
 11
8.92867
 21
-95.604355
  0
LINE
  8
ボルト／ビス
  6
CONTINUOUS
 62
    64
 10
9.381103
 20
-96.243455
 11
9.56777
 21
-96.243455
  0
LINE
  8
ボルト／ビス
  6
CONTINUOUS
 62
    64
 10
9.754437
 20
-95.97769
 11
9.754437
 21
-96.243455
  0
LINE
  8
ボルト／ビス
  6
CONTINUOUS
 62
    64
 10
9.941102
 20
-95.791022
 11
10.20687
 21
-95.791022
  0
ARC
  8
ボルト／ビス
  6
CONTINUOUS
 62
    64
 10
9.94111
 20
-95.977677
 40
0.186667
 50
90.0
 51
180.0
  0
LINE
  8
ボルト／ビス
  6
CONTINUOUS
 62
    64
 10
10.20687
 20
-95.791022
 11
10.20687
 21
-95.604355
  0
LINE
  8
ボルト／ビス
  6
CONTINUOUS
 62
    64
 10
9.754437
 20
-96.243455
 11
9.56777
 21
-96.243455
  0
LINE
  8
ボルト／ビス
  6
CONTINUOUS
 62
    64
 10
9.754437
 20
-95.231023
 11
9.754437
 21
-94.96524
  0
LINE
  8
ボルト／ビス
  6
CONTINUOUS
 62
    64
 10
9.941102
 20
-95.41769
 11
10.20687
 21
-95.41769
  0
ARC
  8
ボルト／ビス
  6
CONTINUOUS
 62
    64
 10
9.94111
 20
-95.23101
 40
0.186667
 50
180.0
 51
270.0
  0
LINE
  8
ボルト／ビス
  6
CONTINUOUS
 62
    64
 10
10.20687
 20
-95.41769
 11
10.20687
 21
-95.604355
  0
LINE
  8
ボルト／ビス
  6
CONTINUOUS
 62
    64
 10
9.754437
 20
-94.96524
 11
9.56777
 21
-94.96524
  0
ENDBLK
  0
BLOCK
  2
*GRP_0145
 70
    65
 10
0.0
 20
0.0
  0
INSERT
  2
*GRP_0161
  8
補助線
  6
CONTINUOUS
 62
    64
 10
0.0
 20
0.0
  0
CIRCLE
  8
ボルト／ビス
  6
CONTINUOUS
 62
    64
 10
-12.83223
 20
-95.604355
 40
1.166668
  0
LINE
  8
ボルト／ビス
  6
CONTINUOUS
 62
    64
 10
-12.645562
 20
-95.231023
 11
-12.645562
 21
-94.96524
  0
LINE
  8
ボルト／ビス
  6
CONTINUOUS
 62
    64
 10
-12.458897
 20
-95.41769
 11
-12.19313
 21
-95.41769
  0
ARC
  8
ボルト／ビス
  6
CONTINUOUS
 62
    64
 10
-12.458893
 20
-95.23101
 40
0.186667
 50
180.0
 51
270.0
  0
LINE
  8
ボルト／ビス
  6
CONTINUOUS
 62
    64
 10
-12.19313
 20
-95.41769
 11
-12.19313
 21
-95.604355
  0
LINE
  8
ボルト／ビス
  6
CONTINUOUS
 62
    64
 10
-12.645562
 20
-94.96524
 11
-12.83223
 21
-94.96524
  0
LINE
  8
ボルト／ビス
  6
CONTINUOUS
 62
    64
 10
-12.645562
 20
-95.97769
 11
-12.645562
 21
-96.243455
  0
LINE
  8
ボルト／ビス
  6
CONTINUOUS
 62
    64
 10
-12.458897
 20
-95.791022
 11
-12.19313
 21
-95.791022
  0
ARC
  8
ボルト／ビス
  6
CONTINUOUS
 62
    64
 10
-12.458893
 20
-95.977677
 40
0.186667
 50
90.0
 51
180.0
  0
LINE
  8
ボルト／ビス
  6
CONTINUOUS
 62
    64
 10
-12.19313
 20
-95.791022
 11
-12.19313
 21
-95.604355
  0
LINE
  8
ボルト／ビス
  6
CONTINUOUS
 62
    64
 10
-12.645562
 20
-96.243455
 11
-12.83223
 21
-96.243455
  0
LINE
  8
ボルト／ビス
  6
CONTINUOUS
 62
    64
 10
-13.018898
 20
-95.97769
 11
-13.018898
 21
-96.243455
  0
LINE
  8
ボルト／ビス
  6
CONTINUOUS
 62
    64
 10
-13.205562
 20
-95.791022
 11
-13.47133
 21
-95.791022
  0
ARC
  8
ボルト／ビス
  6
CONTINUOUS
 62
    64
 10
-13.20556
 20
-95.977677
 40
0.186667
 50
0.0
 51
90.0
  0
LINE
  8
ボルト／ビス
  6
CONTINUOUS
 62
    64
 10
-13.47133
 20
-95.791022
 11
-13.47133
 21
-95.604355
  0
LINE
  8
ボルト／ビス
  6
CONTINUOUS
 62
    64
 10
-13.018898
 20
-96.243455
 11
-12.83223
 21
-96.243455
  0
LINE
  8
ボルト／ビス
  6
CONTINUOUS
 62
    64
 10
-13.018898
 20
-95.231023
 11
-13.018898
 21
-94.96524
  0
LINE
  8
ボルト／ビス
  6
CONTINUOUS
 62
    64
 10
-13.205562
 20
-95.41769
 11
-13.47133
 21
-95.41769
  0
ARC
  8
ボルト／ビス
  6
CONTINUOUS
 62
    64
 10
-13.20556
 20
-95.23101
 40
0.186667
 50
270.0
 51
360.0
  0
LINE
  8
ボルト／ビス
  6
CONTINUOUS
 62
    64
 10
-13.47133
 20
-95.41769
 11
-13.47133
 21
-95.604355
  0
LINE
  8
ボルト／ビス
  6
CONTINUOUS
 62
    64
 10
-13.018898
 20
-94.96524
 11
-12.83223
 21
-94.96524
  0
ENDBLK
  0
BLOCK
  2
*GRP_0146
 70
    65
 10
0.0
 20
0.0
  0
INSERT
  2
*GRP_0162
  8
補助線
  6
CONTINUOUS
 62
    64
 10
0.0
 20
0.0
  0
CIRCLE
  8
ボルト／ビス
  6
CONTINUOUS
 62
    64
 10
3.96777
 20
-95.604355
 40
1.166668
  0
LINE
  8
ボルト／ビス
  6
CONTINUOUS
 62
    64
 10
4.154437
 20
-95.231023
 11
4.154437
 21
-94.96524
  0
LINE
  8
ボルト／ビス
  6
CONTINUOUS
 62
    64
 10
4.341102
 20
-95.41769
 11
4.606888
 21
-95.41769
  0
ARC
  8
ボルト／ビス
  6
CONTINUOUS
 62
    64
 10
4.341112
 20
-95.23101
 40
0.186667
 50
180.0
 51
270.0
  0
LINE
  8
ボルト／ビス
  6
CONTINUOUS
 62
    64
 10
4.606888
 20
-95.41769
 11
4.606888
 21
-95.604355
  0
LINE
  8
ボルト／ビス
  6
CONTINUOUS
 62
    64
 10
4.154437
 20
-94.96524
 11
3.96777
 21
-94.96524
  0
LINE
  8
ボルト／ビス
  6
CONTINUOUS
 62
    64
 10
4.154437
 20
-95.97769
 11
4.154437
 21
-96.243455
  0
LINE
  8
ボルト／ビス
  6
CONTINUOUS
 62
    64
 10
4.341102
 20
-95.791022
 11
4.606888
 21
-95.791022
  0
ARC
  8
ボルト／ビス
  6
CONTINUOUS
 62
    64
 10
4.341112
 20
-95.977677
 40
0.186667
 50
90.0
 51
180.0
  0
LINE
  8
ボルト／ビス
  6
CONTINUOUS
 62
    64
 10
4.606888
 20
-95.791022
 11
4.606888
 21
-95.604355
  0
LINE
  8
ボルト／ビス
  6
CONTINUOUS
 62
    64
 10
4.154437
 20
-96.243455
 11
3.96777
 21
-96.243455
  0
LINE
  8
ボルト／ビス
  6
CONTINUOUS
 62
    64
 10
3.781103
 20
-95.97769
 11
3.781103
 21
-96.243455
  0
LINE
  8
ボルト／ビス
  6
CONTINUOUS
 62
    64
 10
3.594437
 20
-95.791022
 11
3.32867
 21
-95.791022
  0
ARC
  8
ボルト／ビス
  6
CONTINUOUS
 62
    64
 10
3.594445
 20
-95.977677
 40
0.186667
 50
0.0
 51
90.0
  0
LINE
  8
ボルト／ビス
  6
CONTINUOUS
 62
    64
 10
3.32867
 20
-95.791022
 11
3.32867
 21
-95.604355
  0
LINE
  8
ボルト／ビス
  6
CONTINUOUS
 62
    64
 10
3.781103
 20
-96.243455
 11
3.96777
 21
-96.243455
  0
LINE
  8
ボルト／ビス
  6
CONTINUOUS
 62
    64
 10
3.781103
 20
-95.231023
 11
3.781103
 21
-94.96524
  0
LINE
  8
ボルト／ビス
  6
CONTINUOUS
 62
    64
 10
3.594437
 20
-95.41769
 11
3.32867
 21
-95.41769
  0
ARC
  8
ボルト／ビス
  6
CONTINUOUS
 62
    64
 10
3.594445
 20
-95.23101
 40
0.186667
 50
270.0
 51
360.0
  0
LINE
  8
ボルト／ビス
  6
CONTINUOUS
 62
    64
 10
3.32867
 20
-95.41769
 11
3.32867
 21
-95.604355
  0
LINE
  8
ボルト／ビス
  6
CONTINUOUS
 62
    64
 10
3.781103
 20
-94.96524
 11
3.96777
 21
-94.96524
  0
ENDBLK
  0
BLOCK
  2
*GRP_0147
 70
    65
 10
0.0
 20
0.0
  0
LINE
  8
ボルト／ビス
  6
CONTINUOUS
 62
    64
 10
-13.398898
 20
-83.072205
 11
-13.398898
 21
-84.40554
  0
LINE
  8
ボルト／ビス
  6
CONTINUOUS
 62
    64
 10
-11.498898
 20
-83.072205
 11
-11.33223
 21
-83.238872
  0
LINE
  8
ボルト／ビス
  6
CONTINUOUS
 62
    64
 10
-11.498898
 20
-84.40554
 11
-11.33223
 21
-84.238872
  0
LINE
  8
ボルト／ビス
  6
CONTINUOUS
 62
    64
 10
-11.33223
 20
-83.238872
 11
-11.33223
 21
-84.238872
  0
LINE
  8
ボルト／ビス
  6
CONTINUOUS
 62
    64
 10
-11.498898
 20
-83.072205
 11
-11.498898
 21
-84.40554
  0
LINE
  8
ボルト／ビス
  6
CONTINUOUS
 62
    64
 10
-13.398898
 20
-83.238872
 11
-11.33223
 21
-83.238872
  0
LINE
  8
ボルト／ビス
  6
CONTINUOUS
 62
    64
 10
-13.398898
 20
-84.238872
 11
-11.33223
 21
-84.238872
  0
LINE
  8
ボルト／ビス
  6
CONTINUOUS
 62
    64
 10
-13.398898
 20
-84.40554
 11
-11.498898
 21
-84.40554
  0
LINE
  8
ボルト／ビス
  6
CONTINUOUS
 62
    64
 10
-13.398898
 20
-83.072205
 11
-11.498898
 21
-83.072205
  0
LINE
  8
ボルト／ビス
  6
DASHDOT
 62
    64
 10
-14.998898
 20
-83.738872
 11
-10.33223
 21
-83.738872
  0
LINE
  8
ボルト／ビス
  6
DOT
 62
    64
 10
-13.998898
 20
-82.738872
 11
-13.398898
 21
-83.072205
  0
LINE
  8
ボルト／ビス
  6
DOT
 62
    64
 10
-13.998898
 20
-82.738872
 11
-13.998898
 21
-84.738872
  0
LINE
  8
ボルト／ビス
  6
DOT
 62
    64
 10
-13.998898
 20
-84.738872
 11
-13.398898
 21
-84.40554
  0
ENDBLK
  0
BLOCK
  2
*GRP_0148
 70
    65
 10
0.0
 20
0.0
  0
LINE
  8
ボルト／ビス
  6
CONTINUOUS
 62
    64
 10
4.534438
 20
-83.072205
 11
4.534438
 21
-84.40554
  0
LINE
  8
ボルト／ビス
  6
CONTINUOUS
 62
    64
 10
2.634438
 20
-83.072205
 11
2.46777
 21
-83.238872
  0
LINE
  8
ボルト／ビス
  6
CONTINUOUS
 62
    64
 10
2.634438
 20
-84.40554
 11
2.46777
 21
-84.238872
  0
LINE
  8
ボルト／ビス
  6
CONTINUOUS
 62
    64
 10
2.46777
 20
-83.238872
 11
2.46777
 21
-84.238872
  0
LINE
  8
ボルト／ビス
  6
CONTINUOUS
 62
    64
 10
2.634438
 20
-83.072205
 11
2.634438
 21
-84.40554
  0
LINE
  8
ボルト／ビス
  6
CONTINUOUS
 62
    64
 10
4.534438
 20
-83.238872
 11
2.46777
 21
-83.238872
  0
LINE
  8
ボルト／ビス
  6
CONTINUOUS
 62
    64
 10
4.534438
 20
-84.238872
 11
2.46777
 21
-84.238872
  0
LINE
  8
ボルト／ビス
  6
CONTINUOUS
 62
    64
 10
4.534438
 20
-84.40554
 11
2.634438
 21
-84.40554
  0
LINE
  8
ボルト／ビス
  6
CONTINUOUS
 62
    64
 10
4.534438
 20
-83.072205
 11
2.634438
 21
-83.072205
  0
LINE
  8
ボルト／ビス
  6
DASHDOT
 62
    64
 10
6.134438
 20
-83.738872
 11
1.46777
 21
-83.738872
  0
LINE
  8
ボルト／ビス
  6
DOT
 62
    64
 10
5.134438
 20
-82.738872
 11
4.534438
 21
-83.072205
  0
LINE
  8
ボルト／ビス
  6
DOT
 62
    64
 10
5.134438
 20
-82.738872
 11
5.134438
 21
-84.738872
  0
LINE
  8
ボルト／ビス
  6
DOT
 62
    64
 10
5.134438
 20
-84.738872
 11
4.534438
 21
-84.40554
  0
ENDBLK
  0
BLOCK
  2
*GRP_0149
 70
    65
 10
0.0
 20
0.0
  0
LINE
  8
ボルト／ビス
  6
CONTINUOUS
 62
    64
 10
-5.598898
 20
-85.738872
 11
-5.56833
 21
-85.38949
  0
ARC
  8
ボルト／ビス
  6
CONTINUOUS
 62
    64
 10
-5.003816
 20
-85.438861
 40
0.566667
 50
90.0
 51
175.000011
  0
LINE
  8
ボルト／ビス
  6
CONTINUOUS
 62
    64
 10
-5.003813
 20
-84.872205
 11
-4.43223
 21
-84.872205
  0
LINE
  8
ボルト／ビス
  6
CONTINUOUS
 62
    64
 10
-3.265563
 20
-85.738872
 11
-3.29613
 21
-85.38949
  0
ARC
  8
ボルト／ビス
  6
CONTINUOUS
 62
    64
 10
-3.860638
 20
-85.438861
 40
0.566667
 50
4.999989
 51
90.0
  0
LINE
  8
ボルト／ビス
  6
CONTINUOUS
 62
    64
 10
-3.860647
 20
-84.872205
 11
-4.43223
 21
-84.872205
  0
LINE
  8
ボルト／ビス
  6
CONTINUOUS
 62
    64
 10
-5.231113
 20
-85.000505
 11
-5.231113
 21
-84.91979
  0
LINE
  8
ボルト／ビス
  6
CONTINUOUS
 62
    64
 10
-4.665563
 20
-85.217205
 11
-4.43223
 21
-85.217205
  0
LINE
  8
ボルト／ビス
  6
CONTINUOUS
 62
    64
 10
-4.798898
 20
-85.000505
 11
-5.231113
 21
-85.000505
  0
LINE
  8
ボルト／ビス
  6
CONTINUOUS
 62
    64
 10
-4.665563
 20
-85.217205
 11
-4.665563
 21
-85.13384
  0
ARC
  8
ボルト／ビス
  6
CONTINUOUS
 62
    64
 10
-4.798894
 20
-85.133829
 40
0.133333
 50
0.0
 51
90.0
  0
LINE
  8
ボルト／ビス
  6
CONTINUOUS
 62
    64
 10
-3.633348
 20
-85.000505
 11
-3.633348
 21
-84.91979
  0
LINE
  8
ボルト／ビス
  6
CONTINUOUS
 62
    64
 10
-4.198898
 20
-85.217205
 11
-4.43223
 21
-85.217205
  0
LINE
  8
ボルト／ビス
  6
CONTINUOUS
 62
    64
 10
-4.065563
 20
-85.000505
 11
-3.633348
 21
-85.000505
  0
LINE
  8
ボルト／ビス
  6
CONTINUOUS
 62
    64
 10
-4.198898
 20
-85.217205
 11
-4.198898
 21
-85.13384
  0
ARC
  8
ボルト／ビス
  6
CONTINUOUS
 62
    64
 10
-4.06556
 20
-85.133829
 40
0.133333
 50
90.0
 51
180.0
  0
LINE
  8
ボルト／ビス
  6
CONTINUOUS
 62
    64
 10
-5.598898
 20
-85.738872
 11
-3.265563
 21
-85.738872
  0
LINE
  8
ボルト／ビス
  6
CONTINUOUS
 62
    64
 10
-5.098898
 20
-90.238872
 11
-4.93223
 21
-90.40554
  0
LINE
  8
ボルト／ビス
  6
CONTINUOUS
 62
    64
 10
-3.765563
 20
-90.238872
 11
-3.93223
 21
-90.40554
  0
LINE
  8
ボルト／ビス
  6
CONTINUOUS
 62
    64
 10
-5.098898
 20
-90.238872
 11
-3.765563
 21
-90.238872
  0
LINE
  8
ボルト／ビス
  6
CONTINUOUS
 62
    64
 10
-4.93223
 20
-90.40554
 11
-3.93223
 21
-90.40554
  0
LINE
  8
ボルト／ビス
  6
CONTINUOUS
 62
    64
 10
-3.765563
 20
-85.738872
 11
-3.765563
 21
-90.238872
  0
LINE
  8
ボルト／ビス
  6
CONTINUOUS
 62
    64
 10
-5.098898
 20
-85.738872
 11
-5.098898
 21
-90.238872
  0
LINE
  8
ボルト／ビス
  6
CONTINUOUS
 62
    64
 10
-4.93223
 20
-85.738872
 11
-4.93223
 21
-90.40554
  0
LINE
  8
ボルト／ビス
  6
CONTINUOUS
 62
    64
 10
-3.93223
 20
-85.738872
 11
-3.93223
 21
-90.40554
  0
LINE
  8
ボルト／ビス
  6
DASHDOT
 62
    64
 10
-4.43223
 20
-83.872205
 11
-4.43223
 21
-91.40554
  0
ENDBLK
  0
BLOCK
  2
*GRP_0150
 70
    65
 10
0.0
 20
0.0
  0
POLYLINE
  8
寸法
  6
CONTINUOUS
 66
     1
  0
VERTEX
  8
寸法
 10
-1.356995
 20
-81.467937
  0
VERTEX
  8
寸法
 10
2.296755
 20
-77.81419
  0
VERTEX
  8
寸法
 10
6.469212
 20
-77.81419
  0
SEQEND
  0
ENDBLK
  0
BLOCK
  2
*DIM_0151
 70
    65
 10
0.0
 20
0.0
  0
LINE
  8
寸法
  6
CONTINUOUS
 10
8.06777
 20
-104.271022
 11
8.06777
 21
-107.32468
  0
LINE
  8
寸法
  6
CONTINUOUS
 10
-16.93223
 20
-104.271022
 11
-16.93223
 21
-107.32468
  0
LINE
  8
寸法
  6
CONTINUOUS
 10
8.06777
 20
-107.32468
 11
-16.93223
 21
-107.32468
  0
POINT
  8
寸法
 10
8.06777
 20
-107.32468
  0
POINT
  8
寸法
 10
-16.93223
 20
-107.32468
  0
TEXT
  7
TextStyle03
  8
寸法
  6
CONTINUOUS
 10
-6.01875
 20
-106.925
  1
75
 40
3.0
 72
     5
 11
-2.83125
 21
-106.925
  0
ENDBLK
  0
BLOCK
  2
*GRP_0152
 70
    65
 10
0.0
 20
0.0
  0
LINE
  8
ゴム等
  6
CONTINUOUS
 10
-15.700012
 20
-87.604355
 11
-15.700012
 21
-89.671022
  0
LINE
  8
ゴム等
  6
CONTINUOUS
 10
-15.700012
 20
-89.671022
 11
-12.36668
 21
-89.671022
  0
LINE
  8
ゴム等
  6
CONTINUOUS
 10
-12.36668
 20
-89.671022
 11
-12.36668
 21
-87.604355
  0
LINE
  8
ゴム等
  6
CONTINUOUS
 10
-15.700012
 20
-87.604355
 11
-12.36668
 21
-87.604355
  0
INSERT
  2
*HAT_0009
  8
ゴム等
 10
0.0
 20
0.0
  0
ENDBLK
  0
BLOCK
  2
*GRP_0153
 70
    65
 10
0.0
 20
0.0
  0
LINE
  8
ゴム等
  6
CONTINUOUS
 10
3.50222
 20
-87.604355
 11
3.50222
 21
-89.671022
  0
LINE
  8
ゴム等
  6
CONTINUOUS
 10
3.50222
 20
-89.671022
 11
6.835553
 21
-89.671022
  0
LINE
  8
ゴム等
  6
CONTINUOUS
 10
6.835553
 20
-89.671022
 11
6.835553
 21
-87.604355
  0
LINE
  8
ゴム等
  6
CONTINUOUS
 10
3.50222
 20
-87.604355
 11
6.835553
 21
-87.604355
  0
INSERT
  2
*HAT_0010
  8
ゴム等
 10
0.0
 20
0.0
  0
ENDBLK
  0
BLOCK
  2
*GRP_0154
 70
    65
 10
0.0
 20
0.0
  0
LINE
  8
曲げ物
  6
CONTINUOUS
 10
-7.265563
 20
-93.604355
 11
-7.798895
 21
-93.604355
  0
LINE
  8
曲げ物
  6
CONTINUOUS
 10
-1.598898
 20
-93.604355
 11
-1.065565
 21
-93.604355
  0
ARC
  8
曲げ物
  6
CONTINUOUS
 10
-1.5989
 20
-86.80554
 40
0.533333
 50
0.0
 51
90.0
  0
LINE
  8
曲げ物
  6
CONTINUOUS
 10
-7.265563
 20
-86.272205
 11
-1.598898
 21
-86.272205
  0
ARC
  8
曲げ物
  6
CONTINUOUS
 10
-7.265563
 20
-86.80554
 40
0.533333
 50
90.0
 51
180.0
  0
LINE
  8
曲げ物
  6
CONTINUOUS
 10
-7.265563
 20
-86.805537
 11
-1.598898
 21
-86.805537
  0
LINE
  8
曲げ物
  6
CONTINUOUS
 10
-1.598898
 20
-93.604355
 11
-1.598898
 21
-86.805537
  0
LINE
  8
曲げ物
  6
CONTINUOUS
 10
-1.065565
 20
-93.604355
 11
-1.065565
 21
-86.805537
  0
LINE
  8
曲げ物
  6
CONTINUOUS
 10
-7.265563
 20
-93.604355
 11
-7.265563
 21
-86.805537
  0
LINE
  8
曲げ物
  6
CONTINUOUS
 10
-7.798895
 20
-93.604355
 11
-7.798895
 21
-86.805537
  0
ENDBLK
  0
BLOCK
  2
*GRP_0155
 70
    65
 10
0.0
 20
0.0
  0
LINE
  8
補助線
  6
BYBLOCK
 62
    64
 10
-11.098898
 20
-95.604355
 11
-14.565563
 21
-95.604355
  0
LINE
  8
補助線
  6
BYBLOCK
 62
    64
 10
-12.83223
 20
-93.871022
 11
-12.83223
 21
-97.33769
  0
ENDBLK
  0
BLOCK
  2
*GRP_0156
 70
    65
 10
0.0
 20
0.0
  0
LINE
  8
補助線
  6
BYBLOCK
 62
    64
 10
5.701102
 20
-95.604355
 11
2.234438
 21
-95.604355
  0
LINE
  8
補助線
  6
BYBLOCK
 62
    64
 10
3.96777
 20
-93.871022
 11
3.96777
 21
-97.33769
  0
ENDBLK
  0
BLOCK
  2
*GRP_0157
 70
    65
 10
0.0
 20
0.0
  0
LINE
  8
補助線
  6
BYBLOCK
 62
    64
 10
-11.098898
 20
-95.604355
 11
-14.565563
 21
-95.604355
  0
LINE
  8
補助線
  6
BYBLOCK
 62
    64
 10
-12.83223
 20
-93.871022
 11
-12.83223
 21
-97.33769
  0
ENDBLK
  0
BLOCK
  2
*GRP_0158
 70
    65
 10
0.0
 20
0.0
  0
LINE
  8
補助線
  6
BYBLOCK
 62
    64
 10
5.701102
 20
-95.604355
 11
2.234438
 21
-95.604355
  0
LINE
  8
補助線
  6
BYBLOCK
 62
    64
 10
3.96777
 20
-93.871022
 11
3.96777
 21
-97.33769
  0
ENDBLK
  0
BLOCK
  2
*GRP_0159
 70
    65
 10
0.0
 20
0.0
  0
LINE
  8
補助線
  6
BYBLOCK
 62
    64
 10
-16.698898
 20
-95.604355
 11
-20.165563
 21
-95.604355
  0
LINE
  8
補助線
  6
BYBLOCK
 62
    64
 10
-18.43223
 20
-93.871022
 11
-18.43223
 21
-97.33769
  0
ENDBLK
  0
BLOCK
  2
*GRP_0160
 70
    65
 10
0.0
 20
0.0
  0
LINE
  8
補助線
  6
BYBLOCK
 62
    64
 10
7.834438
 20
-95.604355
 11
11.301102
 21
-95.604355
  0
LINE
  8
補助線
  6
BYBLOCK
 62
    64
 10
9.56777
 20
-93.871022
 11
9.56777
 21
-97.33769
  0
ENDBLK
  0
BLOCK
  2
*GRP_0161
 70
    65
 10
0.0
 20
0.0
  0
LINE
  8
補助線
  6
BYBLOCK
 62
    64
 10
-11.098898
 20
-95.604355
 11
-14.565563
 21
-95.604355
  0
LINE
  8
補助線
  6
BYBLOCK
 62
    64
 10
-12.83223
 20
-93.871022
 11
-12.83223
 21
-97.33769
  0
ENDBLK
  0
BLOCK
  2
*GRP_0162
 70
    65
 10
0.0
 20
0.0
  0
LINE
  8
補助線
  6
BYBLOCK
 62
    64
 10
5.701102
 20
-95.604355
 11
2.234438
 21
-95.604355
  0
LINE
  8
補助線
  6
BYBLOCK
 62
    64
 10
3.96777
 20
-93.871022
 11
3.96777
 21
-97.33769
  0
ENDBLK
  0
BLOCK
  2
*GRP_0163
 70
    65
 10
0.0
 20
0.0
  0
POLYLINE
  8
寸法
  6
CONTINUOUS
 66
     1
  0
VERTEX
  8
寸法
 10
-60.745723
 20
-53.738158
  0
VERTEX
  8
寸法
 10
-54.951973
 20
-67.461513
  0
VERTEX
  8
寸法
 10
-52.183882
 20
-67.461513
  0
SEQEND
  0
ENDBLK
  0
BLOCK
  2
*GRP_0164
 70
    65
 10
0.0
 20
0.0
  0
LINE
  8
型材断面
  6
CONTINUOUS
 62
    47
 10
129.095578
 20
11.954628
 11
129.095578
 21
22.278492
  0
LINE
  8
型材断面
  6
CONTINUOUS
 62
    47
 10
167.762313
 20
15.724798
 11
129.095578
 21
22.278492
  0
LINE
  8
型材断面
  6
CONTINUOUS
 62
    47
 10
167.762313
 20
15.724798
 11
167.762313
 21
11.954628
  0
LINE
  8
型材断面
  6
CONTINUOUS
 62
    47
 10
163.42894
 20
11.288003
 11
168.428858
 21
11.288003
  0
LINE
  8
型材断面
  6
CONTINUOUS
 62
    47
 10
134.962207
 20
11.954628
 11
129.095578
 21
11.954628
  0
LINE
  8
型材断面
  6
CONTINUOUS
 62
    47
 10
134.962207
 20
11.288003
 11
128.42892
 21
11.288003
  0
LINE
  8
型材断面
  6
CONTINUOUS
 62
    47
 10
135.095598
 20
11.421333
 11
135.095598
 21
11.821355
  0
LINE
  8
型材断面
  6
CONTINUOUS
 62
    47
 10
160.228875
 20
11.954628
 11
167.762313
 21
11.954628
  0
LINE
  8
型材断面
  6
CONTINUOUS
 62
    47
 10
160.228875
 20
11.288003
 11
162.762225
 21
11.288003
  0
LINE
  8
型材断面
  6
CONTINUOUS
 62
    47
 10
160.095602
 20
11.421333
 11
160.095602
 21
11.821355
  0
LINE
  8
型材断面
  6
CONTINUOUS
 62
    47
 10
168.428858
 20
11.288003
 11
168.428858
 21
16.28798
  0
LINE
  8
型材断面
  6
CONTINUOUS
 62
    47
 10
168.428858
 20
16.28798
 11
139.095543
 21
21.259785
  0
LINE
  8
型材断面
  6
CONTINUOUS
 62
    47
 10
138.428935
 20
21.372785
 11
129.095578
 21
22.95466
  0
LINE
  8
型材断面
  6
CONTINUOUS
 62
    47
 10
138.428935
 20
23.954637
 11
136.929
 21
23.954637
  0
LINE
  8
型材断面
  6
CONTINUOUS
 62
    47
 10
136.929
 20
25.621307
 11
137.328935
 21
25.621307
  0
LINE
  8
型材断面
  6
CONTINUOUS
 62
    47
 10
137.328935
 20
25.621307
 11
137.328935
 21
24.621318
  0
LINE
  8
型材断面
  6
CONTINUOUS
 62
    47
 10
137.328935
 20
24.621318
 11
138.428935
 21
24.621318
  0
LINE
  8
型材断面
  6
CONTINUOUS
 62
    47
 10
138.428935
 20
23.954637
 11
138.428935
 21
21.372785
  0
LINE
  8
型材断面
  6
CONTINUOUS
 62
    47
 10
136.929
 20
25.621307
 11
136.929
 21
23.954637
  0
ARC
  8
型材断面
  6
CONTINUOUS
 62
    47
 10
134.962209
 20
11.821354
 40
0.133333
 50
359.997253
 51
449.998627
  0
ARC
  8
型材断面
  6
CONTINUOUS
 62
    47
 10
134.962209
 20
11.421331
 40
0.133333
 50
269.99588
 51
359.997253
  0
ARC
  8
型材断面
  6
CONTINUOUS
 62
    47
 10
160.228876
 20
11.821354
 40
0.133333
 50
89.998627
 51
180.0
  0
ARC
  8
型材断面
  6
CONTINUOUS
 62
    47
 10
160.228876
 20
11.421331
 40
0.133333
 50
180.0
 51
269.99588
  0
LINE
  8
型材断面
  6
CONTINUOUS
 62
    47
 10
137.328935
 20
38.621233
 11
136.929
 21
38.621233
  0
LINE
  8
型材断面
  6
CONTINUOUS
 62
    47
 10
137.328935
 20
37.954552
 11
138.428935
 21
37.954552
  0
LINE
  8
型材断面
  6
CONTINUOUS
 62
    47
 10
136.929
 20
38.621233
 11
139.095543
 21
38.621233
  0
LINE
  8
型材断面
  6
CONTINUOUS
 62
    47
 10
139.095543
 20
37.95468
 11
139.095543
 21
38.621233
  0
LINE
  8
型材断面
  6
CONTINUOUS
 62
    47
 10
138.428935
 20
37.95468
 11
137.328935
 21
37.95468
  0
LINE
  8
型材断面
  6
CONTINUOUS
 62
    47
 10
138.428935
 20
30.95464
 11
130.762275
 21
30.95464
  0
LINE
  8
型材断面
  6
CONTINUOUS
 62
    47
 10
130.762275
 20
30.95464
 11
130.762275
 21
32.287958
  0
LINE
  8
型材断面
  6
CONTINUOUS
 62
    47
 10
130.762275
 20
32.287958
 11
131.16221
 21
32.287958
  0
LINE
  8
型材断面
  6
CONTINUOUS
 62
    47
 10
131.16221
 20
31.621337
 11
131.16221
 21
32.287958
  0
LINE
  8
型材断面
  6
CONTINUOUS
 62
    47
 10
136.09571
 20
32.887938
 11
134.76234
 21
32.887938
  0
LINE
  8
型材断面
  6
CONTINUOUS
 62
    47
 10
134.76234
 20
32.887938
 11
134.76234
 21
31.621268
  0
LINE
  8
型材断面
  6
CONTINUOUS
 62
    47
 10
135.262303
 20
31.621268
 11
135.262303
 21
32.387938
  0
LINE
  8
型材断面
  6
CONTINUOUS
 62
    47
 10
135.262303
 20
32.387938
 11
136.09571
 21
32.387938
  0
LINE
  8
型材断面
  6
CONTINUOUS
 62
    47
 10
136.09571
 20
32.387938
 11
136.09571
 21
32.887938
  0
LINE
  8
型材断面
  6
CONTINUOUS
 62
    47
 10
131.16221
 20
31.621337
 11
134.76234
 21
31.621337
  0
LINE
  8
型材断面
  6
CONTINUOUS
 62
    47
 10
135.262303
 20
31.621268
 11
138.428935
 21
31.621268
  0
LINE
  8
型材断面
  6
CONTINUOUS
 62
    47
 10
138.428935
 20
24.621318
 11
138.428935
 21
30.95464
  0
LINE
  8
型材断面
  6
CONTINUOUS
 62
    47
 10
138.428935
 20
37.95468
 11
138.428935
 21
31.621268
  0
LINE
  8
型材断面
  6
CONTINUOUS
 10
136.929
 20
36.954567
 11
137.328935
 21
36.954567
  0
LINE
  8
型材断面
  6
CONTINUOUS
 62
    47
 10
137.328935
 20
37.954552
 11
137.328935
 21
36.954567
  0
LINE
  8
型材断面
  6
CONTINUOUS
 62
    47
 10
139.962242
 20
35.854645
 11
139.095543
 21
35.854645
  0
LINE
  8
型材断面
  6
CONTINUOUS
 62
    47
 10
139.962242
 20
35.454667
 11
139.095543
 21
35.454667
  0
LINE
  8
型材断面
  6
CONTINUOUS
 62
    47
 10
140.095515
 20
35.588
 11
140.095515
 21
35.72133
  0
ARC
  8
型材断面
  6
CONTINUOUS
 62
    47
 10
139.962245
 20
35.72133
 40
0.133333
 50
359.997253
 51
449.998627
  0
ARC
  8
型材断面
  6
CONTINUOUS
 62
    47
 10
139.962245
 20
35.587998
 40
0.133333
 50
269.99588
 51
359.997253
  0
LINE
  8
型材断面
  6
CONTINUOUS
 62
    47
 10
148.961705
 20
35.454667
 11
150.495012
 21
35.454667
  0
LINE
  8
型材断面
  6
CONTINUOUS
 62
    47
 10
148.961705
 20
35.854645
 11
149.828428
 21
35.854645
  0
LINE
  8
型材断面
  6
CONTINUOUS
 62
    47
 10
148.828433
 20
35.72133
 11
148.828433
 21
35.588
  0
ARC
  8
型材断面
  6
CONTINUOUS
 62
    47
 10
148.961707
 20
35.587998
 40
0.133333
 50
180.0
 51
269.99588
  0
ARC
  8
型材断面
  6
CONTINUOUS
 62
    47
 10
148.961707
 20
35.72133
 40
0.133333
 50
89.998627
 51
180.0
  0
LINE
  8
型材断面
  6
CONTINUOUS
 62
    47
 10
139.095543
 20
21.259785
 11
139.095543
 21
35.454667
  0
LINE
  8
型材断面
  6
CONTINUOUS
 10
139.095543
 20
36.95468
 11
149.828428
 21
36.95468
  0
LINE
  8
型材断面
  6
CONTINUOUS
 62
    47
 10
149.828428
 20
35.854645
 11
149.828428
 21
36.95468
  0
LINE
  8
型材断面
  6
CONTINUOUS
 62
    47
 10
139.095543
 20
35.854645
 11
139.095543
 21
36.95468
  0
LINE
  8
型材断面
  6
CONTINUOUS
 10
145.095077
 20
37.85468
 11
144.995077
 21
37.95468
  0
LINE
  8
型材断面
  6
CONTINUOUS
 62
    47
 10
139.095543
 20
37.95468
 11
144.995077
 21
37.95468
  0
LINE
  8
型材断面
  6
CONTINUOUS
 10
145.095077
 20
37.85468
 11
145.195077
 21
37.95468
  0
LINE
  8
型材断面
  6
CONTINUOUS
 62
    47
 10
145.195077
 20
37.95468
 11
150.495012
 21
37.95468
  0
LINE
  8
型材断面
  6
CONTINUOUS
 10
150.495012
 20
35.454667
 11
150.495012
 21
37.95468
  0
LINE
  8
型材断面
  6
CONTINUOUS
 62
    47
 10
162.762225
 20
11.288003
 11
162.762225
 21
6.288003
  0
LINE
  8
型材断面
  6
CONTINUOUS
 10
163.428953
 20
6.288003
 11
162.762225
 21
6.288003
  0
LINE
  8
型材断面
  6
CONTINUOUS
 10
163.328953
 20
8.788003
 11
163.428953
 21
8.888003
  0
LINE
  8
型材断面
  6
CONTINUOUS
 10
163.328953
 20
8.788003
 11
163.428953
 21
8.688003
  0
LINE
  8
型材断面
  6
CONTINUOUS
 62
    47
 10
163.42894
 20
11.288003
 11
163.42894
 21
8.88799
  0
LINE
  8
型材断面
  6
CONTINUOUS
 62
    47
 10
163.42894
 20
8.688015
 11
163.42894
 21
6.288003
  0
LINE
  8
型材断面
  6
CONTINUOUS
 10
129.095578
 20
25.95466
 11
128.42892
 21
25.95466
  0
LINE
  8
型材断面
  6
CONTINUOUS
 62
    47
 10
129.095578
 20
22.95466
 11
129.095578
 21
25.95466
  0
LINE
  8
型材断面
  6
CONTINUOUS
 62
    47
 10
128.42892
 20
11.288003
 11
128.42892
 21
25.95466
  0
LINE
  8
型材断面
  6
CONTINUOUS
 10
136.929
 20
38.621233
 11
136.929
 21
36.954567
  0
CIRCLE
  8
LAYER010
  6
CONTINUOUS
 62
     7
 10
168.428858
 20
16.28798
 40
0.11111
  0
ENDBLK
  0
ENDSEC
  0
SECTION
  2
ENTITIES
  0
POLYLINE
  8
通り芯
  6
CONTINUOUS
 66
     1
 70
     1
  0
VERTEX
  8
通り芯
 10
-210.0
 20
-148.5
  0
VERTEX
  8
通り芯
 10
210.0
 20
-148.5
  0
VERTEX
  8
通り芯
 10
210.0
 20
148.5
  0
VERTEX
  8
通り芯
 10
-210.0
 20
148.5
  0
SEQEND
  0
LINE
  8
通り芯
  6
CONTINUOUS
 10
-79.66702
 20
-29.035958
 11
-79.66702
 21
-29.702607
  0
LINE
  8
通り芯
  6
CONTINUOUS
 10
-69.1008
 20
-29.035958
 11
-69.1008
 21
-29.702607
  0
LINE
  8
通り芯
  6
CONTINUOUS
 62
    15
 10
-79.66702
 20
-29.702607
 11
-69.1008
 21
-29.702607
  0
LINE
  8
通り芯
  6
CONTINUOUS
 10
-79.66702
 20
-29.702607
 11
-69.1008
 21
-29.035958
  0
LINE
  8
通り芯
  6
CONTINUOUS
 10
70.80256
 20
-29.035958
 11
70.80256
 21
-29.702607
  0
LINE
  8
通り芯
  6
CONTINUOUS
 10
60.23634
 20
-29.035958
 11
60.23634
 21
-29.702607
  0
LINE
  8
通り芯
  6
CONTINUOUS
 62
    15
 10
70.80256
 20
-29.702607
 11
60.23634
 21
-29.702607
  0
LINE
  8
通り芯
  6
CONTINUOUS
 10
70.80256
 20
-29.702607
 11
60.23634
 21
-29.035958
  0
INSERT
  2
*GRP_0002
  8
型材
  6
DOT
 10
0.0
 20
0.0
  0
INSERT
  2
*GRP_0003
  8
型材
  6
DOT
 10
0.0
 20
0.0
  0
INSERT
  2
*GRP_0001
  8
型材断面
  6
CONTINUOUS
 10
0.0
 20
0.0
  0
LINE
  8
型材断面
  6
CONTINUOUS
 10
-4.43223
 20
-54.702635
 11
-58.350845
 21
-54.702635
  0
LINE
  8
型材断面
  6
CONTINUOUS
 10
-4.43223
 20
-54.702635
 11
49.486385
 21
-54.702635
  0
LINE
  8
型材断面
  6
DASHDOT
 10
-68.350335
 20
3.095732
 11
-68.350335
 21
-35.702592
  0
LINE
  8
型材断面
  6
DASHDOT
 10
59.485875
 20
3.095732
 11
59.485875
 21
-35.702592
  0
INSERT
  2
*GRP_0004
  8
型材断面
  6
CONTINUOUS
 10
0.0
 20
0.0
  0
LINE
  8
型材断面
  6
CONTINUOUS
 10
-64.017665
 20
-54.70263
 11
-64.017665
 21
-92.77646
  0
LINE
  8
型材断面
  6
CONTINUOUS
 10
-63.68433
 20
-54.70263
 11
-63.68433
 21
-92.77646
  0
LINE
  8
型材断面
  6
CONTINUOUS
 10
-60.017665
 20
-54.70263
 11
-60.017665
 21
-92.77646
  0
LINE
  8
型材断面
  6
CONTINUOUS
 10
-60.350997
 20
-54.70263
 11
-60.350997
 21
-92.77646
  0
INSERT
  2
*GRP_0005
  8
型材断面
  6
CONTINUOUS
 10
0.0
 20
0.0
  0
LINE
  8
型材断面
  6
CONTINUOUS
 10
94.308312
 20
-72.23442
 11
94.308312
 21
-72.234418
  0
LINE
  8
型材断面
  6
CONTINUOUS
 10
55.153205
 20
-54.70263
 11
55.153205
 21
-92.77646
  0
LINE
  8
型材断面
  6
CONTINUOUS
 10
54.81987
 20
-54.70263
 11
54.81987
 21
-92.77646
  0
LINE
  8
型材断面
  6
CONTINUOUS
 10
51.153205
 20
-54.70263
 11
51.153205
 21
-92.77646
  0
LINE
  8
型材断面
  6
CONTINUOUS
 10
51.486537
 20
-54.70263
 11
51.486537
 21
-92.77646
  0
LINE
  8
型材断面
  6
CONTINUOUS
 10
62.81987
 20
-55.23595
 11
62.81987
 21
-92.77646
  0
INSERT
  2
*GRP_0006
  8
型材断面
  6
CONTINUOUS
 10
0.0
 20
0.0
  0
INSERT
  2
*GRP_0007
  8
型材断面
  6
CONTINUOUS
 10
0.0
 20
0.0
  0
LINE
  8
型材断面
  6
CONTINUOUS
 10
94.308312
 20
-75.567753
 11
94.308312
 21
-75.56775
  0
LINE
  8
型材断面
  6
CONTINUOUS
 10
94.308312
 20
-75.567753
 11
94.308312
 21
-75.56775
  0
LINE
  8
型材断面
  6
CONTINUOUS
 10
62.81987
 20
-78.035967
 11
112.81991
 21
-78.035967
  0
LINE
  8
型材断面
  6
CONTINUOUS
 10
112.819908
 20
-74.702635
 11
62.81987
 21
-74.702635
  0
ARC
  8
型材断面
  6
CONTINUOUS
 10
112.819907
 20
-78.035971
 40
3.333333
 50
0.0
 51
90.0
  0
LINE
  8
型材断面
  6
CONTINUOUS
 10
83.11555
 20
-92.77646
 11
68.375055
 21
-78.035967
  0
LINE
  8
型材断面
  6
CONTINUOUS
 10
80.758525
 20
-92.77646
 11
66.018032
 21
-78.035967
  0
LINE
  8
型材断面
  6
CONTINUOUS
 10
78.401503
 20
-92.77646
 11
63.66101
 21
-78.035967
  0
LINE
  8
型材断面
  6
CONTINUOUS
 10
112.80915
 20
-82.450863
 11
108.394255
 21
-78.035967
  0
LINE
  8
型材断面
  6
CONTINUOUS
 10
112.80915
 20
-84.807885
 11
106.03723
 21
-78.035967
  0
LINE
  8
型材断面
  6
CONTINUOUS
 10
112.80915
 20
-87.164908
 11
103.68021
 21
-78.035967
  0
LINE
  8
型材断面
  6
CONTINUOUS
 62
    47
 10
112.81991
 20
-92.77646
 11
112.81991
 21
-78.035967
  0
LINE
  8
型材断面
  6
CONTINUOUS
 62
    47
 10
116.15324
 20
-92.77646
 11
116.15324
 21
-78.035967
  0
LINE
  8
型材断面
  6
CONTINUOUS
 10
8.06777
 20
-37.702643
 11
58.819732
 21
-37.702643
  0
LINE
  8
型材断面
  6
CONTINUOUS
 10
-16.93223
 20
-37.702643
 11
-67.684192
 21
-37.702643
  0
LINE
  8
型材断面
  6
CONTINUOUS
 10
7.235557
 20
-28.369312
 11
49.05316
 21
-28.369312
  0
LINE
  8
型材断面
  6
CONTINUOUS
 10
-16.100018
 20
-28.369312
 11
-67.684192
 21
-28.369312
  0
LINE
  8
型材断面
  6
CONTINUOUS
 10
-67.684192
 20
-40.035977
 11
-67.684192
 21
-28.369312
  0
LINE
  8
型材断面
  6
CONTINUOUS
 10
58.819732
 20
-40.035977
 11
58.819732
 21
-35.035998
  0
LINE
  8
型材断面
  6
CONTINUOUS
 10
-103.172772
 20
-72.23442
 11
-103.172772
 21
-72.234418
  0
LINE
  8
型材断面
  6
CONTINUOUS
 10
-64.017665
 20
-54.70263
 11
-64.017665
 21
-92.77646
  0
LINE
  8
型材断面
  6
CONTINUOUS
 10
-63.68433
 20
-54.70263
 11
-63.68433
 21
-92.77646
  0
LINE
  8
型材断面
  6
CONTINUOUS
 10
-60.017665
 20
-54.70263
 11
-60.017665
 21
-92.77646
  0
LINE
  8
型材断面
  6
CONTINUOUS
 10
-60.350997
 20
-54.70263
 11
-60.350997
 21
-92.77646
  0
LINE
  8
型材断面
  6
CONTINUOUS
 10
-71.68433
 20
-55.23595
 11
-71.68433
 21
-92.77646
  0
LINE
  8
型材断面
  6
CONTINUOUS
 10
-103.172772
 20
-75.567753
 11
-103.172772
 21
-75.56775
  0
LINE
  8
型材断面
  6
CONTINUOUS
 10
-103.172772
 20
-75.567753
 11
-103.172772
 21
-75.56775
  0
LINE
  8
型材断面
  6
CONTINUOUS
 10
-71.68433
 20
-78.035967
 11
-121.68437
 21
-78.035967
  0
LINE
  8
型材断面
  6
CONTINUOUS
 10
-121.684368
 20
-74.702635
 11
-71.68433
 21
-74.702635
  0
ARC
  8
型材断面
  6
CONTINUOUS
 10
-121.684367
 20
-78.035971
 40
3.333333
 50
90.0
 51
180.0
  0
LINE
  8
型材断面
  6
CONTINUOUS
 10
-91.98001
 20
-92.77646
 11
-77.239515
 21
-78.035967
  0
LINE
  8
型材断面
  6
CONTINUOUS
 10
-89.622985
 20
-92.77646
 11
-74.882492
 21
-78.035967
  0
LINE
  8
型材断面
  6
CONTINUOUS
 10
-87.265963
 20
-92.77646
 11
-72.52547
 21
-78.035967
  0
LINE
  8
型材断面
  6
CONTINUOUS
 10
-121.67361
 20
-82.450863
 11
-117.258715
 21
-78.035967
  0
LINE
  8
型材断面
  6
CONTINUOUS
 10
-121.67361
 20
-84.807885
 11
-114.90169
 21
-78.035967
  0
LINE
  8
型材断面
  6
CONTINUOUS
 10
-121.67361
 20
-87.164908
 11
-112.54467
 21
-78.035967
  0
LINE
  8
型材断面
  6
CONTINUOUS
 62
    47
 10
-121.68437
 20
-92.77646
 11
-121.68437
 21
-78.035967
  0
LINE
  8
型材断面
  6
CONTINUOUS
 62
    47
 10
-125.0177
 20
-92.77646
 11
-125.0177
 21
-78.035967
  0
LINE
  8
型材断面
  6
DOT
 10
-69.017468
 20
-44.730853
 11
-68.35086
 21
-44.617853
  0
LINE
  8
型材断面
  6
DOT
 10
-68.35086
 20
-42.036
 11
-69.017468
 21
-42.036
  0
LINE
  8
型材断面
  6
DOT
 10
-68.850815
 20
-44.702603
 11
-68.850815
 21
-42.036
  0
LINE
  8
型材断面
  6
DOT
 10
-68.684162
 20
-44.674352
 11
-68.684162
 21
-42.036
  0
LINE
  8
型材断面
  6
DOT
 10
-68.517512
 20
-44.646102
 11
-68.517512
 21
-42.036
  0
LINE
  8
型材断面
  6
DOT
 10
60.153008
 20
-44.730853
 11
59.4864
 21
-44.617853
  0
LINE
  8
型材断面
  6
DOT
 10
59.4864
 20
-42.036
 11
60.153008
 21
-42.036
  0
LINE
  8
型材断面
  6
DOT
 10
59.986355
 20
-44.702603
 11
59.986355
 21
-42.036
  0
LINE
  8
型材断面
  6
DOT
 10
59.819702
 20
-44.674352
 11
59.819702
 21
-42.036
  0
LINE
  8
型材断面
  6
DOT
 10
59.653053
 20
-44.646102
 11
59.653053
 21
-42.036
  0
LINE
  8
型材断面
  6
DOT
 10
-66.850925
 20
-42.036
 11
-65.684192
 21
-42.036
  0
LINE
  8
型材断面
  6
DOT
 10
-65.684192
 20
-42.036
 11
-65.684192
 21
-44.16589
  0
LINE
  8
型材断面
  6
DOT
 10
-65.684192
 20
-43.611972
 11
-66.35115
 21
-44.27893
  0
LINE
  8
型材断面
  6
DOT
 10
-65.684192
 20
-42.904868
 11
-67.202557
 21
-44.42323
  0
LINE
  8
型材断面
  6
DOT
 10
-65.684192
 20
-42.19776
 11
-68.053967
 21
-44.567533
  0
LINE
  8
型材断面
  6
DOT
 10
-66.22954
 20
-42.036
 11
-68.35086
 21
-44.15732
  0
LINE
  8
型材断面
  6
DOT
 10
-66.936647
 20
-42.036
 11
-68.35086
 21
-43.450212
  0
LINE
  8
型材断面
  6
DOT
 10
-67.643753
 20
-42.036
 11
-68.35086
 21
-42.743108
  0
LINE
  8
型材断面
  6
DOT
 10
57.986465
 20
-42.036
 11
56.819732
 21
-42.036
  0
LINE
  8
型材断面
  6
DOT
 10
56.819732
 20
-42.036
 11
56.819732
 21
-44.16589
  0
LINE
  8
型材断面
  6
DOT
 10
56.819732
 20
-43.611972
 11
57.48669
 21
-44.27893
  0
LINE
  8
型材断面
  6
DOT
 10
56.819732
 20
-42.904868
 11
58.338098
 21
-44.42323
  0
LINE
  8
型材断面
  6
DOT
 10
56.819732
 20
-42.19776
 11
59.189508
 21
-44.567533
  0
LINE
  8
型材断面
  6
DOT
 10
57.36508
 20
-42.036
 11
59.4864
 21
-44.15732
  0
LINE
  8
型材断面
  6
DOT
 10
58.072187
 20
-42.036
 11
59.4864
 21
-43.450212
  0
LINE
  8
型材断面
  6
DOT
 10
58.779292
 20
-42.036
 11
59.4864
 21
-42.743108
  0
INSERT
  2
*GRP_0008
  8
型材断面
  6
DASHDOT
 62
    47
 10
0.0
 20
0.0
  0
INSERT
  2
*GRP_0009
  8
型材断面
  6
DOT
 10
0.0
 20
0.0
  0
INSERT
  2
*GRP_0010
  8
型材断面
  6
DOT
 10
0.0
 20
0.0
  0
LINE
  8
型材断面
  6
CONTINUOUS
 10
-60.6842
 20
-33.702645
 11
-13.998905
 21
-33.702645
  0
LINE
  8
型材断面
  6
CONTINUOUS
 10
51.81974
 20
-33.702645
 11
5.134438
 21
-33.702645
  0
POLYLINE
  8
型材断面
  6
CONTINUOUS
 66
     1
 70
     1
  0
VERTEX
  8
型材断面
 10
-150.343318
 20
113.420882
  0
VERTEX
  8
型材断面
 10
-166.343318
 20
113.420882
  0
VERTEX
  8
型材断面
 10
-166.343318
 20
97.420882
  0
VERTEX
  8
型材断面
 10
-150.343318
 20
97.420882
  0
SEQEND
  0
LINE
  8
型材断面
  6
CONTINUOUS
 10
-158.343318
 20
97.420882
 11
-158.343318
 21
113.420882
  0
POLYLINE
  8
型材断面
  6
CONTINUOUS
 66
     1
 70
     1
  0
VERTEX
  8
型材断面
 10
-149.318887
 20
118.183017
  0
VERTEX
  8
型材断面
 10
-168.129962
 20
118.183017
  0
VERTEX
  8
型材断面
 10
-168.129962
 20
114.04458
  0
VERTEX
  8
型材断面
 10
-149.318887
 20
114.04458
  0
SEQEND
  0
POLYLINE
  8
型材断面
  6
CONTINUOUS
 66
     1
 70
     1
  0
VERTEX
  8
型材断面
 10
-149.318887
 20
96.63937
  0
VERTEX
  8
型材断面
 10
-168.129962
 20
96.63937
  0
VERTEX
  8
型材断面
 10
-168.129962
 20
92.500933
  0
VERTEX
  8
型材断面
 10
-149.318887
 20
92.500933
  0
SEQEND
  0
POLYLINE
  8
型材断面
  6
CONTINUOUS
 66
     1
 70
     1
  0
VERTEX
  8
型材断面
 10
-108.332975
 20
115.420882
  0
VERTEX
  8
型材断面
 10
-126.332975
 20
115.420882
  0
VERTEX
  8
型材断面
 10
-126.332975
 20
97.420882
  0
VERTEX
  8
型材断面
 10
-108.332975
 20
97.420882
  0
SEQEND
  0
LINE
  8
型材断面
  6
CONTINUOUS
 10
-117.332975
 20
97.420882
 11
-117.332975
 21
115.420882
  0
LINE
  8
型材断面
  6
CONTINUOUS
 10
-108.332975
 20
106.420882
 11
-126.332975
 21
106.420882
  0
POLYLINE
  8
型材断面
  6
CONTINUOUS
 66
     1
 70
     1
  0
VERTEX
  8
型材断面
 10
-108.09576
 20
120.500852
  0
VERTEX
  8
型材断面
 10
-126.906835
 20
120.500852
  0
VERTEX
  8
型材断面
 10
-126.906835
 20
116.362415
  0
VERTEX
  8
型材断面
 10
-108.09576
 20
116.362415
  0
SEQEND
  0
POLYLINE
  8
型材断面
  6
CONTINUOUS
 66
     1
 70
     1
  0
VERTEX
  8
型材断面
 10
-108.09576
 20
96.549145
  0
VERTEX
  8
型材断面
 10
-126.906835
 20
96.549145
  0
VERTEX
  8
型材断面
 10
-126.906835
 20
92.410707
  0
VERTEX
  8
型材断面
 10
-108.09576
 20
92.410707
  0
SEQEND
  0
POLYLINE
  8
型材断面
  6
CONTINUOUS
 66
     1
 70
     1
  0
VERTEX
  8
型材断面
 10
-65.77589
 20
117.420882
  0
VERTEX
  8
型材断面
 10
-85.77589
 20
117.420882
  0
VERTEX
  8
型材断面
 10
-85.77589
 20
97.420882
  0
VERTEX
  8
型材断面
 10
-65.77589
 20
97.420882
  0
SEQEND
  0
LINE
  8
型材断面
  6
CONTINUOUS
 10
-75.77589
 20
97.420882
 11
-75.77589
 21
117.420882
  0
LINE
  8
型材断面
  6
CONTINUOUS
 10
-65.77589
 20
107.420882
 11
-85.77589
 21
107.420882
  0
POLYLINE
  8
型材断面
  6
CONTINUOUS
 66
     1
 70
     1
  0
VERTEX
  8
型材断面
 10
-66.4855
 20
122.240755
  0
VERTEX
  8
型材断面
 10
-85.296575
 20
122.240755
  0
VERTEX
  8
型材断面
 10
-85.296575
 20
118.102318
  0
VERTEX
  8
型材断面
 10
-66.4855
 20
118.102318
  0
SEQEND
  0
POLYLINE
  8
型材断面
  6
CONTINUOUS
 66
     1
 70
     1
  0
VERTEX
  8
型材断面
 10
-66.4855
 20
96.64564
  0
VERTEX
  8
型材断面
 10
-85.296575
 20
96.64564
  0
VERTEX
  8
型材断面
 10
-85.296575
 20
92.507202
  0
VERTEX
  8
型材断面
 10
-66.4855
 20
92.507202
  0
SEQEND
  0
POLYLINE
  8
型材断面
  6
DASHED
 66
     1
 70
     1
  0
VERTEX
  8
型材断面
 10
-63.83965
 20
125.50498
  0
VERTEX
  8
型材断面
 10
-180.21503
 20
125.50498
  0
VERTEX
  8
型材断面
 10
-180.21503
 20
91.045897
  0
VERTEX
  8
型材断面
 10
-63.83965
 20
91.045897
  0
SEQEND
  0
LINE
  8
型材断面
  6
CONTINUOUS
 10
-176.12001
 20
119.988307
 11
-139.099585
 21
119.988307
  0
LINE
  8
型材断面
  6
CONTINUOUS
 10
-176.12001
 20
119.488307
 11
-139.099585
 21
119.488307
  0
LINE
  8
型材断面
  6
CONTINUOUS
 10
-126.556818
 20
74.373608
 11
-166.556818
 21
74.373608
  0
LINE
  8
型材断面
  6
CONTINUOUS
 10
-126.556818
 20
68.373608
 11
-166.556818
 21
68.373608
  0
LINE
  8
型材断面
  6
CONTINUOUS
 10
-166.556818
 20
68.373608
 11
-166.556818
 21
74.373608
  0
LINE
  8
型材断面
  6
CONTINUOUS
 10
-156.556818
 20
68.373608
 11
-156.556818
 21
74.373608
  0
LINE
  8
型材断面
  6
CONTINUOUS
 10
-146.556818
 20
68.373608
 11
-146.556818
 21
74.373608
  0
LINE
  8
型材断面
  6
CONTINUOUS
 10
-136.556818
 20
68.373608
 11
-136.556818
 21
74.373608
  0
LINE
  8
型材断面
  6
CONTINUOUS
 10
-126.556818
 20
68.373608
 11
-126.556818
 21
74.373608
  0
POLYLINE
  8
型材断面
  6
CONTINUOUS
 66
     1
 70
     1
  0
VERTEX
  8
型材断面
 10
-138.655353
 20
79.223282
  0
VERTEX
  8
型材断面
 10
-157.466428
 20
79.223282
  0
VERTEX
  8
型材断面
 10
-157.466428
 20
75.084845
  0
VERTEX
  8
型材断面
 10
-138.655353
 20
75.084845
  0
SEQEND
  0
POLYLINE
  8
型材断面
  6
CONTINUOUS
 66
     1
 70
     1
  0
VERTEX
  8
型材断面
 10
-138.655353
 20
67.721655
  0
VERTEX
  8
型材断面
 10
-157.466428
 20
67.721655
  0
VERTEX
  8
型材断面
 10
-157.466428
 20
63.583217
  0
VERTEX
  8
型材断面
 10
-138.655353
 20
63.583217
  0
SEQEND
  0
LINE
  8
型材断面
  6
CONTINUOUS
 10
-126.556818
 20
52.767745
 11
-166.556818
 21
52.767745
  0
LINE
  8
型材断面
  6
CONTINUOUS
 10
-126.556818
 20
43.767745
 11
-166.556818
 21
43.767745
  0
LINE
  8
型材断面
  6
CONTINUOUS
 10
-166.556818
 20
43.767745
 11
-166.556818
 21
52.767745
  0
LINE
  8
型材断面
  6
CONTINUOUS
 10
-156.556818
 20
43.767745
 11
-156.556818
 21
52.767745
  0
LINE
  8
型材断面
  6
CONTINUOUS
 10
-146.556818
 20
43.767745
 11
-146.556818
 21
52.767745
  0
LINE
  8
型材断面
  6
CONTINUOUS
 10
-136.556818
 20
43.767745
 11
-136.556818
 21
52.767745
  0
LINE
  8
型材断面
  6
CONTINUOUS
 10
-126.556818
 20
43.767745
 11
-126.556818
 21
52.767745
  0
LINE
  8
型材断面
  6
CONTINUOUS
 10
-126.556818
 20
43.767745
 11
-166.556818
 21
43.767745
  0
POLYLINE
  8
型材断面
  6
CONTINUOUS
 66
     1
 70
     1
  0
VERTEX
  8
型材断面
 10
-138.655353
 20
57.653253
  0
VERTEX
  8
型材断面
 10
-157.466428
 20
57.653253
  0
VERTEX
  8
型材断面
 10
-157.466428
 20
53.514815
  0
VERTEX
  8
型材断面
 10
-138.655353
 20
53.514815
  0
SEQEND
  0
POLYLINE
  8
型材断面
  6
CONTINUOUS
 66
     1
 70
     1
  0
VERTEX
  8
型材断面
 10
-138.655353
 20
43.088107
  0
VERTEX
  8
型材断面
 10
-157.466428
 20
43.088107
  0
VERTEX
  8
型材断面
 10
-157.466428
 20
38.94967
  0
VERTEX
  8
型材断面
 10
-138.655353
 20
38.94967
  0
SEQEND
  0
LINE
  8
型材断面
  6
CONTINUOUS
 10
-126.556818
 20
26.969698
 11
-166.556818
 21
26.969698
  0
LINE
  8
型材断面
  6
CONTINUOUS
 10
-126.556818
 20
13.969698
 11
-166.556818
 21
13.969698
  0
LINE
  8
型材断面
  6
CONTINUOUS
 10
-166.556818
 20
13.969698
 11
-166.556818
 21
26.969698
  0
LINE
  8
型材断面
  6
CONTINUOUS
 10
-156.556818
 20
13.969698
 11
-156.556818
 21
26.969698
  0
LINE
  8
型材断面
  6
CONTINUOUS
 10
-146.556818
 20
13.969698
 11
-146.556818
 21
26.969698
  0
LINE
  8
型材断面
  6
CONTINUOUS
 10
-136.556818
 20
13.969698
 11
-136.556818
 21
26.969698
  0
LINE
  8
型材断面
  6
CONTINUOUS
 10
-126.556818
 20
13.969698
 11
-126.556818
 21
26.969698
  0
POLYLINE
  8
型材断面
  6
CONTINUOUS
 66
     1
 70
     1
  0
VERTEX
  8
型材断面
 10
-138.655353
 20
31.801462
  0
VERTEX
  8
型材断面
 10
-157.466428
 20
31.801462
  0
VERTEX
  8
型材断面
 10
-157.466428
 20
27.663025
  0
VERTEX
  8
型材断面
 10
-138.655353
 20
27.663025
  0
SEQEND
  0
POLYLINE
  8
型材断面
  6
CONTINUOUS
 66
     1
 70
     1
  0
VERTEX
  8
型材断面
 10
-138.655353
 20
13.31612
  0
VERTEX
  8
型材断面
 10
-157.466428
 20
13.31612
  0
VERTEX
  8
型材断面
 10
-157.466428
 20
9.177683
  0
VERTEX
  8
型材断面
 10
-138.655353
 20
9.177683
  0
SEQEND
  0
LINE
  8
型材断面
  6
CONTINUOUS
 10
-126.556818
 20
-2.698057
 11
-166.556818
 21
-2.698057
  0
LINE
  8
型材断面
  6
CONTINUOUS
 10
-126.556818
 20
-22.698057
 11
-166.556818
 21
-22.698057
  0
LINE
  8
型材断面
  6
CONTINUOUS
 10
-166.556818
 20
-22.698057
 11
-166.556818
 21
-2.698057
  0
LINE
  8
型材断面
  6
CONTINUOUS
 10
-156.556818
 20
-22.698057
 11
-156.556818
 21
-2.698057
  0
LINE
  8
型材断面
  6
CONTINUOUS
 10
-146.556818
 20
-22.698057
 11
-146.556818
 21
-2.698057
  0
LINE
  8
型材断面
  6
CONTINUOUS
 10
-136.556818
 20
-22.698057
 11
-136.556818
 21
-2.698057
  0
LINE
  8
型材断面
  6
CONTINUOUS
 10
-126.556818
 20
-22.698057
 11
-126.556818
 21
-2.698057
  0
LINE
  8
型材断面
  6
CONTINUOUS
 10
-126.556818
 20
-12.698057
 11
-166.556818
 21
-12.698057
  0
POLYLINE
  8
型材断面
  6
CONTINUOUS
 66
     1
 70
     1
  0
VERTEX
  8
型材断面
 10
-138.655353
 20
2.136965
  0
VERTEX
  8
型材断面
 10
-157.466428
 20
2.136965
  0
VERTEX
  8
型材断面
 10
-157.466428
 20
-2.001472
  0
VERTEX
  8
型材断面
 10
-138.655353
 20
-2.001472
  0
SEQEND
  0
POLYLINE
  8
型材断面
  6
CONTINUOUS
 66
     1
 70
     1
  0
VERTEX
  8
型材断面
 10
-138.655353
 20
-23.556927
  0
VERTEX
  8
型材断面
 10
-157.466428
 20
-23.556927
  0
VERTEX
  8
型材断面
 10
-157.466428
 20
-27.695365
  0
VERTEX
  8
型材断面
 10
-138.655353
 20
-27.695365
  0
SEQEND
  0
LINE
  8
型材断面
  6
CONTINUOUS
 10
-178.000997
 20
82.773148
 11
-137.141483
 21
82.773148
  0
LINE
  8
型材断面
  6
CONTINUOUS
 10
-178.000997
 20
82.273148
 11
-137.141483
 21
82.273148
  0
POLYLINE
  8
型材断面
  6
DASHED
 66
     1
 70
     1
  0
VERTEX
  8
型材断面
 10
-119.795215
 20
88.2561
  0
VERTEX
  8
型材断面
 10
-180.15344
 20
88.2561
  0
VERTEX
  8
型材断面
 10
-180.15344
 20
-32.574762
  0
VERTEX
  8
型材断面
 10
-119.795215
 20
-32.574762
  0
SEQEND
  0
LINE
  8
型材断面
  6
CONTINUOUS
 10
-67.684192
 20
-40.035977
 11
-16.93223
 21
-40.035977
  0
LINE
  8
型材断面
  6
CONTINUOUS
 10
58.819732
 20
-40.035977
 11
8.06777
 21
-40.035977
  0
INSERT
  2
*GRP_0011
  8
型材断面
  6
DOT
 10
0.0
 20
0.0
  0
INSERT
  2
*GRP_0012
  8
型材断面
  6
DOT
 10
0.0
 20
0.0
  0
INSERT
  2
*GRP_0134
  8
型材断面
  6
CONTINUOUS
 10
0.0
 20
0.0
  0
INSERT
  2
*GRP_0135
  8
型材断面
  6
DOT
 10
0.0
 20
0.0
  0
INSERT
  2
*GRP_0136
  8
型材断面
  6
DOT
 10
0.0
 20
0.0
  0
LINE
  8
型材断面
  6
CONTINUOUS
 10
-13.998898
 20
-92.93769
 11
-41.765563
 21
-92.93769
  0
LINE
  8
型材断面
  6
CONTINUOUS
 10
-16.93223
 20
-99.271022
 11
-41.765563
 21
-99.271022
  0
LINE
  8
型材断面
  6
CONTINUOUS
 10
5.134438
 20
-92.93769
 11
32.901102
 21
-92.93769
  0
LINE
  8
型材断面
  6
CONTINUOUS
 10
8.06777
 20
-99.271022
 11
32.901102
 21
-99.271022
  0
LINE
  8
型材断面
  6
CONTINUOUS
 10
-41.765563
 20
-96.93769
 11
-16.93223
 21
-96.93769
  0
LINE
  8
型材断面
  6
CONTINUOUS
 10
32.901102
 20
-96.93769
 11
8.06777
 21
-96.93769
  0
LINE
  8
型材断面
  6
DOT
 10
32.901102
 20
-98.604355
 11
12.234438
 21
-98.604355
  0
LINE
  8
型材断面
  6
DOT
 10
-41.765563
 20
-98.604355
 11
-21.098898
 21
-98.604355
  0
INSERT
  2
*GRP_0164
  8
型材断面
  6
CONTINUOUS
 10
0.0
 20
0.0
  0
LINE
  8
型材断面
  6
DOT
 10
139.095543
 20
21.259785
 11
138.428935
 21
21.372785
  0
LINE
  8
型材断面
  6
DOT
 10
138.428935
 20
23.954637
 11
139.095543
 21
23.954637
  0
LINE
  8
型材断面
  6
DOT
 10
136.929
 20
23.954637
 11
135.762268
 21
23.954637
  0
LINE
  8
型材断面
  6
DOT
 10
135.762268
 20
23.954637
 11
135.762268
 21
21.824748
  0
LINE
  8
型材断面
  6
DOT
 10
138.92889
 20
21.288035
 11
138.92889
 21
23.954637
  0
LINE
  8
型材断面
  6
DOT
 10
138.762238
 20
21.316285
 11
138.762238
 21
23.954637
  0
LINE
  8
型材断面
  6
DOT
 10
138.595587
 20
21.344535
 11
138.595587
 21
23.954637
  0
INSERT
  2
*HAT_0011
  8
型材断面
 10
0.0
 20
0.0
  0
LINE
  8
型材断面
  6
CONTINUOUS
 10
138.262268
 20
30.95464
 11
138.262268
 21
25.95466
  0
LINE
  8
型材断面
  6
CONTINUOUS
 10
130.762275
 20
32.288003
 11
107.983223
 21
32.288003
  0
LINE
  8
型材断面
  6
CONTINUOUS
 10
138.262268
 20
28.287992
 11
107.983223
 21
28.287992
  0
LINE
  8
型材断面
  6
DOT
 10
138.262268
 20
26.621337
 11
107.983223
 21
26.621337
  0
LINE
  8
型材断面
  6
CONTINUOUS
 10
138.262268
 20
25.95466
 11
107.983223
 21
25.95466
  0
LINE
  8
型材断面
  6
CONTINUOUS
 10
128.42892
 20
11.288003
 11
107.983223
 21
11.288003
  0
LINE
  8
型材断面
  6
DASHDOT
 10
138.42841
 20
30.95464
 11
138.42841
 21
38.621233
  0
LINE
  8
ガラス
  6
CONTINUOUS
 10
-65.017003
 20
-30.435982
 11
-65.017003
 21
-32.702632
  0
LINE
  8
ガラス
  6
CONTINUOUS
 10
56.152542
 20
-30.435982
 11
56.152542
 21
-32.702632
  0
LINE
  8
ガラス
  6
CONTINUOUS
 10
0.902225
 20
-30.602647
 11
56.152542
 21
-30.602647
  0
LINE
  8
ガラス
  6
CONTINUOUS
 10
0.902225
 20
-30.435982
 11
56.152542
 21
-30.435982
  0
LINE
  8
ガラス
  6
CONTINUOUS
 10
-9.766685
 20
-30.602647
 11
-65.017003
 21
-30.602647
  0
LINE
  8
ガラス
  6
CONTINUOUS
 10
-9.766685
 20
-30.435982
 11
-65.017003
 21
-30.435982
  0
LINE
  8
ガラス
  6
CONTINUOUS
 10
-9.766685
 20
-32.702632
 11
-65.017003
 21
-32.702632
  0
LINE
  8
ガラス
  6
CONTINUOUS
 10
-9.766685
 20
-32.535967
 11
-65.017003
 21
-32.535967
  0
LINE
  8
ガラス
  6
CONTINUOUS
 10
0.902225
 20
-32.535967
 11
56.152542
 21
-32.535967
  0
LINE
  8
ガラス
  6
CONTINUOUS
 10
0.902225
 20
-32.702632
 11
56.152542
 21
-32.702632
  0
INSERT
  2
*GRP_0013
  8
ガラス
  6
CONTINUOUS
 10
0.0
 20
0.0
  0
INSERT
  2
*GRP_0014
  8
ガラス
  6
CONTINUOUS
 10
0.0
 20
0.0
  0
INSERT
  2
*GRP_0015
  8
ガラス
  6
CONTINUOUS
 10
0.0
 20
0.0
  0
INSERT
  2
*GRP_0016
  8
ガラス
  6
CONTINUOUS
 10
0.0
 20
0.0
  0
INSERT
  2
*GRP_0017
  8
ガラス
  6
CONTINUOUS
 10
0.0
 20
0.0
  0
INSERT
  2
*GRP_0018
  8
ガラス
  6
CONTINUOUS
 10
0.0
 20
0.0
  0
INSERT
  2
*GRP_0019
  8
ガラス
  6
CONTINUOUS
 10
0.0
 20
0.0
  0
INSERT
  2
*GRP_0020
  8
ガラス
  6
CONTINUOUS
 10
0.0
 20
0.0
  0
INSERT
  2
*GRP_0021
  8
ガラス
  6
CONTINUOUS
 10
0.0
 20
0.0
  0
INSERT
  2
*GRP_0022
  8
ガラス
  6
CONTINUOUS
 10
0.0
 20
0.0
  0
LINE
  8
ガラス
  6
CONTINUOUS
 10
-9.765572
 20
-32.702647
 11
-9.765572
 21
-30.435982
  0
LINE
  8
ガラス
  6
CONTINUOUS
 10
0.901113
 20
-32.702647
 11
0.901113
 21
-30.435982
  0
LINE
  8
ガラス
  6
CONTINUOUS
 10
0.90222
 20
-89.671022
 11
0.90222
 21
-91.93769
  0
LINE
  8
ガラス
  6
CONTINUOUS
 10
-9.76668
 20
-89.671022
 11
-9.76668
 21
-91.93769
  0
LINE
  8
ガラス
  6
CONTINUOUS
 10
-9.76668
 20
-91.271022
 11
-9.76668
 21
-89.671022
  0
LINE
  8
ガラス
  6
CONTINUOUS
 10
0.90222
 20
-91.271022
 11
0.90222
 21
-89.671022
  0
LINE
  8
ガラス
  6
CONTINUOUS
 10
-9.76668
 20
-89.671022
 11
-41.765563
 21
-89.671022
  0
LINE
  8
ガラス
  6
CONTINUOUS
 10
-9.76668
 20
-89.83769
 11
-41.765563
 21
-89.83769
  0
LINE
  8
ガラス
  6
CONTINUOUS
 10
-9.76668
 20
-91.93769
 11
-41.765563
 21
-91.93769
  0
LINE
  8
ガラス
  6
CONTINUOUS
 10
-9.76668
 20
-91.771022
 11
-41.765563
 21
-91.771022
  0
LINE
  8
ガラス
  6
CONTINUOUS
 10
0.90222
 20
-89.671022
 11
32.901102
 21
-89.671022
  0
LINE
  8
ガラス
  6
CONTINUOUS
 10
0.90222
 20
-89.83769
 11
32.901102
 21
-89.83769
  0
LINE
  8
ガラス
  6
CONTINUOUS
 10
0.90222
 20
-91.93769
 11
32.901102
 21
-91.93769
  0
LINE
  8
ガラス
  6
CONTINUOUS
 10
0.90222
 20
-91.771022
 11
32.901102
 21
-91.771022
  0
INSERT
  2
*GRP_0023
  8
ゴム等
  6
CONTINUOUS
 10
0.0
 20
0.0
  0
INSERT
  2
*GRP_0024
  8
ゴム等
  6
CONTINUOUS
 10
0.0
 20
0.0
  0
INSERT
  2
*GRP_0025
  8
ゴム等
  6
CONTINUOUS
 10
0.0
 20
0.0
  0
INSERT
  2
*GRP_0026
  8
ゴム等
  6
DOT
 10
0.0
 20
0.0
  0
INSERT
  2
*GRP_0027
  8
ゴム等
  6
DOT
 10
0.0
 20
0.0
  0
INSERT
  2
*GRP_0028
  8
ゴム等
  6
CONTINUOUS
 10
0.0
 20
0.0
  0
INSERT
  2
*GRP_0029
  8
ゴム等
  6
CONTINUOUS
 10
0.0
 20
0.0
  0
INSERT
  2
*GRP_0030
  8
ゴム等
  6
CONTINUOUS
 10
0.0
 20
0.0
  0
INSERT
  2
*GRP_0031
  8
ゴム等
  6
CONTINUOUS
 10
0.0
 20
0.0
  0
INSERT
  2
*GRP_0032
  8
ゴム等
  6
CONTINUOUS
 10
0.0
 20
0.0
  0
INSERT
  2
*GRP_0033
  8
ゴム等
  6
DOT
 10
0.0
 20
0.0
  0
INSERT
  2
*GRP_0034
  8
ゴム等
  6
DOT
 10
0.0
 20
0.0
  0
INSERT
  2
*GRP_0137
  8
ゴム等
  6
CONTINUOUS
 10
0.0
 20
0.0
  0
INSERT
  2
*GRP_0138
  8
ゴム等
  6
CONTINUOUS
 10
0.0
 20
0.0
  0
INSERT
  2
*GRP_0035
  8
ボルト／ビス
  6
CONTINUOUS
 62
    64
 10
0.0
 20
0.0
  0
INSERT
  2
*GRP_0036
  8
ボルト／ビス
  6
CONTINUOUS
 62
    64
 10
0.0
 20
0.0
  0
INSERT
  2
*GRP_0037
  8
ボルト／ビス
  6
DOT
 62
    64
 10
0.0
 20
0.0
  0
INSERT
  2
*GRP_0038
  8
ボルト／ビス
  6
DOT
 62
    64
 10
0.0
 20
0.0
  0
INSERT
  2
*GRP_0039
  8
ボルト／ビス
  6
CONTINUOUS
 62
    64
 10
0.0
 20
0.0
  0
INSERT
  2
*GRP_0040
  8
ボルト／ビス
  6
CONTINUOUS
 62
    64
 10
0.0
 20
0.0
  0
INSERT
  2
*GRP_0041
  8
ボルト／ビス
  6
CONTINUOUS
 62
    64
 10
0.0
 20
0.0
  0
INSERT
  2
*GRP_0042
  8
ボルト／ビス
  6
CONTINUOUS
 62
    64
 10
0.0
 20
0.0
  0
INSERT
  2
*GRP_0043
  8
ボルト／ビス
  6
CONTINUOUS
 62
    64
 10
0.0
 20
0.0
  0
INSERT
  2
*GRP_0044
  8
ボルト／ビス
  6
CONTINUOUS
 62
    64
 10
0.0
 20
0.0
  0
INSERT
  2
*GRP_0045
  8
ボルト／ビス
  6
CONTINUOUS
 62
    64
 10
0.0
 20
0.0
  0
INSERT
  2
*GRP_0046
  8
ボルト／ビス
  6
CONTINUOUS
 62
    64
 10
0.0
 20
0.0
  0
INSERT
  2
*GRP_0047
  8
ボルト／ビス
  6
DOT
 62
    64
 10
0.0
 20
0.0
  0
INSERT
  2
*GRP_0048
  8
ボルト／ビス
  6
DOT
 62
    64
 10
0.0
 20
0.0
  0
INSERT
  2
*GRP_0049
  8
ボルト／ビス
  6
CONTINUOUS
 62
    64
 10
0.0
 20
0.0
  0
INSERT
  2
*GRP_0050
  8
ボルト／ビス
  6
CONTINUOUS
 62
    64
 10
0.0
 20
0.0
  0
INSERT
  2
*GRP_0051
  8
ボルト／ビス
  6
CONTINUOUS
 62
    64
 10
0.0
 20
0.0
  0
INSERT
  2
*GRP_0052
  8
ボルト／ビス
  6
CONTINUOUS
 62
    64
 10
0.0
 20
0.0
  0
INSERT
  2
*GRP_0053
  8
ボルト／ビス
  6
CONTINUOUS
 10
0.0
 20
0.0
  0
INSERT
  2
*GRP_0054
  8
ボルト／ビス
  6
CONTINUOUS
 10
0.0
 20
0.0
  0
INSERT
  2
*GRP_0055
  8
ボルト／ビス
  6
CONTINUOUS
 10
0.0
 20
0.0
  0
INSERT
  2
*GRP_0056
  8
ボルト／ビス
  6
CONTINUOUS
 10
0.0
 20
0.0
  0
INSERT
  2
*GRP_0057
  8
ボルト／ビス
  6
CONTINUOUS
 10
0.0
 20
0.0
  0
INSERT
  2
*GRP_0058
  8
ボルト／ビス
  6
CONTINUOUS
 10
0.0
 20
0.0
  0
INSERT
  2
*GRP_0059
  8
ボルト／ビス
  6
CONTINUOUS
 10
0.0
 20
0.0
  0
INSERT
  2
*GRP_0060
  8
ボルト／ビス
  6
CONTINUOUS
 10
0.0
 20
0.0
  0
INSERT
  2
*GRP_0061
  8
ボルト／ビス
  6
CONTINUOUS
 10
0.0
 20
0.0
  0
INSERT
  2
*GRP_0139
  8
ボルト／ビス
  6
CONTINUOUS
 62
    64
 10
0.0
 20
0.0
  0
INSERT
  2
*GRP_0140
  8
ボルト／ビス
  6
CONTINUOUS
 62
    64
 10
0.0
 20
0.0
  0
INSERT
  2
*GRP_0141
  8
ボルト／ビス
  6
CONTINUOUS
 62
    64
 10
0.0
 20
0.0
  0
INSERT
  2
*GRP_0142
  8
ボルト／ビス
  6
CONTINUOUS
 62
    64
 10
0.0
 20
0.0
  0
INSERT
  2
*GRP_0143
  8
ボルト／ビス
  6
CONTINUOUS
 62
    64
 10
0.0
 20
0.0
  0
INSERT
  2
*GRP_0144
  8
ボルト／ビス
  6
CONTINUOUS
 62
    64
 10
0.0
 20
0.0
  0
INSERT
  2
*GRP_0145
  8
ボルト／ビス
  6
CONTINUOUS
 62
    64
 10
0.0
 20
0.0
  0
INSERT
  2
*GRP_0146
  8
ボルト／ビス
  6
CONTINUOUS
 62
    64
 10
0.0
 20
0.0
  0
INSERT
  2
*GRP_0147
  8
ボルト／ビス
  6
CONTINUOUS
 10
0.0
 20
0.0
  0
INSERT
  2
*GRP_0148
  8
ボルト／ビス
  6
CONTINUOUS
 10
0.0
 20
0.0
  0
INSERT
  2
*GRP_0149
  8
ボルト／ビス
  6
CONTINUOUS
 10
0.0
 20
0.0
  0
TEXT
  7
TextStyle03
  8
文字
  6
CONTINUOUS
 10
92.375
 20
98.0
  1
ＮＳコード：ＮＳＫＺ
 40
5.0
 72
     5
 11
148.0
 21
98.0
  0
TEXT
  7
TextStyle03
  8
文字
  6
CONTINUOUS
 10
92.375
 20
125.95
  1
シリーズ：ＴＤ２Ｋ
 40
5.0
 72
     5
 11
142.375
 21
125.95
  0
TEXT
  7
TextStyle03
  8
文字
  6
CONTINUOUS
 10
92.375
 20
120.325
  1
　　　　　(固定)
 40
5.0
 72
     5
 11
137.0625
 21
120.325
  0
TEXT
  7
TextStyle03
  8
文字
  6
CONTINUOUS
 10
92.375
 20
114.7
  1
図面名　：全体納まり断面図
 40
5.0
 72
     5
 11
164.875
 21
114.7
  0
TEXT
  7
TextStyle03
  8
文字
  6
CONTINUOUS
 10
92.375
 20
109.075
  1
　　　　　落下防止網仕様
 40
5.0
 72
     5
 11
159.25
 21
109.075
  0
TEXT
  7
TextStyle03
  8
文字
  6
CONTINUOUS
 10
-131.8
 20
-52.85
  1
規格水切
 40
3.0
 72
     5
 11
-118.675
 21
-52.85
  0
TEXT
  7
TextStyle03
  8
文字
  6
CONTINUOUS
 10
134.575
 20
-69.275
  1
排水パイプ(オプション)
 40
3.0
 72
     5
 11
171.5125
 21
-69.275
  0
TEXT
  7
TextStyle03
  8
文字
  6
CONTINUOUS
 10
134.575
 20
-72.65
  1
□10×10×1 L=60
 40
3.0
 72
     5
 11
161.3875
 21
-72.65
  0
TEXT
  7
TextStyle03
  8
文字
  6
CONTINUOUS
 10
-166.8
 20
114.65
  1
可動装置側
 40
3.0
 72
     5
 11
-150.3
 21
114.65
  0
TEXT
  7
TextStyle03
  8
文字
  6
CONTINUOUS
 10
-166.8
 20
93.125
  1
可動装置側
 40
3.0
 72
     5
 11
-150.3
 21
93.125
  0
TEXT
  7
TextStyle03
  8
文字
  6
CONTINUOUS
 10
-166.075
 20
105.625
  1
大
 40
3.0
 72
     5
 11
-163.075
 21
105.625
  0
TEXT
  7
TextStyle03
  8
文字
  6
CONTINUOUS
 10
-125.65
 20
116.975
  1
可動装置側
 40
3.0
 72
     5
 11
-109.15
 21
116.975
  0
TEXT
  7
TextStyle03
  8
文字
  6
CONTINUOUS
 10
-125.65
 20
93.025
  1
可動装置側
 40
3.0
 72
     5
 11
-109.15
 21
93.025
  0
TEXT
  7
TextStyle03
  8
文字
  6
CONTINUOUS
 10
-112.225
 20
99.125
  1
小
 40
3.0
 72
     5
 11
-109.225
 21
99.125
  0
TEXT
  7
TextStyle03
  8
文字
  6
CONTINUOUS
 10
-125.375
 20
110.3
  1
大
 40
3.0
 72
     5
 11
-122.375
 21
110.3
  0
TEXT
  7
TextStyle03
  8
文字
  6
CONTINUOUS
 10
-121.975
 20
99.125
  1
小
 40
3.0
 72
     5
 11
-118.975
 21
99.125
  0
TEXT
  7
TextStyle03
  8
文字
  6
CONTINUOUS
 10
-84.075
 20
118.675
  1
可動装置側
 40
3.0
 72
     5
 11
-67.575
 21
118.675
  0
TEXT
  7
TextStyle03
  8
文字
  6
CONTINUOUS
 10
-84.075
 20
93.1
  1
可動装置側
 40
3.0
 72
     5
 11
-67.575
 21
93.1
  0
TEXT
  7
TextStyle03
  8
文字
  6
CONTINUOUS
 10
-70.65
 20
100.125
  1
小
 40
3.0
 72
     5
 11
-67.65
 21
100.125
  0
TEXT
  7
TextStyle03
  8
文字
  6
CONTINUOUS
 10
-80.65
 20
100.125
  1
小
 40
3.0
 72
     5
 11
-77.65
 21
100.125
  0
TEXT
  7
TextStyle03
  8
文字
  6
CONTINUOUS
 10
-83.825
 20
112.05
  1
大
 40
3.0
 72
     5
 11
-80.825
 21
112.05
  0
TEXT
  7
TextStyle03
  8
文字
  6
CONTINUOUS
 10
-174.925
 20
120.85
  1
角タイプ 中桟フレーム
 40
3.0
 72
     5
 11
-139.8625
 21
120.85
  0
TEXT
  7
TextStyle03
  8
文字
  6
CONTINUOUS
 10
-156.15
 20
75.675
  1
可動装置側
 40
3.0
 72
     5
 11
-139.65
 21
75.675
  0
TEXT
  7
TextStyle03
  8
文字
  6
CONTINUOUS
 10
-156.15
 20
64.175
  1
可動装置側
 40
3.0
 72
     5
 11
-139.65
 21
64.175
  0
TEXT
  7
TextStyle03
  8
文字
  6
CONTINUOUS
 10
-156.15
 20
54.1
  1
可動装置側
 40
3.0
 72
     5
 11
-139.65
 21
54.1
  0
TEXT
  7
TextStyle03
  8
文字
  6
CONTINUOUS
 10
-156.15
 20
39.55
  1
可動装置側
 40
3.0
 72
     5
 11
-139.65
 21
39.55
  0
TEXT
  7
TextStyle03
  8
文字
  6
CONTINUOUS
 10
-156.15
 20
28.275
  1
可動装置側
 40
3.0
 72
     5
 11
-139.65
 21
28.275
  0
TEXT
  7
TextStyle03
  8
文字
  6
CONTINUOUS
 10
-156.15
 20
9.8
  1
可動装置側
 40
3.0
 72
     5
 11
-139.65
 21
9.8
  0
TEXT
  7
TextStyle03
  8
文字
  6
CONTINUOUS
 10
-156.15
 20
-1.35
  1
可動装置側
 40
3.0
 72
     5
 11
-139.65
 21
-1.35
  0
TEXT
  7
TextStyle03
  8
文字
  6
CONTINUOUS
 10
-156.15
 20
-27.025
  1
可動装置側
 40
3.0
 72
     5
 11
-139.65
 21
-27.025
  0
TEXT
  7
TextStyle03
  8
文字
  6
CONTINUOUS
 10
-164.575
 20
70.775
  1
小
 40
3.0
 72
     5
 11
-161.575
 21
70.775
  0
TEXT
  7
TextStyle03
  8
文字
  6
CONTINUOUS
 10
-154.575
 20
70.775
  1
小
 40
3.0
 72
     5
 11
-151.575
 21
70.775
  0
TEXT
  7
TextStyle03
  8
文字
  6
CONTINUOUS
 10
-144.575
 20
70.775
  1
小
 40
3.0
 72
     5
 11
-141.575
 21
70.775
  0
TEXT
  7
TextStyle03
  8
文字
  6
CONTINUOUS
 10
-164.575
 20
48.35
  1
小
 40
3.0
 72
     5
 11
-161.575
 21
48.35
  0
TEXT
  7
TextStyle03
  8
文字
  6
CONTINUOUS
 10
-154.575
 20
48.35
  1
小
 40
3.0
 72
     5
 11
-151.575
 21
48.35
  0
TEXT
  7
TextStyle03
  8
文字
  6
CONTINUOUS
 10
-144.575
 20
48.35
  1
小
 40
3.0
 72
     5
 11
-141.575
 21
48.35
  0
TEXT
  7
TextStyle03
  8
文字
  6
CONTINUOUS
 10
-164.575
 20
19.825
  1
小
 40
3.0
 72
     5
 11
-161.575
 21
19.825
  0
TEXT
  7
TextStyle03
  8
文字
  6
CONTINUOUS
 10
-154.575
 20
19.825
  1
小
 40
3.0
 72
     5
 11
-151.575
 21
19.825
  0
TEXT
  7
TextStyle03
  8
文字
  6
CONTINUOUS
 10
-144.575
 20
19.825
  1
小
 40
3.0
 72
     5
 11
-141.575
 21
19.825
  0
TEXT
  7
TextStyle03
  8
文字
  6
CONTINUOUS
 10
-164.45
 20
-7.975
  1
大
 40
3.0
 72
     5
 11
-161.45
 21
-7.975
  0
TEXT
  7
TextStyle03
  8
文字
  6
CONTINUOUS
 10
-154.1
 20
-7.975
  1
大
 40
3.0
 72
     5
 11
-151.1
 21
-7.975
  0
TEXT
  7
TextStyle03
  8
文字
  6
CONTINUOUS
 10
-143.7
 20
-7.975
  1
大
 40
3.0
 72
     5
 11
-140.7
 21
-7.975
  0
TEXT
  7
TextStyle03
  8
文字
  6
CONTINUOUS
 10
-161.5
 20
-19.975
  1
小
 40
3.0
 72
     5
 11
-158.5
 21
-19.975
  0
TEXT
  7
TextStyle03
  8
文字
  6
CONTINUOUS
 10
-152.05
 20
-19.975
  1
小
 40
3.0
 72
     5
 11
-149.05
 21
-19.975
  0
TEXT
  7
TextStyle03
  8
文字
  6
CONTINUOUS
 10
-142.225
 20
-19.975
  1
小
 40
3.0
 72
     5
 11
-139.225
 21
-19.975
  0
TEXT
  7
TextStyle03
  8
文字
  6
CONTINUOUS
 10
-131.825
 20
-19.975
  1
小
 40
3.0
 72
     5
 11
-128.825
 21
-19.975
  0
TEXT
  7
TextStyle03
  8
文字
  6
CONTINUOUS
 10
-176.725
 20
83.7
  1
Ｌ型タイプ 中桟フレーム
 40
3.0
 72
     5
 11
-138.2875
 21
83.7
  0
TEXT
  7
TextStyle03
  8
文字
  6
CONTINUOUS
 10
-18.5
 20
-72.525
  1
中桟フレーム（大）
 40
3.0
 72
     5
 11
11.5
 21
-72.525
  0
TEXT
  7
TextStyle03
  8
文字
  6
CONTINUOUS
 10
8.125
 20
-79.325
  1
St-1.6t(ｶﾞﾙﾊﾞﾘｳﾑ鋼板)
 40
3.0
 72
     5
 11
43.375
 21
-79.325
  0
TEXT
  7
TextStyle03
  8
文字
  6
CONTINUOUS
 10
-18.375
 20
-112.55
  1
中桟フレーム（小）
 40
3.0
 72
     5
 11
11.625
 21
-112.55
  0
TEXT
  7
TextStyle03
  8
文字
  6
CONTINUOUS
 10
-51.75
 20
-68.475
  1
耐火材：
 40
3.0
 72
     5
 11
-38.625
 21
-68.475
  0
TEXT
  7
TextStyle03
  8
文字
  6
CONTINUOUS
 10
-51.75
 20
-71.85
  1
St-1.6t(ｱﾛｲ鋼板)
 40
3.0
 72
     5
 11
-24.9375
 21
-71.85
  0
POLYLINE
  8
文字
  6
CONTINUOUS
 66
     1
 70
     1
  0
VERTEX
  8
文字
 10
172.810947
 20
50.442975
  0
VERTEX
  8
文字
 10
103.234592
 20
50.442975
  0
VERTEX
  8
文字
 10
103.234592
 20
1.999625
  0
VERTEX
  8
文字
 10
172.810947
 20
1.999625
  0
SEQEND
  0
TEXT
  7
TextStyle03
  8
文字
  6
CONTINUOUS
 10
105.4
 20
45.05
  1
中桟フレーム（大）端部断面
 40
3.0
 72
     5
 11
148.9
 21
45.05
  0
INSERT
  2
*GRP_0062
  8
寸法
  6
CONTINUOUS
 10
0.0
 20
0.0
  0
INSERT
  2
*DIM_0063
  8
寸法
  6
CONTINUOUS
 10
0.0
 20
0.0
  0
INSERT
  2
*DIM_0064
  8
寸法
  6
CONTINUOUS
 10
0.0
 20
0.0
  0
INSERT
  2
*DIM_0065
  8
寸法
  6
CONTINUOUS
 10
0.0
 20
0.0
  0
INSERT
  2
*DIM_0066
  8
寸法
  6
CONTINUOUS
 10
0.0
 20
0.0
  0
INSERT
  2
*DIM_0067
  8
寸法
  6
CONTINUOUS
 10
0.0
 20
0.0
  0
INSERT
  2
*DIM_0068
  8
寸法
  6
CONTINUOUS
 10
0.0
 20
0.0
  0
INSERT
  2
*DIM_0069
  8
寸法
  6
CONTINUOUS
 10
0.0
 20
0.0
  0
INSERT
  2
*DIM_0070
  8
寸法
  6
CONTINUOUS
 10
0.0
 20
0.0
  0
INSERT
  2
*DIM_0071
  8
寸法
  6
CONTINUOUS
 10
0.0
 20
0.0
  0
INSERT
  2
*GRP_0072
  8
寸法
  6
CONTINUOUS
 10
0.0
 20
0.0
  0
INSERT
  2
*DIM_0073
  8
寸法
  6
CONTINUOUS
 10
0.0
 20
0.0
  0
INSERT
  2
*GRP_0074
  8
寸法
  6
CONTINUOUS
 10
0.0
 20
0.0
  0
INSERT
  2
*DIM_0075
  8
寸法
  6
CONTINUOUS
 10
0.0
 20
0.0
  0
INSERT
  2
*GRP_0076
  8
寸法
  6
CONTINUOUS
 10
0.0
 20
0.0
  0
INSERT
  2
*GRP_0077
  8
寸法
  6
CONTINUOUS
 10
0.0
 20
0.0
  0
INSERT
  2
*GRP_0078
  8
寸法
  6
CONTINUOUS
 10
0.0
 20
0.0
  0
INSERT
  2
*DIM_0079
  8
寸法
  6
CONTINUOUS
 10
0.0
 20
0.0
  0
INSERT
  2
*GRP_0080
  8
寸法
  6
CONTINUOUS
 10
0.0
 20
0.0
  0
INSERT
  2
*GRP_0081
  8
寸法
  6
CONTINUOUS
 10
0.0
 20
0.0
  0
INSERT
  2
*GRP_0082
  8
寸法
  6
CONTINUOUS
 10
0.0
 20
0.0
  0
INSERT
  2
*DIM_0083
  8
寸法
  6
CONTINUOUS
 10
0.0
 20
0.0
  0
INSERT
  2
*DIM_0084
  8
寸法
  6
CONTINUOUS
 10
0.0
 20
0.0
  0
INSERT
  2
*DIM_0085
  8
寸法
  6
CONTINUOUS
 10
0.0
 20
0.0
  0
INSERT
  2
*DIM_0086
  8
寸法
  6
CONTINUOUS
 10
0.0
 20
0.0
  0
INSERT
  2
*GRP_0087
  8
寸法
  6
CONTINUOUS
 10
0.0
 20
0.0
  0
INSERT
  2
*GRP_0088
  8
寸法
  6
CONTINUOUS
 10
0.0
 20
0.0
  0
INSERT
  2
*GRP_0089
  8
寸法
  6
CONTINUOUS
 10
0.0
 20
0.0
  0
INSERT
  2
*GRP_0090
  8
寸法
  6
CONTINUOUS
 10
0.0
 20
0.0
  0
INSERT
  2
*GRP_0091
  8
寸法
  6
CONTINUOUS
 10
0.0
 20
0.0
  0
INSERT
  2
*GRP_0092
  8
寸法
  6
CONTINUOUS
 10
0.0
 20
0.0
  0
INSERT
  2
*GRP_0093
  8
寸法
  6
CONTINUOUS
 10
0.0
 20
0.0
  0
INSERT
  2
*GRP_0094
  8
寸法
  6
CONTINUOUS
 10
0.0
 20
0.0
  0
INSERT
  2
*GRP_0095
  8
寸法
  6
CONTINUOUS
 10
0.0
 20
0.0
  0
INSERT
  2
*GRP_0096
  8
寸法
  6
CONTINUOUS
 10
0.0
 20
0.0
  0
INSERT
  2
*GRP_0097
  8
寸法
  6
CONTINUOUS
 10
0.0
 20
0.0
  0
INSERT
  2
*GRP_0098
  8
寸法
  6
CONTINUOUS
 10
0.0
 20
0.0
  0
INSERT
  2
*GRP_0099
  8
寸法
  6
CONTINUOUS
 10
0.0
 20
0.0
  0
INSERT
  2
*GRP_0100
  8
寸法
  6
CONTINUOUS
 10
0.0
 20
0.0
  0
INSERT
  2
*GRP_0101
  8
寸法
  6
CONTINUOUS
 10
0.0
 20
0.0
  0
INSERT
  2
*GRP_0102
  8
寸法
  6
CONTINUOUS
 10
0.0
 20
0.0
  0
INSERT
  2
*DIM_0103
  8
寸法
  6
CONTINUOUS
 10
0.0
 20
0.0
  0
INSERT
  2
*DIM_0104
  8
寸法
  6
CONTINUOUS
 10
0.0
 20
0.0
  0
INSERT
  2
*DIM_0105
  8
寸法
  6
CONTINUOUS
 10
0.0
 20
0.0
  0
INSERT
  2
*DIM_0106
  8
寸法
  6
CONTINUOUS
 10
0.0
 20
0.0
  0
INSERT
  2
*DIM_0107
  8
寸法
  6
CONTINUOUS
 10
0.0
 20
0.0
  0
INSERT
  2
*DIM_0108
  8
寸法
  6
CONTINUOUS
 10
0.0
 20
0.0
  0
INSERT
  2
*DIM_0109
  8
寸法
  6
CONTINUOUS
 10
0.0
 20
0.0
  0
INSERT
  2
*DIM_0110
  8
寸法
  6
CONTINUOUS
 10
0.0
 20
0.0
  0
INSERT
  2
*DIM_0111
  8
寸法
  6
CONTINUOUS
 10
0.0
 20
0.0
  0
INSERT
  2
*DIM_0112
  8
寸法
  6
CONTINUOUS
 10
0.0
 20
0.0
  0
INSERT
  2
*DIM_0113
  8
寸法
  6
CONTINUOUS
 10
0.0
 20
0.0
  0
INSERT
  2
*DIM_0114
  8
寸法
  6
CONTINUOUS
 10
0.0
 20
0.0
  0
INSERT
  2
*DIM_0115
  8
寸法
  6
CONTINUOUS
 10
0.0
 20
0.0
  0
INSERT
  2
*DIM_0116
  8
寸法
  6
CONTINUOUS
 10
0.0
 20
0.0
  0
INSERT
  2
*DIM_0130
  8
寸法
  6
CONTINUOUS
 10
0.0
 20
0.0
  0
INSERT
  2
*DIM_0131
  8
寸法
  6
CONTINUOUS
 10
0.0
 20
0.0
  0
INSERT
  2
*DIM_0132
  8
寸法
  6
CONTINUOUS
 10
0.0
 20
0.0
  0
INSERT
  2
*DIM_0133
  8
寸法
  6
CONTINUOUS
 10
0.0
 20
0.0
  0
INSERT
  2
*GRP_0150
  8
寸法
  6
CONTINUOUS
 10
0.0
 20
0.0
  0
INSERT
  2
*DIM_0151
  8
寸法
  6
CONTINUOUS
 10
0.0
 20
0.0
  0
INSERT
  2
*GRP_0163
  8
寸法
  6
CONTINUOUS
 10
0.0
 20
0.0
  0
INSERT
  2
*GRP_0117
  8
別途部材
  6
CONTINUOUS
 10
0.0
 20
0.0
  0
INSERT
  2
*GRP_0118
  8
別途部材
  6
CONTINUOUS
 10
0.0
 20
0.0
  0
ARC
  8
別途部材
  6
CONTINUOUS
 62
    96
 10
-83.209413
 20
-22.70581
 40
1.668651
 50
90.001373
 51
158.200992
  0
LINE
  8
別途部材
  6
CONTINUOUS
 62
    96
 10
-85.017
 20
-20.03597
 11
-68.350335
 21
-20.03597
  0
LINE
  8
別途部材
  6
CONTINUOUS
 62
    96
 10
-83.209415
 20
-21.037165
 11
-67.79548
 21
-21.037165
  0
LINE
  8
別途部材
  6
CONTINUOUS
 10
-89.016993
 20
-30.03597
 11
-87.938677
 21
-30.03597
  0
LINE
  8
別途部材
  6
CONTINUOUS
 62
    96
 10
-85.017
 20
-20.03597
 11
-89.016993
 21
-30.03597
  0
LINE
  8
別途部材
  6
CONTINUOUS
 62
    96
 10
-84.75873
 20
-22.086097
 11
-87.938677
 21
-30.03597
  0
ARC
  8
別途部材
  6
CONTINUOUS
 10
-4.431738
 20
-53.348576
 40
72.078542
 50
90.0
 51
152.472719
  0
ARC
  8
別途部材
  6
CONTINUOUS
 10
-4.431738
 20
-53.348576
 40
71.126582
 50
90.0
 51
152.981359
  0
ARC
  8
別途部材
  6
CONTINUOUS
 62
    96
 10
74.344953
 20
-22.70581
 40
1.668651
 50
21.799008
 51
89.998627
  0
LINE
  8
別途部材
  6
CONTINUOUS
 62
    96
 10
76.15254
 20
-20.03597
 11
59.485875
 21
-20.03597
  0
LINE
  8
別途部材
  6
CONTINUOUS
 62
    96
 10
74.344955
 20
-21.037165
 11
58.93102
 21
-21.037165
  0
LINE
  8
別途部材
  6
CONTINUOUS
 10
80.152533
 20
-30.03597
 11
79.074217
 21
-30.03597
  0
LINE
  8
別途部材
  6
CONTINUOUS
 62
    96
 10
76.15254
 20
-20.03597
 11
80.152533
 21
-30.03597
  0
LINE
  8
別途部材
  6
CONTINUOUS
 62
    96
 10
75.89427
 20
-22.086097
 11
79.074217
 21
-30.03597
  0
ARC
  8
別途部材
  6
CONTINUOUS
 10
-4.432722
 20
-53.348576
 40
72.078542
 50
27.527281
 51
90.0
  0
ARC
  8
別途部材
  6
CONTINUOUS
 10
-4.432722
 20
-53.348576
 40
71.126582
 50
27.018641
 51
90.0
  0
CIRCLE
  8
曲げ物
  6
CONTINUOUS
 10
-68.350335
 20
-25.837165
 40
0.666665
  0
LINE
  8
曲げ物
  6
CONTINUOUS
 10
-69.017
 20
-23.837165
 11
-69.017
 21
-25.1705
  0
CIRCLE
  8
曲げ物
  6
CONTINUOUS
 10
-35.017003
 20
-25.837165
 40
0.666665
  0
LINE
  8
曲げ物
  6
CONTINUOUS
 10
-79.75027
 20
-27.037165
 11
-79.75027
 21
-22.570497
  0
ARC
  8
曲げ物
  6
CONTINUOUS
 10
-79.216937
 20
-22.570499
 40
0.533333
 50
90.0
 51
180.0
  0
LINE
  8
曲げ物
  6
CONTINUOUS
 10
-79.216938
 20
-22.037165
 11
-65.283667
 21
-22.037165
  0
LINE
  8
曲げ物
  6
CONTINUOUS
 10
-64.750335
 20
-27.037165
 11
-64.750335
 21
-22.570497
  0
ARC
  8
曲げ物
  6
CONTINUOUS
 10
-65.283668
 20
-22.570499
 40
0.533333
 50
0.0
 51
90.0
  0
ARC
  8
曲げ物
  6
CONTINUOUS
 10
-65.917001
 20
-26.503832
 40
0.533333
 50
-90.0
 51
0.0
  0
LINE
  8
曲げ物
  6
CONTINUOUS
 10
-78.583605
 20
-27.037165
 11
-65.917
 21
-27.037165
  0
ARC
  8
曲げ物
  6
CONTINUOUS
 10
-78.583604
 20
-26.503832
 40
0.533333
 50
180.0
 51
270.0
  0
LINE
  8
曲げ物
  6
CONTINUOUS
 10
-79.75027
 20
-27.037165
 11
-79.216938
 21
-27.037165
  0
LINE
  8
曲げ物
  6
CONTINUOUS
 10
-79.116938
 20
-26.503833
 11
-79.116938
 21
-22.570497
  0
LINE
  8
曲げ物
  6
CONTINUOUS
 10
-79.216938
 20
-27.037165
 11
-79.216938
 21
-22.570497
  0
LINE
  8
曲げ物
  6
CONTINUOUS
 10
-78.583605
 20
-26.503833
 11
-78.583605
 21
-22.570497
  0
LINE
  8
曲げ物
  6
CONTINUOUS
 10
-79.216938
 20
-22.570497
 11
-65.283667
 21
-22.570497
  0
LINE
  8
曲げ物
  6
CONTINUOUS
 10
-65.383667
 20
-26.503833
 11
-65.383667
 21
-22.570497
  0
LINE
  8
曲げ物
  6
CONTINUOUS
 10
-65.917
 20
-22.570497
 11
-65.917
 21
-26.503833
  0
LINE
  8
曲げ物
  6
CONTINUOUS
 10
-78.583605
 20
-26.503833
 11
-65.917
 21
-26.503833
  0
LINE
  8
曲げ物
  6
CONTINUOUS
 10
-65.283667
 20
-22.570497
 11
-65.283667
 21
-27.037165
  0
LINE
  8
曲げ物
  6
CONTINUOUS
 10
-64.750335
 20
-27.037165
 11
-65.283667
 21
-27.037165
  0
CIRCLE
  8
曲げ物
  6
CONTINUOUS
 10
59.485875
 20
-25.837165
 40
0.666665
  0
LINE
  8
曲げ物
  6
CONTINUOUS
 10
60.15254
 20
-23.837165
 11
60.15254
 21
-25.1705
  0
CIRCLE
  8
曲げ物
  6
CONTINUOUS
 10
26.152542
 20
-25.837165
 40
0.666665
  0
LINE
  8
曲げ物
  6
CONTINUOUS
 10
70.88581
 20
-27.037165
 11
70.88581
 21
-22.570497
  0
ARC
  8
曲げ物
  6
CONTINUOUS
 10
70.352477
 20
-22.570499
 40
0.533333
 50
0.0
 51
90.0
  0
LINE
  8
曲げ物
  6
CONTINUOUS
 10
70.352477
 20
-22.037165
 11
56.419208
 21
-22.037165
  0
LINE
  8
曲げ物
  6
CONTINUOUS
 10
55.885875
 20
-27.037165
 11
55.885875
 21
-22.570497
  0
ARC
  8
曲げ物
  6
CONTINUOUS
 10
56.419208
 20
-22.570499
 40
0.533333
 50
90.0
 51
180.0
  0
ARC
  8
曲げ物
  6
CONTINUOUS
 10
57.052541
 20
-26.503832
 40
0.533333
 50
180.0
 51
270.0
  0
LINE
  8
曲げ物
  6
CONTINUOUS
 10
69.719145
 20
-27.037165
 11
57.05254
 21
-27.037165
  0
ARC
  8
曲げ物
  6
CONTINUOUS
 10
69.719144
 20
-26.503832
 40
0.533333
 50
270.0
 51
360.0
  0
LINE
  8
曲げ物
  6
CONTINUOUS
 10
70.88581
 20
-27.037165
 11
70.352477
 21
-27.037165
  0
LINE
  8
曲げ物
  6
CONTINUOUS
 10
70.252477
 20
-26.503833
 11
70.252477
 21
-22.570497
  0
LINE
  8
曲げ物
  6
CONTINUOUS
 10
70.352477
 20
-27.037165
 11
70.352477
 21
-22.570497
  0
LINE
  8
曲げ物
  6
CONTINUOUS
 10
69.719145
 20
-26.503833
 11
69.719145
 21
-22.570497
  0
LINE
  8
曲げ物
  6
CONTINUOUS
 10
70.352477
 20
-22.570497
 11
56.419208
 21
-22.570497
  0
LINE
  8
曲げ物
  6
CONTINUOUS
 10
56.519208
 20
-26.503833
 11
56.519208
 21
-22.570497
  0
LINE
  8
曲げ物
  6
CONTINUOUS
 10
57.05254
 20
-22.570497
 11
57.05254
 21
-26.503833
  0
LINE
  8
曲げ物
  6
CONTINUOUS
 10
69.719145
 20
-26.503833
 11
57.05254
 21
-26.503833
  0
LINE
  8
曲げ物
  6
CONTINUOUS
 10
56.419208
 20
-22.570497
 11
56.419208
 21
-27.037165
  0
LINE
  8
曲げ物
  6
CONTINUOUS
 10
55.885875
 20
-27.037165
 11
56.419208
 21
-27.037165
  0
LINE
  8
曲げ物
  6
CONTINUOUS
 10
60.15254
 20
-25.1705
 11
-1.765563
 21
-25.1705
  0
LINE
  8
曲げ物
  6
CONTINUOUS
 10
60.15254
 20
-23.837165
 11
-1.765563
 21
-23.837165
  0
LINE
  8
曲げ物
  6
CONTINUOUS
 10
-69.017
 20
-23.837165
 11
-7.098898
 21
-23.837165
  0
LINE
  8
曲げ物
  6
CONTINUOUS
 10
-69.017
 20
-25.1705
 11
-7.098898
 21
-25.1705
  0
CIRCLE
  8
曲げ物
  6
CONTINUOUS
 10
-7.765563
 20
-25.837165
 40
0.666667
  0
LINE
  8
曲げ物
  6
CONTINUOUS
 10
-7.098898
 20
-23.837165
 11
-7.098898
 21
-25.1705
  0
CIRCLE
  8
曲げ物
  6
CONTINUOUS
 10
-1.098898
 20
-25.837165
 40
0.666667
  0
LINE
  8
曲げ物
  6
CONTINUOUS
 10
-1.765563
 20
-23.837165
 11
-1.765563
 21
-25.1705
  0
ARC
  8
曲げ物
  6
CONTINUOUS
 10
3.96777
 20
-26.503831
 40
0.533333
 50
270.0
 51
360.0
  0
LINE
  8
曲げ物
  6
CONTINUOUS
 10
5.134438
 20
-27.037165
 11
5.134438
 21
-22.570497
  0
ARC
  8
曲げ物
  6
CONTINUOUS
 10
4.601103
 20
-22.570497
 40
0.533333
 50
0.0
 51
90.0
  0
LINE
  8
曲げ物
  6
CONTINUOUS
 10
-13.465565
 20
-22.037165
 11
4.601105
 21
-22.037165
  0
LINE
  8
曲げ物
  6
CONTINUOUS
 10
-13.998898
 20
-27.037165
 11
-13.998898
 21
-22.570497
  0
ARC
  8
曲げ物
  6
CONTINUOUS
 10
-13.465565
 20
-22.570497
 40
0.533333
 50
90.0
 51
180.0
  0
LINE
  8
曲げ物
  6
CONTINUOUS
 10
-12.832233
 20
-27.037165
 11
3.967772
 21
-27.037165
  0
ARC
  8
曲げ物
  6
CONTINUOUS
 10
-12.832233
 20
-26.503831
 40
0.533333
 50
180.0
 51
270.0
  0
LINE
  8
曲げ物
  6
CONTINUOUS
 10
-13.998898
 20
-27.037165
 11
-13.465565
 21
-27.037165
  0
LINE
  8
曲げ物
  6
CONTINUOUS
 10
-13.465565
 20
-27.037165
 11
-13.465565
 21
-22.570497
  0
LINE
  8
曲げ物
  6
CONTINUOUS
 10
-13.365565
 20
-26.503833
 11
-13.365565
 21
-22.570497
  0
LINE
  8
曲げ物
  6
CONTINUOUS
 10
-12.832233
 20
-26.503833
 11
-12.832233
 21
-22.570497
  0
LINE
  8
曲げ物
  6
CONTINUOUS
 10
4.501105
 20
-26.503833
 11
4.501105
 21
-22.570497
  0
LINE
  8
曲げ物
  6
CONTINUOUS
 10
-13.465565
 20
-22.570497
 11
4.601105
 21
-22.570497
  0
LINE
  8
曲げ物
  6
CONTINUOUS
 10
-12.832233
 20
-26.503833
 11
3.967772
 21
-26.503833
  0
LINE
  8
曲げ物
  6
CONTINUOUS
 10
3.967772
 20
-22.570497
 11
3.967772
 21
-26.503833
  0
LINE
  8
曲げ物
  6
CONTINUOUS
 10
4.601105
 20
-22.570497
 11
4.601105
 21
-27.037165
  0
LINE
  8
曲げ物
  6
CONTINUOUS
 10
5.134438
 20
-27.037165
 11
4.601105
 21
-27.037165
  0
LINE
  8
曲げ物
  6
DOT
 10
-5.765563
 20
-22.037165
 11
-5.765563
 21
-22.570497
  0
LINE
  8
曲げ物
  6
DOT
 10
-5.765563
 20
-22.170497
 11
-3.098898
 21
-22.170497
  0
LINE
  8
曲げ物
  6
DOT
 10
-5.765563
 20
-22.30383
 11
-3.098898
 21
-22.30383
  0
LINE
  8
曲げ物
  6
DOT
 10
-5.765563
 20
-22.437165
 11
-3.098898
 21
-22.437165
  0
LINE
  8
曲げ物
  6
DOT
 10
-3.098898
 20
-22.037165
 11
-3.098898
 21
-22.570497
  0
INSERT
  2
*GRP_0119
  8
曲げ物
  6
DOT
 10
0.0
 20
0.0
  0
INSERT
  2
*GRP_0152
  8
曲げ物
  6
CONTINUOUS
 10
0.0
 20
0.0
  0
INSERT
  2
*GRP_0153
  8
曲げ物
  6
CONTINUOUS
 10
0.0
 20
0.0
  0
INSERT
  2
*GRP_0154
  8
曲げ物
  6
DOT
 10
0.0
 20
0.0
  0
CIRCLE
  8
曲げ物
  6
CONTINUOUS
 10
-41.098898
 20
-85.072205
 40
0.666667
  0
CIRCLE
  8
曲げ物
  6
CONTINUOUS
 10
-7.765563
 20
-85.072205
 40
0.666667
  0
LINE
  8
曲げ物
  6
CONTINUOUS
 10
-7.098898
 20
-83.072205
 11
-7.098898
 21
-84.40554
  0
CIRCLE
  8
曲げ物
  6
CONTINUOUS
 10
32.234438
 20
-85.072205
 40
0.666667
  0
CIRCLE
  8
曲げ物
  6
CONTINUOUS
 10
-1.098898
 20
-85.072205
 40
0.666667
  0
LINE
  8
曲げ物
  6
CONTINUOUS
 10
-1.765563
 20
-83.072205
 11
-1.765563
 21
-84.40554
  0
LINE
  8
曲げ物
  6
CONTINUOUS
 10
-7.098898
 20
-83.072205
 11
-41.765563
 21
-83.072205
  0
LINE
  8
曲げ物
  6
CONTINUOUS
 10
-7.098898
 20
-84.40554
 11
-41.765563
 21
-84.40554
  0
LINE
  8
曲げ物
  6
CONTINUOUS
 10
-1.765563
 20
-83.072205
 11
32.901102
 21
-83.072205
  0
LINE
  8
曲げ物
  6
CONTINUOUS
 10
-1.765563
 20
-84.40554
 11
32.901102
 21
-84.40554
  0
ARC
  8
曲げ物
  6
CONTINUOUS
 10
3.96777
 20
-85.738874
 40
0.533333
 50
270.0
 51
360.0
  0
LINE
  8
曲げ物
  6
CONTINUOUS
 10
5.134438
 20
-86.272205
 11
5.134438
 21
-81.805537
  0
ARC
  8
曲げ物
  6
CONTINUOUS
 10
4.601103
 20
-81.805541
 40
0.533333
 50
0.0
 51
90.0
  0
LINE
  8
曲げ物
  6
CONTINUOUS
 10
-13.465565
 20
-81.272205
 11
4.601105
 21
-81.272205
  0
LINE
  8
曲げ物
  6
CONTINUOUS
 10
-13.998898
 20
-86.272205
 11
-13.998898
 21
-81.805537
  0
ARC
  8
曲げ物
  6
CONTINUOUS
 10
-13.465565
 20
-81.805541
 40
0.533333
 50
90.0
 51
180.0
  0
LINE
  8
曲げ物
  6
CONTINUOUS
 10
-12.832233
 20
-86.272205
 11
3.967772
 21
-86.272205
  0
ARC
  8
曲げ物
  6
CONTINUOUS
 10
-12.832233
 20
-85.738874
 40
0.533333
 50
180.0
 51
270.0
  0
LINE
  8
曲げ物
  6
CONTINUOUS
 10
-13.998898
 20
-86.272205
 11
-13.465565
 21
-86.272205
  0
LINE
  8
曲げ物
  6
CONTINUOUS
 10
-13.465565
 20
-86.272205
 11
-13.465565
 21
-81.805537
  0
LINE
  8
曲げ物
  6
CONTINUOUS
 10
-13.365565
 20
-85.738872
 11
-13.365565
 21
-81.805537
  0
LINE
  8
曲げ物
  6
CONTINUOUS
 10
-12.832233
 20
-85.738872
 11
-12.832233
 21
-81.805537
  0
LINE
  8
曲げ物
  6
CONTINUOUS
 10
4.501105
 20
-85.738872
 11
4.501105
 21
-81.805537
  0
LINE
  8
曲げ物
  6
CONTINUOUS
 10
-13.465565
 20
-81.805537
 11
4.601105
 21
-81.805537
  0
LINE
  8
曲げ物
  6
CONTINUOUS
 10
-12.832233
 20
-85.738872
 11
3.967772
 21
-85.738872
  0
LINE
  8
曲げ物
  6
CONTINUOUS
 10
3.967772
 20
-81.805537
 11
3.967772
 21
-85.738872
  0
LINE
  8
曲げ物
  6
CONTINUOUS
 10
4.601105
 20
-81.805537
 11
4.601105
 21
-86.272205
  0
LINE
  8
曲げ物
  6
CONTINUOUS
 10
5.134438
 20
-86.272205
 11
4.601105
 21
-86.272205
  0
LINE
  8
曲げ物
  6
DOT
 10
-5.765563
 20
-81.272205
 11
-5.765563
 21
-81.805537
  0
LINE
  8
曲げ物
  6
DOT
 10
-5.765563
 20
-81.405537
 11
-3.098898
 21
-81.405537
  0
LINE
  8
曲げ物
  6
DOT
 10
-5.765563
 20
-81.53887
 11
-3.098898
 21
-81.53887
  0
LINE
  8
曲げ物
  6
DOT
 10
-5.765563
 20
-81.672205
 11
-3.098898
 21
-81.672205
  0
LINE
  8
曲げ物
  6
DOT
 10
-3.098898
 20
-81.272205
 11
-3.098898
 21
-81.805537
  0
LINE
  8
St
  6
CONTINUOUS
 10
-68.35086
 20
-28.202625
 11
-67.35086
 21
-28.202625
  0
LINE
  8
St
  6
CONTINUOUS
 10
-67.35086
 20
-28.202625
 11
-67.35086
 21
-34.36937
  0
LINE
  8
St
  6
CONTINUOUS
 10
-67.35086
 20
-35.035998
 11
-67.35086
 21
-41.36932
  0
INSERT
  2
*GRP_0120
  8
St
  6
CONTINUOUS
 10
0.0
 20
0.0
  0
INSERT
  2
*GRP_0121
  8
St
  6
CONTINUOUS
 10
0.0
 20
0.0
  0
INSERT
  2
*GRP_0122
  8
St
  6
DOT
 10
0.0
 20
0.0
  0
INSERT
  2
*GRP_0123
  8
St
  6
DOT
 10
0.0
 20
0.0
  0
LINE
  8
St
  6
CONTINUOUS
 10
12.234438
 20
-33.70265
 11
5.134438
 21
-33.70265
  0
LINE
  8
St
  6
CONTINUOUS
 10
-13.998898
 20
-33.70265
 11
-21.098898
 21
-33.70265
  0
LINE
  8
St
  6
DOT
 10
5.134438
 20
-33.70265
 11
-14.062283
 21
-33.70265
  0
LINE
  8
St
  6
CONTINUOUS
 10
12.234438
 20
-33.70265
 11
12.234438
 21
-37.702647
  0
LINE
  8
St
  6
DOT
 10
12.234438
 20
-37.702647
 11
12.234438
 21
-39.369315
  0
LINE
  8
St
  6
CONTINUOUS
 10
-21.098898
 20
-33.70265
 11
-21.098898
 21
-37.702647
  0
LINE
  8
St
  6
DOT
 10
-21.098898
 20
-37.702647
 11
-21.098898
 21
-39.369315
  0
LINE
  8
St
  6
DOT
 10
12.234438
 20
-39.369315
 11
-21.098898
 21
-39.369315
  0
LINE
  8
St
  6
CONTINUOUS
 10
12.234438
 20
-92.93769
 11
5.134438
 21
-92.93769
  0
LINE
  8
St
  6
CONTINUOUS
 10
-13.998898
 20
-92.93769
 11
-21.098898
 21
-92.93769
  0
LINE
  8
St
  6
DOT
 10
5.134438
 20
-92.93769
 11
-14.06228
 21
-92.93769
  0
LINE
  8
St
  6
CONTINUOUS
 10
12.234438
 20
-92.93769
 11
12.234438
 21
-96.93769
  0
LINE
  8
St
  6
DOT
 10
12.234438
 20
-96.93769
 11
12.234438
 21
-98.604355
  0
LINE
  8
St
  6
CONTINUOUS
 10
-21.098898
 20
-92.93769
 11
-21.098898
 21
-96.93769
  0
LINE
  8
St
  6
DOT
 10
-21.098898
 20
-96.93769
 11
-21.098898
 21
-98.604355
  0
LINE
  8
St
  6
DOT
 10
12.234438
 20
-98.604355
 11
-21.098898
 21
-98.604355
  0
LINE
  8
その他部品等
  6
CONTINUOUS
 10
-98.350778
 20
-54.70263
 11
-98.350778
 21
-59.70263
  0
LINE
  8
その他部品等
  6
CONTINUOUS
 10
-95.818435
 20
-54.70263
 11
-95.818435
 21
-59.358093
  0
LINE
  8
その他部品等
  6
CONTINUOUS
 10
-93.88421
 20
-59.094932
 11
-95.818435
 21
-54.70263
  0
INSERT
  2
*HAT_0012
  8
その他部品等
 10
0.0
 20
0.0
  0
LINE
  8
その他部品等
  6
CONTINUOUS
 10
89.486318
 20
-54.70263
 11
89.486318
 21
-59.70263
  0
LINE
  8
その他部品等
  6
CONTINUOUS
 10
86.953975
 20
-54.70263
 11
86.953975
 21
-59.358093
  0
LINE
  8
その他部品等
  6
CONTINUOUS
 10
85.01975
 20
-59.094932
 11
86.953975
 21
-54.70263
  0
LINE
  8
その他部品等
  6
CONTINUOUS
 10
122.286457
 20
-84.23779
 11
116.15324
 21
-84.23779
  0
LINE
  8
その他部品等
  6
CONTINUOUS
 10
122.286457
 20
-81.571123
 11
116.15324
 21
-81.571123
  0
LINE
  8
その他部品等
  6
CONTINUOUS
 10
116.15324
 20
-78.904457
 11
121.119758
 21
-78.904457
  0
LINE
  8
その他部品等
  6
CONTINUOUS
 10
121.119758
 20
-78.904457
 11
121.119758
 21
-81.571123
  0
LINE
  8
その他部品等
  6
CONTINUOUS
 10
121.119758
 20
-78.904457
 11
116.15324
 21
-81.571123
  0
INSERT
  2
*HAT_0013
  8
その他部品等
 10
0.0
 20
0.0
  0
INSERT
  2
*HAT_0014
  8
その他部品等
 10
0.0
 20
0.0
  0
LINE
  8
その他部品等
  6
CONTINUOUS
 10
-131.150918
 20
-84.23779
 11
-125.0177
 21
-84.23779
  0
LINE
  8
その他部品等
  6
CONTINUOUS
 10
-131.150918
 20
-81.571123
 11
-125.0177
 21
-81.571123
  0
LINE
  8
その他部品等
  6
CONTINUOUS
 10
-125.0177
 20
-78.904457
 11
-129.984217
 21
-78.904457
  0
LINE
  8
その他部品等
  6
CONTINUOUS
 10
-129.984217
 20
-78.904457
 11
-129.984217
 21
-81.571123
  0
LINE
  8
その他部品等
  6
CONTINUOUS
 10
-129.984217
 20
-78.904457
 11
-125.0177
 21
-81.571123
  0
INSERT
  2
*HAT_0015
  8
その他部品等
 10
0.0
 20
0.0
  0
CIRCLE
  8
LAYER010
  6
CONTINUOUS
 62
     7
 10
-98.350782
 20
-49.702657
 40
0.11111
  0
CIRCLE
  8
LAYER010
  6
CONTINUOUS
 62
     7
 10
89.486322
 20
-49.702657
 40
0.11111
  0
ENDSEC
  0
EOF
