  0
SECTION
  2
HEADER
  9
$EXTMIN
 10
-210.0
 20
-148.5
  9
$EXTMAX
 10
210.0
 20
148.5
  9
$PDMODE
 70
    32
  9
$PDSIZE
 40
0.1
  9
$LTSCALE
 40
10.0
  0
ENDSEC
  0
SECTION
  2
TABLES
  0
TABLE
  2
LTYPE
 70
    15
  0
LTYPE
  2
CONTINUOUS
 70
    64
  3
実線
 72
    65
 73
     0
 40
0.0
  0
LTYPE
  2
DASHED
 70
    64
  3
破線A
 72
    65
 73
     2
 40
0.6
 49
0.4
 49
-0.2
  0
LTYPE
  2
DASHEDX2
 70
    64
  3
破線B
 72
    65
 73
     2
 40
1.3
 49
0.9
 49
-0.4
  0
LTYPE
  2
DASHDOT
 70
    64
  3
１点鎖線A
 72
    65
 73
     4
 40
0.5375
 49
0.375
 49
-0.05
 49
0.0625
 49
-0.05
  0
LTYPE
  2
DASHDOTX2
 70
    64
  3
１点鎖線B
 72
    65
 73
     4
 40
1.075
 49
0.75
 49
-0.1
 49
0.125
 49
-0.1
  0
LTYPE
  2
DIVIDE2
 70
    64
  3
２点鎖線A
 72
    65
 73
     6
 40
0.5125
 49
0.3
 49
-0.0375
 49
0.05
 49
-0.0375
 49
0.05
 49
-0.0375
  0
LTYPE
  2
DIVIDE
 70
    64
  3
２点鎖線B
 72
    65
 73
     6
 40
1.05
 49
0.55
 49
-0.1
 49
0.1
 49
-0.1
 49
0.1
 49
-0.1
  0
LTYPE
  2
DOT
 70
    64
  3
点線A
 72
    65
 73
     2
 40
0.1125
 49
0.0625
 49
-0.05
  0
LTYPE
  2
DOTX2
 70
    64
  3
点線B
 72
    65
 73
     2
 40
0.275
 49
0.15
 49
-0.125
  0
LTYPE
  2
CONTINUOUS
 70
    64
  3
実線
 72
    65
 73
     0
 40
0.0
  0
LTYPE
  2
CONTINUOUS
 70
    64
  3
実線
 72
    65
 73
     0
 40
0.0
  0
LTYPE
  2
CONTINUOUS
 70
    64
  3
実線
 72
    65
 73
     0
 40
0.0
  0
LTYPE
  2
CONTINUOUS
 70
    64
  3
実線
 72
    65
 73
     0
 40
0.0
  0
LTYPE
  2
CONTINUOUS
 70
    64
  3
実線
 72
    65
 73
     0
 40
0.0
  0
LTYPE
  2
CONTINUOUS
 70
    64
  3
実線
 72
    65
 73
     0
 40
0.0
  0
ENDTAB
  0
TABLE
  2
LAYER
 70
    35
  0
LAYER
  2
通り芯
 70
     0
 62
    15
  6
CONTINUOUS
  0
LAYER
  2
補助線
 70
     0
 62
    16
  6
DOT
  0
LAYER
  2
躯体
 70
     0
 62
    31
  6
CONTINUOUS
  0
LAYER
  2
型材
 70
     0
 62
    32
  6
CONTINUOUS
  0
LAYER
  2
型材断面
 70
     0
 62
    47
  6
CONTINUOUS
  0
LAYER
  2
ガラス
 70
     0
 62
    48
  6
CONTINUOUS
  0
LAYER
  2
ゴム等
 70
     0
 62
    63
  6
CONTINUOUS
  0
LAYER
  2
ボルト／ビス
 70
     0
 62
    64
  6
CONTINUOUS
  0
LAYER
  2
文字
 70
     0
 62
    79
  6
CONTINUOUS
  0
LAYER
  2
寸法
 70
     0
 62
    80
  6
CONTINUOUS
  0
LAYER
  2
ﾊｯﾁﾝｸﾞ
 70
     0
 62
    95
  6
CONTINUOUS
  0
LAYER
  2
別途部材
 70
     0
 62
    96
  6
CONTINUOUS
  0
LAYER
  2
曲げ物
 70
     0
 62
   111
  6
CONTINUOUS
  0
LAYER
  2
鉄骨等
 70
     0
 62
   112
  6
CONTINUOUS
  0
LAYER
  2
St
 70
     0
 62
   127
  6
CONTINUOUS
  0
LAYER
  2
その他部品等
 70
     0
 62
   128
  6
CONTINUOUS
  0
LAYER
  2
ｶﾞｽｹｯﾄ
 70
     0
 62
   143
  6
CONTINUOUS
  0
LAYER
  2
ｽｹｯﾁ
 70
     0
 62
    14
  6
CONTINUOUS
  0
LAYER
  2
0
 70
     0
 62
    17
  6
CONTINUOUS
  0
LAYER
  2
1
 70
     0
 62
    30
  6
CONTINUOUS
  0
LAYER
  2
4
 70
     0
 62
    33
  6
CONTINUOUS
  0
LAYER
  2
ﾚｲﾔ3
 70
     0
 62
    46
  6
CONTINUOUS
  0
LAYER
  2
外形線
 70
     0
 62
    49
  6
CONTINUOUS
  0
LAYER
  2
部品
 70
     0
 62
    14
  6
CONTINUOUS
  0
LAYER
  2
サッシ芯
 70
     0
 62
    17
  6
DASHDOTX2
  0
LAYER
  2
寸法線
 70
     0
 62
    62
  6
CONTINUOUS
  0
LAYER
  2
姿図外形線
 70
     0
 62
    65
  6
CONTINUOUS
  0
LAYER
  2
姿補助線
 70
     0
 62
    30
  6
CONTINUOUS
  0
LAYER
  2
透視線
 70
     0
 62
    78
  6
DOT
  0
LAYER
  2
用紙
 70
     0
 62
    81
  6
CONTINUOUS
  0
LAYER
  2
実線図枠
 70
     0
 62
    94
  6
CONTINUOUS
  0
LAYER
  2
補助図枠
 70
     0
 62
    97
  6
CONTINUOUS
  0
LAYER
  2
建具記号
 70
     0
 62
   110
  6
CONTINUOUS
  0
LAYER
  2
補助文字
 70
     0
 62
   113
  6
CONTINUOUS
  0
LAYER
  2
SUNPO
 70
     0
 62
     6
  6
CONTINUOUS
  0
ENDTAB
  0
TABLE
  2
STYLE
 70
    10
  0
STYLE
  2
STANDARD
 70
     0
 40
1.0
 41
1.0
 42
1.0
 50
0.0
 71
     0
  3
TXT
  4
BIGFONT
  0
STYLE
  2
TATE
 70
     4
 40
1.0
 41
1.0
 42
1.0
 50
0.0
 71
     0
  3
TXT
  4
BIGFONT
  0
STYLE
  2
TextStyle03
 70
     0
 40
1.0
 41
1.0
 42
1.0
 50
0.0
 71
     0
  3
MONOTXT
  4
BIGFONT
  0
STYLE
  2
TextStyle04
 70
     0
 40
1.0
 41
1.0
 42
1.0
 50
0.0
 71
     0
  3
MONOTXT
  4
BIGFONT
  0
STYLE
  2
TextStyle05
 70
     0
 40
1.0
 41
1.0
 42
1.0
 50
0.0
 71
     0
  3
MONOTXT
  4
BIGFONT
  0
STYLE
  2
TextStyle06
 70
     0
 40
1.0
 41
1.0
 42
1.0
 50
0.0
 71
     0
  3
MONOTXT
  4
BIGFONT
  0
STYLE
  2
TextStyle07
 70
     0
 40
1.0
 41
1.0
 42
1.0
 50
0.0
 71
     0
  3
MONOTXT
  4
BIGFONT
  0
STYLE
  2
TextStyle08
 70
     0
 40
1.0
 41
1.0
 42
1.0
 50
0.0
 71
     0
  3
MONOTXT
  4
BIGFONT
  0
STYLE
  2
TextStyle09
 70
     0
 40
1.0
 41
1.0
 42
1.0
 50
0.0
 71
     0
  3
MONOTXT
  4
BIGFONT
  0
STYLE
  2
TextStyle10
 70
     0
 40
1.0
 41
1.0
 42
1.0
 50
0.0
 71
     0
  3
MONOTXT
  4
BIGFONT
  0
ENDTAB
  0
ENDSEC
  0
SECTION
  2
BLOCKS
  0
BLOCK
  2
*HAT_0001
 70
    65
 10
0.0
 20
0.0
  0
LINE
  8
型材断面
  6
DOT
 10
118.35
 20
-7.225
 11
117.85
 21
-6.7
  0
LINE
  8
型材断面
  6
DOT
 10
119.2
 20
-7.225
 11
117.85
 21
-5.85
  0
LINE
  8
型材断面
  6
DOT
 10
120.05
 20
-7.225
 11
117.85
 21
-5.0
  0
LINE
  8
型材断面
  6
DOT
 10
120.5
 20
-6.825
 11
118.225
 21
-4.55
  0
LINE
  8
型材断面
  6
DOT
 10
120.5
 20
-5.975
 11
119.075
 21
-4.55
  0
LINE
  8
型材断面
  6
DOT
 10
120.5
 20
-5.125
 11
119.925
 21
-4.55
  0
ENDBLK
  0
BLOCK
  2
*HAT_0002
 70
    65
 10
0.0
 20
0.0
  0
LINE
  8
型材断面
  6
DOT
 10
-97.675
 20
-8.875
 11
-97.175
 21
-8.35
  0
LINE
  8
型材断面
  6
DOT
 10
-98.525
 20
-8.875
 11
-97.175
 21
-7.5
  0
LINE
  8
型材断面
  6
DOT
 10
-99.375
 20
-8.875
 11
-97.175
 21
-6.65
  0
LINE
  8
型材断面
  6
DOT
 10
-99.825
 20
-8.475
 11
-97.55
 21
-6.2
  0
LINE
  8
型材断面
  6
DOT
 10
-99.825
 20
-7.625
 11
-98.4
 21
-6.2
  0
LINE
  8
型材断面
  6
DOT
 10
-99.825
 20
-6.775
 11
-99.25
 21
-6.2
  0
ENDBLK
  0
BLOCK
  2
*HAT_0003
 70
    65
 10
0.0
 20
0.0
  0
LINE
  8
型材断面
 10
-124.35
 20
-38.625
 11
-124.175
 21
-38.425
  0
LINE
  8
型材断面
 10
-125.45
 20
-38.775
 11
-124.175
 21
-37.475
  0
LINE
  8
型材断面
 10
-126.45
 20
-38.825
 11
-124.175
 21
-36.55
  0
LINE
  8
型材断面
 10
-126.45
 20
-37.875
 11
-124.175
 21
-35.625
  0
LINE
  8
型材断面
 10
-126.45
 20
-36.95
 11
-124.175
 21
-34.675
  0
LINE
  8
型材断面
 10
-126.45
 20
-36.0
 11
-124.35
 21
-33.9
  0
LINE
  8
型材断面
 10
-126.45
 20
-35.075
 11
-125.3
 21
-33.9
  0
LINE
  8
型材断面
 10
-126.45
 20
-34.125
 11
-126.225
 21
-33.9
  0
LINE
  8
型材断面
 10
-126.45
 20
-38.1
 11
-125.75
 21
-38.8
  0
LINE
  8
型材断面
 10
-126.45
 20
-37.15
 11
-124.925
 21
-38.675
  0
LINE
  8
型材断面
 10
-126.45
 20
-36.225
 11
-124.175
 21
-38.5
  0
LINE
  8
型材断面
 10
-126.45
 20
-35.275
 11
-124.175
 21
-37.55
  0
LINE
  8
型材断面
 10
-126.45
 20
-34.325
 11
-124.175
 21
-36.625
  0
LINE
  8
型材断面
 10
-125.95
 20
-33.9
 11
-124.175
 21
-35.675
  0
LINE
  8
型材断面
 10
-125.0
 20
-33.9
 11
-124.175
 21
-34.725
  0
ENDBLK
  0
BLOCK
  2
*HAT_0004
 70
    65
 10
0.0
 20
0.0
  0
LINE
  8
型材断面
 10
-159.35
 20
-64.175
 11
-158.45
 21
-63.3
  0
LINE
  8
型材断面
 10
-160.275
 20
-64.175
 11
-158.45
 21
-62.35
  0
LINE
  8
型材断面
 10
-161.225
 20
-64.175
 11
-158.45
 21
-61.425
  0
LINE
  8
型材断面
 10
-162.15
 20
-64.175
 11
-159.15
 21
-61.15
  0
LINE
  8
型材断面
 10
-163.1
 20
-64.175
 11
-160.075
 21
-61.15
  0
LINE
  8
型材断面
 10
-164.05
 20
-64.175
 11
-161.025
 21
-61.15
  0
LINE
  8
型材断面
 10
-164.8
 20
-63.975
 11
-161.95
 21
-61.15
  0
LINE
  8
型材断面
 10
-164.8
 20
-63.025
 11
-164.75
 21
-63.025
  0
LINE
  8
型材断面
 10
-164.3
 20
-62.525
 11
-162.9
 21
-61.15
  0
LINE
  8
型材断面
 10
-164.8
 20
-63.775
 11
-164.4
 21
-64.175
  0
LINE
  8
型材断面
 10
-164.6
 20
-63.025
 11
-163.45
 21
-64.175
  0
LINE
  8
型材断面
 10
-164.3
 20
-62.375
 11
-162.5
 21
-64.175
  0
LINE
  8
型材断面
 10
-164.025
 20
-61.725
 11
-161.55
 21
-64.175
  0
LINE
  8
型材断面
 10
-163.65
 20
-61.15
 11
-160.625
 21
-64.175
  0
LINE
  8
型材断面
 10
-162.7
 20
-61.15
 11
-159.675
 21
-64.175
  0
LINE
  8
型材断面
 10
-161.75
 20
-61.15
 11
-158.75
 21
-64.175
  0
LINE
  8
型材断面
 10
-160.825
 20
-61.15
 11
-158.45
 21
-63.525
  0
LINE
  8
型材断面
 10
-159.875
 20
-61.15
 11
-158.45
 21
-62.575
  0
LINE
  8
型材断面
 10
-158.95
 20
-61.15
 11
-158.45
 21
-61.625
  0
ENDBLK
  0
BLOCK
  2
*HAT_0005
 70
    65
 10
0.0
 20
0.0
  0
LINE
  8
型材断面
 10
145.0
 20
-38.6
 11
144.825
 21
-38.4
  0
LINE
  8
型材断面
 10
146.1
 20
-38.75
 11
144.825
 21
-37.45
  0
LINE
  8
型材断面
 10
147.1
 20
-38.8
 11
144.825
 21
-36.525
  0
LINE
  8
型材断面
 10
147.1
 20
-37.85
 11
144.825
 21
-35.6
  0
LINE
  8
型材断面
 10
147.1
 20
-36.925
 11
144.825
 21
-34.65
  0
LINE
  8
型材断面
 10
147.1
 20
-35.975
 11
145.0
 21
-33.875
  0
LINE
  8
型材断面
 10
147.1
 20
-35.05
 11
145.95
 21
-33.875
  0
LINE
  8
型材断面
 10
147.1
 20
-34.1
 11
146.875
 21
-33.875
  0
LINE
  8
型材断面
 10
147.1
 20
-38.075
 11
146.4
 21
-38.775
  0
LINE
  8
型材断面
 10
147.1
 20
-37.125
 11
145.575
 21
-38.65
  0
LINE
  8
型材断面
 10
147.1
 20
-36.2
 11
144.825
 21
-38.475
  0
LINE
  8
型材断面
 10
147.1
 20
-35.25
 11
144.825
 21
-37.525
  0
LINE
  8
型材断面
 10
147.1
 20
-34.3
 11
144.825
 21
-36.6
  0
LINE
  8
型材断面
 10
146.6
 20
-33.875
 11
144.825
 21
-35.65
  0
LINE
  8
型材断面
 10
145.65
 20
-33.875
 11
144.825
 21
-34.7
  0
ENDBLK
  0
BLOCK
  2
*HAT_0006
 70
    65
 10
0.0
 20
0.0
  0
LINE
  8
型材断面
 10
180.0
 20
-64.15
 11
179.1
 21
-63.275
  0
LINE
  8
型材断面
 10
180.925
 20
-64.15
 11
179.1
 21
-62.325
  0
LINE
  8
型材断面
 10
181.875
 20
-64.15
 11
179.1
 21
-61.4
  0
LINE
  8
型材断面
 10
182.8
 20
-64.15
 11
179.8
 21
-61.125
  0
LINE
  8
型材断面
 10
183.75
 20
-64.15
 11
180.725
 21
-61.125
  0
LINE
  8
型材断面
 10
184.7
 20
-64.15
 11
181.675
 21
-61.125
  0
LINE
  8
型材断面
 10
185.45
 20
-63.95
 11
182.6
 21
-61.125
  0
LINE
  8
型材断面
 10
185.45
 20
-63.0
 11
185.4
 21
-63.0
  0
LINE
  8
型材断面
 10
184.95
 20
-62.5
 11
183.55
 21
-61.125
  0
LINE
  8
型材断面
 10
185.45
 20
-63.75
 11
185.05
 21
-64.15
  0
LINE
  8
型材断面
 10
185.25
 20
-63.0
 11
184.1
 21
-64.15
  0
LINE
  8
型材断面
 10
184.95
 20
-62.35
 11
183.15
 21
-64.15
  0
LINE
  8
型材断面
 10
184.675
 20
-61.7
 11
182.2
 21
-64.15
  0
LINE
  8
型材断面
 10
184.3
 20
-61.125
 11
181.275
 21
-64.15
  0
LINE
  8
型材断面
 10
183.35
 20
-61.125
 11
180.325
 21
-64.15
  0
LINE
  8
型材断面
 10
182.4
 20
-61.125
 11
179.4
 21
-64.15
  0
LINE
  8
型材断面
 10
181.475
 20
-61.125
 11
179.1
 21
-63.5
  0
LINE
  8
型材断面
 10
180.525
 20
-61.125
 11
179.1
 21
-62.55
  0
LINE
  8
型材断面
 10
179.6
 20
-61.125
 11
179.1
 21
-61.6
  0
ENDBLK
  0
BLOCK
  2
*HAT_0007
 70
    65
 10
0.0
 20
0.0
  0
LINE
  8
ﾊｯﾁﾝｸﾞ
 10
12.225
 20
-0.225
 11
12.8
 21
0.35
  0
LINE
  8
ﾊｯﾁﾝｸﾞ
 10
11.525
 20
-0.225
 11
12.8
 21
1.05
  0
LINE
  8
ﾊｯﾁﾝｸﾞ
 10
10.8
 20
-0.225
 11
12.8
 21
1.775
  0
LINE
  8
ﾊｯﾁﾝｸﾞ
 10
10.1
 20
-0.225
 11
12.8
 21
2.475
  0
LINE
  8
ﾊｯﾁﾝｸﾞ
 10
9.4
 20
-0.225
 11
12.8
 21
3.175
  0
LINE
  8
ﾊｯﾁﾝｸﾞ
 10
8.7
 20
-0.225
 11
12.2
 21
3.275
  0
LINE
  8
ﾊｯﾁﾝｸﾞ
 10
7.975
 20
-0.225
 11
11.475
 21
3.275
  0
LINE
  8
ﾊｯﾁﾝｸﾞ
 10
7.8
 20
0.3
 11
10.775
 21
3.275
  0
LINE
  8
ﾊｯﾁﾝｸﾞ
 10
7.8
 20
1.0
 11
10.075
 21
3.275
  0
LINE
  8
ﾊｯﾁﾝｸﾞ
 10
7.8
 20
1.7
 11
9.375
 21
3.275
  0
LINE
  8
ﾊｯﾁﾝｸﾞ
 10
7.8
 20
2.425
 11
8.65
 21
3.275
  0
LINE
  8
ﾊｯﾁﾝｸﾞ
 10
7.8
 20
3.125
 11
7.95
 21
3.275
  0
LINE
  8
ﾊｯﾁﾝｸﾞ
 10
7.8
 20
0.325
 11
8.375
 21
-0.225
  0
LINE
  8
ﾊｯﾁﾝｸﾞ
 10
7.8
 20
1.025
 11
9.075
 21
-0.225
  0
LINE
  8
ﾊｯﾁﾝｸﾞ
 10
7.8
 20
1.725
 11
9.775
 21
-0.225
  0
LINE
  8
ﾊｯﾁﾝｸﾞ
 10
7.8
 20
2.45
 11
10.475
 21
-0.225
  0
LINE
  8
ﾊｯﾁﾝｸﾞ
 10
7.8
 20
3.15
 11
11.2
 21
-0.225
  0
LINE
  8
ﾊｯﾁﾝｸﾞ
 10
8.4
 20
3.275
 11
11.9
 21
-0.225
  0
LINE
  8
ﾊｯﾁﾝｸﾞ
 10
9.1
 20
3.275
 11
12.6
 21
-0.225
  0
LINE
  8
ﾊｯﾁﾝｸﾞ
 10
9.8
 20
3.275
 11
12.8
 21
0.275
  0
LINE
  8
ﾊｯﾁﾝｸﾞ
 10
10.5
 20
3.275
 11
12.8
 21
0.975
  0
LINE
  8
ﾊｯﾁﾝｸﾞ
 10
11.225
 20
3.275
 11
12.8
 21
1.675
  0
LINE
  8
ﾊｯﾁﾝｸﾞ
 10
11.925
 20
3.275
 11
12.8
 21
2.375
  0
LINE
  8
ﾊｯﾁﾝｸﾞ
 10
12.625
 20
3.275
 11
12.8
 21
3.1
  0
ENDBLK
  0
BLOCK
  2
*HAT_0008
 70
    65
 10
0.0
 20
0.0
  0
LINE
  8
ﾊｯﾁﾝｸﾞ
 10
-92.575
 20
-0.3
 11
-92.05
 21
0.2
  0
LINE
  8
ﾊｯﾁﾝｸﾞ
 10
-93.275
 20
-0.3
 11
-92.05
 21
0.925
  0
LINE
  8
ﾊｯﾁﾝｸﾞ
 10
-93.975
 20
-0.3
 11
-92.05
 21
1.625
  0
LINE
  8
ﾊｯﾁﾝｸﾞ
 10
-94.7
 20
-0.3
 11
-92.05
 21
2.325
  0
LINE
  8
ﾊｯﾁﾝｸﾞ
 10
-95.375
 20
-0.3
 11
-92.325
 21
2.75
  0
LINE
  8
ﾊｯﾁﾝｸﾞ
 10
-95.375
 20
0.4
 11
-93.025
 21
2.75
  0
LINE
  8
ﾊｯﾁﾝｸﾞ
 10
-95.375
 20
1.125
 11
-93.75
 21
2.75
  0
LINE
  8
ﾊｯﾁﾝｸﾞ
 10
-95.375
 20
1.825
 11
-94.45
 21
2.75
  0
LINE
  8
ﾊｯﾁﾝｸﾞ
 10
-95.375
 20
2.525
 11
-95.15
 21
2.75
  0
LINE
  8
ﾊｯﾁﾝｸﾞ
 10
-95.4
 20
-0.025
 11
-95.1
 21
-0.3
  0
LINE
  8
ﾊｯﾁﾝｸﾞ
 10
-95.4
 20
0.675
 11
-94.4
 21
-0.3
  0
LINE
  8
ﾊｯﾁﾝｸﾞ
 10
-95.4
 20
1.4
 11
-93.7
 21
-0.3
  0
LINE
  8
ﾊｯﾁﾝｸﾞ
 10
-95.4
 20
2.1
 11
-93.0
 21
-0.3
  0
LINE
  8
ﾊｯﾁﾝｸﾞ
 10
-95.35
 20
2.75
 11
-92.275
 21
-0.3
  0
LINE
  8
ﾊｯﾁﾝｸﾞ
 10
-94.65
 20
2.75
 11
-92.05
 21
0.175
  0
LINE
  8
ﾊｯﾁﾝｸﾞ
 10
-93.925
 20
2.75
 11
-92.05
 21
0.875
  0
LINE
  8
ﾊｯﾁﾝｸﾞ
 10
-93.225
 20
2.75
 11
-92.05
 21
1.6
  0
LINE
  8
ﾊｯﾁﾝｸﾞ
 10
-92.525
 20
2.75
 11
-92.05
 21
2.3
  0
ENDBLK
  0
BLOCK
  2
*HAT_0009
 70
    65
 10
0.0
 20
0.0
  0
LINE
  8
ﾊｯﾁﾝｸﾞ
 10
115.8
 20
-2.3
 11
116.0
 21
-2.1
  0
LINE
  8
ﾊｯﾁﾝｸﾞ
 10
115.1
 20
-2.3
 11
116.0
 21
-1.4
  0
LINE
  8
ﾊｯﾁﾝｸﾞ
 10
114.4
 20
-2.3
 11
116.0
 21
-0.7
  0
LINE
  8
ﾊｯﾁﾝｸﾞ
 10
113.7
 20
-2.3
 11
116.0
 21
0.0
  0
LINE
  8
ﾊｯﾁﾝｸﾞ
 10
112.975
 20
-2.3
 11
116.0
 21
0.725
  0
LINE
  8
ﾊｯﾁﾝｸﾞ
 10
112.675
 20
-1.925
 11
116.0
 21
1.425
  0
LINE
  8
ﾊｯﾁﾝｸﾞ
 10
112.675
 20
-1.2
 11
116.0
 21
2.125
  0
LINE
  8
ﾊｯﾁﾝｸﾞ
 10
112.675
 20
-0.5
 11
115.925
 21
2.75
  0
LINE
  8
ﾊｯﾁﾝｸﾞ
 10
112.675
 20
0.2
 11
115.225
 21
2.75
  0
LINE
  8
ﾊｯﾁﾝｸﾞ
 10
112.675
 20
0.9
 11
114.525
 21
2.75
  0
LINE
  8
ﾊｯﾁﾝｸﾞ
 10
112.675
 20
1.625
 11
113.825
 21
2.75
  0
LINE
  8
ﾊｯﾁﾝｸﾞ
 10
112.675
 20
2.325
 11
113.1
 21
2.75
  0
LINE
  8
ﾊｯﾁﾝｸﾞ
 10
112.675
 20
-1.925
 11
113.05
 21
-2.3
  0
LINE
  8
ﾊｯﾁﾝｸﾞ
 10
112.675
 20
-1.225
 11
113.75
 21
-2.3
  0
LINE
  8
ﾊｯﾁﾝｸﾞ
 10
112.675
 20
-0.525
 11
114.45
 21
-2.3
  0
LINE
  8
ﾊｯﾁﾝｸﾞ
 10
112.675
 20
0.175
 11
115.15
 21
-2.3
  0
LINE
  8
ﾊｯﾁﾝｸﾞ
 10
112.675
 20
0.9
 11
115.875
 21
-2.3
  0
LINE
  8
ﾊｯﾁﾝｸﾞ
 10
112.675
 20
1.6
 11
116.0
 21
-1.75
  0
LINE
  8
ﾊｯﾁﾝｸﾞ
 10
112.675
 20
2.3
 11
116.0
 21
-1.025
  0
LINE
  8
ﾊｯﾁﾝｸﾞ
 10
112.925
 20
2.75
 11
116.0
 21
-0.325
  0
LINE
  8
ﾊｯﾁﾝｸﾞ
 10
113.625
 20
2.75
 11
116.0
 21
0.375
  0
LINE
  8
ﾊｯﾁﾝｸﾞ
 10
114.325
 20
2.75
 11
116.0
 21
1.075
  0
LINE
  8
ﾊｯﾁﾝｸﾞ
 10
115.025
 20
2.75
 11
116.0
 21
1.8
  0
LINE
  8
ﾊｯﾁﾝｸﾞ
 10
115.75
 20
2.75
 11
116.0
 21
2.5
  0
ENDBLK
  0
BLOCK
  2
*HAT_0010
 70
    65
 10
0.0
 20
0.0
  0
LINE
  8
ﾊｯﾁﾝｸﾞ
 10
20.5
 20
-2.3
 11
21.15
 21
-1.675
  0
LINE
  8
ﾊｯﾁﾝｸﾞ
 10
19.8
 20
-2.3
 11
21.15
 21
-0.95
  0
LINE
  8
ﾊｯﾁﾝｸﾞ
 10
19.1
 20
-2.3
 11
21.15
 21
-0.25
  0
LINE
  8
ﾊｯﾁﾝｸﾞ
 10
18.375
 20
-2.3
 11
21.15
 21
0.45
  0
LINE
  8
ﾊｯﾁﾝｸﾞ
 10
18.15
 20
-1.85
 11
21.15
 21
1.15
  0
LINE
  8
ﾊｯﾁﾝｸﾞ
 10
18.15
 20
-1.125
 11
21.15
 21
1.875
  0
LINE
  8
ﾊｯﾁﾝｸﾞ
 10
18.15
 20
-0.425
 11
21.15
 21
2.575
  0
LINE
  8
ﾊｯﾁﾝｸﾞ
 10
18.15
 20
0.275
 11
20.625
 21
2.75
  0
LINE
  8
ﾊｯﾁﾝｸﾞ
 10
18.15
 20
0.975
 11
19.925
 21
2.75
  0
LINE
  8
ﾊｯﾁﾝｸﾞ
 10
18.15
 20
1.7
 11
19.225
 21
2.75
  0
LINE
  8
ﾊｯﾁﾝｸﾞ
 10
18.15
 20
2.4
 11
18.5
 21
2.75
  0
LINE
  8
ﾊｯﾁﾝｸﾞ
 10
18.15
 20
-2.0
 11
18.45
 21
-2.3
  0
LINE
  8
ﾊｯﾁﾝｸﾞ
 10
18.15
 20
-1.3
 11
19.15
 21
-2.3
  0
LINE
  8
ﾊｯﾁﾝｸﾞ
 10
18.15
 20
-0.6
 11
19.85
 21
-2.3
  0
LINE
  8
ﾊｯﾁﾝｸﾞ
 10
18.15
 20
0.1
 11
20.55
 21
-2.3
  0
LINE
  8
ﾊｯﾁﾝｸﾞ
 10
18.15
 20
0.825
 11
21.15
 21
-2.175
  0
LINE
  8
ﾊｯﾁﾝｸﾞ
 10
18.15
 20
1.525
 11
21.15
 21
-1.475
  0
LINE
  8
ﾊｯﾁﾝｸﾞ
 10
18.15
 20
2.225
 11
21.15
 21
-0.775
  0
LINE
  8
ﾊｯﾁﾝｸﾞ
 10
18.325
 20
2.75
 11
21.15
 21
-0.075
  0
LINE
  8
ﾊｯﾁﾝｸﾞ
 10
19.025
 20
2.75
 11
21.15
 21
0.65
  0
LINE
  8
ﾊｯﾁﾝｸﾞ
 10
19.725
 20
2.75
 11
21.15
 21
1.35
  0
LINE
  8
ﾊｯﾁﾝｸﾞ
 10
20.425
 20
2.75
 11
21.15
 21
2.05
  0
ENDBLK
  0
BLOCK
  2
*HAT_0011
 70
    65
 10
0.0
 20
0.0
  0
LINE
  8
ﾊｯﾁﾝｸﾞ
 10
2.025
 20
-0.3
 11
2.475
 21
0.15
  0
LINE
  8
ﾊｯﾁﾝｸﾞ
 10
1.325
 20
-0.3
 11
2.475
 21
0.85
  0
LINE
  8
ﾊｯﾁﾝｸﾞ
 10
0.625
 20
-0.3
 11
2.475
 21
1.55
  0
LINE
  8
ﾊｯﾁﾝｸﾞ
 10
-0.1
 20
-0.3
 11
2.475
 21
2.25
  0
LINE
  8
ﾊｯﾁﾝｸﾞ
 10
-0.525
 20
-0.025
 11
2.275
 21
2.75
  0
LINE
  8
ﾊｯﾁﾝｸﾞ
 10
-0.525
 20
0.675
 11
1.575
 21
2.75
  0
LINE
  8
ﾊｯﾁﾝｸﾞ
 10
-0.525
 20
1.375
 11
0.85
 21
2.75
  0
LINE
  8
ﾊｯﾁﾝｸﾞ
 10
-0.525
 20
2.075
 11
0.15
 21
2.75
  0
LINE
  8
ﾊｯﾁﾝｸﾞ
 10
-0.525
 20
-0.275
 11
-0.5
 21
-0.3
  0
LINE
  8
ﾊｯﾁﾝｸﾞ
 10
-0.525
 20
0.425
 11
0.2
 21
-0.3
  0
LINE
  8
ﾊｯﾁﾝｸﾞ
 10
-0.525
 20
1.125
 11
0.9
 21
-0.3
  0
LINE
  8
ﾊｯﾁﾝｸﾞ
 10
-0.525
 20
1.825
 11
1.625
 21
-0.3
  0
LINE
  8
ﾊｯﾁﾝｸﾞ
 10
-0.525
 20
2.55
 11
2.325
 21
-0.3
  0
LINE
  8
ﾊｯﾁﾝｸﾞ
 10
-0.05
 20
2.75
 11
2.475
 21
0.25
  0
LINE
  8
ﾊｯﾁﾝｸﾞ
 10
0.675
 20
2.75
 11
2.475
 21
0.95
  0
LINE
  8
ﾊｯﾁﾝｸﾞ
 10
1.375
 20
2.75
 11
2.475
 21
1.65
  0
LINE
  8
ﾊｯﾁﾝｸﾞ
 10
2.075
 20
2.75
 11
2.475
 21
2.375
  0
ENDBLK
  0
BLOCK
  2
*HAT_0012
 70
    65
 10
0.0
 20
0.0
  0
LINE
  8
その他部品等
 10
-100.425
 20
-10.7
 11
-99.075
 21
-9.375
  0
LINE
  8
その他部品等
 10
-100.4
 20
-9.825
 11
-100.225
 21
-9.675
  0
LINE
  8
その他部品等
 10
-100.425
 20
-10.65
 11
-100.175
 21
-10.9
  0
LINE
  8
その他部品等
 10
-100.4
 20
-9.825
 11
-99.7
 21
-10.525
  0
LINE
  8
その他部品等
 10
-99.875
 20
-9.5
 11
-99.225
 21
-10.15
  0
LINE
  8
その他部品等
 10
-99.15
 20
-9.375
 11
-98.775
 21
-9.775
  0
LINE
  8
その他部品等
 10
-98.3
 20
-9.375
 11
-98.3
 21
-9.375
  0
ENDBLK
  0
BLOCK
  2
*HAT_0013
 70
    65
 10
0.0
 20
0.0
  0
LINE
  8
その他部品等
 10
121.075
 20
-9.0
 11
119.725
 21
-7.675
  0
LINE
  8
その他部品等
 10
121.05
 20
-8.125
 11
120.875
 21
-7.975
  0
LINE
  8
その他部品等
 10
121.075
 20
-8.95
 11
120.825
 21
-9.2
  0
LINE
  8
その他部品等
 10
121.05
 20
-8.125
 11
120.35
 21
-8.825
  0
LINE
  8
その他部品等
 10
120.525
 20
-7.8
 11
119.875
 21
-8.45
  0
LINE
  8
その他部品等
 10
119.8
 20
-7.675
 11
119.425
 21
-8.075
  0
LINE
  8
その他部品等
 10
118.95
 20
-7.675
 11
118.95
 21
-7.675
  0
ENDBLK
  0
BLOCK
  2
*GRP_0001
 70
    65
 10
0.0
 20
0.0
  0
LINE
  8
型材断面
  6
CONTINUOUS
 10
195.0
 20
133.5
 11
195.0
 21
-133.5
  0
LINE
  8
型材断面
  6
CONTINUOUS
 10
195.0
 20
-133.5
 11
-185.0
 21
-133.5
  0
LINE
  8
型材断面
  6
CONTINUOUS
 10
-185.0
 20
-133.5
 11
-185.0
 21
133.5
  0
LINE
  8
型材断面
  6
CONTINUOUS
 10
195.0
 20
133.5
 11
-185.0
 21
133.5
  0
LINE
  8
型材断面
  6
CONTINUOUS
 10
145.0
 20
-133.5
 11
145.0
 21
-118.5
  0
LINE
  8
型材断面
  6
CONTINUOUS
 10
195.0
 20
-118.5
 11
145.0
 21
-118.5
  0
ENDBLK
  0
BLOCK
  2
*GRP_0002
 70
    65
 10
0.0
 20
0.0
  0
LINE
  8
曲げ物
  6
CONTINUOUS
 10
-159.454108
 20
-57.459475
 11
-159.454158
 21
-77.459475
  0
LINE
  8
曲げ物
  6
DOT
 10
-159.787432
 20
-57.459475
 11
-159.787482
 21
-77.459475
  0
LINE
  8
曲げ物
  6
CONTINUOUS
 10
-162.787447
 20
-57.459475
 11
-162.787472
 21
-77.459475
  0
LINE
  8
曲げ物
  6
DOT
 10
-162.454097
 20
-57.459475
 11
-162.454148
 21
-77.459475
  0
LINE
  8
曲げ物
  6
CONTINUOUS
 10
-159.454158
 20
-77.459475
 11
-162.787472
 21
-77.459475
  0
LINE
  8
曲げ物
  6
CONTINUOUS
 10
-159.454108
 20
-57.459475
 11
-162.787447
 21
-57.459475
  0
ENDBLK
  0
BLOCK
  2
*GRP_0003
 70
    65
 10
0.0
 20
0.0
  0
LINE
  8
曲げ物
  6
CONTINUOUS
 10
180.07217
 20
-57.459475
 11
180.07222
 21
-77.459475
  0
LINE
  8
曲げ物
  6
DOT
 10
180.405495
 20
-57.459475
 11
180.405545
 21
-77.459475
  0
LINE
  8
曲げ物
  6
CONTINUOUS
 10
183.40551
 20
-57.459475
 11
183.405535
 21
-77.459475
  0
LINE
  8
曲げ物
  6
DOT
 10
183.07216
 20
-57.459475
 11
183.07221
 21
-77.459475
  0
LINE
  8
曲げ物
  6
CONTINUOUS
 10
180.07222
 20
-77.459475
 11
183.405535
 21
-77.459475
  0
LINE
  8
曲げ物
  6
CONTINUOUS
 10
180.07217
 20
-57.459475
 11
183.40551
 21
-57.459475
  0
ENDBLK
  0
BLOCK
  2
*GRP_0004
 70
    65
 10
0.0
 20
0.0
  0
ARC
  8
型材断面
  6
CONTINUOUS
 10
-122.455559
 20
-38.326648
 40
0.5
 50
-82.252227
 51
0.0
  0
LINE
  8
型材断面
  6
CONTINUOUS
 10
-121.955558
 20
-38.763227
 11
-164.788893
 21
-44.590892
  0
LINE
  8
型材断面
  6
CONTINUOUS
 10
-164.78893
 20
-64.154315
 11
-164.788893
 21
-44.590892
  0
ARC
  8
型材断面
  6
CONTINUOUS
 10
-164.788893
 20
-44.590893
 40
0.5
 50
97.747773
 51
179.999885
  0
LINE
  8
型材断面
  6
CONTINUOUS
 10
-122.455558
 20
-38.32665
 11
-165.28889
 21
-44.154315
  0
LINE
  8
型材断面
  6
CONTINUOUS
 62
    47
 10
-165.28893
 20
-64.154315
 11
-165.28889
 21
-44.154315
  0
LINE
  8
型材断面
  6
CONTINUOUS
 62
    47
 10
-165.28893
 20
-64.154315
 11
-164.78893
 21
-64.154315
  0
INSERT
  2
*GRP_0065
  8
型材断面
  6
CONTINUOUS
 10
0.0
 20
0.0
  0
LINE
  8
型材断面
  6
CONTINUOUS
 10
-122.455558
 20
-34.463227
 11
-121.955558
 21
-34.463227
  0
LINE
  8
型材断面
  6
CONTINUOUS
 10
-122.455558
 20
-36.29656
 11
-121.955558
 21
-36.29656
  0
LINE
  8
型材断面
  6
CONTINUOUS
 10
-122.455558
 20
-35.29656
 11
-121.955558
 21
-35.29656
  0
LINE
  8
型材断面
  6
CONTINUOUS
 10
-122.455558
 20
-37.29656
 11
-121.955558
 21
-37.29656
  0
LINE
  8
型材断面
  6
CONTINUOUS
 10
-122.330558
 20
-35.29656
 11
-122.330558
 21
-37.29656
  0
LINE
  8
型材断面
  6
CONTINUOUS
 10
-122.205558
 20
-35.29656
 11
-122.205558
 21
-37.29656
  0
LINE
  8
型材断面
  6
CONTINUOUS
 10
-122.080558
 20
-35.29656
 11
-122.080558
 21
-37.29656
  0
LINE
  8
型材断面
  6
CONTINUOUS
 62
    47
 10
-121.955558
 20
-38.763227
 11
-121.955558
 21
-34.463227
  0
LINE
  8
型材断面
  6
CONTINUOUS
 10
-122.455558
 20
-38.32665
 11
-122.455558
 21
-34.463227
  0
INSERT
  2
*GRP_0066
  8
型材断面
  6
CONTINUOUS
 10
0.0
 20
0.0
  0
INSERT
  2
*GRP_0067
  8
型材断面
  6
CONTINUOUS
 10
0.0
 20
0.0
  0
ENDBLK
  0
BLOCK
  2
*GRP_0005
 70
    65
 10
0.0
 20
0.0
  0
ARC
  8
型材断面
  6
CONTINUOUS
 10
143.073618
 20
-38.326649
 40
0.5
 50
180.0
 51
262.252227
  0
LINE
  8
型材断面
  6
CONTINUOUS
 10
142.57362
 20
-38.763227
 11
185.406955
 21
-44.590892
  0
LINE
  8
型材断面
  6
CONTINUOUS
 10
185.406992
 20
-64.154315
 11
185.406955
 21
-44.590892
  0
ARC
  8
型材断面
  6
CONTINUOUS
 10
185.406952
 20
-44.590894
 40
0.5
 50
0.000115
 51
82.252227
  0
LINE
  8
型材断面
  6
CONTINUOUS
 10
143.07362
 20
-38.32665
 11
185.906953
 21
-44.154315
  0
LINE
  8
型材断面
  6
CONTINUOUS
 62
    47
 10
185.906992
 20
-64.154315
 11
185.906953
 21
-44.154315
  0
LINE
  8
型材断面
  6
CONTINUOUS
 62
    47
 10
185.906992
 20
-64.154315
 11
185.406992
 21
-64.154315
  0
INSERT
  2
*GRP_0068
  8
型材断面
  6
CONTINUOUS
 10
0.0
 20
0.0
  0
LINE
  8
型材断面
  6
CONTINUOUS
 10
143.07362
 20
-34.463227
 11
142.57362
 21
-34.463227
  0
LINE
  8
型材断面
  6
CONTINUOUS
 10
143.07362
 20
-36.29656
 11
142.57362
 21
-36.29656
  0
LINE
  8
型材断面
  6
CONTINUOUS
 10
143.07362
 20
-35.29656
 11
142.57362
 21
-35.29656
  0
LINE
  8
型材断面
  6
CONTINUOUS
 10
143.07362
 20
-37.29656
 11
142.57362
 21
-37.29656
  0
LINE
  8
型材断面
  6
CONTINUOUS
 10
142.94862
 20
-35.29656
 11
142.94862
 21
-37.29656
  0
LINE
  8
型材断面
  6
CONTINUOUS
 10
142.82362
 20
-35.29656
 11
142.82362
 21
-37.29656
  0
LINE
  8
型材断面
  6
CONTINUOUS
 10
142.69862
 20
-35.29656
 11
142.69862
 21
-37.29656
  0
LINE
  8
型材断面
  6
CONTINUOUS
 62
    47
 10
142.57362
 20
-38.763227
 11
142.57362
 21
-34.463227
  0
LINE
  8
型材断面
  6
CONTINUOUS
 10
143.07362
 20
-38.32665
 11
143.07362
 21
-34.463227
  0
INSERT
  2
*GRP_0069
  8
型材断面
  6
CONTINUOUS
 10
0.0
 20
0.0
  0
INSERT
  2
*GRP_0070
  8
型材断面
  6
CONTINUOUS
 10
0.0
 20
0.0
  0
ENDBLK
  0
BLOCK
  2
*GRP_0006
 70
    65
 10
0.0
 20
0.0
  0
LINE
  8
ボルト／ビス
  6
DOT
 62
    64
 10
-100.887457
 20
-6.539505
 11
-101.23685
 21
-6.570063
  0
ARC
  8
ボルト／ビス
  6
DOT
 62
    64
 10
-101.187456
 20
-7.134587
 40
0.566666
 50
95.000007
 51
180.000018
  0
LINE
  8
ボルト／ビス
  6
DOT
 62
    64
 10
-101.754125
 20
-7.13458
 11
-101.7541
 21
-7.706163
  0
LINE
  8
ボルト／ビス
  6
DOT
 62
    64
 10
-100.887442
 20
-8.872822
 11
-101.236833
 21
-8.842263
  0
ARC
  8
ボルト／ビス
  6
DOT
 62
    64
 10
-101.187455
 20
-8.277762
 40
0.566666
 50
180.000018
 51
265.000029
  0
LINE
  8
ボルト／ビス
  6
DOT
 62
    64
 10
-101.754118
 20
-8.277762
 11
-101.7541
 21
-7.706163
  0
LINE
  8
ボルト／ビス
  6
DOT
 62
    64
 10
-101.625818
 20
-6.907298
 11
-101.706525
 21
-6.907287
  0
LINE
  8
ボルト／ビス
  6
DOT
 62
    64
 10
-101.409133
 20
-7.47283
 11
-101.409133
 21
-7.706172
  0
LINE
  8
ボルト／ビス
  6
DOT
 62
    64
 10
-101.625825
 20
-7.339505
 11
-101.625818
 21
-6.907298
  0
LINE
  8
ボルト／ビス
  6
DOT
 62
    64
 10
-101.409133
 20
-7.47283
 11
-101.492483
 21
-7.472822
  0
ARC
  8
ボルト／ビス
  6
DOT
 62
    64
 10
-101.492487
 20
-7.339508
 40
0.133333
 50
180.000018
 51
270.000018
  0
LINE
  8
ボルト／ビス
  6
DOT
 62
    64
 10
-101.6258
 20
-8.505037
 11
-101.706532
 21
-8.505047
  0
LINE
  8
ボルト／ビス
  6
DOT
 62
    64
 10
-101.409108
 20
-7.939505
 11
-101.409133
 21
-7.706172
  0
LINE
  8
ボルト／ビス
  6
DOT
 62
    64
 10
-101.625818
 20
-8.07283
 11
-101.6258
 21
-8.505037
  0
LINE
  8
ボルト／ビス
  6
DOT
 62
    64
 10
-101.409108
 20
-7.939505
 11
-101.492475
 21
-7.939513
  0
ARC
  8
ボルト／ビス
  6
DOT
 62
    64
 10
-101.492487
 20
-8.072841
 40
0.133333
 50
90.000018
 51
180.000018
  0
LINE
  8
ボルト／ビス
  6
DOT
 62
    64
 10
-100.887457
 20
-6.539505
 11
-100.887442
 21
-8.872822
  0
LINE
  8
ボルト／ビス
  6
DOT
 62
    64
 10
-98.387468
 20
-7.039498
 11
-98.220792
 21
-7.206163
  0
LINE
  8
ボルト／ビス
  6
DOT
 62
    64
 10
-98.387468
 20
-8.372837
 11
-98.220792
 21
-8.206148
  0
LINE
  8
ボルト／ビス
  6
DOT
 62
    64
 10
-100.88745
 20
-7.206172
 11
-98.220792
 21
-7.206163
  0
LINE
  8
ボルト／ビス
  6
DOT
 62
    64
 10
-100.887457
 20
-7.039505
 11
-98.387468
 21
-7.039498
  0
LINE
  8
ボルト／ビス
  6
DOT
 62
    64
 10
-100.88745
 20
-8.206172
 11
-98.220792
 21
-8.206148
  0
LINE
  8
ボルト／ビス
  6
DOT
 62
    64
 10
-100.887442
 20
-8.372837
 11
-98.387468
 21
-8.372837
  0
LINE
  8
ボルト／ビス
  6
DOT
 62
    64
 10
-98.387468
 20
-7.039498
 11
-98.387468
 21
-8.372837
  0
LINE
  8
ボルト／ビス
  6
DOT
 62
    64
 10
-98.220792
 20
-7.206163
 11
-98.220792
 21
-8.206148
  0
LINE
  8
ボルト／ビス
  6
DOT
 62
    64
 10
-102.328057
 20
-7.706148
 11
-97.387457
 21
-7.706148
  0
ENDBLK
  0
BLOCK
  2
*GRP_0007
 70
    65
 10
0.0
 20
0.0
  0
LINE
  8
ボルト／ビス
  6
DOT
 62
    64
 10
121.505513
 20
-4.372855
 11
121.854905
 21
-4.403413
  0
ARC
  8
ボルト／ビス
  6
DOT
 62
    64
 10
121.805507
 20
-4.967936
 40
0.566666
 50
359.999982
 51
444.999993
  0
LINE
  8
ボルト／ビス
  6
DOT
 62
    64
 10
122.37218
 20
-4.96793
 11
122.372155
 21
-5.539513
  0
LINE
  8
ボルト／ビス
  6
DOT
 62
    64
 10
121.505497
 20
-6.706172
 11
121.854888
 21
-6.675612
  0
ARC
  8
ボルト／ビス
  6
DOT
 62
    64
 10
121.805507
 20
-6.111111
 40
0.566666
 50
274.999971
 51
359.999982
  0
LINE
  8
ボルト／ビス
  6
DOT
 62
    64
 10
122.372172
 20
-6.111113
 11
122.372155
 21
-5.539513
  0
LINE
  8
ボルト／ビス
  6
DOT
 62
    64
 10
122.243872
 20
-4.740647
 11
122.32458
 21
-4.740637
  0
LINE
  8
ボルト／ビス
  6
DOT
 62
    64
 10
122.027188
 20
-5.30618
 11
122.027188
 21
-5.539523
  0
LINE
  8
ボルト／ビス
  6
DOT
 62
    64
 10
122.24388
 20
-5.172855
 11
122.243872
 21
-4.740647
  0
LINE
  8
ボルト／ビス
  6
DOT
 62
    64
 10
122.027188
 20
-5.30618
 11
122.110537
 21
-5.306172
  0
ARC
  8
ボルト／ビス
  6
DOT
 62
    64
 10
122.110539
 20
-5.172857
 40
0.133333
 50
269.999982
 51
359.999982
  0
LINE
  8
ボルト／ビス
  6
DOT
 62
    64
 10
122.243855
 20
-6.338388
 11
122.324588
 21
-6.338397
  0
LINE
  8
ボルト／ビス
  6
DOT
 62
    64
 10
122.027162
 20
-5.772855
 11
122.027188
 21
-5.539523
  0
LINE
  8
ボルト／ビス
  6
DOT
 62
    64
 10
122.243872
 20
-5.90618
 11
122.243855
 21
-6.338388
  0
LINE
  8
ボルト／ビス
  6
DOT
 62
    64
 10
122.027162
 20
-5.772855
 11
122.11053
 21
-5.772862
  0
ARC
  8
ボルト／ビス
  6
DOT
 62
    64
 10
122.110538
 20
-5.90619
 40
0.133333
 50
359.999982
 51
449.999982
  0
LINE
  8
ボルト／ビス
  6
DOT
 62
    64
 10
121.505513
 20
-4.372855
 11
121.505497
 21
-6.706172
  0
LINE
  8
ボルト／ビス
  6
DOT
 62
    64
 10
119.005523
 20
-4.872847
 11
118.838847
 21
-5.039513
  0
LINE
  8
ボルト／ビス
  6
DOT
 62
    64
 10
119.005523
 20
-6.206188
 11
118.838847
 21
-6.039498
  0
LINE
  8
ボルト／ビス
  6
DOT
 62
    64
 10
121.505505
 20
-5.039523
 11
118.838847
 21
-5.039513
  0
LINE
  8
ボルト／ビス
  6
DOT
 62
    64
 10
121.505513
 20
-4.872855
 11
119.005523
 21
-4.872847
  0
LINE
  8
ボルト／ビス
  6
DOT
 62
    64
 10
121.505505
 20
-6.039523
 11
118.838847
 21
-6.039498
  0
LINE
  8
ボルト／ビス
  6
DOT
 62
    64
 10
121.505497
 20
-6.206188
 11
119.005523
 21
-6.206188
  0
LINE
  8
ボルト／ビス
  6
DOT
 62
    64
 10
119.005523
 20
-4.872847
 11
119.005523
 21
-6.206188
  0
LINE
  8
ボルト／ビス
  6
DOT
 62
    64
 10
118.838847
 20
-5.039513
 11
118.838847
 21
-6.039498
  0
LINE
  8
ボルト／ビス
  6
DOT
 62
    64
 10
122.946112
 20
-5.539498
 11
118.005513
 21
-5.539498
  0
ENDBLK
  0
BLOCK
  2
*GRP_0008
 70
    65
 10
0.0
 20
0.0
  0
LINE
  8
型材断面
  6
DOT
 10
120.50549
 20
-4.539498
 11
117.83882
 21
-4.539498
  0
LINE
  8
型材断面
  6
DOT
 10
117.83882
 20
-7.206165
 11
117.83882
 21
-4.539498
  0
INSERT
  2
*HAT_0001
  8
型材断面
 10
0.0
 20
0.0
  0
ENDBLK
  0
BLOCK
  2
*GRP_0009
 70
    65
 10
0.0
 20
0.0
  0
LINE
  8
型材断面
  6
DOT
 10
-99.88743
 20
-6.206153
 11
-97.22076
 21
-6.206153
  0
LINE
  8
型材断面
  6
DOT
 10
-97.22076
 20
-8.87282
 11
-97.22076
 21
-6.206153
  0
INSERT
  2
*HAT_0002
  8
型材断面
 10
0.0
 20
0.0
  0
ENDBLK
  0
BLOCK
  2
*GRP_0010
 70
    65
 10
0.0
 20
0.0
  0
LINE
  8
ゴム等
  6
DOT
 10
-99.887428
 20
-0.539483
 11
-99.887435
 21
-8.872815
  0
LINE
  8
ゴム等
  6
DOT
 10
-97.054095
 20
-0.539483
 11
-97.054103
 21
-8.872815
  0
LINE
  8
ゴム等
  6
DOT
 10
-99.887428
 20
-0.539483
 11
-97.054095
 21
-0.539483
  0
LINE
  8
ゴム等
  6
DOT
 10
-99.887435
 20
-8.872815
 11
-97.054103
 21
-8.872815
  0
ENDBLK
  0
BLOCK
  2
*GRP_0011
 70
    65
 10
0.0
 20
0.0
  0
LINE
  8
ゴム等
  6
DOT
 10
4.143295
 20
-0.53948
 11
4.143303
 21
-8.872812
  0
LINE
  8
ゴム等
  6
DOT
 10
4.143295
 20
-0.53948
 11
6.976633
 21
-0.53948
  0
LINE
  8
ゴム等
  6
DOT
 10
4.143303
 20
-8.872812
 11
6.97664
 21
-8.872812
  0
LINE
  8
ゴム等
  6
DOT
 10
6.976633
 20
-0.53948
 11
6.97664
 21
-8.872812
  0
ENDBLK
  0
BLOCK
  2
*GRP_0012
 70
    65
 10
0.0
 20
0.0
  0
LINE
  8
ゴム等
  6
DOT
 10
117.672157
 20
-7.206165
 11
120.50549
 21
-7.206165
  0
LINE
  8
ゴム等
  6
DOT
 10
117.672165
 20
-2.206165
 11
120.505497
 21
-2.206165
  0
LINE
  8
ゴム等
  6
DOT
 10
117.672157
 20
-7.206165
 11
117.672163
 21
-2.206165
  0
LINE
  8
ゴム等
  6
DOT
 10
120.50549
 20
-7.206165
 11
120.505495
 21
-2.206165
  0
ENDBLK
  0
BLOCK
  2
*GRP_0013
 70
    65
 10
0.0
 20
0.0
  0
LINE
  8
ゴム等
  6
DOT
 10
13.643323
 20
-7.206135
 11
16.476655
 21
-7.206135
  0
LINE
  8
ゴム等
  6
DOT
 10
13.64333
 20
-2.206135
 11
16.476663
 21
-2.206135
  0
LINE
  8
ゴム等
  6
DOT
 10
13.643323
 20
-7.206135
 11
13.643327
 21
-2.206135
  0
LINE
  8
ゴム等
  6
DOT
 10
16.476655
 20
-7.206135
 11
16.47666
 21
-2.206135
  0
ENDBLK
  0
BLOCK
  2
*GRP_0014
 70
    65
 10
0.0
 20
0.0
  0
LINE
  8
ボルト／ビス
  6
CONTINUOUS
 62
    64
 10
-122.455558
 20
-35.129893
 11
-122.804945
 21
-35.16046
  0
ARC
  8
ボルト／ビス
  6
CONTINUOUS
 62
    64
 10
-122.755556
 20
-35.72497
 40
0.566667
 50
94.999989
 51
180.0
  0
LINE
  8
ボルト／ビス
  6
CONTINUOUS
 62
    64
 10
-123.322225
 20
-35.72497
 11
-123.322225
 21
-36.29656
  0
LINE
  8
ボルト／ビス
  6
CONTINUOUS
 62
    64
 10
-122.455558
 20
-37.463227
 11
-122.804945
 21
-37.43266
  0
ARC
  8
ボルト／ビス
  6
CONTINUOUS
 62
    64
 10
-122.755556
 20
-36.868148
 40
0.566667
 50
180.0
 51
265.000011
  0
LINE
  8
ボルト／ビス
  6
CONTINUOUS
 62
    64
 10
-123.322225
 20
-36.86815
 11
-123.322225
 21
-36.29656
  0
LINE
  8
ボルト／ビス
  6
CONTINUOUS
 62
    64
 10
-123.193923
 20
-35.49768
 11
-123.274643
 21
-35.49768
  0
LINE
  8
ボルト／ビス
  6
CONTINUOUS
 62
    64
 10
-122.977228
 20
-36.063227
 11
-122.977228
 21
-36.29656
  0
LINE
  8
ボルト／ビス
  6
CONTINUOUS
 62
    64
 10
-123.193923
 20
-35.929893
 11
-123.193923
 21
-35.49768
  0
LINE
  8
ボルト／ビス
  6
CONTINUOUS
 62
    64
 10
-122.977228
 20
-36.063227
 11
-123.06059
 21
-36.063227
  0
ARC
  8
ボルト／ビス
  6
CONTINUOUS
 62
    64
 10
-123.060588
 20
-35.929892
 40
0.133333
 50
180.0
 51
270.0
  0
LINE
  8
ボルト／ビス
  6
CONTINUOUS
 62
    64
 10
-123.193923
 20
-37.09544
 11
-123.274643
 21
-37.09544
  0
LINE
  8
ボルト／ビス
  6
CONTINUOUS
 62
    64
 10
-122.977228
 20
-36.529893
 11
-122.977228
 21
-36.29656
  0
LINE
  8
ボルト／ビス
  6
CONTINUOUS
 62
    64
 10
-123.193923
 20
-36.663227
 11
-123.193923
 21
-37.09544
  0
LINE
  8
ボルト／ビス
  6
CONTINUOUS
 62
    64
 10
-122.977228
 20
-36.529893
 11
-123.06059
 21
-36.529893
  0
ARC
  8
ボルト／ビス
  6
CONTINUOUS
 62
    64
 10
-123.060588
 20
-36.663225
 40
0.133333
 50
90.0
 51
180.0
  0
LINE
  8
ボルト／ビス
  6
CONTINUOUS
 62
    64
 10
-122.455558
 20
-35.129893
 11
-122.455558
 21
-37.463227
  0
LINE
  8
ボルト／ビス
  6
CONTINUOUS
 62
    64
 10
-119.28889
 20
-35.629893
 11
-119.122225
 21
-35.79656
  0
LINE
  8
ボルト／ビス
  6
CONTINUOUS
 62
    64
 10
-119.28889
 20
-36.963227
 11
-119.122225
 21
-36.79656
  0
LINE
  8
ボルト／ビス
  6
CONTINUOUS
 62
    64
 10
-119.28889
 20
-35.629893
 11
-119.28889
 21
-36.963227
  0
LINE
  8
ボルト／ビス
  6
CONTINUOUS
 62
    64
 10
-119.122225
 20
-35.79656
 11
-119.122225
 21
-36.79656
  0
LINE
  8
ボルト／ビス
  6
CONTINUOUS
 62
    64
 10
-123.979353
 20
-36.29656
 11
-118.597268
 21
-36.29656
  0
LINE
  8
ボルト／ビス
  6
CONTINUOUS
 62
    64
 10
-122.455558
 20
-35.629893
 11
-119.28889
 21
-35.629893
  0
LINE
  8
ボルト／ビス
  6
CONTINUOUS
 62
    64
 10
-122.455558
 20
-36.963227
 11
-119.28889
 21
-36.963227
  0
LINE
  8
ボルト／ビス
  6
CONTINUOUS
 62
    64
 10
-122.455558
 20
-36.79656
 11
-119.122225
 21
-36.79656
  0
LINE
  8
ボルト／ビス
  6
CONTINUOUS
 62
    64
 10
-122.455558
 20
-35.79656
 11
-119.122225
 21
-35.79656
  0
ENDBLK
  0
BLOCK
  2
*GRP_0015
 70
    65
 10
0.0
 20
0.0
  0
LINE
  8
ボルト／ビス
  6
CONTINUOUS
 62
    64
 10
143.07362
 20
-35.129893
 11
143.423007
 21
-35.16046
  0
ARC
  8
ボルト／ビス
  6
CONTINUOUS
 62
    64
 10
143.373616
 20
-35.724971
 40
0.566667
 50
0.0
 51
85.000011
  0
LINE
  8
ボルト／ビス
  6
CONTINUOUS
 62
    64
 10
143.940287
 20
-35.72497
 11
143.940287
 21
-36.29656
  0
LINE
  8
ボルト／ビス
  6
CONTINUOUS
 62
    64
 10
143.07362
 20
-37.463227
 11
143.423007
 21
-37.43266
  0
ARC
  8
ボルト／ビス
  6
CONTINUOUS
 62
    64
 10
143.373616
 20
-36.868148
 40
0.566667
 50
274.999989
 51
360.0
  0
LINE
  8
ボルト／ビス
  6
CONTINUOUS
 62
    64
 10
143.940287
 20
-36.86815
 11
143.940287
 21
-36.29656
  0
LINE
  8
ボルト／ビス
  6
CONTINUOUS
 62
    64
 10
143.811985
 20
-35.49768
 11
143.892705
 21
-35.49768
  0
LINE
  8
ボルト／ビス
  6
CONTINUOUS
 62
    64
 10
143.59529
 20
-36.063227
 11
143.59529
 21
-36.29656
  0
LINE
  8
ボルト／ビス
  6
CONTINUOUS
 62
    64
 10
143.811985
 20
-35.929893
 11
143.811985
 21
-35.49768
  0
LINE
  8
ボルト／ビス
  6
CONTINUOUS
 62
    64
 10
143.59529
 20
-36.063227
 11
143.678652
 21
-36.063227
  0
ARC
  8
ボルト／ビス
  6
CONTINUOUS
 62
    64
 10
143.678647
 20
-35.929893
 40
0.133333
 50
270.0
 51
360.0
  0
LINE
  8
ボルト／ビス
  6
CONTINUOUS
 62
    64
 10
143.811985
 20
-37.09544
 11
143.892705
 21
-37.09544
  0
LINE
  8
ボルト／ビス
  6
CONTINUOUS
 62
    64
 10
143.59529
 20
-36.529893
 11
143.59529
 21
-36.29656
  0
LINE
  8
ボルト／ビス
  6
CONTINUOUS
 62
    64
 10
143.811985
 20
-36.663227
 11
143.811985
 21
-37.09544
  0
LINE
  8
ボルト／ビス
  6
CONTINUOUS
 62
    64
 10
143.59529
 20
-36.529893
 11
143.678652
 21
-36.529893
  0
ARC
  8
ボルト／ビス
  6
CONTINUOUS
 62
    64
 10
143.678647
 20
-36.663226
 40
0.133333
 50
0.0
 51
90.0
  0
LINE
  8
ボルト／ビス
  6
CONTINUOUS
 62
    64
 10
143.07362
 20
-35.129893
 11
143.07362
 21
-37.463227
  0
LINE
  8
ボルト／ビス
  6
CONTINUOUS
 62
    64
 10
139.906953
 20
-35.629893
 11
139.740287
 21
-35.79656
  0
LINE
  8
ボルト／ビス
  6
CONTINUOUS
 62
    64
 10
139.906953
 20
-36.963227
 11
139.740287
 21
-36.79656
  0
LINE
  8
ボルト／ビス
  6
CONTINUOUS
 62
    64
 10
139.906953
 20
-35.629893
 11
139.906953
 21
-36.963227
  0
LINE
  8
ボルト／ビス
  6
CONTINUOUS
 62
    64
 10
139.740287
 20
-35.79656
 11
139.740287
 21
-36.79656
  0
LINE
  8
ボルト／ビス
  6
CONTINUOUS
 62
    64
 10
144.597415
 20
-36.29656
 11
139.21533
 21
-36.29656
  0
LINE
  8
ボルト／ビス
  6
CONTINUOUS
 62
    64
 10
143.07362
 20
-35.629893
 11
139.906953
 21
-35.629893
  0
LINE
  8
ボルト／ビス
  6
CONTINUOUS
 62
    64
 10
143.07362
 20
-36.963227
 11
139.906953
 21
-36.963227
  0
LINE
  8
ボルト／ビス
  6
CONTINUOUS
 62
    64
 10
143.07362
 20
-36.79656
 11
139.740287
 21
-36.79656
  0
LINE
  8
ボルト／ビス
  6
CONTINUOUS
 62
    64
 10
143.07362
 20
-35.79656
 11
139.740287
 21
-35.79656
  0
ENDBLK
  0
BLOCK
  2
*GRP_0016
 70
    65
 10
0.0
 20
0.0
  0
LINE
  8
ボルト／ビス
  6
CONTINUOUS
 62
    64
 10
137.80479
 20
-44.289083
 11
137.653023
 21
-44.706058
  0
ARC
  8
ボルト／ビス
  6
CONTINUOUS
 62
    64
 10
136.440066
 20
-44.080597
 40
1.364723
 50
0.0
 51
27.277966
  0
LINE
  8
ボルト／ビス
  6
CONTINUOUS
 62
    64
 10
137.80479
 20
-40.11933
 11
137.653023
 21
-39.702355
  0
ARC
  8
ボルト／ビス
  6
CONTINUOUS
 62
    64
 10
136.440066
 20
-40.327819
 40
1.364723
 50
332.722034
 51
360.0
  0
ARC
  8
ボルト／ビス
  6
CONTINUOUS
 62
    64
 10
132.573545
 20
-42.204208
 40
5.231244
 50
346.165046
 51
373.834954
  0
LINE
  8
ボルト／ビス
  6
CONTINUOUS
 62
    64
 10
136.088122
 20
-44.706058
 11
137.653023
 21
-44.706058
  0
LINE
  8
ボルト／ビス
  6
CONTINUOUS
 62
    64
 10
136.088122
 20
-39.702355
 11
137.653023
 21
-39.702355
  0
LINE
  8
ボルト／ビス
  6
CONTINUOUS
 62
    64
 10
137.80479
 20
-40.11933
 11
137.80479
 21
-44.289083
  0
LINE
  8
ボルト／ビス
  6
CONTINUOUS
 62
    64
 10
137.653023
 20
-40.95328
 11
136.088122
 21
-40.95328
  0
LINE
  8
ボルト／ビス
  6
CONTINUOUS
 62
    64
 10
137.653023
 20
-43.455133
 11
136.088122
 21
-43.455133
  0
LINE
  8
ボルト／ビス
  6
CONTINUOUS
 62
    64
 10
136.088122
 20
-39.702355
 11
136.088122
 21
-44.706058
  0
LINE
  8
ボルト／ビス
  6
CONTINUOUS
 62
    64
 10
135.488122
 20
-45.120873
 11
135.15479
 21
-45.120873
  0
LINE
  8
ボルト／ビス
  6
CONTINUOUS
 62
    64
 10
135.488122
 20
-39.28754
 11
135.15479
 21
-39.28754
  0
LINE
  8
ボルト／ビス
  6
CONTINUOUS
 62
    64
 10
135.488122
 20
-45.120873
 11
135.488122
 21
-39.28754
  0
LINE
  8
ボルト／ビス
  6
CONTINUOUS
 62
    64
 10
135.15479
 20
-45.120873
 11
135.15479
 21
-39.28754
  0
LINE
  8
ボルト／ビス
  6
CONTINUOUS
 62
    64
 10
136.088122
 20
-42.204205
 11
135.488122
 21
-42.204205
  0
LINE
  8
ボルト／ビス
  6
CONTINUOUS
 62
    64
 10
136.088122
 20
-39.570873
 11
135.488122
 21
-39.570873
  0
LINE
  8
ボルト／ビス
  6
CONTINUOUS
 62
    64
 10
136.088122
 20
-44.83754
 11
135.488122
 21
-44.83754
  0
LINE
  8
ボルト／ビス
  6
CONTINUOUS
 62
    64
 10
136.088122
 20
-39.570873
 11
136.088122
 21
-44.83754
  0
LINE
  8
ボルト／ビス
  6
CONTINUOUS
 62
    64
 10
139.471455
 20
-42.204205
 11
126.088122
 21
-42.204205
  0
LINE
  8
ボルト／ビス
  6
CONTINUOUS
 62
    64
 10
127.75479
 20
-41.13754
 11
127.75479
 21
-43.270873
  0
LINE
  8
ボルト／ビス
  6
CONTINUOUS
 62
    64
 10
128.15479
 20
-40.870873
 11
127.75479
 21
-41.13754
  0
LINE
  8
ボルト／ビス
  6
CONTINUOUS
 62
    64
 10
128.15479
 20
-43.53754
 11
127.75479
 21
-43.270873
  0
LINE
  8
ボルト／ビス
  6
CONTINUOUS
 62
    64
 10
127.75479
 20
-41.13754
 11
127.75479
 21
-43.270873
  0
LINE
  8
ボルト／ビス
  6
CONTINUOUS
 62
    64
 10
128.15479
 20
-40.870873
 11
128.15479
 21
-43.53754
  0
LINE
  8
ボルト／ビス
  6
CONTINUOUS
 62
    64
 10
135.15479
 20
-40.870873
 11
128.15479
 21
-40.870873
  0
LINE
  8
ボルト／ビス
  6
CONTINUOUS
 62
    64
 10
135.15479
 20
-43.53754
 11
128.15479
 21
-43.53754
  0
LINE
  8
ボルト／ビス
  6
CONTINUOUS
 62
    64
 10
135.15479
 20
-41.13754
 11
127.75479
 21
-41.13754
  0
LINE
  8
ボルト／ビス
  6
CONTINUOUS
 62
    64
 10
135.15479
 20
-43.270873
 11
127.75479
 21
-43.270873
  0
ENDBLK
  0
BLOCK
  2
*GRP_0017
 70
    65
 10
0.0
 20
0.0
  0
LINE
  8
ボルト／ビス
  6
CONTINUOUS
 62
    64
 10
130.371455
 20
-44.28908
 11
130.52322
 21
-44.706055
  0
ARC
  8
ボルト／ビス
  6
CONTINUOUS
 62
    64
 10
131.736177
 20
-44.080596
 40
1.364723
 50
152.722034
 51
180.0
  0
LINE
  8
ボルト／ビス
  6
CONTINUOUS
 62
    64
 10
130.371455
 20
-40.119327
 11
130.52322
 21
-39.702352
  0
ARC
  8
ボルト／ビス
  6
CONTINUOUS
 62
    64
 10
131.736177
 20
-40.327818
 40
1.364723
 50
180.0
 51
207.277966
  0
ARC
  8
ボルト／ビス
  6
CONTINUOUS
 62
    64
 10
135.602698
 20
-42.204207
 40
5.231244
 50
166.165046
 51
193.834954
  0
LINE
  8
ボルト／ビス
  6
CONTINUOUS
 62
    64
 10
132.088122
 20
-44.706055
 11
130.52322
 21
-44.706055
  0
LINE
  8
ボルト／ビス
  6
CONTINUOUS
 62
    64
 10
132.088122
 20
-39.702352
 11
130.52322
 21
-39.702352
  0
LINE
  8
ボルト／ビス
  6
CONTINUOUS
 62
    64
 10
130.371455
 20
-40.119327
 11
130.371455
 21
-44.28908
  0
LINE
  8
ボルト／ビス
  6
CONTINUOUS
 62
    64
 10
130.52322
 20
-40.953277
 11
132.088122
 21
-40.953277
  0
LINE
  8
ボルト／ビス
  6
CONTINUOUS
 62
    64
 10
130.52322
 20
-43.45513
 11
132.088122
 21
-43.45513
  0
LINE
  8
ボルト／ビス
  6
CONTINUOUS
 62
    64
 10
132.088122
 20
-39.702352
 11
132.088122
 21
-44.706055
  0
LINE
  8
ボルト／ビス
  6
CONTINUOUS
 62
    64
 10
132.688122
 20
-45.12087
 11
133.021455
 21
-45.12087
  0
LINE
  8
ボルト／ビス
  6
CONTINUOUS
 62
    64
 10
132.688122
 20
-39.287537
 11
133.021455
 21
-39.287537
  0
LINE
  8
ボルト／ビス
  6
CONTINUOUS
 62
    64
 10
132.688122
 20
-45.12087
 11
132.688122
 21
-39.287537
  0
LINE
  8
ボルト／ビス
  6
CONTINUOUS
 62
    64
 10
133.021455
 20
-45.12087
 11
133.021455
 21
-39.287537
  0
LINE
  8
ボルト／ビス
  6
CONTINUOUS
 62
    64
 10
132.088122
 20
-42.204202
 11
132.688122
 21
-42.204202
  0
LINE
  8
ボルト／ビス
  6
CONTINUOUS
 62
    64
 10
132.088122
 20
-39.57087
 11
132.688122
 21
-39.57087
  0
LINE
  8
ボルト／ビス
  6
CONTINUOUS
 62
    64
 10
132.088122
 20
-44.837537
 11
132.688122
 21
-44.837537
  0
LINE
  8
ボルト／ビス
  6
CONTINUOUS
 62
    64
 10
132.088122
 20
-39.57087
 11
132.088122
 21
-44.837537
  0
ENDBLK
  0
BLOCK
  2
*GRP_0018
 70
    65
 10
0.0
 20
0.0
  0
LINE
  8
ボルト／ビス
  6
CONTINUOUS
 10
-110.720783
 20
-1.706163
 11
-110.720783
 21
-1.039498
  0
LINE
  8
ボルト／ビス
  6
CONTINUOUS
 10
-110.720783
 20
-1.039498
 11
-103.387465
 21
-1.039498
  0
LINE
  8
ボルト／ビス
  6
CONTINUOUS
 10
-103.387465
 20
-1.039498
 11
-103.387465
 21
-1.706155
  0
LINE
  8
ボルト／ビス
  6
CONTINUOUS
 10
-110.720783
 20
-1.706163
 11
-103.387465
 21
-1.706155
  0
LINE
  8
ボルト／ビス
  6
CONTINUOUS
 10
-110.054125
 20
-0.706163
 11
-110.054115
 21
-1.039498
  0
LINE
  8
ボルト／ビス
  6
CONTINUOUS
 10
-110.054125
 20
-0.706163
 11
-104.054133
 21
-0.706155
  0
LINE
  8
ボルト／ビス
  6
CONTINUOUS
 10
-104.054133
 20
-0.706155
 11
-104.054133
 21
-1.039487
  0
LINE
  8
ボルト／ビス
  6
CONTINUOUS
 62
    64
 10
-108.657882
 20
1.293845
 11
-108.978615
 21
1.177095
  0
ARC
  8
ボルト／ビス
  6
CONTINUOUS
 62
    64
 10
-108.497491
 20
0.244034
 40
1.049782
 50
62.721989
 51
90.000022
  0
ARC
  8
ボルト／ビス
  6
CONTINUOUS
 62
    64
 10
-107.054117
 20
-2.730199
 40
4.024014
 50
76.165024
 51
103.835007
  0
LINE
  8
ボルト／ビス
  6
CONTINUOUS
 62
    64
 10
-105.450382
 20
1.293845
 11
-105.129615
 21
1.177095
  0
ARC
  8
ボルト／ビス
  6
CONTINUOUS
 62
    64
 10
-105.610745
 20
0.244035
 40
1.049782
 50
90.000022
 51
117.278055
  0
LINE
  8
ボルト／ビス
  6
CONTINUOUS
 62
    64
 10
-108.657882
 20
1.293845
 11
-105.450382
 21
1.293845
  0
LINE
  8
ボルト／ビス
  6
CONTINUOUS
 62
    64
 10
-105.129615
 20
1.177095
 11
-105.129615
 21
-0.039487
  0
LINE
  8
ボルト／ビス
  6
CONTINUOUS
 62
    64
 10
-106.09189
 20
1.177088
 11
-106.091882
 21
-0.039498
  0
LINE
  8
ボルト／ビス
  6
CONTINUOUS
 62
    64
 10
-108.978615
 20
1.177095
 11
-108.978615
 21
-0.039487
  0
LINE
  8
ボルト／ビス
  6
CONTINUOUS
 62
    64
 10
-108.016365
 20
1.177088
 11
-108.016365
 21
-0.03948
  0
LINE
  8
ボルト／ビス
  6
CONTINUOUS
 10
-108.978615
 20
-0.039487
 11
-105.129615
 21
-0.039487
  0
LINE
  8
ボルト／ビス
  6
CONTINUOUS
 10
-109.054115
 20
-0.039487
 11
-109.054115
 21
-0.706163
  0
LINE
  8
ボルト／ビス
  6
CONTINUOUS
 10
-109.054115
 20
-0.039487
 11
-105.054133
 21
-0.039487
  0
LINE
  8
ボルト／ビス
  6
CONTINUOUS
 10
-105.054133
 20
-0.039487
 11
-105.054133
 21
-0.706163
  0
LINE
  8
ボルト／ビス
  6
CONTINUOUS
 62
    64
 10
-106.287465
 20
-1.706163
 11
-106.287465
 21
-8.372812
  0
LINE
  8
ボルト／ビス
  6
CONTINUOUS
 62
    64
 10
-107.820807
 20
-1.706163
 11
-107.8208
 21
-8.372805
  0
LINE
  8
ボルト／ビス
  6
CONTINUOUS
 62
    64
 10
-107.8208
 20
-8.372805
 11
-106.287465
 21
-8.372812
  0
LINE
  8
ボルト／ビス
  6
CONTINUOUS
 62
    64
 10
-106.054133
 20
-8.03948
 11
-106.287465
 21
-8.372812
  0
LINE
  8
ボルト／ビス
  6
CONTINUOUS
 62
    64
 10
-108.054133
 20
-8.03948
 11
-107.8208
 21
-8.372805
  0
LINE
  8
ボルト／ビス
  6
CONTINUOUS
 62
    64
 10
-108.054133
 20
-8.03948
 11
-106.054133
 21
-8.03948
  0
LINE
  8
ボルト／ビス
  6
CONTINUOUS
 62
    64
 10
-107.8208
 20
-8.372805
 11
-106.287465
 21
-8.372812
  0
LINE
  8
ボルト／ビス
  6
CONTINUOUS
 62
    64
 10
-108.054133
 20
-1.706163
 11
-108.054133
 21
-8.03948
  0
LINE
  8
ボルト／ビス
  6
CONTINUOUS
 62
    64
 10
-106.054133
 20
-1.706155
 11
-106.054133
 21
-8.03948
  0
ARC
  8
ボルト／ビス
  6
CONTINUOUS
 10
-108.22078
 20
-6.207378
 40
0.333332
 50
180.000022
 51
270.000022
  0
LINE
  8
ボルト／ビス
  6
CONTINUOUS
 10
-105.887465
 20
-6.540697
 11
-108.220775
 21
-6.540697
  0
ARC
  8
ボルト／ビス
  6
CONTINUOUS
 10
-105.887452
 20
-6.207377
 40
0.333332
 50
270.000022
 51
360.000022
  0
LINE
  8
ボルト／ビス
  6
CONTINUOUS
 10
-105.387465
 20
-3.040687
 11
-105.387465
 21
-3.207362
  0
LINE
  8
ボルト／ビス
  6
CONTINUOUS
 10
-108.720783
 20
-3.040687
 11
-108.720775
 21
-3.207362
  0
LINE
  8
ボルト／ビス
  6
CONTINUOUS
 10
-105.387465
 20
-3.040687
 11
-108.720783
 21
-3.040687
  0
LINE
  8
ボルト／ビス
  6
CONTINUOUS
 10
-105.387465
 20
-3.207362
 11
-108.720775
 21
-3.207362
  0
LINE
  8
ボルト／ビス
  6
CONTINUOUS
 10
-105.554115
 20
-6.207362
 11
-105.554115
 21
-4.20738
  0
LINE
  8
ボルト／ビス
  6
CONTINUOUS
 10
-105.554115
 20
-3.707355
 11
-105.554115
 21
-3.207355
  0
LINE
  8
ボルト／ビス
  6
CONTINUOUS
 10
-108.554115
 20
-3.207355
 11
-108.554115
 21
-3.707362
  0
LINE
  8
ボルト／ビス
  6
CONTINUOUS
 10
-108.554108
 20
-4.20738
 11
-108.554115
 21
-6.207362
  0
LINE
  8
ボルト／ビス
  6
CONTINUOUS
 10
-105.13745
 20
-3.707355
 11
-107.054115
 21
-3.707362
  0
ARC
  8
ボルト／ビス
  6
CONTINUOUS
 10
-105.137454
 20
-3.957381
 40
0.25
 50
0.000022
 51
90.000022
  0
LINE
  8
ボルト／ビス
  6
CONTINUOUS
 10
-104.88745
 20
-3.957355
 11
-104.88745
 21
-3.957355
  0
LINE
  8
ボルト／ビス
  6
CONTINUOUS
 10
-105.13745
 20
-4.20738
 11
-107.054115
 21
-4.207373
  0
ARC
  8
ボルト／ビス
  6
CONTINUOUS
 10
-105.137454
 20
-3.957381
 40
0.25
 50
270.000022
 51
360.000022
  0
LINE
  8
ボルト／ビス
  6
CONTINUOUS
 10
-108.970783
 20
-3.707362
 11
-107.054115
 21
-3.707362
  0
ARC
  8
ボルト／ビス
  6
CONTINUOUS
 10
-108.97078
 20
-3.957383
 40
0.25
 50
90.000022
 51
180.000022
  0
LINE
  8
ボルト／ビス
  6
CONTINUOUS
 10
-109.220783
 20
-3.957362
 11
-109.220783
 21
-3.957362
  0
LINE
  8
ボルト／ビス
  6
CONTINUOUS
 10
-108.970783
 20
-4.20738
 11
-107.054115
 21
-4.207373
  0
ARC
  8
ボルト／ビス
  6
CONTINUOUS
 10
-108.97078
 20
-3.957383
 40
0.25
 50
180.000022
 51
270.000022
  0
ARC
  8
St
  6
CONTINUOUS
 10
-105.387454
 20
-3.707382
 40
0.543735
 50
90.000022
 51
90.000022
  0
ENDBLK
  0
BLOCK
  2
*GRP_0019
 70
    65
 10
0.0
 20
0.0
  0
LINE
  8
ボルト／ビス
  6
DOT
 62
    64
 10
11.47679
 20
-1.87283
 11
11.446222
 21
-1.523438
  0
ARC
  8
ボルト／ビス
  6
DOT
 62
    64
 10
10.881702
 20
-1.572821
 40
0.566666
 50
4.999927
 51
89.999938
  0
LINE
  8
ボルト／ビス
  6
DOT
 62
    64
 10
10.881723
 20
-1.006163
 11
10.31014
 21
-1.00617
  0
LINE
  8
ボルト／ビス
  6
DOT
 62
    64
 10
9.143457
 20
-1.87283
 11
9.174022
 21
-1.52343
  0
ARC
  8
ボルト／ビス
  6
DOT
 62
    64
 10
9.738526
 20
-1.572819
 40
0.566666
 50
89.999938
 51
174.999949
  0
LINE
  8
ボルト／ビス
  6
DOT
 62
    64
 10
9.73854
 20
-1.00617
 11
10.31014
 21
-1.00617
  0
LINE
  8
ボルト／ビス
  6
DOT
 62
    64
 10
11.108998
 20
-1.13447
 11
11.108998
 21
-1.053737
  0
LINE
  8
ボルト／ビス
  6
DOT
 62
    64
 10
10.543457
 20
-1.351155
 11
10.31014
 21
-1.351145
  0
LINE
  8
ボルト／ビス
  6
DOT
 62
    64
 10
10.67679
 20
-1.134462
 11
11.108998
 21
-1.13447
  0
LINE
  8
ボルト／ビス
  6
DOT
 62
    64
 10
10.543457
 20
-1.351155
 11
10.543457
 21
-1.267795
  0
ARC
  8
ボルト／ビス
  6
DOT
 62
    64
 10
10.67678
 20
-1.267789
 40
0.133333
 50
89.999938
 51
179.999938
  0
LINE
  8
ボルト／ビス
  6
DOT
 62
    64
 10
9.511257
 20
-1.134462
 11
9.511257
 21
-1.05373
  0
LINE
  8
ボルト／ビス
  6
DOT
 62
    64
 10
10.076807
 20
-1.351145
 11
10.31014
 21
-1.351145
  0
LINE
  8
ボルト／ビス
  6
DOT
 62
    64
 10
9.943457
 20
-1.13447
 11
9.511257
 21
-1.134462
  0
LINE
  8
ボルト／ビス
  6
DOT
 62
    64
 10
10.076807
 20
-1.351145
 11
10.076807
 21
-1.267795
  0
ARC
  8
ボルト／ビス
  6
DOT
 62
    64
 10
9.943449
 20
-1.267788
 40
0.133333
 50
359.999938
 51
449.999938
  0
LINE
  8
ボルト／ビス
  6
DOT
 62
    64
 10
11.47679
 20
-1.87283
 11
9.143457
 21
-1.87283
  0
LINE
  8
ボルト／ビス
  6
DOT
 62
    64
 10
10.31014
 20
-0.349038
 11
10.31014
 21
-5.289645
  0
LINE
  8
ボルト／ビス
  6
DOT
 62
    64
 10
10.976798
 20
-3.706155
 11
10.810115
 21
-3.872812
  0
LINE
  8
ボルト／ビス
  6
DOT
 62
    64
 10
9.643448
 20
-3.706155
 11
9.810123
 21
-3.87282
  0
LINE
  8
ボルト／ビス
  6
DOT
 62
    64
 10
10.976798
 20
-3.706155
 11
9.643448
 21
-3.706155
  0
LINE
  8
ボルト／ビス
  6
DOT
 62
    64
 10
10.810115
 20
-3.872812
 11
9.810123
 21
-3.87282
  0
LINE
  8
ボルト／ビス
  6
DOT
 62
    64
 10
10.810123
 20
-1.87283
 11
10.810115
 21
-3.872812
  0
LINE
  8
ボルト／ビス
  6
DOT
 62
    64
 10
9.810123
 20
-1.87283
 11
9.810123
 21
-3.87282
  0
LINE
  8
ボルト／ビス
  6
DOT
 62
    64
 10
9.643457
 20
-1.87283
 11
9.643448
 21
-3.706155
  0
LINE
  8
ボルト／ビス
  6
DOT
 62
    64
 10
10.976798
 20
-1.87283
 11
10.976798
 21
-3.706155
  0
ENDBLK
  0
BLOCK
  2
*GRP_0020
 70
    65
 10
0.0
 20
0.0
  0
LINE
  8
ボルト／ビス
  6
CONTINUOUS
 10
131.338838
 20
-1.706172
 11
131.338838
 21
-1.039508
  0
LINE
  8
ボルト／ビス
  6
CONTINUOUS
 10
131.338838
 20
-1.039508
 11
124.00552
 21
-1.039508
  0
LINE
  8
ボルト／ビス
  6
CONTINUOUS
 10
124.00552
 20
-1.039508
 11
124.00552
 21
-1.706165
  0
LINE
  8
ボルト／ビス
  6
CONTINUOUS
 10
131.338838
 20
-1.706172
 11
124.00552
 21
-1.706165
  0
LINE
  8
ボルト／ビス
  6
CONTINUOUS
 10
130.67218
 20
-0.706172
 11
130.67217
 21
-1.039508
  0
LINE
  8
ボルト／ビス
  6
CONTINUOUS
 10
130.67218
 20
-0.706172
 11
124.672187
 21
-0.706165
  0
LINE
  8
ボルト／ビス
  6
CONTINUOUS
 10
124.672187
 20
-0.706165
 11
124.672187
 21
-1.039498
  0
LINE
  8
ボルト／ビス
  6
CONTINUOUS
 62
    64
 10
129.275937
 20
1.293835
 11
129.59667
 21
1.177085
  0
ARC
  8
ボルト／ビス
  6
CONTINUOUS
 62
    64
 10
129.115543
 20
0.244024
 40
1.049782
 50
89.999978
 51
117.278011
  0
ARC
  8
ボルト／ビス
  6
CONTINUOUS
 62
    64
 10
127.672169
 20
-2.730208
 40
4.024014
 50
76.164993
 51
103.834976
  0
LINE
  8
ボルト／ビス
  6
CONTINUOUS
 62
    64
 10
126.068438
 20
1.293835
 11
125.74767
 21
1.177085
  0
ARC
  8
ボルト／ビス
  6
CONTINUOUS
 62
    64
 10
126.228797
 20
0.244025
 40
1.049782
 50
62.721945
 51
89.999978
  0
LINE
  8
ボルト／ビス
  6
CONTINUOUS
 62
    64
 10
129.275937
 20
1.293835
 11
126.068438
 21
1.293835
  0
LINE
  8
ボルト／ビス
  6
CONTINUOUS
 62
    64
 10
125.74767
 20
1.177085
 11
125.74767
 21
-0.039498
  0
LINE
  8
ボルト／ビス
  6
CONTINUOUS
 62
    64
 10
126.709945
 20
1.177078
 11
126.709937
 21
-0.039508
  0
LINE
  8
ボルト／ビス
  6
CONTINUOUS
 62
    64
 10
129.59667
 20
1.177085
 11
129.59667
 21
-0.039498
  0
LINE
  8
ボルト／ビス
  6
CONTINUOUS
 62
    64
 10
128.63442
 20
1.177078
 11
128.63442
 21
-0.03949
  0
LINE
  8
ボルト／ビス
  6
CONTINUOUS
 10
129.59667
 20
-0.039498
 11
125.74767
 21
-0.039498
  0
LINE
  8
ボルト／ビス
  6
CONTINUOUS
 10
129.67217
 20
-0.039498
 11
129.67217
 21
-0.706172
  0
LINE
  8
ボルト／ビス
  6
CONTINUOUS
 10
129.67217
 20
-0.039498
 11
125.672187
 21
-0.039498
  0
LINE
  8
ボルト／ビス
  6
CONTINUOUS
 10
125.672187
 20
-0.039498
 11
125.672187
 21
-0.706172
  0
LINE
  8
ボルト／ビス
  6
CONTINUOUS
 62
    64
 10
126.90552
 20
-1.706172
 11
126.90552
 21
-8.372822
  0
LINE
  8
ボルト／ビス
  6
CONTINUOUS
 62
    64
 10
128.438862
 20
-1.706172
 11
128.438855
 21
-8.372815
  0
LINE
  8
ボルト／ビス
  6
CONTINUOUS
 62
    64
 10
128.438855
 20
-8.372815
 11
126.90552
 21
-8.372822
  0
LINE
  8
ボルト／ビス
  6
CONTINUOUS
 62
    64
 10
126.672187
 20
-8.03949
 11
126.90552
 21
-8.372822
  0
LINE
  8
ボルト／ビス
  6
CONTINUOUS
 62
    64
 10
128.672187
 20
-8.03949
 11
128.438855
 21
-8.372815
  0
LINE
  8
ボルト／ビス
  6
CONTINUOUS
 62
    64
 10
128.672187
 20
-8.03949
 11
126.672187
 21
-8.03949
  0
LINE
  8
ボルト／ビス
  6
CONTINUOUS
 62
    64
 10
128.438855
 20
-8.372815
 11
126.90552
 21
-8.372822
  0
LINE
  8
ボルト／ビス
  6
CONTINUOUS
 62
    64
 10
128.672187
 20
-1.706172
 11
128.672187
 21
-8.03949
  0
LINE
  8
ボルト／ビス
  6
CONTINUOUS
 62
    64
 10
126.672187
 20
-1.706165
 11
126.672187
 21
-8.03949
  0
ARC
  8
ボルト／ビス
  6
CONTINUOUS
 10
128.838832
 20
-6.207388
 40
0.333332
 50
269.999978
 51
359.999978
  0
LINE
  8
ボルト／ビス
  6
CONTINUOUS
 10
126.50552
 20
-6.540708
 11
128.83883
 21
-6.540708
  0
ARC
  8
ボルト／ビス
  6
CONTINUOUS
 10
126.505504
 20
-6.207387
 40
0.333332
 50
179.999978
 51
269.999978
  0
LINE
  8
ボルト／ビス
  6
CONTINUOUS
 10
126.00552
 20
-3.040697
 11
126.00552
 21
-3.207373
  0
LINE
  8
ボルト／ビス
  6
CONTINUOUS
 10
129.338838
 20
-3.040697
 11
129.33883
 21
-3.207373
  0
LINE
  8
ボルト／ビス
  6
CONTINUOUS
 10
126.00552
 20
-3.040697
 11
129.338838
 21
-3.040697
  0
LINE
  8
ボルト／ビス
  6
CONTINUOUS
 10
126.00552
 20
-3.207373
 11
129.33883
 21
-3.207373
  0
LINE
  8
ボルト／ビス
  6
CONTINUOUS
 10
126.17217
 20
-6.207373
 11
126.17217
 21
-4.20739
  0
LINE
  8
ボルト／ビス
  6
CONTINUOUS
 10
126.17217
 20
-3.707365
 11
126.17217
 21
-3.207365
  0
LINE
  8
ボルト／ビス
  6
CONTINUOUS
 10
129.17217
 20
-3.207365
 11
129.17217
 21
-3.707373
  0
LINE
  8
ボルト／ビス
  6
CONTINUOUS
 10
129.172163
 20
-4.20739
 11
129.17217
 21
-6.207373
  0
LINE
  8
ボルト／ビス
  6
CONTINUOUS
 10
125.755505
 20
-3.707365
 11
127.67217
 21
-3.707373
  0
ARC
  8
ボルト／ビス
  6
CONTINUOUS
 10
125.755506
 20
-3.957391
 40
0.25
 50
89.999978
 51
179.999978
  0
LINE
  8
ボルト／ビス
  6
CONTINUOUS
 10
125.505505
 20
-3.957365
 11
125.505505
 21
-3.957365
  0
LINE
  8
ボルト／ビス
  6
CONTINUOUS
 10
125.755505
 20
-4.20739
 11
127.67217
 21
-4.207383
  0
ARC
  8
ボルト／ビス
  6
CONTINUOUS
 10
125.755506
 20
-3.957391
 40
0.25
 50
179.999978
 51
269.999978
  0
LINE
  8
ボルト／ビス
  6
CONTINUOUS
 10
129.588838
 20
-3.707373
 11
127.67217
 21
-3.707373
  0
ARC
  8
ボルト／ビス
  6
CONTINUOUS
 10
129.588831
 20
-3.957393
 40
0.25
 50
359.999978
 51
449.999978
  0
LINE
  8
ボルト／ビス
  6
CONTINUOUS
 10
129.838838
 20
-3.957373
 11
129.838838
 21
-3.957373
  0
LINE
  8
ボルト／ビス
  6
CONTINUOUS
 10
129.588838
 20
-4.20739
 11
127.67217
 21
-4.207383
  0
ARC
  8
ボルト／ビス
  6
CONTINUOUS
 10
129.588831
 20
-3.957393
 40
0.25
 50
269.999978
 51
359.999978
  0
ARC
  8
St
  6
CONTINUOUS
 10
126.005506
 20
-3.707392
 40
0.543735
 50
89.999978
 51
89.999978
  0
ENDBLK
  0
BLOCK
  2
*DIM_0021
 70
    65
 10
0.0
 20
0.0
  0
LINE
  8
寸法
  6
CONTINUOUS
 10
-131.455555
 20
-33.870865
 11
-169.453248
 21
-33.870865
  0
LINE
  8
寸法
  6
CONTINUOUS
 10
-131.455555
 20
-28.870865
 11
-169.453248
 21
-28.870865
  0
LINE
  8
寸法
  6
CONTINUOUS
 10
-169.453248
 20
-33.870865
 11
-169.453248
 21
-28.870865
  0
POINT
  8
寸法
 10
-169.453248
 20
-33.870865
  0
POINT
  8
寸法
 10
-169.453248
 20
-28.870865
  0
TEXT
  7
TextStyle03
  8
寸法
  6
CONTINUOUS
 10
-169.825
 20
-32.99375
  1
15
 40
3.0
 50
90.0
 72
     5
 11
-169.825
 21
-29.80625
  0
ENDBLK
  0
BLOCK
  2
*DIM_0022
 70
    65
 10
0.0
 20
0.0
  0
LINE
  8
寸法
  6
CONTINUOUS
 10
-105.887428
 20
-20.914703
 11
-169.453248
 21
-20.914703
  0
LINE
  8
寸法
  6
CONTINUOUS
 10
-169.453248
 20
-28.870865
 11
-169.453248
 21
-20.914703
  0
POINT
  8
寸法
 10
-169.453248
 20
-20.914703
  0
TEXT
  7
TextStyle03
  8
寸法
  6
CONTINUOUS
 10
-169.825
 20
-28.20625
  1
23.9
 40
3.0
 50
90.0
 72
     5
 11
-169.825
 21
-21.64375
  0
ENDBLK
  0
BLOCK
  2
*DIM_0023
 70
    65
 10
0.0
 20
0.0
  0
LINE
  8
寸法
  6
CONTINUOUS
 10
-131.455555
 20
-33.870865
 11
-175.370915
 21
-33.870865
  0
LINE
  8
寸法
  6
CONTINUOUS
 10
-131.455558
 20
-38.870867
 11
-175.370915
 21
-38.870867
  0
LINE
  8
寸法
  6
CONTINUOUS
 10
-175.370915
 20
-33.870865
 11
-175.370915
 21
-38.870867
  0
POINT
  8
寸法
 10
-175.370915
 20
-33.870865
  0
POINT
  8
寸法
 10
-175.370915
 20
-38.870867
  0
TEXT
  7
TextStyle03
  8
寸法
  6
CONTINUOUS
 10
-175.75
 20
-37.99375
  1
15
 40
3.0
 50
90.0
 72
     5
 11
-175.75
 21
-34.80625
  0
ENDBLK
  0
BLOCK
  2
*DIM_0024
 70
    65
 10
0.0
 20
0.0
  0
LINE
  8
寸法
  6
CONTINUOUS
 10
123.785707
 20
-50.537535
 11
105.236658
 21
-50.537535
  0
LINE
  8
寸法
  6
CONTINUOUS
 10
140.620502
 20
-33.870865
 11
105.236658
 21
-33.870865
  0
LINE
  8
寸法
  6
CONTINUOUS
 10
105.236658
 20
-50.537535
 11
105.236658
 21
-33.870865
  0
POINT
  8
寸法
 10
105.236658
 20
-50.537535
  0
POINT
  8
寸法
 10
105.236658
 20
-33.870865
  0
TEXT
  7
TextStyle03
  8
寸法
  6
CONTINUOUS
 10
104.9
 20
-43.79375
  1
50
 40
3.0
 50
90.0
 72
     5
 11
104.9
 21
-40.60625
  0
ENDBLK
  0
BLOCK
  2
*DIM_0025
 70
    65
 10
0.0
 20
0.0
  0
LINE
  8
寸法
  6
CONTINUOUS
 10
-126.455555
 20
-23.870865
 11
-126.455555
 21
48.656963
  0
LINE
  8
寸法
  6
CONTINUOUS
 10
-91.787457
 20
-0.914778
 11
-91.787457
 21
48.656963
  0
LINE
  8
寸法
  6
CONTINUOUS
 10
-126.455555
 20
48.656963
 11
-91.787457
 21
48.656963
  0
POINT
  8
寸法
 10
-126.455555
 20
48.656963
  0
POINT
  8
寸法
 10
-91.787457
 20
48.656963
  0
TEXT
  7
TextStyle03
  8
寸法
  6
CONTINUOUS
 10
-111.5625
 20
49.0
  1
104
 40
3.0
 72
     5
 11
-106.6875
 21
49.0
  0
ENDBLK
  0
BLOCK
  2
*DIM_0026
 70
    65
 10
0.0
 20
0.0
  0
LINE
  8
寸法
  6
CONTINUOUS
 10
147.07361
 20
-23.870865
 11
147.07361
 21
48.656963
  0
LINE
  8
寸法
  6
CONTINUOUS
 10
112.405513
 20
-0.914778
 11
112.405513
 21
48.656963
  0
LINE
  8
寸法
  6
CONTINUOUS
 10
147.07361
 20
48.656963
 11
112.405513
 21
48.656963
  0
POINT
  8
寸法
 10
147.07361
 20
48.656963
  0
POINT
  8
寸法
 10
112.405513
 20
48.656963
  0
TEXT
  7
TextStyle03
  8
寸法
  6
CONTINUOUS
 10
127.3125
 20
49.0
  1
104
 40
3.0
 72
     5
 11
132.1875
 21
49.0
  0
ENDBLK
  0
BLOCK
  2
*DIM_0027
 70
    65
 10
0.0
 20
0.0
  0
LINE
  8
寸法
  6
CONTINUOUS
 10
-165.28893
 20
-69.154315
 11
-165.28893
 21
-84.56939
  0
LINE
  8
寸法
  6
CONTINUOUS
 10
-158.45413
 20
-80.27803
 11
-158.45413
 21
-84.56939
  0
LINE
  8
寸法
  6
CONTINUOUS
 10
-165.28893
 20
-84.56939
 11
-158.45413
 21
-84.56939
  0
POINT
  8
寸法
 10
-165.28893
 20
-84.56939
  0
POINT
  8
寸法
 10
-158.45413
 20
-84.56939
  0
TEXT
  7
TextStyle03
  8
寸法
  6
CONTINUOUS
 10
-165.15625
 20
-84.225
  1
20.5
 40
3.0
 72
     5
 11
-158.59375
 21
-84.225
  0
ENDBLK
  0
BLOCK
  2
*DIM_0028
 70
    65
 10
0.0
 20
0.0
  0
LINE
  8
寸法
  6
CONTINUOUS
 10
-155.1208
 20
-80.27803
 11
-155.1208
 21
-84.56939
  0
LINE
  8
寸法
  6
CONTINUOUS
 10
-158.45413
 20
-84.56939
 11
-155.1208
 21
-84.56939
  0
POINT
  8
寸法
 10
-155.1208
 20
-84.56939
  0
TEXT
  7
TextStyle03
  8
寸法
  6
CONTINUOUS
 10
-158.36875
 20
-87.6
  1
10
 40
3.0
 72
     5
 11
-155.18125
 21
-87.6
  0
ENDBLK
  0
BLOCK
  2
*DIM_0029
 70
    65
 10
0.0
 20
0.0
  0
LINE
  8
寸法
  6
CONTINUOUS
 10
-105.12076
 20
-80.27803
 11
-105.12076
 21
-84.56939
  0
LINE
  8
寸法
  6
CONTINUOUS
 10
-155.1208
 20
-84.56939
 11
-105.12076
 21
-84.56939
  0
POINT
  8
寸法
 10
-105.12076
 20
-84.56939
  0
TEXT
  7
TextStyle03
  8
寸法
  6
CONTINUOUS
 10
-132.5625
 20
-84.225
  1
150
 40
3.0
 72
     5
 11
-127.6875
 21
-84.225
  0
ENDBLK
  0
BLOCK
  2
*DIM_0030
 70
    65
 10
0.0
 20
0.0
  0
LINE
  8
寸法
  6
CONTINUOUS
 10
185.906992
 20
-69.154315
 11
185.906992
 21
-84.56939
  0
LINE
  8
寸法
  6
CONTINUOUS
 10
179.072192
 20
-80.27803
 11
179.072192
 21
-84.56939
  0
LINE
  8
寸法
  6
CONTINUOUS
 10
185.906992
 20
-84.56939
 11
179.072192
 21
-84.56939
  0
POINT
  8
寸法
 10
185.906992
 20
-84.56939
  0
POINT
  8
寸法
 10
179.072192
 20
-84.56939
  0
TEXT
  7
TextStyle03
  8
寸法
  6
CONTINUOUS
 10
179.21875
 20
-84.225
  1
20.5
 40
3.0
 72
     5
 11
185.78125
 21
-84.225
  0
ENDBLK
  0
BLOCK
  2
*DIM_0031
 70
    65
 10
0.0
 20
0.0
  0
LINE
  8
寸法
  6
CONTINUOUS
 10
175.738862
 20
-80.27803
 11
175.738862
 21
-84.56939
  0
LINE
  8
寸法
  6
CONTINUOUS
 10
179.072192
 20
-84.56939
 11
175.738862
 21
-84.56939
  0
POINT
  8
寸法
 10
175.738862
 20
-84.56939
  0
TEXT
  7
TextStyle03
  8
寸法
  6
CONTINUOUS
 10
175.80625
 20
-87.6
  1
10
 40
3.0
 72
     5
 11
178.99375
 21
-87.6
  0
ENDBLK
  0
BLOCK
  2
*DIM_0032
 70
    65
 10
0.0
 20
0.0
  0
LINE
  8
寸法
  6
CONTINUOUS
 10
125.738823
 20
-80.27803
 11
125.738823
 21
-84.56939
  0
LINE
  8
寸法
  6
CONTINUOUS
 10
175.738862
 20
-84.56939
 11
125.738823
 21
-84.56939
  0
POINT
  8
寸法
 10
125.738823
 20
-84.56939
  0
TEXT
  7
TextStyle03
  8
寸法
  6
CONTINUOUS
 10
148.3125
 20
-84.225
  1
150
 40
3.0
 72
     5
 11
153.1875
 21
-84.225
  0
ENDBLK
  0
BLOCK
  2
*DIM_0033
 70
    65
 10
0.0
 20
0.0
  0
LINE
  8
寸法
  6
CONTINUOUS
 10
114.072157
 20
-80.27803
 11
114.072157
 21
-84.56939
  0
LINE
  8
寸法
  6
CONTINUOUS
 10
125.738823
 20
-84.56939
 11
114.072157
 21
-84.56939
  0
POINT
  8
寸法
 10
114.072157
 20
-84.56939
  0
TEXT
  7
TextStyle03
  8
寸法
  6
CONTINUOUS
 10
118.30625
 20
-84.225
  1
35
 40
3.0
 72
     5
 11
121.49375
 21
-84.225
  0
ENDBLK
  0
BLOCK
  2
*DIM_0034
 70
    65
 10
0.0
 20
0.0
  0
LINE
  8
寸法
  6
CONTINUOUS
 10
112.405505
 20
-11.914785
 11
112.405505
 21
-84.56939
  0
LINE
  8
寸法
  6
CONTINUOUS
 10
114.072157
 20
-84.56939
 11
112.405505
 21
-84.56939
  0
POINT
  8
寸法
 10
112.405505
 20
-84.56939
  0
TEXT
  7
TextStyle03
  8
寸法
  6
CONTINUOUS
 10
110.825
 20
-84.225
  1
5
 40
3.0
 72
     5
 11
112.325
 21
-84.225
  0
ENDBLK
  0
BLOCK
  2
*GRP_0035
 70
    65
 10
0.0
 20
0.0
  0
POLYLINE
  8
寸法
  6
BYBLOCK
 62
     0
 66
     1
  0
VERTEX
  8
寸法
 10
154.496545
 20
-37.07863
  0
VERTEX
  8
寸法
 10
152.996545
 20
-39.676707
  0
VERTEX
  8
寸法
 10
155.594622
 20
-38.176707
  0
SEQEND
  0
POLYLINE
  8
寸法
  6
BYBLOCK
 62
     0
 66
     1
  0
VERTEX
  8
寸法
 10
152.996545
 20
-39.676707
  0
VERTEX
  8
寸法
 10
159.453795
 20
-33.219458
  0
VERTEX
  8
寸法
 10
162.585108
 20
-33.219458
  0
SEQEND
  0
ENDBLK
  0
BLOCK
  2
*GRP_0036
 70
    65
 10
0.0
 20
0.0
  0
POLYLINE
  8
寸法
  6
CONTINUOUS
 66
     1
  0
VERTEX
  8
寸法
 10
182.043247
 20
-67.58222
  0
VERTEX
  8
寸法
 10
177.288795
 20
-72.336675
  0
VERTEX
  8
寸法
 10
171.684748
 20
-72.336675
  0
SEQEND
  0
ENDBLK
  0
BLOCK
  2
*DIM_0037
 70
    65
 10
0.0
 20
0.0
  0
LINE
  8
寸法
  6
BYBLOCK
 62
     0
 10
-0.523178
 20
6.293837
 11
-0.523178
 21
17.863455
  0
LINE
  8
寸法
  6
BYBLOCK
 62
     0
 10
7.81014
 20
6.293837
 11
7.81014
 21
17.863455
  0
LINE
  8
寸法
  6
BYBLOCK
 62
     0
 10
-0.523178
 20
17.863455
 11
7.81014
 21
17.863455
  0
POINT
  8
寸法
 62
     0
 10
-0.523178
 20
17.863455
  0
POINT
  8
寸法
 62
     0
 10
7.81014
 20
17.863455
  0
TEXT
  7
TextStyle03
  8
寸法
  6
CONTINUOUS
 62
     0
 10
2.05625
 20
18.225
  1
25
 40
3.0
 72
     5
 11
5.24375
 21
18.225
  0
ENDBLK
  0
BLOCK
  2
*DIM_0038
 70
    65
 10
0.0
 20
0.0
  0
LINE
  8
寸法
  6
BYBLOCK
 62
     0
 10
12.809825
 20
6.293837
 11
12.809825
 21
17.863455
  0
LINE
  8
寸法
  6
BYBLOCK
 62
     0
 10
7.81014
 20
17.863455
 11
12.809825
 21
17.863455
  0
POINT
  8
寸法
 62
     0
 10
12.809825
 20
17.863455
  0
TEXT
  7
TextStyle03
  8
寸法
  6
CONTINUOUS
 62
     0
 10
8.70625
 20
18.225
  1
15
 40
3.0
 72
     5
 11
11.89375
 21
18.225
  0
ENDBLK
  0
BLOCK
  2
*DIM_0039
 70
    65
 10
0.0
 20
0.0
  0
LINE
  8
寸法
  6
BYBLOCK
 62
     0
 10
21.14314
 20
6.293837
 11
21.14314
 21
17.863455
  0
LINE
  8
寸法
  6
BYBLOCK
 62
     0
 10
12.809825
 20
17.863455
 11
21.14314
 21
17.863455
  0
POINT
  8
寸法
 62
     0
 10
21.14314
 20
17.863455
  0
TEXT
  7
TextStyle03
  8
寸法
  6
CONTINUOUS
 62
     0
 10
15.38125
 20
18.225
  1
25
 40
3.0
 72
     5
 11
18.56875
 21
18.225
  0
ENDBLK
  0
BLOCK
  2
*DIM_0040
 70
    65
 10
0.0
 20
0.0
  0
LINE
  8
寸法
  6
CONTINUOUS
 10
-122.054075
 20
-1.706172
 11
-169.453248
 21
-1.706172
  0
LINE
  8
寸法
  6
CONTINUOUS
 10
-169.453248
 20
-10.039498
 11
-169.453248
 21
-1.706172
  0
POINT
  8
寸法
 10
-169.453248
 20
-1.706172
  0
TEXT
  7
TextStyle03
  8
寸法
  6
CONTINUOUS
 10
-169.825
 20
-7.46875
  1
25
 40
3.0
 50
90.0
 72
     5
 11
-169.825
 21
-4.28125
  0
ENDBLK
  0
BLOCK
  2
*DIM_0041
 70
    65
 10
0.0
 20
0.0
  0
LINE
  8
寸法
  6
CONTINUOUS
 10
-105.38744
 20
3.29382
 11
-169.453248
 21
3.29382
  0
LINE
  8
寸法
  6
CONTINUOUS
 10
-169.453248
 20
-1.706172
 11
-169.453248
 21
3.29382
  0
POINT
  8
寸法
 10
-169.453248
 20
3.29382
  0
TEXT
  7
TextStyle03
  8
寸法
  6
CONTINUOUS
 10
-169.825
 20
-0.81875
  1
15
 40
3.0
 50
90.0
 72
     5
 11
-169.825
 21
2.36875
  0
ENDBLK
  0
BLOCK
  2
*DIM_0042
 70
    65
 10
0.0
 20
0.0
  0
LINE
  8
寸法
  6
CONTINUOUS
 10
-117.054075
 20
3.293828
 11
-117.054075
 21
54.532235
  0
LINE
  8
寸法
  6
CONTINUOUS
 10
-100.38744
 20
8.29382
 11
-100.38744
 21
54.532235
  0
LINE
  8
寸法
  6
CONTINUOUS
 10
-117.054075
 20
54.532235
 11
-100.38744
 21
54.532235
  0
POINT
  8
寸法
 10
-117.054075
 20
54.532235
  0
POINT
  8
寸法
 10
-100.38744
 20
54.532235
  0
TEXT
  7
TextStyle03
  8
寸法
  6
CONTINUOUS
 10
-110.31875
 20
54.875
  1
50
 40
3.0
 72
     5
 11
-107.13125
 21
54.875
  0
ENDBLK
  0
BLOCK
  2
*DIM_0043
 70
    65
 10
0.0
 20
0.0
  0
LINE
  8
寸法
  6
CONTINUOUS
 10
-91.787457
 20
-1.706172
 11
-91.787457
 21
41.198903
  0
LINE
  8
寸法
  6
CONTINUOUS
 10
-100.38744
 20
8.29382
 11
-100.38744
 21
41.198903
  0
LINE
  8
寸法
  6
CONTINUOUS
 10
-91.787457
 20
41.198903
 11
-100.38744
 21
41.198903
  0
POINT
  8
寸法
 10
-91.787457
 20
41.198903
  0
POINT
  8
寸法
 10
-100.38744
 20
41.198903
  0
TEXT
  7
TextStyle03
  8
寸法
  6
CONTINUOUS
 10
-99.35625
 20
41.55
  1
25.8
 40
3.0
 72
     5
 11
-92.79375
 21
41.55
  0
ENDBLK
  0
BLOCK
  2
*DIM_0044
 70
    65
 10
0.0
 20
0.0
  0
LINE
  8
寸法
  6
CONTINUOUS
 10
-100.38744
 20
8.29382
 11
-100.38744
 21
41.198903
  0
LINE
  8
寸法
  6
CONTINUOUS
 10
-107.054125
 20
5.810477
 11
-107.054125
 21
41.198903
  0
LINE
  8
寸法
  6
CONTINUOUS
 10
-100.38744
 20
41.198903
 11
-107.054125
 21
41.198903
  0
POINT
  8
寸法
 10
-100.38744
 20
41.198903
  0
POINT
  8
寸法
 10
-107.054125
 20
41.198903
  0
TEXT
  7
TextStyle03
  8
寸法
  6
CONTINUOUS
 10
-105.31875
 20
41.55
  1
20
 40
3.0
 72
     5
 11
-102.13125
 21
41.55
  0
ENDBLK
  0
BLOCK
  2
*DIM_0045
 70
    65
 10
0.0
 20
0.0
  0
LINE
  8
寸法
  6
CONTINUOUS
 10
-117.054075
 20
3.293828
 11
-117.054075
 21
41.198903
  0
LINE
  8
寸法
  6
CONTINUOUS
 10
-107.054125
 20
41.198903
 11
-117.054075
 21
41.198903
  0
POINT
  8
寸法
 10
-117.054075
 20
41.198903
  0
TEXT
  7
TextStyle03
  8
寸法
  6
CONTINUOUS
 10
-113.64375
 20
41.55
  1
30
 40
3.0
 72
     5
 11
-110.45625
 21
41.55
  0
ENDBLK
  0
BLOCK
  2
*DIM_0046
 70
    65
 10
0.0
 20
0.0
  0
LINE
  8
寸法
  6
CONTINUOUS
 10
137.67213
 20
3.293828
 11
137.67213
 21
54.532235
  0
LINE
  8
寸法
  6
CONTINUOUS
 10
121.005495
 20
8.29382
 11
121.005495
 21
54.532235
  0
LINE
  8
寸法
  6
CONTINUOUS
 10
137.67213
 20
54.532235
 11
121.005495
 21
54.532235
  0
POINT
  8
寸法
 10
137.67213
 20
54.532235
  0
POINT
  8
寸法
 10
121.005495
 20
54.532235
  0
TEXT
  7
TextStyle03
  8
寸法
  6
CONTINUOUS
 10
127.75625
 20
54.875
  1
50
 40
3.0
 72
     5
 11
130.94375
 21
54.875
  0
ENDBLK
  0
BLOCK
  2
*DIM_0047
 70
    65
 10
0.0
 20
0.0
  0
LINE
  8
寸法
  6
CONTINUOUS
 10
112.405513
 20
-1.706172
 11
112.405513
 21
41.198903
  0
LINE
  8
寸法
  6
CONTINUOUS
 10
121.005495
 20
8.29382
 11
121.005495
 21
41.198903
  0
LINE
  8
寸法
  6
CONTINUOUS
 10
112.405513
 20
41.198903
 11
121.005495
 21
41.198903
  0
POINT
  8
寸法
 10
112.405513
 20
41.198903
  0
POINT
  8
寸法
 10
121.005495
 20
41.198903
  0
TEXT
  7
TextStyle03
  8
寸法
  6
CONTINUOUS
 10
113.41875
 20
41.55
  1
25.8
 40
3.0
 72
     5
 11
119.98125
 21
41.55
  0
ENDBLK
  0
BLOCK
  2
*DIM_0048
 70
    65
 10
0.0
 20
0.0
  0
LINE
  8
寸法
  6
CONTINUOUS
 10
121.005495
 20
8.29382
 11
121.005495
 21
41.198903
  0
LINE
  8
寸法
  6
CONTINUOUS
 10
127.67218
 20
5.810477
 11
127.67218
 21
41.198903
  0
LINE
  8
寸法
  6
CONTINUOUS
 10
121.005495
 20
41.198903
 11
127.67218
 21
41.198903
  0
POINT
  8
寸法
 10
121.005495
 20
41.198903
  0
POINT
  8
寸法
 10
127.67218
 20
41.198903
  0
TEXT
  7
TextStyle03
  8
寸法
  6
CONTINUOUS
 10
122.75625
 20
41.55
  1
20
 40
3.0
 72
     5
 11
125.94375
 21
41.55
  0
ENDBLK
  0
BLOCK
  2
*DIM_0049
 70
    65
 10
0.0
 20
0.0
  0
LINE
  8
寸法
  6
CONTINUOUS
 10
127.67218
 20
5.810477
 11
127.67218
 21
41.198903
  0
LINE
  8
寸法
  6
CONTINUOUS
 10
137.67213
 20
3.293828
 11
137.67213
 21
41.198903
  0
LINE
  8
寸法
  6
CONTINUOUS
 10
127.67218
 20
41.198903
 11
137.67213
 21
41.198903
  0
POINT
  8
寸法
 10
137.67213
 20
41.198903
  0
TEXT
  7
TextStyle03
  8
寸法
  6
CONTINUOUS
 10
131.08125
 20
41.55
  1
30
 40
3.0
 72
     5
 11
134.26875
 21
41.55
  0
ENDBLK
  0
BLOCK
  2
*DIM_0050
 70
    65
 10
0.0
 20
0.0
  0
LINE
  8
寸法
  6
CONTINUOUS
 10
-100.38744
 20
8.29382
 11
-100.38744
 21
54.532235
  0
LINE
  8
寸法
  6
CONTINUOUS
 10
121.005495
 20
8.29381
 11
121.005495
 21
54.532235
  0
LINE
  8
寸法
  6
CONTINUOUS
 10
-100.38744
 20
54.532235
 11
121.005495
 21
54.532235
  0
POINT
  8
寸法
 10
-100.38744
 20
54.532235
  0
POINT
  8
寸法
 10
121.005495
 20
54.532235
  0
TEXT
  7
TextStyle03
  8
寸法
  6
CONTINUOUS
 10
3.7375
 20
54.875
  1
呼称寸法
 40
3.0
 72
     5
 11
16.8625
 21
54.875
  0
ENDBLK
  0
BLOCK
  2
*DIM_0051
 70
    65
 10
0.0
 20
0.0
  0
LINE
  8
寸法
  6
CONTINUOUS
 10
6.476633
 20
-23.812235
 11
6.476633
 21
-32.08709
  0
LINE
  8
寸法
  6
CONTINUOUS
 10
14.14333
 20
-32.08709
 11
6.476633
 21
-32.08709
  0
POINT
  8
寸法
 10
6.476633
 20
-32.08709
  0
TEXT
  7
TextStyle03
  8
寸法
  6
CONTINUOUS
 10
8.70625
 20
-31.725
  1
23
 40
3.0
 72
     5
 11
11.89375
 21
-31.725
  0
ENDBLK
  0
BLOCK
  2
*DIM_0052
 70
    65
 10
0.0
 20
0.0
  0
LINE
  8
寸法
  6
CONTINUOUS
 10
21.14314
 20
8.293837
 11
21.14314
 21
25.117212
  0
LINE
  8
寸法
  6
CONTINUOUS
 10
-0.523178
 20
8.293837
 11
-0.523178
 21
25.117212
  0
LINE
  8
寸法
  6
CONTINUOUS
 10
21.14314
 20
25.117212
 11
-0.523178
 21
25.117212
  0
POINT
  8
寸法
 10
21.14314
 20
25.117212
  0
POINT
  8
寸法
 10
-0.523178
 20
25.117212
  0
TEXT
  7
TextStyle03
  8
寸法
  6
CONTINUOUS
 10
8.70625
 20
25.475
  1
65
 40
3.0
 72
     5
 11
11.89375
 21
25.475
  0
ENDBLK
  0
BLOCK
  2
*DIM_0053
 70
    65
 10
0.0
 20
0.0
  0
LINE
  8
寸法
  6
CONTINUOUS
 10
-131.455555
 20
-33.870865
 11
-175.370915
 21
-33.870865
  0
LINE
  8
寸法
  6
CONTINUOUS
 10
-105.38744
 20
3.29382
 11
-175.370915
 21
3.29382
  0
LINE
  8
寸法
  6
CONTINUOUS
 10
-175.370915
 20
-33.870865
 11
-175.370915
 21
3.29382
  0
POINT
  8
寸法
 10
-175.370915
 20
-33.870865
  0
POINT
  8
寸法
 10
-175.370915
 20
3.29382
  0
TEXT
  7
TextStyle03
  8
寸法
  6
CONTINUOUS
 10
-175.75
 20
-19.45
  1
111.5
 40
3.0
 50
90.0
 72
     5
 11
-175.75
 21
-11.2
  0
ENDBLK
  0
BLOCK
  2
*DIM_0054
 70
    65
 10
0.0
 20
0.0
  0
LINE
  8
寸法
  6
CONTINUOUS
 10
-105.887428
 20
-20.914703
 11
-169.453248
 21
-20.914703
  0
LINE
  8
寸法
  6
CONTINUOUS
 10
-122.054075
 20
-10.039498
 11
-169.453248
 21
-10.039498
  0
LINE
  8
寸法
  6
CONTINUOUS
 10
-169.453248
 20
-20.914703
 11
-169.453248
 21
-10.039498
  0
POINT
  8
寸法
 10
-169.453248
 20
-20.914703
  0
POINT
  8
寸法
 10
-169.453248
 20
-10.039498
  0
TEXT
  7
TextStyle03
  8
寸法
  6
CONTINUOUS
 10
-169.825
 20
-18.78125
  1
32.6
 40
3.0
 50
90.0
 72
     5
 11
-169.825
 21
-12.21875
  0
ENDBLK
  0
BLOCK
  2
*DIM_0055
 70
    65
 10
0.0
 20
0.0
  0
LINE
  8
寸法
  6
CONTINUOUS
 10
137.67213
 20
3.293828
 11
137.67213
 21
54.532235
  0
LINE
  8
寸法
  6
CONTINUOUS
 10
147.07361
 20
-24.66226
 11
147.07361
 21
54.532235
  0
LINE
  8
寸法
  6
CONTINUOUS
 10
137.67213
 20
54.532235
 11
147.07361
 21
54.532235
  0
POINT
  8
寸法
 10
137.67213
 20
54.532235
  0
POINT
  8
寸法
 10
147.07361
 20
54.532235
  0
TEXT
  7
TextStyle03
  8
寸法
  6
CONTINUOUS
 10
139.09375
 20
54.875
  1
28.2
 40
3.0
 72
     5
 11
145.65625
 21
54.875
  0
ENDBLK
  0
BLOCK
  2
*DIM_0056
 70
    65
 10
0.0
 20
0.0
  0
LINE
  8
寸法
  6
CONTINUOUS
 10
-117.054075
 20
3.293828
 11
-117.054075
 21
54.532235
  0
LINE
  8
寸法
  6
CONTINUOUS
 10
-126.455555
 20
-24.66226
 11
-126.455555
 21
54.532235
  0
LINE
  8
寸法
  6
CONTINUOUS
 10
-117.054075
 20
54.532235
 11
-126.455555
 21
54.532235
  0
POINT
  8
寸法
 10
-117.054075
 20
54.532235
  0
POINT
  8
寸法
 10
-126.455555
 20
54.532235
  0
TEXT
  7
TextStyle03
  8
寸法
  6
CONTINUOUS
 10
-125.03125
 20
54.875
  1
28.2
 40
3.0
 72
     5
 11
-118.46875
 21
54.875
  0
ENDBLK
  0
BLOCK
  2
*DIM_0057
 70
    65
 10
0.0
 20
0.0
  0
LINE
  8
寸法
  6
CONTINUOUS
 10
14.14333
 20
-24.53943
 11
14.14333
 21
-32.08709
  0
LINE
  8
寸法
  6
CONTINUOUS
 10
19.976655
 20
-12.706135
 11
19.976655
 21
-32.08709
  0
LINE
  8
寸法
  6
CONTINUOUS
 10
14.14333
 20
-32.08709
 11
19.976655
 21
-32.08709
  0
POINT
  8
寸法
 10
14.14333
 20
-32.08709
  0
POINT
  8
寸法
 10
19.976655
 20
-32.08709
  0
TEXT
  7
TextStyle03
  8
寸法
  6
CONTINUOUS
 10
20.51875
 20
-31.75
  1
17.5
 40
3.0
 72
     5
 11
27.08125
 21
-31.75
  0
ENDBLK
  0
BLOCK
  2
*DIM_0058
 70
    65
 10
0.0
 20
0.0
  0
LINE
  8
寸法
  6
CONTINUOUS
 10
6.476633
 20
-24.53943
 11
6.476633
 21
-32.08709
  0
LINE
  8
寸法
  6
CONTINUOUS
 10
0.643308
 20
-14.372812
 11
0.643308
 21
-32.08709
  0
LINE
  8
寸法
  6
CONTINUOUS
 10
6.476633
 20
-32.08709
 11
0.643308
 21
-32.08709
  0
POINT
  8
寸法
 10
6.476633
 20
-32.08709
  0
POINT
  8
寸法
 10
0.643308
 20
-32.08709
  0
TEXT
  7
TextStyle03
  8
寸法
  6
CONTINUOUS
 10
-6.48125
 20
-31.75
  1
17.5
 40
3.0
 72
     5
 11
0.08125
 21
-31.75
  0
ENDBLK
  0
BLOCK
  2
*GRP_0059
 70
    65
 10
0.0
 20
0.0
  0
LINE
  8
ボルト／ビス
  6
CONTINUOUS
 62
    64
 10
147.421455
 20
-43.403698
 11
147.421455
 21
-66.650598
  0
LINE
  8
ボルト／ビス
  6
CONTINUOUS
 62
    64
 10
146.25484
 20
-46.039923
 11
146.490515
 21
-45.80408
  0
LINE
  8
ボルト／ビス
  6
CONTINUOUS
 62
    64
 10
146.25484
 20
-46.039923
 11
146.25484
 21
-48.137405
  0
LINE
  8
ボルト／ビス
  6
CONTINUOUS
 62
    64
 10
146.25484
 20
-46.039923
 11
146.019165
 21
-45.80408
  0
LINE
  8
ボルト／ビス
  6
CONTINUOUS
 62
    64
 10
146.323872
 20
-44.13749
 11
146.323872
 21
-45.80408
  0
LINE
  8
ボルト／ビス
  6
CONTINUOUS
 62
    64
 10
144.754823
 20
-48.137405
 11
144.754823
 21
-48.97078
  0
LINE
  8
ボルト／ビス
  6
CONTINUOUS
 62
    64
 10
146.088098
 20
-55.804122
 11
146.323872
 21
-55.568448
  0
LINE
  8
ボルト／ビス
  6
CONTINUOUS
 62
    64
 10
146.323872
 20
-49.470873
 11
146.323872
 21
-55.568448
  0
LINE
  8
ボルト／ビス
  6
CONTINUOUS
 62
    64
 10
146.088098
 20
-58.937223
 11
144.79403
 21
-63.76689
  0
LINE
  8
ボルト／ビス
  6
CONTINUOUS
 62
    64
 10
146.088098
 20
-49.470873
 11
146.088098
 21
-58.937223
  0
LINE
  8
ボルト／ビス
  6
CONTINUOUS
 62
    64
 10
146.25484
 20
-46.039923
 11
146.490515
 21
-45.80408
  0
LINE
  8
ボルト／ビス
  6
CONTINUOUS
 62
    64
 10
148.567922
 20
-46.039923
 11
148.803598
 21
-45.80408
  0
LINE
  8
ボルト／ビス
  6
CONTINUOUS
 62
    64
 10
148.567922
 20
-46.039923
 11
148.567922
 21
-48.137405
  0
LINE
  8
ボルト／ビス
  6
CONTINUOUS
 62
    64
 10
148.567922
 20
-46.039923
 11
148.332248
 21
-45.80408
  0
LINE
  8
ボルト／ビス
  6
CONTINUOUS
 62
    64
 10
148.519097
 20
-44.13749
 11
148.519097
 21
-45.80408
  0
LINE
  8
ボルト／ビス
  6
CONTINUOUS
 62
    64
 10
150.08819
 20
-48.137405
 11
150.08819
 21
-48.97078
  0
LINE
  8
ボルト／ビス
  6
CONTINUOUS
 62
    64
 10
148.75478
 20
-55.804122
 11
148.519097
 21
-55.568448
  0
LINE
  8
ボルト／ビス
  6
CONTINUOUS
 62
    64
 10
148.519097
 20
-49.470873
 11
148.519097
 21
-55.568448
  0
LINE
  8
ボルト／ビス
  6
CONTINUOUS
 62
    64
 10
148.75478
 20
-58.937223
 11
150.04888
 21
-63.76689
  0
LINE
  8
ボルト／ビス
  6
CONTINUOUS
 62
    64
 10
148.75478
 20
-49.470873
 11
148.75478
 21
-58.937223
  0
LINE
  8
ボルト／ビス
  6
CONTINUOUS
 62
    64
 10
148.75478
 20
-44.373165
 11
148.519097
 21
-44.13749
  0
LINE
  8
ボルト／ビス
  6
CONTINUOUS
 62
    64
 10
148.75478
 20
-45.80408
 11
148.75478
 21
-44.373165
  0
LINE
  8
ボルト／ビス
  6
CONTINUOUS
 62
    64
 10
148.519097
 20
-44.13749
 11
146.323872
 21
-44.13749
  0
LINE
  8
ボルト／ビス
  6
CONTINUOUS
 62
    64
 10
146.323872
 20
-44.13749
 11
146.088098
 21
-44.373165
  0
LINE
  8
ボルト／ビス
  6
CONTINUOUS
 62
    64
 10
148.75478
 20
-44.373165
 11
146.088098
 21
-44.373165
  0
LINE
  8
ボルト／ビス
  6
CONTINUOUS
 62
    64
 10
146.088098
 20
-45.80408
 11
146.088098
 21
-44.373165
  0
LINE
  8
ボルト／ビス
  6
CONTINUOUS
 62
    64
 10
144.488165
 20
-46.039923
 11
144.72384
 21
-45.80408
  0
LINE
  8
ボルト／ビス
  6
CONTINUOUS
 62
    64
 10
144.488165
 20
-46.039923
 11
144.488165
 21
-48.137405
  0
LINE
  8
ボルト／ビス
  6
CONTINUOUS
 62
    64
 10
144.72384
 20
-45.80408
 11
150.119073
 21
-45.80408
  0
LINE
  8
ボルト／ビス
  6
CONTINUOUS
 62
    64
 10
150.354747
 20
-46.039923
 11
150.119073
 21
-45.80408
  0
LINE
  8
ボルト／ビス
  6
CONTINUOUS
 62
    64
 10
150.354747
 20
-46.039923
 11
150.354747
 21
-48.137405
  0
LINE
  8
ボルト／ビス
  6
CONTINUOUS
 62
    64
 10
144.488165
 20
-48.137405
 11
150.354747
 21
-48.137405
  0
LINE
  8
ボルト／ビス
  6
CONTINUOUS
 62
    64
 10
150.671515
 20
-48.97078
 11
150.671515
 21
-49.470873
  0
LINE
  8
ボルト／ビス
  6
CONTINUOUS
 62
    64
 10
150.671515
 20
-48.97078
 11
144.171455
 21
-48.97078
  0
LINE
  8
ボルト／ビス
  6
CONTINUOUS
 62
    64
 10
144.171455
 20
-48.97078
 11
144.171455
 21
-49.470873
  0
LINE
  8
ボルト／ビス
  6
CONTINUOUS
 62
    64
 10
150.671515
 20
-49.470873
 11
144.171455
 21
-49.470873
  0
LINE
  8
ボルト／ビス
  6
CONTINUOUS
 62
    64
 10
147.421455
 20
-59.156715
 11
148.750098
 21
-64.11494
  0
LINE
  8
ボルト／ビス
  6
CONTINUOUS
 62
    64
 10
150.04888
 20
-63.76689
 11
148.750098
 21
-64.11494
  0
LINE
  8
ボルト／ビス
  6
CONTINUOUS
 62
    64
 10
147.421455
 20
-59.156715
 11
146.092905
 21
-64.11494
  0
LINE
  8
ボルト／ビス
  6
CONTINUOUS
 62
    64
 10
144.79403
 20
-63.76689
 11
146.092905
 21
-64.11494
  0
LINE
  8
ボルト／ビス
  6
CONTINUOUS
 62
    64
 10
146.088098
 20
-64.804072
 11
146.518097
 21
-62.365373
  0
LINE
  8
ボルト／ビス
  6
CONTINUOUS
 62
    64
 10
148.75478
 20
-64.804072
 11
148.324815
 21
-62.365373
  0
LINE
  8
ボルト／ビス
  6
CONTINUOUS
 62
    64
 10
146.088098
 20
-64.804072
 11
148.75478
 21
-64.804072
  0
LINE
  8
ボルト／ビス
  6
CONTINUOUS
 62
    64
 10
146.518097
 20
-62.365373
 11
148.324815
 21
-62.365373
  0
ENDBLK
  0
BLOCK
  2
*GRP_0060
 70
    65
 10
0.0
 20
0.0
  0
LINE
  8
型材断面
  6
CONTINUOUS
 62
    47
 10
-91.787447
 20
-6.706175
 11
-92.287447
 21
-6.706175
  0
ARC
  8
型材断面
  6
CONTINUOUS
 62
    47
 10
-92.287447
 20
-8.872836
 40
0.499999
 50
270.000018
 51
360.000036
  0
LINE
  8
型材断面
  6
CONTINUOUS
 62
    47
 10
-91.787447
 20
-6.706175
 11
-91.787447
 21
-9.372833
  0
LINE
  8
型材断面
  6
CONTINUOUS
 62
    47
 10
-92.28744
 20
-8.872807
 11
-92.287447
 21
-6.706175
  0
LINE
  8
型材断面
  6
CONTINUOUS
 62
    47
 10
-92.28744
 20
-8.872807
 11
-99.887435
 21
-8.872825
  0
LINE
  8
型材断面
  6
CONTINUOUS
 62
    47
 10
-91.787447
 20
-9.372833
 11
-99.887435
 21
-9.372825
  0
LINE
  8
型材断面
  6
CONTINUOUS
 62
    47
 10
-103.220755
 20
-3.206157
 11
-103.220755
 21
-2.706175
  0
LINE
  8
型材断面
  6
CONTINUOUS
 62
    47
 10
-103.220755
 20
-2.706157
 11
-100.38743
 21
-2.706157
  0
ARC
  8
型材断面
  6
CONTINUOUS
 62
    47
 10
-100.387435
 20
-3.206165
 40
0.5
 50
359.999949
 51
450.0
  0
LINE
  8
型材断面
  6
CONTINUOUS
 62
    47
 10
-103.220755
 20
-3.206157
 11
-100.38743
 21
-3.206157
  0
LINE
  8
型材断面
  6
CONTINUOUS
 62
    47
 10
-99.88743
 20
-3.132825
 11
-99.887435
 21
-8.872825
  0
LINE
  8
型材断面
  6
CONTINUOUS
 62
    47
 10
-100.38743
 20
-3.206157
 11
-100.387435
 21
-8.872825
  0
ARC
  8
型材断面
  6
CONTINUOUS
 62
    47
 10
-99.887437
 20
-8.872825
 40
0.5
 50
-180.000046
 51
-90.00005
  0
ENDBLK
  0
BLOCK
  2
*GRP_0061
 70
    65
 10
0.0
 20
0.0
  0
ARC
  8
St
  6
CONTINUOUS
 62
   127
 10
135.154792
 20
-49.470875
 40
1.066667
 50
180.0
 51
270.0
  0
LINE
  8
St
  6
CONTINUOUS
 10
163.301993
 20
-49.470873
 11
164.368657
 21
-50.53754
  0
LINE
  8
St
  6
CONTINUOUS
 10
163.537697
 20
-49.470873
 11
164.604363
 21
-50.53754
  0
LINE
  8
St
  6
CONTINUOUS
 10
132.472415
 20
-42.204205
 11
136.688662
 21
-42.204205
  0
LINE
  8
St
  6
CONTINUOUS
 10
134.088122
 20
-43.870873
 11
135.15479
 21
-43.870873
  0
LINE
  8
St
  6
CONTINUOUS
 10
134.088122
 20
-40.537537
 11
135.15479
 21
-40.537537
  0
LINE
  8
St
  6
CONTINUOUS
 62
   127
 10
134.35479
 20
-40.537537
 11
134.35479
 21
-43.870873
  0
LINE
  8
St
  6
CONTINUOUS
 62
   127
 10
134.621457
 20
-40.537537
 11
134.621457
 21
-43.870873
  0
LINE
  8
St
  6
CONTINUOUS
 62
   127
 10
134.888122
 20
-40.537537
 11
134.888122
 21
-43.870873
  0
LINE
  8
St
  6
CONTINUOUS
 62
   127
 10
135.15479
 20
-49.470873
 11
167.421455
 21
-49.470873
  0
LINE
  8
St
  6
CONTINUOUS
 10
167.421455
 20
-49.470873
 11
167.421455
 21
-50.53754
  0
LINE
  8
St
  6
CONTINUOUS
 62
   127
 10
135.15479
 20
-50.53754
 11
167.421455
 21
-50.53754
  0
LINE
  8
St
  6
CONTINUOUS
 62
   127
 10
151.343188
 20
-51.402668
 11
151.343188
 21
-51.402665
  0
LINE
  8
St
  6
CONTINUOUS
 10
147.421455
 20
-48.116227
 11
147.421455
 21
-51.942428
  0
LINE
  8
St
  6
CONTINUOUS
 10
144.088122
 20
-49.470873
 11
144.088122
 21
-50.53754
  0
LINE
  8
St
  6
CONTINUOUS
 10
150.754788
 20
-49.470873
 11
150.754788
 21
-50.53754
  0
LINE
  8
St
  6
CONTINUOUS
 62
   127
 10
150.754788
 20
-49.73754
 11
144.088122
 21
-49.73754
  0
LINE
  8
St
  6
CONTINUOUS
 62
   127
 10
150.754788
 20
-50.004205
 11
144.088122
 21
-50.004205
  0
LINE
  8
St
  6
CONTINUOUS
 62
   127
 10
150.754788
 20
-50.270873
 11
144.088122
 21
-50.270873
  0
LINE
  8
St
  6
CONTINUOUS
 10
155.754788
 20
-49.470873
 11
155.754788
 21
-50.53754
  0
LINE
  8
St
  6
CONTINUOUS
 10
159.088122
 20
-49.470873
 11
159.088122
 21
-50.53754
  0
LINE
  8
St
  6
CONTINUOUS
 10
155.754788
 20
-49.73754
 11
159.088122
 21
-49.73754
  0
LINE
  8
St
  6
CONTINUOUS
 10
155.754788
 20
-50.004205
 11
159.088122
 21
-50.004205
  0
LINE
  8
St
  6
CONTINUOUS
 10
155.754788
 20
-50.270873
 11
159.088122
 21
-50.270873
  0
LINE
  8
St
  6
CONTINUOUS
 10
157.421455
 20
-48.116227
 11
157.421455
 21
-51.942428
  0
LINE
  8
St
  6
CONTINUOUS
 10
142.2198
 20
-50.53754
 11
141.153135
 21
-49.470873
  0
LINE
  8
St
  6
CONTINUOUS
 10
142.455505
 20
-50.53754
 11
141.38884
 21
-49.470873
  0
LINE
  8
St
  6
CONTINUOUS
 10
135.15479
 20
-39.121432
 11
134.088122
 21
-38.054763
  0
LINE
  8
St
  6
CONTINUOUS
 10
135.15479
 20
-38.885728
 11
134.088122
 21
-37.819057
  0
LINE
  8
St
  6
CONTINUOUS
 10
135.15479
 20
-37.204205
 11
134.088122
 21
-37.204205
  0
LINE
  8
St
  6
CONTINUOUS
 62
   127
 10
134.088122
 20
-49.470873
 11
134.088122
 21
-37.204205
  0
LINE
  8
St
  6
CONTINUOUS
 62
   127
 10
135.15479
 20
-49.470873
 11
135.15479
 21
-37.204205
  0
ENDBLK
  0
BLOCK
  2
*GRP_0062
 70
    65
 10
0.0
 20
0.0
  0
LINE
  8
St
  6
CONTINUOUS
 62
   127
 10
134.088122
 20
-47.204202
 11
133.021458
 21
-47.204202
  0
LINE
  8
St
  6
CONTINUOUS
 10
133.021458
 20
-38.227797
 11
134.088122
 21
-39.294463
  0
LINE
  8
St
  6
CONTINUOUS
 62
   127
 10
133.021458
 20
-47.204202
 11
133.021458
 21
-26.133978
  0
LINE
  8
St
  6
CONTINUOUS
 10
121.04
 20
-22.405645
 11
121.35693
 21
-21.38715
  0
LINE
  8
St
  6
CONTINUOUS
 10
133.021458
 20
-26.133978
 11
121.04
 21
-22.405645
  0
ARC
  8
St
  6
CONTINUOUS
 10
133.021457
 20
-26.133979
 40
1.066667
 50
0.0
 51
72.715153
  0
LINE
  8
St
  6
CONTINUOUS
 10
134.088122
 20
-39.530165
 11
133.021458
 21
-38.4635
  0
LINE
  8
St
  6
CONTINUOUS
 10
134.088122
 20
-31.398553
 11
133.021458
 21
-30.331887
  0
LINE
  8
St
  6
CONTINUOUS
 10
126.92715
 20
-24.23758
 11
125.30538
 21
-22.61581
  0
LINE
  8
St
  6
CONTINUOUS
 10
134.088122
 20
-31.634255
 11
133.021458
 21
-30.56759
  0
LINE
  8
St
  6
CONTINUOUS
 10
126.58497
 20
-24.131102
 11
124.9632
 21
-22.509332
  0
LINE
  8
St
  6
CONTINUOUS
 10
133.021458
 20
-43.870873
 11
134.088122
 21
-43.870873
  0
LINE
  8
St
  6
CONTINUOUS
 10
133.021458
 20
-40.537537
 11
134.088122
 21
-40.537537
  0
LINE
  8
St
  6
CONTINUOUS
 10
133.288125
 20
-40.537537
 11
133.288125
 21
-43.870873
  0
LINE
  8
St
  6
CONTINUOUS
 10
133.55479
 20
-40.537537
 11
133.55479
 21
-43.870873
  0
LINE
  8
St
  6
CONTINUOUS
 10
133.821458
 20
-40.537537
 11
133.821458
 21
-43.870873
  0
LINE
  8
St
  6
CONTINUOUS
 10
135.421458
 20
-42.204205
 11
131.651477
 21
-42.204205
  0
LINE
  8
St
  6
CONTINUOUS
 10
121.35693
 20
-21.38715
 11
134.088122
 21
-25.348783
  0
LINE
  8
St
  6
CONTINUOUS
 62
   127
 10
134.088122
 20
-47.204202
 11
134.088122
 21
-25.348783
  0
ENDBLK
  0
BLOCK
  2
*GRP_0063
 70
    65
 10
0.0
 20
0.0
  0
LINE
  8
St
 10
-100.433515
 20
-2.657463
 11
-100.433515
 21
-2.657463
  0
LINE
  8
St
 10
-100.9085
 20
-2.657455
 11
-100.5585
 21
-2.307455
  0
LINE
  8
St
 10
-101.3835
 20
-2.657455
 11
-100.8585
 21
-2.157463
  0
LINE
  8
St
 10
-101.858515
 20
-2.657448
 11
-101.3335
 21
-2.157455
  0
LINE
  8
St
 10
-102.3335
 20
-2.657455
 11
-101.808515
 21
-2.157463
  0
LINE
  8
St
 10
-102.808507
 20
-2.657463
 11
-102.2835
 21
-2.157473
  0
LINE
  8
St
 10
-103.733508
 20
-3.157455
 11
-102.7335
 21
-2.157455
  0
LINE
  8
St
 10
-104.20849
 20
-3.157463
 11
-103.2085
 21
-2.157463
  0
LINE
  8
St
 10
-104.683507
 20
-3.157473
 11
-103.6835
 21
-2.157455
  0
LINE
  8
St
 10
-105.158508
 20
-3.157448
 11
-104.15849
 21
-2.157463
  0
LINE
  8
St
 10
-105.63349
 20
-3.157455
 11
-104.633507
 21
-2.157463
  0
LINE
  8
St
 10
-106.10849
 20
-3.157455
 11
-105.108508
 21
-2.157455
  0
LINE
  8
St
 10
-106.55849
 20
-3.157455
 11
-105.558507
 21
-2.157473
  0
LINE
  8
St
 10
-107.0335
 20
-3.157448
 11
-106.033508
 21
-2.157448
  0
LINE
  8
St
 10
-107.5085
 20
-3.157455
 11
-106.50849
 21
-2.157455
  0
LINE
  8
St
 10
-107.9835
 20
-3.157463
 11
-106.98349
 21
-2.157463
  0
LINE
  8
St
 10
-108.458482
 20
-3.157455
 11
-107.458508
 21
-2.157448
  0
LINE
  8
St
 10
-108.933483
 20
-3.157463
 11
-107.93349
 21
-2.157455
  0
LINE
  8
St
 10
-109.383482
 20
-3.157448
 11
-108.383507
 21
-2.157455
  0
LINE
  8
St
 10
-109.858482
 20
-3.157463
 11
-108.85849
 21
-2.157463
  0
LINE
  8
St
 10
-110.233482
 20
-3.057455
 11
-109.3335
 21
-2.157473
  0
LINE
  8
St
 10
-110.43349
 20
-2.757455
 11
-109.808483
 21
-2.157463
  0
ENDBLK
  0
BLOCK
  2
*GRP_0064
 70
    65
 10
0.0
 20
0.0
  0
LINE
  8
St
 10
121.05157
 20
-2.657473
 11
121.05157
 21
-2.657473
  0
LINE
  8
St
 10
121.526555
 20
-2.657465
 11
121.176555
 21
-2.307465
  0
LINE
  8
St
 10
122.001555
 20
-2.657465
 11
121.476555
 21
-2.157473
  0
LINE
  8
St
 10
122.47657
 20
-2.657457
 11
121.951555
 21
-2.157465
  0
LINE
  8
St
 10
122.951555
 20
-2.657465
 11
122.42657
 21
-2.157473
  0
LINE
  8
St
 10
123.426563
 20
-2.657473
 11
122.901555
 21
-2.157482
  0
LINE
  8
St
 10
124.351563
 20
-3.157465
 11
123.351555
 21
-2.157465
  0
LINE
  8
St
 10
124.826545
 20
-3.157473
 11
123.826555
 21
-2.157473
  0
LINE
  8
St
 10
125.301563
 20
-3.157482
 11
124.301555
 21
-2.157465
  0
LINE
  8
St
 10
125.776563
 20
-3.157457
 11
124.776545
 21
-2.157473
  0
LINE
  8
St
 10
126.251545
 20
-3.157465
 11
125.251563
 21
-2.157473
  0
LINE
  8
St
 10
126.726545
 20
-3.157465
 11
125.726563
 21
-2.157465
  0
LINE
  8
St
 10
127.176545
 20
-3.157465
 11
126.176563
 21
-2.157482
  0
LINE
  8
St
 10
127.651555
 20
-3.157457
 11
126.651563
 21
-2.157457
  0
LINE
  8
St
 10
128.126555
 20
-3.157465
 11
127.126545
 21
-2.157465
  0
LINE
  8
St
 10
128.601555
 20
-3.157473
 11
127.601545
 21
-2.157473
  0
LINE
  8
St
 10
129.076538
 20
-3.157465
 11
128.076562
 21
-2.157457
  0
LINE
  8
St
 10
129.551538
 20
-3.157473
 11
128.551545
 21
-2.157465
  0
LINE
  8
St
 10
130.001538
 20
-3.157457
 11
129.001563
 21
-2.157465
  0
LINE
  8
St
 10
130.476538
 20
-3.157473
 11
129.476545
 21
-2.157473
  0
LINE
  8
St
 10
130.851538
 20
-3.057465
 11
129.951555
 21
-2.157482
  0
LINE
  8
St
 10
131.051545
 20
-2.757465
 11
130.426538
 21
-2.157473
  0
ENDBLK
  0
BLOCK
  2
*GRP_0065
 70
    65
 10
0.0
 20
0.0
  0
LINE
  8
型材断面
  6
CONTINUOUS
 10
-124.289005
 20
-39.686235
 11
-123.379022
 21
-38.956898
  0
LINE
  8
型材断面
  6
CONTINUOUS
 10
-124.08437
 20
-40.163
 11
-123.174388
 21
-39.433662
  0
LINE
  8
型材断面
  6
CONTINUOUS
 10
-124.08437
 20
-40.163
 11
-125.21247
 21
-40.316485
  0
LINE
  8
型材断面
  6
CONTINUOUS
 10
-125.21247
 20
-40.316485
 11
-125.279875
 21
-39.82105
  0
LINE
  8
型材断面
  6
CONTINUOUS
 10
-125.279875
 20
-39.82105
 11
-124.289005
 21
-39.686235
  0
LINE
  8
型材断面
  6
CONTINUOUS
 10
-123.174388
 20
-39.433662
 11
-122.320745
 21
-39.31752
  0
LINE
  8
型材断面
  6
CONTINUOUS
 10
-122.320745
 20
-39.31752
 11
-122.38815
 21
-38.822085
  0
LINE
  8
型材断面
  6
CONTINUOUS
 10
-123.379022
 20
-38.956898
 11
-122.38815
 21
-38.822085
  0
LINE
  8
型材断面
  6
CONTINUOUS
 10
-122.898752
 20
-39.39616
 11
-122.96616
 21
-38.900725
  0
LINE
  8
型材断面
  6
CONTINUOUS
 10
-122.334225
 20
-39.218435
 11
-122.912235
 21
-39.297075
  0
LINE
  8
型材断面
  6
CONTINUOUS
 10
-122.347707
 20
-39.119348
 11
-122.925715
 21
-39.197987
  0
LINE
  8
型材断面
  6
CONTINUOUS
 10
-122.361187
 20
-39.020258
 11
-122.939197
 21
-39.0989
  0
LINE
  8
型材断面
  6
CONTINUOUS
 10
-122.37467
 20
-38.921173
 11
-122.952678
 21
-38.999813
  0
ENDBLK
  0
BLOCK
  2
*GRP_0066
 70
    65
 10
0.0
 20
0.0
  0
LINE
  8
型材断面
  6
CONTINUOUS
 10
-160.415555
 20
-44.601408
 11
-161.487313
 21
-44.141698
  0
LINE
  8
型材断面
  6
CONTINUOUS
 10
-160.485375
 20
-45.115515
 11
-161.557135
 21
-44.655805
  0
LINE
  8
型材断面
  6
CONTINUOUS
 10
-160.485375
 20
-45.115515
 11
-159.357275
 21
-44.96203
  0
LINE
  8
型材断面
  6
CONTINUOUS
 10
-159.357275
 20
-44.96203
 11
-159.424683
 21
-44.466595
  0
LINE
  8
型材断面
  6
CONTINUOUS
 10
-159.424683
 20
-44.466595
 11
-160.415555
 21
-44.601408
  0
LINE
  8
型材断面
  6
CONTINUOUS
 10
-161.557135
 20
-44.655805
 11
-162.410778
 21
-44.771947
  0
LINE
  8
型材断面
  6
CONTINUOUS
 10
-162.410778
 20
-44.771947
 11
-162.478185
 21
-44.276512
  0
LINE
  8
型材断面
  6
CONTINUOUS
 10
-161.487313
 20
-44.141698
 11
-162.478185
 21
-44.276512
  0
LINE
  8
型材断面
  6
CONTINUOUS
 10
-161.83277
 20
-44.693305
 11
-161.900175
 21
-44.19787
  0
LINE
  8
型材断面
  6
CONTINUOUS
 10
-162.424258
 20
-44.67286
 11
-161.84625
 21
-44.59422
  0
LINE
  8
型材断面
  6
CONTINUOUS
 10
-162.43774
 20
-44.573775
 11
-161.85973
 21
-44.495132
  0
LINE
  8
型材断面
  6
CONTINUOUS
 10
-162.451223
 20
-44.474685
 11
-161.873213
 21
-44.396045
  0
LINE
  8
型材断面
  6
CONTINUOUS
 10
-162.464703
 20
-44.3756
 11
-161.886695
 21
-44.296958
  0
ENDBLK
  0
BLOCK
  2
*GRP_0067
 70
    65
 10
0.0
 20
0.0
  0
LINE
  8
型材断面
  6
CONTINUOUS
 10
-164.188928
 20
-60.987648
 11
-164.788928
 21
-61.987648
  0
LINE
  8
型材断面
  6
CONTINUOUS
 10
-163.688928
 20
-61.12614
 11
-164.288928
 21
-62.12614
  0
LINE
  8
型材断面
  6
CONTINUOUS
 10
-163.688928
 20
-61.12614
 11
-163.688928
 21
-59.987648
  0
LINE
  8
型材断面
  6
CONTINUOUS
 10
-163.688928
 20
-59.987648
 11
-164.188928
 21
-59.987648
  0
LINE
  8
型材断面
  6
CONTINUOUS
 10
-164.188928
 20
-59.987648
 11
-164.188928
 21
-60.987648
  0
LINE
  8
型材断面
  6
CONTINUOUS
 10
-164.288928
 20
-62.12614
 11
-164.288928
 21
-62.987648
  0
LINE
  8
型材断面
  6
CONTINUOUS
 10
-164.288928
 20
-62.987648
 11
-164.788928
 21
-62.987648
  0
LINE
  8
型材断面
  6
CONTINUOUS
 10
-164.788928
 20
-61.987648
 11
-164.788928
 21
-62.987648
  0
LINE
  8
型材断面
  6
CONTINUOUS
 10
-164.288928
 20
-62.404315
 11
-164.788928
 21
-62.404315
  0
LINE
  8
型材断面
  6
CONTINUOUS
 10
-164.388928
 20
-62.987648
 11
-164.388928
 21
-62.404315
  0
LINE
  8
型材断面
  6
CONTINUOUS
 10
-164.488928
 20
-62.987648
 11
-164.488928
 21
-62.404315
  0
LINE
  8
型材断面
  6
CONTINUOUS
 10
-164.588928
 20
-62.987648
 11
-164.588928
 21
-62.404315
  0
LINE
  8
型材断面
  6
CONTINUOUS
 10
-164.688928
 20
-62.987648
 11
-164.688928
 21
-62.404315
  0
ENDBLK
  0
BLOCK
  2
*GRP_0068
 70
    65
 10
0.0
 20
0.0
  0
LINE
  8
型材断面
  6
CONTINUOUS
 10
144.907068
 20
-39.686235
 11
143.997085
 21
-38.956898
  0
LINE
  8
型材断面
  6
CONTINUOUS
 10
144.702433
 20
-40.163
 11
143.79245
 21
-39.433662
  0
LINE
  8
型材断面
  6
CONTINUOUS
 10
144.702433
 20
-40.163
 11
145.830532
 21
-40.316485
  0
LINE
  8
型材断面
  6
CONTINUOUS
 10
145.830532
 20
-40.316485
 11
145.897938
 21
-39.82105
  0
LINE
  8
型材断面
  6
CONTINUOUS
 10
145.897938
 20
-39.82105
 11
144.907068
 21
-39.686235
  0
LINE
  8
型材断面
  6
CONTINUOUS
 10
143.79245
 20
-39.433662
 11
142.938808
 21
-39.31752
  0
LINE
  8
型材断面
  6
CONTINUOUS
 10
142.938808
 20
-39.31752
 11
143.006213
 21
-38.822085
  0
LINE
  8
型材断面
  6
CONTINUOUS
 10
143.997085
 20
-38.956898
 11
143.006213
 21
-38.822085
  0
LINE
  8
型材断面
  6
CONTINUOUS
 10
143.516815
 20
-39.39616
 11
143.584223
 21
-38.900725
  0
LINE
  8
型材断面
  6
CONTINUOUS
 10
142.952288
 20
-39.218435
 11
143.530298
 21
-39.297075
  0
LINE
  8
型材断面
  6
CONTINUOUS
 10
142.96577
 20
-39.119348
 11
143.543778
 21
-39.197987
  0
LINE
  8
型材断面
  6
CONTINUOUS
 10
142.97925
 20
-39.020258
 11
143.55726
 21
-39.0989
  0
LINE
  8
型材断面
  6
CONTINUOUS
 10
142.992733
 20
-38.921173
 11
143.57074
 21
-38.999813
  0
ENDBLK
  0
BLOCK
  2
*GRP_0069
 70
    65
 10
0.0
 20
0.0
  0
LINE
  8
型材断面
  6
CONTINUOUS
 10
181.033618
 20
-44.601408
 11
182.105375
 21
-44.141698
  0
LINE
  8
型材断面
  6
CONTINUOUS
 10
181.103437
 20
-45.115515
 11
182.175197
 21
-44.655805
  0
LINE
  8
型材断面
  6
CONTINUOUS
 10
181.103437
 20
-45.115515
 11
179.975338
 21
-44.96203
  0
LINE
  8
型材断面
  6
CONTINUOUS
 10
179.975338
 20
-44.96203
 11
180.042745
 21
-44.466595
  0
LINE
  8
型材断面
  6
CONTINUOUS
 10
180.042745
 20
-44.466595
 11
181.033618
 21
-44.601408
  0
LINE
  8
型材断面
  6
CONTINUOUS
 10
182.175197
 20
-44.655805
 11
183.02884
 21
-44.771947
  0
LINE
  8
型材断面
  6
CONTINUOUS
 10
183.02884
 20
-44.771947
 11
183.096248
 21
-44.276512
  0
LINE
  8
型材断面
  6
CONTINUOUS
 10
182.105375
 20
-44.141698
 11
183.096248
 21
-44.276512
  0
LINE
  8
型材断面
  6
CONTINUOUS
 10
182.450833
 20
-44.693305
 11
182.518238
 21
-44.19787
  0
LINE
  8
型材断面
  6
CONTINUOUS
 10
183.04232
 20
-44.67286
 11
182.464313
 21
-44.59422
  0
LINE
  8
型材断面
  6
CONTINUOUS
 10
183.055803
 20
-44.573775
 11
182.477793
 21
-44.495132
  0
LINE
  8
型材断面
  6
CONTINUOUS
 10
183.069285
 20
-44.474685
 11
182.491275
 21
-44.396045
  0
LINE
  8
型材断面
  6
CONTINUOUS
 10
183.082765
 20
-44.3756
 11
182.504758
 21
-44.296958
  0
ENDBLK
  0
BLOCK
  2
*GRP_0070
 70
    65
 10
0.0
 20
0.0
  0
LINE
  8
型材断面
  6
CONTINUOUS
 10
184.80699
 20
-60.987648
 11
185.40699
 21
-61.987648
  0
LINE
  8
型材断面
  6
CONTINUOUS
 10
184.30699
 20
-61.12614
 11
184.90699
 21
-62.12614
  0
LINE
  8
型材断面
  6
CONTINUOUS
 10
184.30699
 20
-61.12614
 11
184.30699
 21
-59.987648
  0
LINE
  8
型材断面
  6
CONTINUOUS
 10
184.30699
 20
-59.987648
 11
184.80699
 21
-59.987648
  0
LINE
  8
型材断面
  6
CONTINUOUS
 10
184.80699
 20
-59.987648
 11
184.80699
 21
-60.987648
  0
LINE
  8
型材断面
  6
CONTINUOUS
 10
184.90699
 20
-62.12614
 11
184.90699
 21
-62.987648
  0
LINE
  8
型材断面
  6
CONTINUOUS
 10
184.90699
 20
-62.987648
 11
185.40699
 21
-62.987648
  0
LINE
  8
型材断面
  6
CONTINUOUS
 10
185.40699
 20
-61.987648
 11
185.40699
 21
-62.987648
  0
LINE
  8
型材断面
  6
CONTINUOUS
 10
184.90699
 20
-62.404315
 11
185.40699
 21
-62.404315
  0
LINE
  8
型材断面
  6
CONTINUOUS
 10
185.00699
 20
-62.987648
 11
185.00699
 21
-62.404315
  0
LINE
  8
型材断面
  6
CONTINUOUS
 10
185.10699
 20
-62.987648
 11
185.10699
 21
-62.404315
  0
LINE
  8
型材断面
  6
CONTINUOUS
 10
185.20699
 20
-62.987648
 11
185.20699
 21
-62.404315
  0
LINE
  8
型材断面
  6
CONTINUOUS
 10
185.30699
 20
-62.987648
 11
185.30699
 21
-62.404315
  0
ENDBLK
  0
BLOCK
  2
*DIM_0071
 70
    65
 10
0.0
 20
0.0
  0
LINE
  8
寸法
  6
CONTINUOUS
 10
1.476633
 20
-19.53943
 11
-18.152672
 21
-19.53943
  0
LINE
  8
寸法
  6
CONTINUOUS
 10
-4.356693
 20
-9.372812
 11
-18.152672
 21
-9.372812
  0
LINE
  8
寸法
  6
CONTINUOUS
 10
-18.152672
 20
-19.53943
 11
-18.152672
 21
-9.372812
  0
POINT
  8
寸法
 10
-18.152672
 20
-19.53943
  0
POINT
  8
寸法
 10
-18.152672
 20
-9.372812
  0
TEXT
  7
TextStyle03
  8
寸法
  6
CONTINUOUS
 10
-18.55
 20
-17.75625
  1
30.5
 40
3.0
 50
90.0
 72
     5
 11
-18.55
 21
-11.19375
  0
ENDBLK
  0
BLOCK
  2
*DIM_0072
 70
    65
 10
0.0
 20
0.0
  0
LINE
  8
寸法
  6
CONTINUOUS
 10
-4.356685
 20
-6.706145
 11
-18.152672
 21
-6.706145
  0
LINE
  8
寸法
  6
CONTINUOUS
 10
-18.152672
 20
-9.372812
 11
-18.152672
 21
-6.706145
  0
POINT
  8
寸法
 10
-18.152672
 20
-6.706145
  0
TEXT
  7
TextStyle03
  8
寸法
  6
CONTINUOUS
 10
-18.55
 20
-8.8
  1
8
 40
3.0
 50
90.0
 72
     5
 11
-18.55
 21
-7.3
  0
ENDBLK
  0
BLOCK
  2
*DIM_0073
 70
    65
 10
0.0
 20
0.0
  0
LINE
  8
寸法
  6
CONTINUOUS
 10
19.14333
 20
-19.53943
 11
41.74824
 21
-19.53943
  0
LINE
  8
寸法
  6
CONTINUOUS
 10
24.976655
 20
-7.706135
 11
41.74824
 21
-7.706135
  0
LINE
  8
寸法
  6
CONTINUOUS
 10
41.74824
 20
-19.53943
 11
41.74824
 21
-7.706135
  0
POINT
  8
寸法
 10
41.74824
 20
-19.53943
  0
POINT
  8
寸法
 10
41.74824
 20
-7.706135
  0
TEXT
  7
TextStyle03
  8
寸法
  6
CONTINUOUS
 10
41.35
 20
-16.90625
  1
35.5
 40
3.0
 50
90.0
 72
     5
 11
41.35
 21
-10.34375
  0
ENDBLK
  0
BLOCK
  2
*DIM_0074
 70
    65
 10
0.0
 20
0.0
  0
LINE
  8
寸法
  6
CONTINUOUS
 10
24.976648
 20
-5.039467
 11
41.74824
 21
-5.039467
  0
LINE
  8
寸法
  6
CONTINUOUS
 10
41.74824
 20
-7.706135
 11
41.74824
 21
-5.039467
  0
POINT
  8
寸法
 10
41.74824
 20
-5.039467
  0
TEXT
  7
TextStyle03
  8
寸法
  6
CONTINUOUS
 10
41.35
 20
-7.125
  1
8
 40
3.0
 50
90.0
 72
     5
 11
41.35
 21
-5.625
  0
ENDBLK
  0
BLOCK
  2
*GRP_0075
 70
    65
 10
0.0
 20
0.0
  0
LINE
  8
ボルト／ビス
  6
CONTINUOUS
 62
    64
 10
-79.054115
 20
-11.84029
 11
-79.054115
 21
-13.173615
  0
LINE
  8
ボルト／ビス
  6
CONTINUOUS
 62
    64
 10
-80.954165
 20
-11.84029
 11
-81.12079
 21
-12.00695
  0
LINE
  8
ボルト／ビス
  6
CONTINUOUS
 62
    64
 10
-80.954165
 20
-13.173615
 11
-81.12079
 21
-13.006915
  0
LINE
  8
ボルト／ビス
  6
CONTINUOUS
 62
    64
 10
-81.12079
 20
-12.00695
 11
-81.12079
 21
-13.006915
  0
LINE
  8
ボルト／ビス
  6
CONTINUOUS
 62
    64
 10
-80.954165
 20
-11.84029
 11
-80.954165
 21
-13.173615
  0
LINE
  8
ボルト／ビス
  6
CONTINUOUS
 62
    64
 10
-79.054115
 20
-12.00695
 11
-81.12079
 21
-12.00695
  0
LINE
  8
ボルト／ビス
  6
CONTINUOUS
 62
    64
 10
-79.054115
 20
-13.006915
 11
-81.12079
 21
-13.006915
  0
LINE
  8
ボルト／ビス
  6
CONTINUOUS
 62
    64
 10
-79.054115
 20
-13.173615
 11
-80.954165
 21
-13.173615
  0
LINE
  8
ボルト／ビス
  6
CONTINUOUS
 62
    64
 10
-79.054115
 20
-11.84029
 11
-80.954165
 21
-11.84029
  0
LINE
  8
ボルト／ビス
  6
CONTINUOUS
 62
    64
 10
-77.454115
 20
-12.50695
 11
-82.12079
 21
-12.50695
  0
LINE
  8
ボルト／ビス
  6
CONTINUOUS
 62
    64
 10
-78.454115
 20
-11.506915
 11
-79.054115
 21
-11.84029
  0
LINE
  8
ボルト／ビス
  6
CONTINUOUS
 62
    64
 10
-78.454115
 20
-11.506915
 11
-78.454115
 21
-13.50695
  0
LINE
  8
ボルト／ビス
  6
CONTINUOUS
 62
    64
 10
-78.454115
 20
-13.50695
 11
-79.054115
 21
-13.173615
  0
ENDBLK
  0
BLOCK
  2
*GRP_0076
 70
    65
 10
0.0
 20
0.0
  0
ARC
  8
St
  6
CONTINUOUS
 62
   127
 10
-78.954114
 20
-10.539483
 40
0.5
 50
0.0
 51
90.0
  0
ARC
  8
St
  6
CONTINUOUS
 62
   127
 10
-90.620806
 20
-10.539482
 40
0.5
 50
90.0
 51
180.0
  0
LINE
  8
St
  6
CONTINUOUS
 62
   127
 10
-91.12078
 20
-14.0395
 11
-90.620813
 21
-14.0395
  0
LINE
  8
St
  6
CONTINUOUS
 62
   127
 10
-90.620813
 20
-14.0395
 11
-90.620813
 21
-10.5395
  0
LINE
  8
St
  6
CONTINUOUS
 10
-78.954165
 20
-10.5395
 11
-90.620813
 21
-10.5395
  0
LINE
  8
St
  6
CONTINUOUS
 62
   127
 10
-91.12078
 20
-14.0395
 11
-91.12078
 21
-10.0395
  0
LINE
  8
St
  6
CONTINUOUS
 62
   127
 10
-78.454115
 20
-10.0395
 11
-91.12078
 21
-10.0395
  0
LINE
  8
St
  6
CONTINUOUS
 62
   127
 10
-78.454115
 20
-10.0395
 11
-78.454115
 21
-15.0395
  0
LINE
  8
St
  6
CONTINUOUS
 62
   127
 10
-78.454115
 20
-15.0395
 11
-78.954165
 21
-15.0395
  0
LINE
  8
St
  6
CONTINUOUS
 62
   127
 10
-78.954165
 20
-10.5395
 11
-78.954165
 21
-15.0395
  0
ENDBLK
  0
BLOCK
  2
*GRP_0077
 70
    65
 10
0.0
 20
0.0
  0
ARC
  8
St
  6
CONTINUOUS
 62
   127
 10
-99.88745
 20
-15.03948
 40
0.5
 50
90.0
 51
180.0
  0
LINE
  8
St
  6
CONTINUOUS
 62
   127
 10
-99.887457
 20
-18.539465
 11
-100.387457
 21
-18.539465
  0
LINE
  8
St
  6
CONTINUOUS
 62
   127
 10
-100.387457
 20
-14.539465
 11
-100.387457
 21
-18.539465
  0
LINE
  8
St
  6
CONTINUOUS
 62
   127
 10
-99.887457
 20
-15.0395
 11
-99.887457
 21
-18.539465
  0
ARC
  8
St
  6
CONTINUOUS
 62
   127
 10
-79.554182
 20
-14.539484
 40
0.5
 50
270.0
 51
360.0
  0
LINE
  8
St
  6
CONTINUOUS
 62
   127
 10
-79.054165
 20
-10.5395
 11
-79.554215
 21
-10.5395
  0
LINE
  8
St
  6
CONTINUOUS
 62
   127
 10
-99.887457
 20
-15.0395
 11
-79.054165
 21
-15.0395
  0
LINE
  8
St
  6
CONTINUOUS
 62
   127
 10
-79.054165
 20
-10.5395
 11
-79.054165
 21
-15.0395
  0
LINE
  8
St
  6
CONTINUOUS
 62
   127
 10
-100.387455
 20
-14.539465
 11
-79.554215
 21
-14.539465
  0
LINE
  8
St
  6
CONTINUOUS
 62
   127
 10
-79.554215
 20
-10.5395
 11
-79.554215
 21
-14.539465
  0
ENDBLK
  0
BLOCK
  2
*DIM_0078
 70
    65
 10
0.0
 20
0.0
  0
LINE
  8
寸法
  6
CONTINUOUS
 10
-105.12076
 20
-80.27803
 11
-105.12076
 21
-84.56939
  0
LINE
  8
寸法
  6
CONTINUOUS
 10
-80.120783
 20
-80.27803
 11
-80.120783
 21
-84.56939
  0
LINE
  8
寸法
  6
CONTINUOUS
 10
-105.12076
 20
-84.56939
 11
-80.120783
 21
-84.56939
  0
POINT
  8
寸法
 10
-105.12076
 20
-84.56939
  0
POINT
  8
寸法
 10
-80.120783
 20
-84.56939
  0
TEXT
  7
TextStyle03
  8
寸法
  6
CONTINUOUS
 10
-94.21875
 20
-84.2
  1
75
 40
3.0
 72
     5
 11
-91.03125
 21
-84.2
  0
ENDBLK
  0
BLOCK
  2
*DIM_0079
 70
    65
 10
0.0
 20
0.0
  0
LINE
  8
寸法
  6
CONTINUOUS
 10
-78.454115
 20
-20.0395
 11
-78.454115
 21
-84.56939
  0
LINE
  8
寸法
  6
CONTINUOUS
 10
-80.120783
 20
-84.56939
 11
-78.454115
 21
-84.56939
  0
POINT
  8
寸法
 10
-78.454115
 20
-84.56939
  0
TEXT
  7
TextStyle03
  8
寸法
  6
CONTINUOUS
 10
-78.375
 20
-84.2
  1
5
 40
3.0
 72
     5
 11
-76.875
 21
-84.2
  0
ENDBLK
  0
BLOCK
  2
*DIM_0080
 70
    65
 10
0.0
 20
0.0
  0
LINE
  8
寸法
  6
CONTINUOUS
 10
-100.12076
 20
-50.537535
 11
-88.224345
 21
-50.537535
  0
LINE
  8
寸法
  6
CONTINUOUS
 10
-116.955555
 20
-33.870865
 11
-88.224345
 21
-33.870865
  0
LINE
  8
寸法
  6
CONTINUOUS
 10
-88.224345
 20
-50.537535
 11
-88.224345
 21
-33.870865
  0
POINT
  8
寸法
 10
-88.224345
 20
-50.537535
  0
POINT
  8
寸法
 10
-88.224345
 20
-33.870865
  0
TEXT
  7
TextStyle03
  8
寸法
  6
CONTINUOUS
 10
-88.6
 20
-43.81875
  1
50
 40
3.0
 50
90.0
 72
     5
 11
-88.6
 21
-40.63125
  0
ENDBLK
  0
BLOCK
  2
*GRP_0081
 70
    65
 10
0.0
 20
0.0
  0
LINE
  8
ボルト／ビス
  6
CONTINUOUS
 62
    64
 10
-11.75669
 20
-11.84029
 11
-11.75669
 21
-13.173615
  0
LINE
  8
ボルト／ビス
  6
CONTINUOUS
 62
    64
 10
-9.85664
 20
-11.84029
 11
-9.690015
 21
-12.00695
  0
LINE
  8
ボルト／ビス
  6
CONTINUOUS
 62
    64
 10
-9.85664
 20
-13.173615
 11
-9.690015
 21
-13.006915
  0
LINE
  8
ボルト／ビス
  6
CONTINUOUS
 62
    64
 10
-9.690015
 20
-12.00695
 11
-9.690015
 21
-13.006915
  0
LINE
  8
ボルト／ビス
  6
CONTINUOUS
 62
    64
 10
-9.85664
 20
-11.84029
 11
-9.85664
 21
-13.173615
  0
LINE
  8
ボルト／ビス
  6
CONTINUOUS
 62
    64
 10
-11.75669
 20
-12.00695
 11
-9.690015
 21
-12.00695
  0
LINE
  8
ボルト／ビス
  6
CONTINUOUS
 62
    64
 10
-11.75669
 20
-13.006915
 11
-9.690015
 21
-13.006915
  0
LINE
  8
ボルト／ビス
  6
CONTINUOUS
 62
    64
 10
-11.75669
 20
-13.173615
 11
-9.85664
 21
-13.173615
  0
LINE
  8
ボルト／ビス
  6
CONTINUOUS
 62
    64
 10
-11.75669
 20
-11.84029
 11
-9.85664
 21
-11.84029
  0
LINE
  8
ボルト／ビス
  6
CONTINUOUS
 62
    64
 10
-13.35669
 20
-12.50695
 11
-8.690015
 21
-12.50695
  0
LINE
  8
ボルト／ビス
  6
CONTINUOUS
 62
    64
 10
-12.35669
 20
-11.506915
 11
-11.75669
 21
-11.84029
  0
LINE
  8
ボルト／ビス
  6
CONTINUOUS
 62
    64
 10
-12.35669
 20
-11.506915
 11
-12.35669
 21
-13.50695
  0
LINE
  8
ボルト／ビス
  6
CONTINUOUS
 62
    64
 10
-12.35669
 20
-13.50695
 11
-11.75669
 21
-13.173615
  0
ENDBLK
  0
BLOCK
  2
*GRP_0082
 70
    65
 10
0.0
 20
0.0
  0
ARC
  8
St
  6
CONTINUOUS
 62
   127
 10
-0.189998
 20
-10.539483
 40
0.5
 50
0.0
 51
90.0
  0
LINE
  8
St
  6
CONTINUOUS
 62
   127
 10
0.309975
 20
-14.0395
 11
0.309975
 21
-10.0395
  0
LINE
  8
St
  6
CONTINUOUS
 62
   127
 10
0.309975
 20
-14.0395
 11
-0.189992
 21
-14.0395
  0
LINE
  8
St
  6
CONTINUOUS
 62
   127
 10
-0.189992
 20
-10.5395
 11
-0.189992
 21
-14.0395
  0
LINE
  8
St
  6
CONTINUOUS
 62
   127
 10
-11.85664
 20
-15.0395
 11
-12.35669
 21
-15.0395
  0
LINE
  8
St
  6
CONTINUOUS
 62
   127
 10
-12.35669
 20
-10.0395
 11
-12.35669
 21
-15.0395
  0
LINE
  8
St
  6
CONTINUOUS
 62
   127
 10
-11.85664
 20
-15.0395
 11
-11.85664
 21
-10.5395
  0
ARC
  8
St
  6
CONTINUOUS
 62
   127
 10
-11.85669
 20
-10.539483
 40
0.5
 50
90.0
 51
180.0
  0
LINE
  8
St
  6
CONTINUOUS
 10
-0.189992
 20
-10.5395
 11
-11.85664
 21
-10.5395
  0
LINE
  8
St
  6
CONTINUOUS
 62
   127
 10
0.309975
 20
-10.0395
 11
-12.35669
 21
-10.0395
  0
ENDBLK
  0
BLOCK
  2
*GRP_0083
 70
    65
 10
0.0
 20
0.0
  0
ARC
  8
St
  6
CONTINUOUS
 62
   127
 10
5.976621
 20
-15.03946
 40
0.5
 50
0.0
 51
90.0
  0
LINE
  8
St
  6
CONTINUOUS
 62
   127
 10
5.976627
 20
-18.539465
 11
6.476627
 21
-18.539465
  0
LINE
  8
St
  6
CONTINUOUS
 62
   127
 10
5.976627
 20
-15.03948
 11
5.976627
 21
-18.539465
  0
LINE
  8
St
  6
CONTINUOUS
 62
   127
 10
6.476627
 20
-14.539445
 11
6.476627
 21
-18.539465
  0
ARC
  8
St
  6
CONTINUOUS
 62
   127
 10
-11.256622
 20
-14.539485
 40
0.5
 50
180.0
 51
270.0
  0
LINE
  8
St
  6
CONTINUOUS
 62
   127
 10
-11.75664
 20
-15.0395
 11
-11.75664
 21
-10.5395
  0
LINE
  8
St
  6
CONTINUOUS
 62
   127
 10
-11.75664
 20
-10.5395
 11
-11.25659
 21
-10.5395
  0
LINE
  8
St
  6
CONTINUOUS
 62
   127
 10
-11.25659
 20
-10.5395
 11
-11.25659
 21
-14.539465
  0
LINE
  8
St
  6
CONTINUOUS
 62
   127
 10
6.476635
 20
-14.539465
 11
-11.25659
 21
-14.539465
  0
LINE
  8
St
  6
CONTINUOUS
 62
   127
 10
5.976627
 20
-15.0395
 11
-11.75664
 21
-15.0395
  0
ENDBLK
  0
BLOCK
  2
*GRP_0084
 70
    65
 10
0.0
 20
0.0
  0
LINE
  8
ボルト／ビス
  6
CONTINUOUS
 62
    64
 10
99.674395
 20
-11.84029
 11
99.674395
 21
-13.173615
  0
LINE
  8
ボルト／ビス
  6
CONTINUOUS
 62
    64
 10
101.574445
 20
-11.84029
 11
101.74107
 21
-12.00695
  0
LINE
  8
ボルト／ビス
  6
CONTINUOUS
 62
    64
 10
101.574445
 20
-13.173615
 11
101.74107
 21
-13.006915
  0
LINE
  8
ボルト／ビス
  6
CONTINUOUS
 62
    64
 10
101.74107
 20
-12.00695
 11
101.74107
 21
-13.006915
  0
LINE
  8
ボルト／ビス
  6
CONTINUOUS
 62
    64
 10
101.574445
 20
-11.84029
 11
101.574445
 21
-13.173615
  0
LINE
  8
ボルト／ビス
  6
CONTINUOUS
 62
    64
 10
99.674395
 20
-12.00695
 11
101.74107
 21
-12.00695
  0
LINE
  8
ボルト／ビス
  6
CONTINUOUS
 62
    64
 10
99.674395
 20
-13.006915
 11
101.74107
 21
-13.006915
  0
LINE
  8
ボルト／ビス
  6
CONTINUOUS
 62
    64
 10
99.674395
 20
-13.173615
 11
101.574445
 21
-13.173615
  0
LINE
  8
ボルト／ビス
  6
CONTINUOUS
 62
    64
 10
99.674395
 20
-11.84029
 11
101.574445
 21
-11.84029
  0
LINE
  8
ボルト／ビス
  6
CONTINUOUS
 62
    64
 10
98.074395
 20
-12.50695
 11
102.74107
 21
-12.50695
  0
LINE
  8
ボルト／ビス
  6
CONTINUOUS
 62
    64
 10
99.074395
 20
-11.506915
 11
99.674395
 21
-11.84029
  0
LINE
  8
ボルト／ビス
  6
CONTINUOUS
 62
    64
 10
99.074395
 20
-11.506915
 11
99.074395
 21
-13.50695
  0
LINE
  8
ボルト／ビス
  6
CONTINUOUS
 62
    64
 10
99.074395
 20
-13.50695
 11
99.674395
 21
-13.173615
  0
ENDBLK
  0
BLOCK
  2
*GRP_0085
 70
    65
 10
0.0
 20
0.0
  0
LINE
  8
ボルト／ビス
  6
CONTINUOUS
 62
    64
 10
32.37697
 20
-11.84029
 11
32.37697
 21
-13.173615
  0
LINE
  8
ボルト／ビス
  6
CONTINUOUS
 62
    64
 10
30.47692
 20
-11.84029
 11
30.310295
 21
-12.00695
  0
LINE
  8
ボルト／ビス
  6
CONTINUOUS
 62
    64
 10
30.47692
 20
-13.173615
 11
30.310295
 21
-13.006915
  0
LINE
  8
ボルト／ビス
  6
CONTINUOUS
 62
    64
 10
30.310295
 20
-12.00695
 11
30.310295
 21
-13.006915
  0
LINE
  8
ボルト／ビス
  6
CONTINUOUS
 62
    64
 10
30.47692
 20
-11.84029
 11
30.47692
 21
-13.173615
  0
LINE
  8
ボルト／ビス
  6
CONTINUOUS
 62
    64
 10
32.37697
 20
-12.00695
 11
30.310295
 21
-12.00695
  0
LINE
  8
ボルト／ビス
  6
CONTINUOUS
 62
    64
 10
32.37697
 20
-13.006915
 11
30.310295
 21
-13.006915
  0
LINE
  8
ボルト／ビス
  6
CONTINUOUS
 62
    64
 10
32.37697
 20
-13.173615
 11
30.47692
 21
-13.173615
  0
LINE
  8
ボルト／ビス
  6
CONTINUOUS
 62
    64
 10
32.37697
 20
-11.84029
 11
30.47692
 21
-11.84029
  0
LINE
  8
ボルト／ビス
  6
CONTINUOUS
 62
    64
 10
33.97697
 20
-12.50695
 11
29.310295
 21
-12.50695
  0
LINE
  8
ボルト／ビス
  6
CONTINUOUS
 62
    64
 10
32.97697
 20
-11.506915
 11
32.37697
 21
-11.84029
  0
LINE
  8
ボルト／ビス
  6
CONTINUOUS
 62
    64
 10
32.97697
 20
-11.506915
 11
32.97697
 21
-13.50695
  0
LINE
  8
ボルト／ビス
  6
CONTINUOUS
 62
    64
 10
32.97697
 20
-13.50695
 11
32.37697
 21
-13.173615
  0
ENDBLK
  0
BLOCK
  2
*GRP_0086
 70
    65
 10
0.0
 20
0.0
  0
ARC
  8
St
  6
CONTINUOUS
 62
   127
 10
99.574394
 20
-10.539483
 40
0.5
 50
90.0
 51
180.0
  0
ARC
  8
St
  6
CONTINUOUS
 62
   127
 10
111.241086
 20
-10.539482
 40
0.5
 50
0.0
 51
90.0
  0
LINE
  8
St
  6
CONTINUOUS
 62
   127
 10
111.74106
 20
-14.0395
 11
111.241093
 21
-14.0395
  0
LINE
  8
St
  6
CONTINUOUS
 62
   127
 10
111.241093
 20
-14.0395
 11
111.241093
 21
-10.5395
  0
LINE
  8
St
  6
CONTINUOUS
 10
99.574445
 20
-10.5395
 11
111.241093
 21
-10.5395
  0
LINE
  8
St
  6
CONTINUOUS
 62
   127
 10
111.74106
 20
-14.0395
 11
111.74106
 21
-10.0395
  0
LINE
  8
St
  6
CONTINUOUS
 62
   127
 10
99.074395
 20
-10.0395
 11
111.74106
 21
-10.0395
  0
LINE
  8
St
  6
CONTINUOUS
 62
   127
 10
99.074395
 20
-10.0395
 11
99.074395
 21
-15.0395
  0
LINE
  8
St
  6
CONTINUOUS
 62
   127
 10
99.074395
 20
-15.0395
 11
99.574445
 21
-15.0395
  0
LINE
  8
St
  6
CONTINUOUS
 62
   127
 10
99.574445
 20
-10.5395
 11
99.574445
 21
-15.0395
  0
ENDBLK
  0
BLOCK
  2
*GRP_0087
 70
    65
 10
0.0
 20
0.0
  0
ARC
  8
St
  6
CONTINUOUS
 62
   127
 10
120.50773
 20
-15.03948
 40
0.5
 50
0.0
 51
90.0
  0
LINE
  8
St
  6
CONTINUOUS
 62
   127
 10
120.507738
 20
-18.539465
 11
121.007738
 21
-18.539465
  0
LINE
  8
St
  6
CONTINUOUS
 62
   127
 10
121.007738
 20
-14.539465
 11
121.007738
 21
-18.539465
  0
LINE
  8
St
  6
CONTINUOUS
 62
   127
 10
120.507738
 20
-15.0395
 11
120.507738
 21
-18.539465
  0
ARC
  8
St
  6
CONTINUOUS
 62
   127
 10
100.174462
 20
-14.539484
 40
0.5
 50
180.0
 51
270.0
  0
LINE
  8
St
  6
CONTINUOUS
 62
   127
 10
99.674445
 20
-10.5395
 11
100.174495
 21
-10.5395
  0
LINE
  8
St
  6
CONTINUOUS
 62
   127
 10
120.507738
 20
-15.0395
 11
99.674445
 21
-15.0395
  0
LINE
  8
St
  6
CONTINUOUS
 62
   127
 10
99.674445
 20
-10.5395
 11
99.674445
 21
-15.0395
  0
LINE
  8
St
  6
CONTINUOUS
 62
   127
 10
121.007735
 20
-14.539465
 11
100.174495
 21
-14.539465
  0
LINE
  8
St
  6
CONTINUOUS
 62
   127
 10
100.174495
 20
-10.5395
 11
100.174495
 21
-14.539465
  0
ENDBLK
  0
BLOCK
  2
*GRP_0088
 70
    65
 10
0.0
 20
0.0
  0
ARC
  8
St
  6
CONTINUOUS
 62
   127
 10
20.810278
 20
-10.539483
 40
0.5
 50
90.0
 51
180.0
  0
LINE
  8
St
  6
CONTINUOUS
 62
   127
 10
20.310305
 20
-14.0395
 11
20.310305
 21
-10.0395
  0
LINE
  8
St
  6
CONTINUOUS
 62
   127
 10
20.310305
 20
-14.0395
 11
20.810273
 21
-14.0395
  0
LINE
  8
St
  6
CONTINUOUS
 62
   127
 10
20.810273
 20
-10.5395
 11
20.810273
 21
-14.0395
  0
LINE
  8
St
  6
CONTINUOUS
 62
   127
 10
32.47692
 20
-15.0395
 11
32.97697
 21
-15.0395
  0
LINE
  8
St
  6
CONTINUOUS
 62
   127
 10
32.97697
 20
-10.0395
 11
32.97697
 21
-15.0395
  0
LINE
  8
St
  6
CONTINUOUS
 62
   127
 10
32.47692
 20
-15.0395
 11
32.47692
 21
-10.5395
  0
ARC
  8
St
  6
CONTINUOUS
 62
   127
 10
32.47697
 20
-10.539483
 40
0.5
 50
0.0
 51
90.0
  0
LINE
  8
St
  6
CONTINUOUS
 10
20.810273
 20
-10.5395
 11
32.47692
 21
-10.5395
  0
LINE
  8
St
  6
CONTINUOUS
 62
   127
 10
20.310305
 20
-10.0395
 11
32.97697
 21
-10.0395
  0
ENDBLK
  0
BLOCK
  2
*GRP_0089
 70
    65
 10
0.0
 20
0.0
  0
ARC
  8
St
  6
CONTINUOUS
 62
   127
 10
14.643659
 20
-15.03946
 40
0.5
 50
90.0
 51
180.0
  0
LINE
  8
St
  6
CONTINUOUS
 62
   127
 10
14.643652
 20
-18.539465
 11
14.143652
 21
-18.539465
  0
LINE
  8
St
  6
CONTINUOUS
 62
   127
 10
14.643652
 20
-15.03948
 11
14.643652
 21
-18.539465
  0
LINE
  8
St
  6
CONTINUOUS
 62
   127
 10
14.143652
 20
-14.539445
 11
14.143652
 21
-18.539465
  0
ARC
  8
St
  6
CONTINUOUS
 62
   127
 10
31.876902
 20
-14.539485
 40
0.5
 50
270.0
 51
360.0
  0
LINE
  8
St
  6
CONTINUOUS
 62
   127
 10
32.37692
 20
-15.0395
 11
32.37692
 21
-10.5395
  0
LINE
  8
St
  6
CONTINUOUS
 62
   127
 10
32.37692
 20
-10.5395
 11
31.87687
 21
-10.5395
  0
LINE
  8
St
  6
CONTINUOUS
 62
   127
 10
31.87687
 20
-10.5395
 11
31.87687
 21
-14.539465
  0
LINE
  8
St
  6
CONTINUOUS
 62
   127
 10
14.143645
 20
-14.539465
 11
31.87687
 21
-14.539465
  0
LINE
  8
St
  6
CONTINUOUS
 62
   127
 10
14.643652
 20
-15.0395
 11
32.37692
 21
-15.0395
  0
ENDBLK
  0
BLOCK
  2
*DIM_0090
 70
    65
 10
0.0
 20
0.0
  0
LINE
  8
寸法
  6
CONTINUOUS
 10
-100.38744
 20
8.29382
 11
-100.38744
 21
34.80573
  0
LINE
  8
寸法
  6
CONTINUOUS
 10
-78.454115
 20
-5.0395
 11
-78.454115
 21
34.80573
  0
LINE
  8
寸法
  6
CONTINUOUS
 10
-100.38744
 20
34.80573
 11
-78.454115
 21
34.80573
  0
POINT
  8
寸法
 10
-100.38744
 20
34.80573
  0
POINT
  8
寸法
 10
-78.454115
 20
34.80573
  0
TEXT
  7
TextStyle03
  8
寸法
  6
CONTINUOUS
 10
-92.70625
 20
35.175
  1
65.8
 40
3.0
 72
     5
 11
-86.14375
 21
35.175
  0
ENDBLK
  0
BLOCK
  2
*DIM_0091
 70
    65
 10
0.0
 20
0.0
  0
LINE
  8
寸法
  6
CONTINUOUS
 10
99.074395
 20
-5.0395
 11
99.074395
 21
34.80573
  0
LINE
  8
寸法
  6
CONTINUOUS
 10
-78.454115
 20
34.80573
 11
99.074395
 21
34.80573
  0
POINT
  8
寸法
 10
99.074395
 20
34.80573
  0
TEXT
  7
TextStyle03
  8
寸法
  6
CONTINUOUS
 10
3.7375
 20
35.175
  1
有効開口
 40
3.0
 72
     5
 11
16.8625
 21
35.175
  0
ENDBLK
  0
BLOCK
  2
*DIM_0092
 70
    65
 10
0.0
 20
0.0
  0
LINE
  8
寸法
  6
CONTINUOUS
 10
121.005495
 20
8.29381
 11
121.005495
 21
34.80573
  0
LINE
  8
寸法
  6
CONTINUOUS
 10
99.074395
 20
34.80573
 11
121.005495
 21
34.80573
  0
POINT
  8
寸法
 10
121.005495
 20
34.80573
  0
TEXT
  7
TextStyle03
  8
寸法
  6
CONTINUOUS
 10
106.74375
 20
35.175
  1
65.8
 40
3.0
 72
     5
 11
113.30625
 21
35.175
  0
ENDBLK
  0
ENDSEC
  0
SECTION
  2
ENTITIES
  0
POLYLINE
  8
通り芯
  6
CONTINUOUS
 66
     1
 70
     1
  0
VERTEX
  8
通り芯
 10
-210.0
 20
-148.5
  0
VERTEX
  8
通り芯
 10
210.0
 20
-148.5
  0
VERTEX
  8
通り芯
 10
210.0
 20
148.5
  0
VERTEX
  8
通り芯
 10
-210.0
 20
148.5
  0
SEQEND
  0
INSERT
  2
*GRP_0002
  8
型材
  6
DOT
 10
0.0
 20
0.0
  0
INSERT
  2
*GRP_0003
  8
型材
  6
DOT
 10
0.0
 20
0.0
  0
INSERT
  2
*GRP_0001
  8
型材断面
  6
CONTINUOUS
 10
0.0
 20
0.0
  0
LINE
  8
型材断面
  6
CONTINUOUS
 10
-121.955555
 20
-38.370865
 11
-121.955555
 21
-33.870865
  0
LINE
  8
型材断面
  6
CONTINUOUS
 10
-125.955555
 20
-33.370865
 11
-125.955555
 21
-29.238928
  0
LINE
  8
型材断面
  6
CONTINUOUS
 10
-121.955555
 20
-38.370865
 11
-121.455555
 21
-38.370865
  0
ARC
  8
型材断面
  6
CONTINUOUS
 10
-100.887426
 20
-20.914702
 40
0.5
 50
-72.715162
 51
0.0
  0
ARC
  8
型材断面
  6
CONTINUOUS
 10
-125.955553
 20
-29.238926
 40
0.5
 50
107.284838
 51
180.0
  0
ARC
  8
型材断面
  6
CONTINUOUS
 10
-125.955553
 20
-33.370866
 40
0.5
 50
180.0
 51
270.0
  0
ARC
  8
型材断面
  6
CONTINUOUS
 10
-121.955553
 20
-33.870866
 40
0.5
 50
0.0
 51
90.0
  0
LINE
  8
型材断面
  6
CONTINUOUS
 10
-125.955555
 20
-33.370865
 11
-121.455555
 21
-33.370865
  0
LINE
  8
型材断面
  6
CONTINUOUS
 10
-121.455555
 20
-38.370865
 11
-121.455555
 21
-33.370865
  0
LINE
  8
型材断面
  6
CONTINUOUS
 62
    47
 10
-126.455555
 20
-33.870865
 11
-126.455555
 21
-28.870865
  0
LINE
  8
型材断面
  6
CONTINUOUS
 62
    47
 10
-100.887428
 20
-20.914703
 11
-126.455555
 21
-28.870865
  0
LINE
  8
型材断面
  6
CONTINUOUS
 10
-125.955555
 20
-29.238928
 11
-100.387428
 21
-21.282762
  0
LINE
  8
型材断面
  6
CONTINUOUS
 10
-138.27587
 20
-54.73599
 11
-138.27587
 21
-54.73599
  0
LINE
  8
型材断面
  6
CONTINUOUS
 10
-155.1208
 20
-57.2042
 11
-105.12076
 21
-50.537535
  0
LINE
  8
型材断面
  6
CONTINUOUS
 10
-155.11004
 20
-64.952433
 11
-146.168117
 21
-56.01051
  0
LINE
  8
型材断面
  6
CONTINUOUS
 10
-155.11004
 20
-67.309455
 11
-143.448475
 21
-55.647893
  0
LINE
  8
型材断面
  6
CONTINUOUS
 10
-155.11004
 20
-69.66648
 11
-140.728835
 21
-55.285275
  0
LINE
  8
型材断面
  6
CONTINUOUS
 62
    47
 10
-155.1208
 20
-75.27803
 11
-155.1208
 21
-57.2042
  0
LINE
  8
型材断面
  6
CONTINUOUS
 62
    47
 10
-158.45413
 20
-75.27803
 11
-158.45413
 21
-57.2042
  0
ARC
  8
型材断面
  6
CONTINUOUS
 10
-155.120797
 20
-57.204201
 40
3.333333
 50
97.594638
 51
180.0
  0
LINE
  8
型材断面
  6
CONTINUOUS
 10
-140.35384
 20
-51.872443
 11
-155.561342
 21
-53.900108
  0
ARC
  8
型材断面
  6
CONTINUOUS
 10
-139.913295
 20
-55.176535
 40
3.333333
 50
7.59463
 51
97.594638
  0
LINE
  8
型材断面
  6
CONTINUOUS
 10
-142.932622
 20
-54.738853
 11
-142.932622
 21
-54.738853
  0
LINE
  8
型材断面
  6
CONTINUOUS
 10
-105.12076
 20
-54.982352
 11
-125.41644
 21
-75.27803
  0
LINE
  8
型材断面
  6
CONTINUOUS
 10
-105.12076
 20
-57.339375
 11
-123.059415
 21
-75.27803
  0
LINE
  8
型材断面
  6
CONTINUOUS
 10
-105.12076
 20
-59.6964
 11
-120.702393
 21
-75.27803
  0
INSERT
  2
*GRP_0004
  8
型材断面
  6
CONTINUOUS
 10
0.0
 20
0.0
  0
LINE
  8
型材断面
  6
CONTINUOUS
 10
-126.455558
 20
-33.870867
 11
-126.455558
 21
-38.870867
  0
LINE
  8
型材断面
  6
CONTINUOUS
 10
-124.179145
 20
-33.870867
 11
-124.179145
 21
-38.56115
  0
LINE
  8
型材断面
  6
CONTINUOUS
 10
-124.179145
 20
-33.870867
 11
-122.455558
 21
-38.32665
  0
POLYLINE
  8
型材断面
  6
CONTINUOUS
 66
     1
  0
VERTEX
  8
型材断面
 10
-142.31631
 20
-41.533397
  0
VERTEX
  8
型材断面
 10
-144.97532
 20
-46.945032
  0
VERTEX
  8
型材断面
 10
-144.97532
 20
-52.48864
  0
SEQEND
  0
LINE
  8
型材断面
  6
CONTINUOUS
 10
-164.78893
 20
-64.154315
 11
-158.45413
 21
-64.154315
  0
LINE
  8
型材断面
  6
CONTINUOUS
 10
-158.45413
 20
-61.12614
 11
-163.688928
 21
-61.12614
  0
LINE
  8
型材断面
  6
CONTINUOUS
 10
-158.45413
 20
-58.459475
 11
-163.688928
 21
-58.459475
  0
LINE
  8
型材断面
  6
CONTINUOUS
 10
-163.688928
 20
-59.987648
 11
-163.688928
 21
-58.459475
  0
LINE
  8
型材断面
  6
CONTINUOUS
 10
-163.688928
 20
-58.459475
 11
-158.45413
 21
-61.12614
  0
LINE
  8
型材断面
  6
CONTINUOUS
 10
-105.12076
 20
-22.755657
 11
-105.12076
 21
-75.27803
  0
INSERT
  2
*HAT_0003
  8
型材断面
 10
0.0
 20
0.0
  0
INSERT
  2
*HAT_0004
  8
型材断面
 10
0.0
 20
0.0
  0
LINE
  8
型材断面
  6
CONTINUOUS
 10
142.573618
 20
-38.370865
 11
142.573618
 21
-33.870865
  0
LINE
  8
型材断面
  6
CONTINUOUS
 10
146.573618
 20
-33.370865
 11
146.573618
 21
-29.238928
  0
LINE
  8
型材断面
  6
CONTINUOUS
 10
142.573618
 20
-38.370865
 11
142.073618
 21
-38.370865
  0
ARC
  8
型材断面
  6
CONTINUOUS
 10
146.573612
 20
-29.238927
 40
0.5
 50
0.0
 51
72.715162
  0
ARC
  8
型材断面
  6
CONTINUOUS
 10
146.573612
 20
-33.370867
 40
0.5
 50
270.0
 51
360.0
  0
ARC
  8
型材断面
  6
CONTINUOUS
 10
142.573612
 20
-33.870867
 40
0.5
 50
90.0
 51
180.0
  0
LINE
  8
型材断面
  6
CONTINUOUS
 10
146.573618
 20
-33.370865
 11
142.073618
 21
-33.370865
  0
LINE
  8
型材断面
  6
CONTINUOUS
 10
142.073618
 20
-38.370865
 11
142.073618
 21
-33.370865
  0
LINE
  8
型材断面
  6
CONTINUOUS
 62
    47
 10
147.073618
 20
-33.870865
 11
147.073618
 21
-28.870865
  0
LINE
  8
型材断面
  6
CONTINUOUS
 62
    47
 10
121.50549
 20
-20.914703
 11
147.073618
 21
-28.870865
  0
LINE
  8
型材断面
  6
CONTINUOUS
 10
146.573618
 20
-29.238928
 11
121.00549
 21
-21.282762
  0
LINE
  8
型材断面
  6
CONTINUOUS
 10
125.738823
 20
-54.982352
 11
146.034503
 21
-75.27803
  0
LINE
  8
型材断面
  6
CONTINUOUS
 10
125.738823
 20
-57.339375
 11
143.677477
 21
-75.27803
  0
LINE
  8
型材断面
  6
CONTINUOUS
 10
125.738823
 20
-59.6964
 11
141.320455
 21
-75.27803
  0
INSERT
  2
*GRP_0005
  8
型材断面
  6
CONTINUOUS
 10
0.0
 20
0.0
  0
LINE
  8
型材断面
  6
CONTINUOUS
 10
147.07362
 20
-33.870867
 11
147.07362
 21
-38.870867
  0
LINE
  8
型材断面
  6
CONTINUOUS
 10
144.797207
 20
-33.870867
 11
144.797207
 21
-38.56115
  0
LINE
  8
型材断面
  6
CONTINUOUS
 10
144.797207
 20
-33.870867
 11
143.07362
 21
-38.32665
  0
LINE
  8
型材断面
  6
CONTINUOUS
 10
185.406992
 20
-64.154315
 11
179.072192
 21
-64.154315
  0
LINE
  8
型材断面
  6
CONTINUOUS
 10
179.072192
 20
-61.12614
 11
184.30699
 21
-61.12614
  0
LINE
  8
型材断面
  6
CONTINUOUS
 10
179.072192
 20
-58.459475
 11
184.30699
 21
-58.459475
  0
LINE
  8
型材断面
  6
CONTINUOUS
 10
184.30699
 20
-59.987648
 11
184.30699
 21
-58.459475
  0
LINE
  8
型材断面
  6
CONTINUOUS
 10
184.30699
 20
-58.459475
 11
179.072192
 21
-61.12614
  0
LINE
  8
型材断面
  6
CONTINUOUS
 10
125.738823
 20
-22.755657
 11
125.738823
 21
-75.27803
  0
INSERT
  2
*HAT_0005
  8
型材断面
 10
0.0
 20
0.0
  0
INSERT
  2
*HAT_0006
  8
型材断面
 10
0.0
 20
0.0
  0
ARC
  8
型材断面
  6
CONTINUOUS
 10
121.505485
 20
-20.9147
 40
0.5
 50
180.0
 51
252.715162
  0
LINE
  8
型材断面
  6
CONTINUOUS
 10
125.738823
 20
-53.870873
 11
175.738862
 21
-53.870873
  0
ARC
  8
型材断面
  6
CONTINUOUS
 10
175.738859
 20
-53.870875
 40
3.333333
 50
0.0
 51
90.0
  0
LINE
  8
型材断面
  6
CONTINUOUS
 10
125.738823
 20
-53.870873
 11
125.738823
 21
-50.53754
  0
LINE
  8
型材断面
  6
CONTINUOUS
 10
175.738858
 20
-50.53754
 11
125.738823
 21
-50.53754
  0
LINE
  8
型材断面
  6
CONTINUOUS
 62
    47
 10
175.738862
 20
-75.27803
 11
175.738862
 21
-53.870873
  0
LINE
  8
型材断面
  6
CONTINUOUS
 62
    47
 10
179.072192
 20
-75.27803
 11
179.072192
 21
-53.870873
  0
LINE
  8
型材断面
  6
CONTINUOUS
 10
175.728103
 20
-64.952433
 11
164.646543
 21
-53.870873
  0
LINE
  8
型材断面
  6
CONTINUOUS
 10
175.728103
 20
-67.309455
 11
162.289517
 21
-53.870873
  0
LINE
  8
型材断面
  6
CONTINUOUS
 10
175.728103
 20
-69.66648
 11
159.932495
 21
-53.870873
  0
POLYLINE
  8
型材断面
  6
CONTINUOUS
 66
     1
  0
VERTEX
  8
型材断面
 10
162.934373
 20
-41.533397
  0
VERTEX
  8
型材断面
 10
165.593383
 20
-46.945032
  0
VERTEX
  8
型材断面
 10
165.593383
 20
-50.53754
  0
SEQEND
  0
ARC
  8
型材断面
  6
CONTINUOUS
 10
6.976629
 20
-19.039436
 40
0.5
 50
179.999962
 51
270.0
  0
ARC
  8
型材断面
  6
CONTINUOUS
 10
13.643329
 20
-19.039436
 40
0.5
 50
270.0
 51
360.000038
  0
LINE
  8
型材断面
  6
CONTINUOUS
 10
13.643332
 20
-19.03943
 11
6.976633
 21
-19.03943
  0
ARC
  8
型材断面
  6
CONTINUOUS
 10
-100.887446
 20
-3.706178
 40
0.499999
 50
0.000018
 51
90.000018
  0
LINE
  8
型材断面
  6
CONTINUOUS
 10
-100.387432
 20
-2.706172
 11
-103.220765
 21
-2.706172
  0
LINE
  8
型材断面
  6
CONTINUOUS
 10
-116.55409
 20
-2.20618
 11
-116.554065
 21
-10.03948
  0
LINE
  8
型材断面
  6
CONTINUOUS
 10
-117.054075
 20
-10.039498
 11
-116.554065
 21
-10.03948
  0
ARC
  8
型材断面
  6
CONTINUOUS
 10
-116.554085
 20
-2.206184
 40
0.499999
 50
90.000018
 51
180.000018
  0
ARC
  8
型材断面
  6
CONTINUOUS
 10
-100.38745
 20
-1.706181
 40
0.499999
 50
270.000018
 51
360.000018
  0
LINE
  8
型材断面
  6
CONTINUOUS
 10
-116.55409
 20
-2.20618
 11
-99.887432
 21
-2.206172
  0
LINE
  8
型材断面
  6
CONTINUOUS
 10
-117.054075
 20
-10.039498
 11
-117.054075
 21
-1.706172
  0
LINE
  8
型材断面
  6
CONTINUOUS
 10
-92.054125
 20
2.79382
 11
-92.054115
 21
3.293837
  0
LINE
  8
型材断面
  6
CONTINUOUS
 10
-92.054125
 20
2.79382
 11
-99.88744
 21
2.793828
  0
ARC
  8
型材断面
  6
CONTINUOUS
 10
-99.887444
 20
2.793808
 40
0.499999
 50
90.000018
 51
180.000018
  0
LINE
  8
型材断面
  6
CONTINUOUS
 10
-92.054115
 20
3.293837
 11
-100.38744
 21
3.29382
  0
LINE
  8
型材断面
  6
CONTINUOUS
 10
-100.38744
 20
3.29382
 11
-100.38744
 21
-1.706148
  0
LINE
  8
型材断面
  6
CONTINUOUS
 10
-117.054075
 20
-1.706172
 11
-100.38744
 21
-1.706148
  0
LINE
  8
型材断面
  6
CONTINUOUS
 10
-99.88744
 20
2.793828
 11
-99.887432
 21
-2.206172
  0
ARC
  8
型材断面
  6
CONTINUOUS
 10
6.476637
 20
-9.372826
 40
0.5
 50
359.999962
 51
449.99991
  0
LINE
  8
型材断面
  6
CONTINUOUS
 10
13.64333
 20
-19.03943
 11
13.643323
 21
-8.872812
  0
LINE
  8
型材断面
  6
CONTINUOUS
 10
6.976633
 20
-19.03943
 11
6.97664
 21
-8.872825
  0
LINE
  8
型材断面
  6
CONTINUOUS
 10
-0.523185
 20
2.793822
 11
-0.523178
 21
3.293837
  0
LINE
  8
型材断面
  6
CONTINUOUS
 10
-0.523185
 20
2.793822
 11
7.31013
 21
2.793813
  0
ARC
  8
型材断面
  6
CONTINUOUS
 10
7.310133
 20
2.793822
 40
0.499999
 50
359.99996
 51
449.99996
  0
LINE
  8
型材断面
  6
CONTINUOUS
 10
-0.523178
 20
3.293837
 11
7.81014
 21
3.293837
  0
ARC
  8
型材断面
  6
CONTINUOUS
 10
7.810125
 20
-1.872836
 40
0.5
 50
180.0
 51
270.0
  0
LINE
  8
型材断面
  6
CONTINUOUS
 10
7.31013
 20
2.793813
 11
7.31013
 21
-2.37283
  0
LINE
  8
型材断面
  6
CONTINUOUS
 10
7.81014
 20
3.293837
 11
7.81013
 21
-1.87283
  0
LINE
  8
型材断面
  6
CONTINUOUS
 10
21.14315
 20
2.793822
 11
21.14314
 21
3.293837
  0
LINE
  8
型材断面
  6
CONTINUOUS
 10
21.14315
 20
2.793822
 11
13.309833
 21
2.793813
  0
ARC
  8
型材断面
  6
CONTINUOUS
 10
13.309825
 20
2.793822
 40
0.499999
 50
90.00004
 51
180.00004
  0
LINE
  8
型材断面
  6
CONTINUOUS
 10
21.14314
 20
3.293837
 11
12.809825
 21
3.293837
  0
ARC
  8
型材断面
  6
CONTINUOUS
 10
12.809825
 20
-1.872836
 40
0.5
 50
270.0
 51
360.0
  0
LINE
  8
型材断面
  6
CONTINUOUS
 10
12.809825
 20
3.293837
 11
12.809833
 21
-1.87283
  0
LINE
  8
型材断面
  6
CONTINUOUS
 10
13.309833
 20
2.793813
 11
13.309833
 21
-2.37283
  0
LINE
  8
型材断面
  6
CONTINUOUS
 10
13.309833
 20
-2.37283
 11
7.31013
 21
-2.37283
  0
LINE
  8
型材断面
  6
CONTINUOUS
 10
7.81013
 20
-1.87283
 11
12.809833
 21
-1.87284
  0
ARC
  8
型材断面
  6
CONTINUOUS
 10
-99.887436
 20
-8.872826
 40
0.5
 50
180.0
 51
270.0
  0
ARC
  8
型材断面
  6
CONTINUOUS
 10
-100.387437
 20
-8.872825
 40
0.655813
 50
270.0
 51
310.32261
  0
ARC
  8
型材断面
  6
CONTINUOUS
 10
-100.387437
 20
-8.872825
 40
0.825703
 50
270.0
 51
322.731932
  0
INSERT
  2
*GRP_0006
  8
型材断面
  6
CONTINUOUS
 10
0.0
 20
0.0
  0
ARC
  8
型材断面
  6
CONTINUOUS
 10
121.505498
 20
-3.706188
 40
0.499999
 50
89.999982
 51
179.999982
  0
LINE
  8
型材断面
  6
CONTINUOUS
 10
121.005487
 20
-2.706182
 11
123.83882
 21
-2.706182
  0
LINE
  8
型材断面
  6
CONTINUOUS
 10
137.172145
 20
-2.20619
 11
137.17212
 21
-10.03949
  0
ARC
  8
型材断面
  6
CONTINUOUS
 10
137.172137
 20
-2.206194
 40
0.499999
 50
359.999982
 51
449.999982
  0
ARC
  8
型材断面
  6
CONTINUOUS
 10
121.005502
 20
-1.70619
 40
0.499999
 50
179.999982
 51
269.999982
  0
LINE
  8
型材断面
  6
CONTINUOUS
 10
137.172145
 20
-2.20619
 11
120.505487
 21
-2.206182
  0
LINE
  8
型材断面
  6
CONTINUOUS
 10
137.67213
 20
-10.039508
 11
137.67213
 21
-1.706182
  0
LINE
  8
型材断面
  6
CONTINUOUS
 10
112.67218
 20
2.79381
 11
112.67217
 21
3.293828
  0
LINE
  8
型材断面
  6
CONTINUOUS
 10
112.67218
 20
2.79381
 11
120.505495
 21
2.793817
  0
ARC
  8
型材断面
  6
CONTINUOUS
 10
120.505495
 20
2.793798
 40
0.499999
 50
359.999982
 51
449.999982
  0
LINE
  8
型材断面
  6
CONTINUOUS
 10
112.67217
 20
3.293828
 11
121.005495
 21
3.29381
  0
LINE
  8
型材断面
  6
CONTINUOUS
 10
121.005495
 20
3.29381
 11
121.005495
 21
-1.706157
  0
LINE
  8
型材断面
  6
CONTINUOUS
 10
137.67213
 20
-1.706182
 11
121.005495
 21
-1.706157
  0
LINE
  8
型材断面
  6
CONTINUOUS
 10
120.505495
 20
2.793817
 11
120.505487
 21
-2.206182
  0
LINE
  8
型材断面
  6
CONTINUOUS
 62
    47
 10
123.838812
 20
-3.206165
 11
123.838812
 21
-2.706182
  0
LINE
  8
型材断面
  6
CONTINUOUS
 62
    47
 10
123.838812
 20
-2.706165
 11
121.005487
 21
-2.706165
  0
ARC
  8
型材断面
  6
CONTINUOUS
 62
    47
 10
121.005489
 20
-3.206173
 40
0.5
 50
90.0
 51
180.000051
  0
LINE
  8
型材断面
  6
CONTINUOUS
 62
    47
 10
123.838812
 20
-3.206165
 11
121.005487
 21
-3.206165
  0
LINE
  8
型材断面
  6
CONTINUOUS
 62
    47
 10
121.005487
 20
-3.206165
 11
121.005493
 21
-8.872833
  0
ARC
  8
型材断面
  6
CONTINUOUS
 10
120.505488
 20
-7.206175
 40
0.5
 50
270.0
 51
360.0
  0
ARC
  8
型材断面
  6
CONTINUOUS
 10
121.005489
 20
-7.206174
 40
0.655813
 50
229.67739
 51
270.0
  0
ARC
  8
型材断面
  6
CONTINUOUS
 10
121.005489
 20
-7.206174
 40
0.825703
 50
217.268068
 51
270.0
  0
LINE
  8
型材断面
  6
DOT
 10
120.50549
 20
-7.206165
 11
121.50549
 21
-7.206165
  0
LINE
  8
型材断面
  6
DOT
 10
120.50549
 20
-4.539498
 11
121.50549
 21
-4.539498
  0
LINE
  8
型材断面
  6
DOT
 10
121.38049
 20
-4.539498
 11
121.38049
 21
-7.206165
  0
LINE
  8
型材断面
  6
DOT
 10
121.25549
 20
-4.539498
 11
121.25549
 21
-7.206165
  0
LINE
  8
型材断面
  6
DOT
 10
121.13049
 20
-4.539498
 11
121.13049
 21
-7.206165
  0
LINE
  8
型材断面
  6
DOT
 10
120.63049
 20
-4.539498
 11
120.63049
 21
-7.206165
  0
LINE
  8
型材断面
  6
DOT
 10
120.75549
 20
-4.539498
 11
120.75549
 21
-7.206165
  0
LINE
  8
型材断面
  6
DOT
 10
120.88049
 20
-4.539498
 11
120.88049
 21
-7.206165
  0
INSERT
  2
*GRP_0007
  8
型材断面
  6
CONTINUOUS
 10
0.0
 20
0.0
  0
LINE
  8
型材断面
  6
CONTINUOUS
 62
    47
 10
112.405505
 20
-5.039523
 11
112.905505
 21
-5.039523
  0
ARC
  8
型材断面
  6
CONTINUOUS
 62
    47
 10
112.905501
 20
-7.206182
 40
0.499999
 50
179.999964
 51
269.999982
  0
LINE
  8
型材断面
  6
CONTINUOUS
 62
    47
 10
112.405505
 20
-5.039523
 11
112.405505
 21
-7.70618
  0
LINE
  8
型材断面
  6
CONTINUOUS
 62
    47
 10
112.905497
 20
-7.206155
 11
112.905505
 21
-5.039523
  0
LINE
  8
型材断面
  6
CONTINUOUS
 62
    47
 10
112.905497
 20
-7.206155
 11
120.505493
 21
-7.206172
  0
LINE
  8
型材断面
  6
CONTINUOUS
 62
    47
 10
112.405505
 20
-7.70618
 11
120.505493
 21
-7.706172
  0
ARC
  8
型材断面
  6
CONTINUOUS
 62
    47
 10
120.50549
 20
-7.206171
 40
0.5
 50
-89.99995
 51
0.000046
  0
ARC
  8
型材断面
  6
CONTINUOUS
 10
14.143321
 20
-7.70615
 40
0.5
 50
90.00009
 51
180.000038
  0
LINE
  8
型材断面
  6
CONTINUOUS
 10
137.67213
 20
-10.039508
 11
137.17212
 21
-10.03949
  0
LINE
  8
型材断面
  6
CONTINUOUS
 62
    47
 10
120.505487
 20
-3.132833
 11
120.50549
 21
-7.206172
  0
LINE
  8
型材断面
  6
CONTINUOUS
 10
-100.887457
 20
-3.706155
 11
-110.38744
 21
-3.70617
  0
LINE
  8
型材断面
  6
CONTINUOUS
 10
-100.387432
 20
-3.206155
 11
-110.38744
 21
-3.206163
  0
LINE
  8
型材断面
  6
CONTINUOUS
 10
-110.38744
 20
-3.206163
 11
-110.38744
 21
-3.70617
  0
LINE
  8
型材断面
  6
CONTINUOUS
 10
121.505513
 20
-3.706165
 11
131.005495
 21
-3.70618
  0
LINE
  8
型材断面
  6
CONTINUOUS
 10
121.005487
 20
-3.206165
 11
131.005495
 21
-3.206172
  0
LINE
  8
型材断面
  6
CONTINUOUS
 10
131.005495
 20
-3.206172
 11
131.005495
 21
-3.70618
  0
LINE
  8
型材断面
  6
CONTINUOUS
 10
14.143323
 20
-7.706135
 11
14.14333
 21
-19.53943
  0
LINE
  8
型材断面
  6
CONTINUOUS
 10
14.14333
 20
-19.53943
 11
6.476633
 21
-19.53943
  0
LINE
  8
型材断面
  6
CONTINUOUS
 10
6.47664
 20
-9.372812
 11
6.476633
 21
-19.53943
  0
INSERT
  2
*GRP_0008
  8
型材断面
  6
DOT
 10
0.0
 20
0.0
  0
INSERT
  2
*GRP_0009
  8
型材断面
  6
DOT
 10
0.0
 20
0.0
  0
LINE
  8
型材断面
  6
DOT
 10
-100.887435
 20
-8.872825
 11
-99.887435
 21
-8.872825
  0
LINE
  8
型材断面
  6
DOT
 10
-100.887435
 20
-6.206157
 11
-99.887435
 21
-6.206157
  0
LINE
  8
型材断面
  6
DOT
 10
-100.012435
 20
-6.206157
 11
-100.012435
 21
-8.872825
  0
LINE
  8
型材断面
  6
DOT
 10
-100.137435
 20
-6.206157
 11
-100.137435
 21
-8.872825
  0
LINE
  8
型材断面
  6
DOT
 10
-100.262435
 20
-6.206157
 11
-100.262435
 21
-8.872825
  0
LINE
  8
型材断面
  6
DOT
 10
-100.762435
 20
-6.206157
 11
-100.762435
 21
-8.872825
  0
LINE
  8
型材断面
  6
DOT
 10
-100.637435
 20
-6.206157
 11
-100.637435
 21
-8.872825
  0
LINE
  8
型材断面
  6
DOT
 10
-100.512435
 20
-6.206157
 11
-100.512435
 21
-8.872825
  0
LINE
  8
型材断面
  6
CONTINUOUS
 10
121.50547
 20
-20.914697
 11
121.505495
 21
-3.706165
  0
LINE
  8
型材断面
  6
CONTINUOUS
 10
121.005543
 20
-21.28278
 11
121.005517
 21
-3.206165
  0
LINE
  8
型材断面
  6
CONTINUOUS
 10
-100.887428
 20
-20.914703
 11
-100.887453
 21
-3.706155
  0
LINE
  8
型材断面
  6
CONTINUOUS
 10
-100.387463
 20
-21.341425
 11
-100.387438
 21
-3.206155
  0
LINE
  8
型材断面
  6
CONTINUOUS
 10
114.40549
 20
-75.27803
 11
114.40549
 21
-7.706178
  0
LINE
  8
型材断面
  6
CONTINUOUS
 10
117.738823
 20
-75.27803
 11
117.738823
 21
-7.706175
  0
LINE
  8
型材断面
  6
CONTINUOUS
 10
118.072157
 20
-75.27803
 11
118.072157
 21
-7.706175
  0
LINE
  8
型材断面
  6
CONTINUOUS
 10
114.072157
 20
-75.27803
 11
114.072157
 21
-7.706178
  0
LINE
  8
型材断面
  6
CONTINUOUS
 10
19.976648
 20
-5.039467
 11
19.47663
 21
-5.039475
  0
ARC
  8
型材断面
  6
CONTINUOUS
 10
19.476642
 20
-7.20614
 40
0.499999
 50
270.0
 51
360.00006
  0
LINE
  8
型材断面
  6
CONTINUOUS
 10
19.47663
 20
-5.039475
 11
19.47663
 21
-7.206125
  0
LINE
  8
型材断面
  6
CONTINUOUS
 10
19.976648
 20
-5.039467
 11
19.976655
 21
-7.706135
  0
LINE
  8
型材断面
  6
CONTINUOUS
 10
0.643315
 20
-6.706145
 11
1.143332
 21
-6.706153
  0
ARC
  8
型材断面
  6
CONTINUOUS
 10
1.143316
 20
-8.872817
 40
0.499999
 50
179.99994
 51
270.0
  0
LINE
  8
型材断面
  6
CONTINUOUS
 10
1.143332
 20
-6.706153
 11
1.143332
 21
-8.872803
  0
LINE
  8
型材断面
  6
CONTINUOUS
 10
0.643315
 20
-6.706145
 11
0.643308
 21
-9.372812
  0
LINE
  8
型材断面
  6
CONTINUOUS
 62
    47
 10
14.143323
 20
-7.706135
 11
19.976655
 21
-7.706135
  0
LINE
  8
型材断面
  6
CONTINUOUS
 10
13.643323
 20
-7.206135
 11
19.47663
 21
-7.206125
  0
LINE
  8
型材断面
  6
CONTINUOUS
 62
    47
 10
6.47664
 20
-9.372812
 11
0.643308
 21
-9.372812
  0
LINE
  8
型材断面
  6
CONTINUOUS
 10
6.97664
 20
-8.872812
 11
1.143332
 21
-8.872803
  0
ARC
  8
型材断面
  6
CONTINUOUS
 10
-100.651756
 20
-18.217445
 40
0.655813
 50
293.766186
 51
330.592052
  0
ARC
  8
型材断面
  6
CONTINUOUS
 10
-100.651756
 20
-18.217445
 40
0.825703
 50
288.668113
 51
337.045795
  0
ARC
  8
型材断面
  6
CONTINUOUS
 10
-100.651756
 20
-14.861485
 40
0.655813
 50
29.407948
 51
66.233814
  0
ARC
  8
型材断面
  6
CONTINUOUS
 10
-100.651756
 20
-14.861485
 40
0.825703
 50
22.954205
 51
71.331887
  0
LINE
  8
型材断面
  6
CONTINUOUS
 10
-83.787447
 20
-75.27803
 11
-83.787447
 21
-15.0395
  0
LINE
  8
型材断面
  6
CONTINUOUS
 10
-84.120783
 20
-75.27803
 11
-84.120783
 21
-15.0395
  0
LINE
  8
型材断面
  6
CONTINUOUS
 10
-80.120783
 20
-75.27803
 11
-80.120783
 21
-15.0395
  0
LINE
  8
型材断面
  6
CONTINUOUS
 10
-80.454115
 20
-75.27803
 11
-80.454115
 21
-15.0395
  0
ARC
  8
型材断面
  6
CONTINUOUS
 10
121.272036
 20
-18.217445
 40
0.655813
 50
209.407948
 51
246.233814
  0
ARC
  8
型材断面
  6
CONTINUOUS
 10
121.272036
 20
-18.217445
 40
0.825703
 50
202.954205
 51
251.331887
  0
ARC
  8
型材断面
  6
CONTINUOUS
 10
121.272036
 20
-14.861485
 40
0.655813
 50
113.766186
 51
150.592052
  0
ARC
  8
型材断面
  6
CONTINUOUS
 10
121.272036
 20
-14.861485
 40
0.825703
 50
108.668113
 51
157.045795
  0
ARC
  8
型材断面
  6
CONTINUOUS
 10
6.74093
 20
-18.217446
 40
0.655813
 50
209.40779
 51
246.233656
  0
ARC
  8
型材断面
  6
CONTINUOUS
 10
6.74093
 20
-18.217446
 40
0.825703
 50
202.954047
 51
251.331729
  0
ARC
  8
型材断面
  6
CONTINUOUS
 10
6.74094
 20
-14.861486
 40
0.655813
 50
113.766028
 51
150.591894
  0
ARC
  8
型材断面
  6
CONTINUOUS
 10
6.74094
 20
-14.861486
 40
0.825703
 50
108.667955
 51
157.045637
  0
ARC
  8
型材断面
  6
CONTINUOUS
 10
13.87935
 20
-18.217446
 40
0.655813
 50
293.766344
 51
330.59221
  0
ARC
  8
型材断面
  6
CONTINUOUS
 10
13.87935
 20
-18.217446
 40
0.825703
 50
288.668271
 51
337.045953
  0
ARC
  8
型材断面
  6
CONTINUOUS
 10
13.87934
 20
-14.861486
 40
0.655813
 50
29.408106
 51
66.233972
  0
ARC
  8
型材断面
  6
CONTINUOUS
 10
13.87934
 20
-14.861486
 40
0.825703
 50
22.954363
 51
71.332045
  0
LINE
  8
ガラス
  6
CONTINUOUS
 10
-97.0541
 20
-6.206172
 11
-97.054093
 21
-0.272837
  0
LINE
  8
ガラス
  6
CONTINUOUS
 10
-95.054087
 20
-3.939498
 11
-95.054085
 21
-1.939505
  0
LINE
  8
ガラス
  6
CONTINUOUS
 10
-97.054097
 20
-3.939498
 11
-95.054085
 21
-1.939505
  0
LINE
  8
ガラス
  6
CONTINUOUS
 10
-95.054087
 20
-3.939498
 11
-97.054108
 21
-1.939505
  0
LINE
  8
ガラス
  6
CONTINUOUS
 10
117.672163
 20
-4.539523
 11
117.67216
 21
-2.272847
  0
LINE
  8
ガラス
  6
CONTINUOUS
 10
16.47666
 20
-4.539467
 11
16.476655
 21
-2.272847
  0
LINE
  8
ガラス
  6
CONTINUOUS
 10
117.672163
 20
-4.372837
 11
16.47666
 21
-4.372847
  0
LINE
  8
ガラス
  6
CONTINUOUS
 10
117.672163
 20
-4.539523
 11
16.47666
 21
-4.539467
  0
LINE
  8
ガラス
  6
CONTINUOUS
 10
117.67216
 20
-2.272847
 11
16.476655
 21
-2.272847
  0
LINE
  8
ガラス
  6
CONTINUOUS
 10
117.67216
 20
-2.439523
 11
16.476655
 21
-2.439467
  0
LINE
  8
ガラス
  6
CONTINUOUS
 10
4.143308
 20
-6.206153
 11
4.143325
 21
-0.272853
  0
LINE
  8
ガラス
  6
CONTINUOUS
 10
2.143315
 20
-3.939498
 11
2.14332
 21
-1.939505
  0
LINE
  8
ガラス
  6
CONTINUOUS
 10
2.143315
 20
-3.939498
 11
4.14332
 21
-1.939505
  0
LINE
  8
ガラス
  6
CONTINUOUS
 10
4.143315
 20
-3.939498
 11
2.14332
 21
-1.939505
  0
LINE
  8
ガラス
  6
CONTINUOUS
 10
-97.0541
 20
-6.206172
 11
4.143308
 21
-6.206117
  0
LINE
  8
ガラス
  6
CONTINUOUS
 10
-97.0541
 20
-6.039487
 11
4.143308
 21
-6.039498
  0
LINE
  8
ガラス
  6
CONTINUOUS
 10
-97.054097
 20
-4.106172
 11
4.143312
 21
-4.106117
  0
LINE
  8
ガラス
  6
CONTINUOUS
 10
-97.054097
 20
-3.939498
 11
4.143315
 21
-3.939498
  0
LINE
  8
ガラス
  6
CONTINUOUS
 10
-97.054095
 20
-1.939505
 11
4.14332
 21
-1.939505
  0
LINE
  8
ガラス
  6
CONTINUOUS
 10
-97.054095
 20
-1.772847
 11
4.14332
 21
-1.772793
  0
LINE
  8
ガラス
  6
CONTINUOUS
 10
-97.054093
 20
-0.439498
 11
4.143325
 21
-0.439498
  0
LINE
  8
ガラス
  6
CONTINUOUS
 10
-97.054093
 20
-0.272837
 11
4.143325
 21
-0.272782
  0
LINE
  8
ゴム等
  6
CONTINUOUS
 62
   127
 10
-109.887425
 20
-2.206163
 11
-100.88745
 21
-2.206172
  0
ARC
  8
ゴム等
  6
CONTINUOUS
 62
   127
 10
-100.887451
 20
-2.706179
 40
0.499999
 50
0.000018
 51
90.000018
  0
LINE
  8
ゴム等
  6
CONTINUOUS
 62
   127
 10
-109.887425
 20
-2.206163
 11
-100.88745
 21
-2.206172
  0
ARC
  8
ゴム等
  6
CONTINUOUS
 62
   127
 10
-109.887433
 20
-2.706181
 40
0.499999
 50
90.000018
 51
180.000018
  0
LINE
  8
ゴム等
  6
CONTINUOUS
 62
   127
 10
-110.387425
 20
-2.70618
 11
-110.387425
 21
-2.70618
  0
ARC
  8
ゴム等
  6
CONTINUOUS
 62
   127
 10
-109.887433
 20
-2.706181
 40
0.499999
 50
180.000018
 51
270.000018
  0
LINE
  8
ゴム等
  6
CONTINUOUS
 62
   127
 10
-109.887425
 20
-3.206172
 11
-103.3883
 21
-3.206172
  0
LINE
  8
ゴム等
  6
CONTINUOUS
 62
   127
 10
-100.387432
 20
-4.372837
 11
-100.387432
 21
-4.372837
  0
LINE
  8
ゴム等
  6
CONTINUOUS
 10
-91.787457
 20
-6.706172
 11
-92.287457
 21
-6.706172
  0
LINE
  8
ゴム等
  6
CONTINUOUS
 10
-92.287457
 20
-8.539498
 11
-92.287457
 21
-6.706172
  0
LINE
  8
ゴム等
  6
CONTINUOUS
 10
-95.12079
 20
-8.872822
 11
-92.62079
 21
-8.872812
  0
LINE
  8
ゴム等
  6
CONTINUOUS
 10
-92.287457
 20
-8.539498
 11
-92.62079
 21
-8.872812
  0
LINE
  8
ゴム等
  6
CONTINUOUS
 10
-91.787457
 20
-6.706172
 11
-91.78744
 21
-6.206155
  0
LINE
  8
ゴム等
  6
CONTINUOUS
 10
-91.78744
 20
-6.206155
 11
-95.12079
 21
-6.206172
  0
LINE
  8
ゴム等
  6
CONTINUOUS
 10
-95.12079
 20
-8.872822
 11
-95.12079
 21
-6.206172
  0
LINE
  8
ゴム等
  6
CONTINUOUS
 10
-92.114207
 20
-6.206172
 11
-91.787457
 21
-6.532923
  0
LINE
  8
ゴム等
  6
CONTINUOUS
 10
-92.5856
 20
-6.206163
 11
-92.0856
 21
-6.706155
  0
LINE
  8
ゴム等
  6
CONTINUOUS
 10
-93.057015
 20
-6.206163
 11
-92.28745
 21
-6.975723
  0
LINE
  8
ゴム等
  6
CONTINUOUS
 10
-93.528407
 20
-6.206172
 11
-92.28744
 21
-7.447123
  0
LINE
  8
ゴム等
  6
CONTINUOUS
 10
-93.999825
 20
-6.206172
 11
-92.287457
 21
-7.918512
  0
LINE
  8
ゴム等
  6
CONTINUOUS
 10
-94.471233
 20
-6.206163
 11
-92.287465
 21
-8.38993
  0
LINE
  8
ゴム等
  6
CONTINUOUS
 10
-94.942633
 20
-6.206172
 11
-92.448383
 21
-8.700413
  0
LINE
  8
ゴム等
  6
CONTINUOUS
 10
-95.120775
 20
-6.499405
 11
-92.747383
 21
-8.872822
  0
LINE
  8
ゴム等
  6
CONTINUOUS
 10
-95.120775
 20
-6.970798
 11
-93.218765
 21
-8.872812
  0
LINE
  8
ゴム等
  6
CONTINUOUS
 10
-95.120783
 20
-7.442213
 11
-93.690175
 21
-8.87283
  0
LINE
  8
ゴム等
  6
CONTINUOUS
 10
-95.120775
 20
-7.913623
 11
-94.161575
 21
-8.872837
  0
LINE
  8
ゴム等
  6
CONTINUOUS
 10
-95.120775
 20
-8.385023
 11
-94.632982
 21
-8.872822
  0
LINE
  8
ゴム等
  6
CONTINUOUS
 62
   127
 10
130.50548
 20
-2.206172
 11
121.505505
 21
-2.206182
  0
ARC
  8
ゴム等
  6
CONTINUOUS
 62
   127
 10
121.505503
 20
-2.706189
 40
0.499999
 50
89.999982
 51
179.999982
  0
LINE
  8
ゴム等
  6
CONTINUOUS
 62
   127
 10
130.50548
 20
-2.206172
 11
121.505505
 21
-2.206182
  0
ARC
  8
ゴム等
  6
CONTINUOUS
 62
   127
 10
130.505485
 20
-2.706191
 40
0.499999
 50
359.999982
 51
449.999982
  0
LINE
  8
ゴム等
  6
CONTINUOUS
 62
   127
 10
131.00548
 20
-2.70619
 11
131.00548
 21
-2.70619
  0
ARC
  8
ゴム等
  6
CONTINUOUS
 62
   127
 10
130.505485
 20
-2.706191
 40
0.499999
 50
269.999982
 51
359.999982
  0
LINE
  8
ゴム等
  6
CONTINUOUS
 62
   127
 10
130.50548
 20
-3.206182
 11
124.006355
 21
-3.206182
  0
LINE
  8
ゴム等
  6
CONTINUOUS
 62
   127
 10
121.005487
 20
-4.72244
 11
121.005487
 21
-4.72244
  0
LINE
  8
ゴム等
  6
CONTINUOUS
 10
112.405513
 20
-5.039523
 11
112.905513
 21
-5.039523
  0
LINE
  8
ゴム等
  6
CONTINUOUS
 10
112.905513
 20
-6.872847
 11
112.905513
 21
-5.039523
  0
LINE
  8
ゴム等
  6
CONTINUOUS
 10
115.738845
 20
-7.206172
 11
113.238845
 21
-7.206163
  0
LINE
  8
ゴム等
  6
CONTINUOUS
 10
112.905513
 20
-6.872847
 11
113.238845
 21
-7.206163
  0
LINE
  8
ゴム等
  6
CONTINUOUS
 10
112.405513
 20
-5.039523
 11
112.405495
 21
-4.539505
  0
LINE
  8
ゴム等
  6
CONTINUOUS
 10
112.405495
 20
-4.539505
 11
115.738845
 21
-4.539523
  0
LINE
  8
ゴム等
  6
CONTINUOUS
 10
115.738845
 20
-7.206172
 11
115.738845
 21
-4.539523
  0
LINE
  8
ゴム等
  6
CONTINUOUS
 10
112.732263
 20
-4.539523
 11
112.405513
 21
-4.866273
  0
LINE
  8
ゴム等
  6
CONTINUOUS
 10
113.203655
 20
-4.539513
 11
112.703655
 21
-5.039505
  0
LINE
  8
ゴム等
  6
CONTINUOUS
 10
113.67507
 20
-4.539513
 11
112.905505
 21
-5.309073
  0
LINE
  8
ゴム等
  6
CONTINUOUS
 10
114.146463
 20
-4.539523
 11
112.905495
 21
-5.780472
  0
LINE
  8
ゴム等
  6
CONTINUOUS
 10
114.61788
 20
-4.539523
 11
112.905513
 21
-6.251862
  0
LINE
  8
ゴム等
  6
CONTINUOUS
 10
115.089287
 20
-4.539513
 11
112.90552
 21
-6.72328
  0
LINE
  8
ゴム等
  6
CONTINUOUS
 10
115.560687
 20
-4.539523
 11
113.066438
 21
-7.033763
  0
LINE
  8
ゴム等
  6
CONTINUOUS
 10
115.73883
 20
-4.832755
 11
113.365438
 21
-7.206172
  0
LINE
  8
ゴム等
  6
CONTINUOUS
 10
115.73883
 20
-5.304147
 11
113.83682
 21
-7.206163
  0
LINE
  8
ゴム等
  6
CONTINUOUS
 10
115.738838
 20
-5.775562
 11
114.30823
 21
-7.20618
  0
LINE
  8
ゴム等
  6
CONTINUOUS
 10
115.73883
 20
-6.246972
 11
114.77963
 21
-7.206188
  0
LINE
  8
ゴム等
  6
CONTINUOUS
 10
115.73883
 20
-6.718372
 11
115.251037
 21
-7.206172
  0
LINE
  8
ゴム等
  6
CONTINUOUS
 62
   127
 10
-100.387438
 20
-6.3891
 11
-100.387438
 21
-6.3891
  0
INSERT
  2
*GRP_0010
  8
ゴム等
  6
DOT
 10
0.0
 20
0.0
  0
LINE
  8
ゴム等
  6
CONTINUOUS
 10
19.976648
 20
-5.039467
 11
19.47663
 21
-5.039475
  0
LINE
  8
ゴム等
  6
CONTINUOUS
 10
19.47664
 20
-6.872818
 11
19.47663
 21
-5.039475
  0
LINE
  8
ゴム等
  6
CONTINUOUS
 10
16.643315
 20
-7.206135
 11
19.143315
 21
-7.206135
  0
LINE
  8
ゴム等
  6
CONTINUOUS
 10
19.47664
 20
-6.872818
 11
19.143315
 21
-7.206135
  0
LINE
  8
ゴム等
  6
CONTINUOUS
 10
19.976648
 20
-5.039467
 11
19.976648
 21
-4.539467
  0
LINE
  8
ゴム等
  6
CONTINUOUS
 10
19.976648
 20
-4.539467
 11
16.643323
 21
-4.539475
  0
LINE
  8
ゴム等
  6
CONTINUOUS
 10
16.643315
 20
-7.206135
 11
16.643323
 21
-4.539475
  0
LINE
  8
ゴム等
  6
CONTINUOUS
 10
19.649898
 20
-4.539467
 11
19.976648
 21
-4.866235
  0
LINE
  8
ゴム等
  6
CONTINUOUS
 10
19.17849
 20
-4.539467
 11
19.678498
 21
-5.039467
  0
LINE
  8
ゴム等
  6
CONTINUOUS
 10
18.70708
 20
-4.539475
 11
19.47663
 21
-5.30905
  0
LINE
  8
ゴム等
  6
CONTINUOUS
 10
18.23569
 20
-4.539467
 11
19.47663
 21
-5.78046
  0
LINE
  8
ゴム等
  6
CONTINUOUS
 10
17.76428
 20
-4.539475
 11
19.47663
 21
-6.251835
  0
LINE
  8
ゴム等
  6
CONTINUOUS
 10
17.292865
 20
-4.539467
 11
19.47663
 21
-6.723243
  0
LINE
  8
ゴム等
  6
CONTINUOUS
 10
16.82148
 20
-4.539475
 11
19.31573
 21
-7.033717
  0
LINE
  8
ゴム等
  6
CONTINUOUS
 10
16.643315
 20
-4.832725
 11
19.016722
 21
-7.206135
  0
LINE
  8
ゴム等
  6
CONTINUOUS
 10
16.643315
 20
-5.304143
 11
18.545315
 21
-7.206135
  0
LINE
  8
ゴム等
  6
CONTINUOUS
 10
16.643323
 20
-5.775543
 11
18.07394
 21
-7.206142
  0
LINE
  8
ゴム等
  6
CONTINUOUS
 10
16.643315
 20
-6.246943
 11
17.602515
 21
-7.206135
  0
LINE
  8
ゴム等
  6
CONTINUOUS
 10
16.643323
 20
-6.71836
 11
17.131122
 21
-7.206142
  0
LINE
  8
ゴム等
  6
CONTINUOUS
 10
0.643315
 20
-6.706145
 11
1.143332
 21
-6.706153
  0
LINE
  8
ゴム等
  6
CONTINUOUS
 10
1.143325
 20
-8.539495
 11
1.143332
 21
-6.706153
  0
LINE
  8
ゴム等
  6
CONTINUOUS
 10
3.97665
 20
-8.872812
 11
1.47665
 21
-8.872812
  0
LINE
  8
ゴム等
  6
CONTINUOUS
 10
1.143325
 20
-8.539495
 11
1.47665
 21
-8.872812
  0
LINE
  8
ゴム等
  6
CONTINUOUS
 10
0.643315
 20
-6.706145
 11
0.643315
 21
-6.206145
  0
LINE
  8
ゴム等
  6
CONTINUOUS
 10
0.643315
 20
-6.206145
 11
3.97664
 21
-6.206153
  0
LINE
  8
ゴム等
  6
CONTINUOUS
 10
3.97665
 20
-8.872812
 11
3.97664
 21
-6.206153
  0
LINE
  8
ゴム等
  6
CONTINUOUS
 10
0.970065
 20
-6.206145
 11
0.643315
 21
-6.532913
  0
LINE
  8
ゴム等
  6
CONTINUOUS
 10
1.441475
 20
-6.206145
 11
0.941465
 21
-6.706145
  0
LINE
  8
ゴム等
  6
CONTINUOUS
 10
1.912882
 20
-6.206153
 11
1.143332
 21
-6.975727
  0
LINE
  8
ゴム等
  6
CONTINUOUS
 10
2.384275
 20
-6.206145
 11
1.143332
 21
-7.447138
  0
LINE
  8
ゴム等
  6
CONTINUOUS
 10
2.855682
 20
-6.206153
 11
1.143332
 21
-7.918512
  0
LINE
  8
ゴム等
  6
CONTINUOUS
 10
3.3271
 20
-6.206145
 11
1.143332
 21
-8.38992
  0
LINE
  8
ゴム等
  6
CONTINUOUS
 10
3.798482
 20
-6.206153
 11
1.304233
 21
-8.700395
  0
LINE
  8
ゴム等
  6
CONTINUOUS
 10
3.97665
 20
-6.499402
 11
1.60324
 21
-8.872812
  0
LINE
  8
ゴム等
  6
CONTINUOUS
 10
3.97665
 20
-6.97082
 11
2.07465
 21
-8.872812
  0
LINE
  8
ゴム等
  6
CONTINUOUS
 10
3.97664
 20
-7.44222
 11
2.546025
 21
-8.87282
  0
LINE
  8
ゴム等
  6
CONTINUOUS
 10
3.97665
 20
-7.91362
 11
3.01745
 21
-8.872812
  0
LINE
  8
ゴム等
  6
CONTINUOUS
 10
3.97664
 20
-8.385037
 11
3.48884
 21
-8.87282
  0
INSERT
  2
*GRP_0011
  8
ゴム等
  6
DASHDOT
 10
0.0
 20
0.0
  0
INSERT
  2
*GRP_0012
  8
ゴム等
  6
CONTINUOUS
 10
0.0
 20
0.0
  0
INSERT
  2
*GRP_0013
  8
ゴム等
  6
CONTINUOUS
 10
0.0
 20
0.0
  0
INSERT
  2
*GRP_0014
  8
ボルト／ビス
  6
CONTINUOUS
 62
    64
 10
0.0
 20
0.0
  0
INSERT
  2
*GRP_0015
  8
ボルト／ビス
  6
CONTINUOUS
 62
    64
 10
0.0
 20
0.0
  0
INSERT
  2
*GRP_0016
  8
ボルト／ビス
  6
CONTINUOUS
 62
    64
 10
0.0
 20
0.0
  0
INSERT
  2
*GRP_0017
  8
ボルト／ビス
  6
CONTINUOUS
 62
    64
 10
0.0
 20
0.0
  0
INSERT
  2
*GRP_0018
  8
ボルト／ビス
  6
CONTINUOUS
 10
0.0
 20
0.0
  0
INSERT
  2
*GRP_0019
  8
ボルト／ビス
  6
CONTINUOUS
 10
0.0
 20
0.0
  0
INSERT
  2
*GRP_0020
  8
ボルト／ビス
  6
CONTINUOUS
 10
0.0
 20
0.0
  0
INSERT
  2
*GRP_0075
  8
ボルト／ビス
  6
CONTINUOUS
 10
0.0
 20
0.0
  0
INSERT
  2
*GRP_0081
  8
ボルト／ビス
  6
CONTINUOUS
 10
0.0
 20
0.0
  0
INSERT
  2
*GRP_0084
  8
ボルト／ビス
  6
CONTINUOUS
 10
0.0
 20
0.0
  0
INSERT
  2
*GRP_0085
  8
ボルト／ビス
  6
CONTINUOUS
 10
0.0
 20
0.0
  0
TEXT
  7
TextStyle03
  8
文字
  6
CONTINUOUS
 10
96.375
 20
124.025
  1
シリーズ：ＳＴＦＦＫ
 40
5.0
 72
     5
 11
152.0
 21
124.025
  0
TEXT
  7
TextStyle03
  8
文字
  6
CONTINUOUS
 10
96.375
 20
118.4
  1
　　　　　（固定）
 40
5.0
 72
     5
 11
146.375
 21
118.4
  0
TEXT
  7
TextStyle03
  8
文字
  6
CONTINUOUS
 10
96.375
 20
112.775
  1
図面名　：全体納まり断面図
 40
5.0
 72
     5
 11
168.875
 21
112.775
  0
TEXT
  7
TextStyle03
  8
文字
  6
CONTINUOUS
 10
-6.675
 20
-37.425
  1
※中桟はＬ型のみ使用
 40
3.0
 72
     5
 11
26.7
 21
-37.425
  0
TEXT
  7
TextStyle03
  8
文字
  6
CONTINUOUS
 10
165.35
 20
-34.775
  1
規格水切
 40
3.0
 72
     5
 11
178.475
 21
-34.775
  0
TEXT
  7
TextStyle03
  8
文字
  6
CONTINUOUS
 10
155.3
 20
-70.725
  1
排水パイプ
 40
3.0
 50
360.0
 72
     5
 11
171.8
 21
-70.725
  0
TEXT
  7
TextStyle03
  8
文字
  6
CONTINUOUS
 10
151.7375
 20
-74.1
  1
(オプション)
 40
3.0
 50
360.0
 72
     5
 11
171.8
 21
-74.1
  0
TEXT
  7
TextStyle03
  8
文字
  6
CONTINUOUS
 10
144.9875
 20
-77.475
  1
□10×10×1 L=60
 40
3.0
 50
360.0
 72
     5
 11
171.8
 21
-77.475
  0
TEXT
  7
TextStyle03
  8
文字
  6
CONTINUOUS
 10
-16.375
 20
-74.65
  1
角型、Ｌ型タイプ共通
 40
5.0
 72
     5
 11
39.25
 21
-74.65
  0
POLYLINE
  8
文字
  6
CONTINUOUS
 66
     1
 70
     1
  0
VERTEX
  8
文字
 10
43.996728
 20
-66.738548
  0
VERTEX
  8
文字
 10
-21.791447
 20
-66.738548
  0
VERTEX
  8
文字
 10
-21.791447
 20
-78.088342
  0
VERTEX
  8
文字
 10
43.996728
 20
-78.088342
  0
SEQEND
  0
INSERT
  2
*DIM_0021
  8
寸法
  6
CONTINUOUS
 10
0.0
 20
0.0
  0
INSERT
  2
*DIM_0022
  8
寸法
  6
CONTINUOUS
 10
0.0
 20
0.0
  0
INSERT
  2
*DIM_0023
  8
寸法
  6
CONTINUOUS
 10
0.0
 20
0.0
  0
INSERT
  2
*DIM_0024
  8
寸法
  6
CONTINUOUS
 10
0.0
 20
0.0
  0
INSERT
  2
*DIM_0025
  8
寸法
  6
CONTINUOUS
 10
0.0
 20
0.0
  0
INSERT
  2
*DIM_0026
  8
寸法
  6
CONTINUOUS
 10
0.0
 20
0.0
  0
INSERT
  2
*DIM_0027
  8
寸法
  6
CONTINUOUS
 10
0.0
 20
0.0
  0
INSERT
  2
*DIM_0028
  8
寸法
  6
CONTINUOUS
 10
0.0
 20
0.0
  0
INSERT
  2
*DIM_0029
  8
寸法
  6
CONTINUOUS
 10
0.0
 20
0.0
  0
INSERT
  2
*DIM_0030
  8
寸法
  6
CONTINUOUS
 10
0.0
 20
0.0
  0
INSERT
  2
*DIM_0031
  8
寸法
  6
CONTINUOUS
 10
0.0
 20
0.0
  0
INSERT
  2
*DIM_0032
  8
寸法
  6
CONTINUOUS
 10
0.0
 20
0.0
  0
INSERT
  2
*DIM_0033
  8
寸法
  6
CONTINUOUS
 10
0.0
 20
0.0
  0
INSERT
  2
*DIM_0034
  8
寸法
  6
CONTINUOUS
 10
0.0
 20
0.0
  0
INSERT
  2
*GRP_0035
  8
寸法
  6
CONTINUOUS
 10
0.0
 20
0.0
  0
INSERT
  2
*GRP_0036
  8
寸法
  6
CONTINUOUS
 10
0.0
 20
0.0
  0
INSERT
  2
*DIM_0037
  8
寸法
  6
CONTINUOUS
 10
0.0
 20
0.0
  0
INSERT
  2
*DIM_0038
  8
寸法
  6
CONTINUOUS
 10
0.0
 20
0.0
  0
INSERT
  2
*DIM_0039
  8
寸法
  6
CONTINUOUS
 10
0.0
 20
0.0
  0
INSERT
  2
*DIM_0040
  8
寸法
  6
CONTINUOUS
 10
0.0
 20
0.0
  0
INSERT
  2
*DIM_0041
  8
寸法
  6
CONTINUOUS
 10
0.0
 20
0.0
  0
INSERT
  2
*DIM_0042
  8
寸法
  6
CONTINUOUS
 10
0.0
 20
0.0
  0
INSERT
  2
*DIM_0043
  8
寸法
  6
CONTINUOUS
 10
0.0
 20
0.0
  0
INSERT
  2
*DIM_0044
  8
寸法
  6
CONTINUOUS
 10
0.0
 20
0.0
  0
INSERT
  2
*DIM_0045
  8
寸法
  6
CONTINUOUS
 10
0.0
 20
0.0
  0
INSERT
  2
*DIM_0046
  8
寸法
  6
CONTINUOUS
 10
0.0
 20
0.0
  0
INSERT
  2
*DIM_0047
  8
寸法
  6
CONTINUOUS
 10
0.0
 20
0.0
  0
INSERT
  2
*DIM_0048
  8
寸法
  6
CONTINUOUS
 10
0.0
 20
0.0
  0
INSERT
  2
*DIM_0049
  8
寸法
  6
CONTINUOUS
 10
0.0
 20
0.0
  0
INSERT
  2
*DIM_0050
  8
寸法
  6
CONTINUOUS
 10
0.0
 20
0.0
  0
INSERT
  2
*DIM_0051
  8
寸法
  6
CONTINUOUS
 10
0.0
 20
0.0
  0
INSERT
  2
*DIM_0052
  8
寸法
  6
CONTINUOUS
 10
0.0
 20
0.0
  0
INSERT
  2
*DIM_0053
  8
寸法
  6
CONTINUOUS
 10
0.0
 20
0.0
  0
INSERT
  2
*DIM_0054
  8
寸法
  6
CONTINUOUS
 10
0.0
 20
0.0
  0
INSERT
  2
*DIM_0055
  8
寸法
  6
CONTINUOUS
 10
0.0
 20
0.0
  0
INSERT
  2
*DIM_0056
  8
寸法
  6
CONTINUOUS
 10
0.0
 20
0.0
  0
INSERT
  2
*DIM_0057
  8
寸法
  6
CONTINUOUS
 10
0.0
 20
0.0
  0
INSERT
  2
*DIM_0058
  8
寸法
  6
CONTINUOUS
 10
0.0
 20
0.0
  0
INSERT
  2
*DIM_0071
  8
寸法
  6
CONTINUOUS
 10
0.0
 20
0.0
  0
INSERT
  2
*DIM_0072
  8
寸法
  6
CONTINUOUS
 10
0.0
 20
0.0
  0
INSERT
  2
*DIM_0073
  8
寸法
  6
CONTINUOUS
 10
0.0
 20
0.0
  0
INSERT
  2
*DIM_0074
  8
寸法
  6
CONTINUOUS
 10
0.0
 20
0.0
  0
INSERT
  2
*DIM_0078
  8
寸法
  6
CONTINUOUS
 10
0.0
 20
0.0
  0
INSERT
  2
*DIM_0079
  8
寸法
  6
CONTINUOUS
 10
0.0
 20
0.0
  0
INSERT
  2
*DIM_0080
  8
寸法
  6
CONTINUOUS
 10
0.0
 20
0.0
  0
INSERT
  2
*DIM_0090
  8
寸法
  6
CONTINUOUS
 10
0.0
 20
0.0
  0
INSERT
  2
*DIM_0091
  8
寸法
  6
CONTINUOUS
 10
0.0
 20
0.0
  0
INSERT
  2
*DIM_0092
  8
寸法
  6
CONTINUOUS
 10
0.0
 20
0.0
  0
INSERT
  2
*HAT_0007
  8
ﾊｯﾁﾝｸﾞ
 10
0.0
 20
0.0
  0
INSERT
  2
*HAT_0008
  8
ﾊｯﾁﾝｸﾞ
 10
0.0
 20
0.0
  0
INSERT
  2
*HAT_0009
  8
ﾊｯﾁﾝｸﾞ
 10
0.0
 20
0.0
  0
INSERT
  2
*HAT_0010
  8
ﾊｯﾁﾝｸﾞ
 10
0.0
 20
0.0
  0
INSERT
  2
*HAT_0011
  8
ﾊｯﾁﾝｸﾞ
 10
0.0
 20
0.0
  0
INSERT
  2
*GRP_0059
  8
別途部材
  6
CONTINUOUS
 10
0.0
 20
0.0
  0
CIRCLE
  8
別途部材
  6
CONTINUOUS
 62
    96
 10
-50.38744
 20
-13.872833
 40
0.666667
  0
CIRCLE
  8
別途部材
  6
CONTINUOUS
 62
    96
 10
-85.120832
 20
-13.872833
 40
0.666667
  0
LINE
  8
別途部材
  6
CONTINUOUS
 10
-85.7875
 20
-13.206165
 11
-85.7875
 21
-11.87284
  0
LINE
  8
別途部材
  6
CONTINUOUS
 62
    96
 10
-50.38744
 20
-13.206165
 11
-85.7875
 21
-13.206165
  0
LINE
  8
別途部材
  6
CONTINUOUS
 62
    96
 10
-50.38744
 20
-11.87284
 11
-85.7875
 21
-11.87284
  0
CIRCLE
  8
別途部材
  6
CONTINUOUS
 62
    96
 10
-5.689973
 20
-13.872833
 40
0.666667
  0
LINE
  8
別途部材
  6
CONTINUOUS
 10
-5.023305
 20
-13.206165
 11
-5.023305
 21
-11.87284
  0
CIRCLE
  8
別途部材
  6
CONTINUOUS
 62
    96
 10
-39.023305
 20
-13.872833
 40
0.666667
  0
LINE
  8
別途部材
  6
CONTINUOUS
 62
    96
 10
-5.023305
 20
-11.87284
 11
-39.023305
 21
-11.87284
  0
LINE
  8
別途部材
  6
CONTINUOUS
 62
    96
 10
-5.023305
 20
-13.206165
 11
-39.023305
 21
-13.206165
  0
CIRCLE
  8
別途部材
  6
CONTINUOUS
 62
    96
 10
71.00772
 20
-13.872833
 40
0.666667
  0
CIRCLE
  8
別途部材
  6
CONTINUOUS
 62
    96
 10
105.741113
 20
-13.872833
 40
0.666667
  0
LINE
  8
別途部材
  6
CONTINUOUS
 10
106.40778
 20
-13.206165
 11
106.40778
 21
-11.87284
  0
LINE
  8
別途部材
  6
CONTINUOUS
 62
    96
 10
71.00772
 20
-13.206165
 11
106.40778
 21
-13.206165
  0
LINE
  8
別途部材
  6
CONTINUOUS
 62
    96
 10
71.00772
 20
-11.87284
 11
106.40778
 21
-11.87284
  0
CIRCLE
  8
別途部材
  6
CONTINUOUS
 62
    96
 10
26.310253
 20
-13.872833
 40
0.666667
  0
LINE
  8
別途部材
  6
CONTINUOUS
 10
25.643585
 20
-13.206165
 11
25.643585
 21
-11.87284
  0
CIRCLE
  8
別途部材
  6
CONTINUOUS
 62
    96
 10
59.643585
 20
-13.872833
 40
0.666667
  0
LINE
  8
別途部材
  6
CONTINUOUS
 62
    96
 10
25.643585
 20
-11.87284
 11
59.643585
 21
-11.87284
  0
LINE
  8
別途部材
  6
CONTINUOUS
 62
    96
 10
25.643585
 20
-13.206165
 11
59.643585
 21
-13.206165
  0
ARC
  8
鉄骨等
  6
CONTINUOUS
 10
13.143309
 20
-2.872836
 40
0.5
 50
0.000052
 51
90.0
  0
LINE
  8
鉄骨等
  6
CONTINUOUS
 10
13.143315
 20
-2.87283
 11
7.47664
 21
-2.87283
  0
LINE
  8
鉄骨等
  6
CONTINUOUS
 10
13.143315
 20
-2.37283
 11
7.47664
 21
-2.37283
  0
ARC
  8
鉄骨等
  6
CONTINUOUS
 10
7.476633
 20
-2.872836
 40
0.5
 50
90.0
 51
180.0
  0
ARC
  8
鉄骨等
  6
CONTINUOUS
 10
13.143314
 20
-18.539426
 40
0.5
 50
270.0
 51
359.999948
  0
LINE
  8
鉄骨等
  6
CONTINUOUS
 10
13.14332
 20
-18.53943
 11
7.476645
 21
-18.53943
  0
LINE
  8
鉄骨等
  6
CONTINUOUS
 10
13.14332
 20
-19.03943
 11
7.476645
 21
-19.03943
  0
ARC
  8
鉄骨等
  6
CONTINUOUS
 10
7.476638
 20
-18.539426
 40
0.5
 50
180.0
 51
270.0
  0
LINE
  8
鉄骨等
  6
CONTINUOUS
 10
7.47664
 20
-2.87283
 11
7.47664
 21
-18.53943
  0
LINE
  8
鉄骨等
  6
CONTINUOUS
 10
6.97664
 20
-2.87283
 11
6.97664
 21
-18.53943
  0
LINE
  8
鉄骨等
  6
CONTINUOUS
 10
13.143315
 20
-2.87283
 11
13.143327
 21
-18.53943
  0
LINE
  8
鉄骨等
  6
CONTINUOUS
 10
13.643315
 20
-2.87283
 11
13.643327
 21
-18.53943
  0
INSERT
  2
*GRP_0060
  8
鉄骨等
  6
CONTINUOUS
 10
0.0
 20
0.0
  0
LINE
  8
St
  6
CONTINUOUS
 62
    47
 10
-121.955555
 20
-33.870865
 11
-126.455555
 21
-33.870865
  0
POLYLINE
  8
St
  6
CONTINUOUS
 66
     1
  0
VERTEX
  8
St
 10
-125.955555
 20
-33.370865
  0
VERTEX
  8
St
 10
-125.955555
 20
-29.238925
  0
VERTEX
  8
St
 10
-100.387428
 20
-21.282762
  0
SEQEND
  0
LINE
  8
St
  6
CONTINUOUS
 10
-100.387428
 20
-22.08569
 11
-125.955555
 21
-30.041853
  0
ARC
  8
St
  6
CONTINUOUS
 10
-121.455554
 20
-33.370864
 40
0.275881
 50
270.0
 51
360.0
  0
ARC
  8
St
  6
CONTINUOUS
 10
-121.455554
 20
-33.370864
 40
0.5
 50
270.0
 51
360.0
  0
LINE
  8
St
  6
CONTINUOUS
 10
-100.387428
 20
-21.282762
 11
-100.387428
 21
-33.370865
  0
LINE
  8
St
  6
CONTINUOUS
 10
-125.955555
 20
-33.370865
 11
-100.387428
 21
-33.370865
  0
POLYLINE
  8
St
  6
CONTINUOUS
 66
     1
 70
     4
  0
VERTEX
  8
St
 10
-119.925
 20
-42.45
 70
     8
  0
VERTEX
  8
St
 10
-119.925
 20
-42.45
 70
     8
  0
VERTEX
  8
St
 10
-119.925
 20
-42.45
 70
     8
  0
VERTEX
  8
St
 10
-119.9
 20
-42.45
 70
     8
  0
VERTEX
  8
St
 10
-119.9
 20
-42.425
 70
     8
  0
VERTEX
  8
St
 10
-119.9
 20
-42.425
 70
     8
  0
VERTEX
  8
St
 10
-119.875
 20
-42.425
 70
     8
  0
VERTEX
  8
St
 10
-119.875
 20
-42.4
 70
     8
  0
VERTEX
  8
St
 10
-119.85
 20
-42.4
 70
     8
  0
VERTEX
  8
St
 10
-119.85
 20
-42.4
 70
     8
  0
VERTEX
  8
St
 10
-119.85
 20
-42.4
 70
     8
  0
VERTEX
  8
St
 10
-119.825
 20
-42.375
 70
     8
  0
VERTEX
  8
St
 10
-119.825
 20
-42.375
 70
     8
  0
VERTEX
  8
St
 10
-119.825
 20
-42.375
 70
     8
  0
VERTEX
  8
St
 10
-119.8
 20
-42.35
 70
     8
  0
VERTEX
  8
St
 10
-119.8
 20
-42.35
 70
     8
  0
VERTEX
  8
St
 10
-119.775
 20
-42.35
 70
     8
  0
VERTEX
  8
St
 10
-119.775
 20
-42.35
 70
     8
  0
VERTEX
  8
St
 10
-119.775
 20
-42.325
 70
     8
  0
VERTEX
  8
St
 10
-119.75
 20
-42.325
 70
     8
  0
VERTEX
  8
St
 10
-119.75
 20
-42.325
 70
     8
  0
VERTEX
  8
St
 10
-119.75
 20
-42.3
 70
     8
  0
VERTEX
  8
St
 10
-119.725
 20
-42.3
 70
     8
  0
VERTEX
  8
St
 10
-119.725
 20
-42.3
 70
     8
  0
VERTEX
  8
St
 10
-119.7
 20
-42.3
 70
     8
  0
VERTEX
  8
St
 10
-119.7
 20
-42.275
 70
     8
  0
VERTEX
  8
St
 10
-119.7
 20
-42.275
 70
     8
  0
VERTEX
  8
St
 10
-119.675
 20
-42.275
 70
     8
  0
VERTEX
  8
St
 10
-119.675
 20
-42.275
 70
     8
  0
VERTEX
  8
St
 10
-119.675
 20
-42.25
 70
     8
  0
VERTEX
  8
St
 10
-119.65
 20
-42.25
 70
     8
  0
VERTEX
  8
St
 10
-119.65
 20
-42.25
 70
     8
  0
VERTEX
  8
St
 10
-119.625
 20
-42.25
 70
     8
  0
VERTEX
  8
St
 10
-119.625
 20
-42.225
 70
     8
  0
VERTEX
  8
St
 10
-119.625
 20
-42.225
 70
     8
  0
VERTEX
  8
St
 10
-119.6
 20
-42.225
 70
     8
  0
VERTEX
  8
St
 10
-119.6
 20
-42.225
 70
     8
  0
VERTEX
  8
St
 10
-119.6
 20
-42.2
 70
     8
  0
VERTEX
  8
St
 10
-119.575
 20
-42.2
 70
     8
  0
VERTEX
  8
St
 10
-119.575
 20
-42.2
 70
     8
  0
VERTEX
  8
St
 10
-119.55
 20
-42.2
 70
     8
  0
VERTEX
  8
St
 10
-119.55
 20
-42.2
 70
     8
  0
VERTEX
  8
St
 10
-119.55
 20
-42.175
 70
     8
  0
VERTEX
  8
St
 10
-119.525
 20
-42.175
 70
     8
  0
VERTEX
  8
St
 10
-119.525
 20
-42.175
 70
     8
  0
VERTEX
  8
St
 10
-119.525
 20
-42.175
 70
     8
  0
VERTEX
  8
St
 10
-119.5
 20
-42.15
 70
     8
  0
VERTEX
  8
St
 10
-119.5
 20
-42.15
 70
     8
  0
VERTEX
  8
St
 10
-119.5
 20
-42.15
 70
     8
  0
VERTEX
  8
St
 10
-119.475
 20
-42.15
 70
     8
  0
VERTEX
  8
St
 10
-119.475
 20
-42.15
 70
     8
  0
VERTEX
  8
St
 10
-119.45
 20
-42.125
 70
     8
  0
VERTEX
  8
St
 10
-119.45
 20
-42.125
 70
     8
  0
VERTEX
  8
St
 10
-119.45
 20
-42.125
 70
     8
  0
VERTEX
  8
St
 10
-119.425
 20
-42.125
 70
     8
  0
VERTEX
  8
St
 10
-119.425
 20
-42.125
 70
     8
  0
VERTEX
  8
St
 10
-119.425
 20
-42.125
 70
     8
  0
VERTEX
  8
St
 10
-119.4
 20
-42.1
 70
     8
  0
VERTEX
  8
St
 10
-119.4
 20
-42.1
 70
     8
  0
VERTEX
  8
St
 10
-119.4
 20
-42.1
 70
     8
  0
VERTEX
  8
St
 10
-119.375
 20
-42.1
 70
     8
  0
VERTEX
  8
St
 10
-119.375
 20
-42.1
 70
     8
  0
VERTEX
  8
St
 10
-119.375
 20
-42.1
 70
     8
  0
VERTEX
  8
St
 10
-119.35
 20
-42.1
 70
     8
  0
VERTEX
  8
St
 10
-119.35
 20
-42.075
 70
     8
  0
VERTEX
  8
St
 10
-119.325
 20
-42.075
 70
     8
  0
VERTEX
  8
St
 10
-119.325
 20
-42.075
 70
     8
  0
VERTEX
  8
St
 10
-119.325
 20
-42.075
 70
     8
  0
VERTEX
  8
St
 10
-119.3
 20
-42.075
 70
     8
  0
VERTEX
  8
St
 10
-119.3
 20
-42.075
 70
     8
  0
VERTEX
  8
St
 10
-119.3
 20
-42.075
 70
     8
  0
VERTEX
  8
St
 10
-119.275
 20
-42.075
 70
     8
  0
VERTEX
  8
St
 10
-119.275
 20
-42.05
 70
     8
  0
VERTEX
  8
St
 10
-119.275
 20
-42.05
 70
     8
  0
VERTEX
  8
St
 10
-119.25
 20
-42.05
 70
     8
  0
VERTEX
  8
St
 10
-119.25
 20
-42.05
 70
     8
  0
VERTEX
  8
St
 10
-119.25
 20
-42.05
 70
     8
  0
VERTEX
  8
St
 10
-119.225
 20
-42.05
 70
     8
  0
VERTEX
  8
St
 10
-119.225
 20
-42.05
 70
     8
  0
VERTEX
  8
St
 10
-119.225
 20
-42.05
 70
     8
  0
VERTEX
  8
St
 10
-119.2
 20
-42.05
 70
     8
  0
VERTEX
  8
St
 10
-119.2
 20
-42.05
 70
     8
  0
VERTEX
  8
St
 10
-119.2
 20
-42.05
 70
     8
  0
VERTEX
  8
St
 10
-119.175
 20
-42.05
 70
     8
  0
VERTEX
  8
St
 10
-119.175
 20
-42.05
 70
     8
  0
VERTEX
  8
St
 10
-119.175
 20
-42.05
 70
     8
  0
VERTEX
  8
St
 10
-119.15
 20
-42.05
 70
     8
  0
VERTEX
  8
St
 10
-119.15
 20
-42.05
 70
     8
  0
VERTEX
  8
St
 10
-119.15
 20
-42.05
 70
     8
  0
VERTEX
  8
St
 10
-119.125
 20
-42.05
 70
     8
  0
VERTEX
  8
St
 10
-119.125
 20
-42.05
 70
     8
  0
VERTEX
  8
St
 10
-119.125
 20
-42.05
 70
     8
  0
VERTEX
  8
St
 10
-119.1
 20
-42.05
 70
     8
  0
VERTEX
  8
St
 10
-119.1
 20
-42.05
 70
     8
  0
VERTEX
  8
St
 10
-119.1
 20
-42.05
 70
     8
  0
VERTEX
  8
St
 10
-119.075
 20
-42.05
 70
     8
  0
VERTEX
  8
St
 10
-119.075
 20
-42.05
 70
     8
  0
VERTEX
  8
St
 10
-119.075
 20
-42.05
 70
     8
  0
VERTEX
  8
St
 10
-119.05
 20
-42.05
 70
     8
  0
VERTEX
  8
St
 10
-119.05
 20
-42.05
 70
     8
  0
VERTEX
  8
St
 10
-119.05
 20
-42.05
 70
     8
  0
VERTEX
  8
St
 10
-119.025
 20
-42.075
 70
     8
  0
VERTEX
  8
St
 10
-119.025
 20
-42.075
 70
     8
  0
VERTEX
  8
St
 10
-119.025
 20
-42.075
 70
     8
  0
VERTEX
  8
St
 10
-119.0
 20
-42.075
 70
     8
  0
VERTEX
  8
St
 10
-119.0
 20
-42.075
 70
     8
  0
VERTEX
  8
St
 10
-119.0
 20
-42.075
 70
     8
  0
VERTEX
  8
St
 10
-118.975
 20
-42.075
 70
     8
  0
VERTEX
  8
St
 10
-118.975
 20
-42.075
 70
     8
  0
VERTEX
  8
St
 10
-118.975
 20
-42.075
 70
     8
  0
VERTEX
  8
St
 10
-118.95
 20
-42.1
 70
     8
  0
VERTEX
  8
St
 10
-118.95
 20
-42.1
 70
     8
  0
VERTEX
  8
St
 10
-118.95
 20
-42.1
 70
     8
  0
VERTEX
  8
St
 10
-118.925
 20
-42.1
 70
     8
  0
VERTEX
  8
St
 10
-118.925
 20
-42.1
 70
     8
  0
VERTEX
  8
St
 10
-118.925
 20
-42.1
 70
     8
  0
VERTEX
  8
St
 10
-118.9
 20
-42.1
 70
     8
  0
VERTEX
  8
St
 10
-118.9
 20
-42.125
 70
     8
  0
VERTEX
  8
St
 10
-118.9
 20
-42.125
 70
     8
  0
VERTEX
  8
St
 10
-118.875
 20
-42.125
 70
     8
  0
VERTEX
  8
St
 10
-118.875
 20
-42.125
 70
     8
  0
VERTEX
  8
St
 10
-118.875
 20
-42.125
 70
     8
  0
VERTEX
  8
St
 10
-118.85
 20
-42.15
 70
     8
  0
VERTEX
  8
St
 10
-118.85
 20
-42.15
 70
     8
  0
VERTEX
  8
St
 10
-118.85
 20
-42.15
 70
     8
  0
VERTEX
  8
St
 10
-118.825
 20
-42.15
 70
     8
  0
VERTEX
  8
St
 10
-118.825
 20
-42.15
 70
     8
  0
VERTEX
  8
St
 10
-118.825
 20
-42.15
 70
     8
  0
VERTEX
  8
St
 10
-118.825
 20
-42.175
 70
     8
  0
VERTEX
  8
St
 10
-118.8
 20
-42.175
 70
     8
  0
VERTEX
  8
St
 10
-118.8
 20
-42.175
 70
     8
  0
VERTEX
  8
St
 10
-118.8
 20
-42.175
 70
     8
  0
VERTEX
  8
St
 10
-118.775
 20
-42.2
 70
     8
  0
VERTEX
  8
St
 10
-118.775
 20
-42.2
 70
     8
  0
VERTEX
  8
St
 10
-118.775
 20
-42.2
 70
     8
  0
VERTEX
  8
St
 10
-118.75
 20
-42.2
 70
     8
  0
VERTEX
  8
St
 10
-118.75
 20
-42.2
 70
     8
  0
VERTEX
  8
St
 10
-118.75
 20
-42.225
 70
     8
  0
VERTEX
  8
St
 10
-118.725
 20
-42.225
 70
     8
  0
VERTEX
  8
St
 10
-118.725
 20
-42.225
 70
     8
  0
VERTEX
  8
St
 10
-118.725
 20
-42.225
 70
     8
  0
VERTEX
  8
St
 10
-118.7
 20
-42.25
 70
     8
  0
VERTEX
  8
St
 10
-118.7
 20
-42.25
 70
     8
  0
VERTEX
  8
St
 10
-118.7
 20
-42.25
 70
     8
  0
VERTEX
  8
St
 10
-118.675
 20
-42.25
 70
     8
  0
VERTEX
  8
St
 10
-118.675
 20
-42.275
 70
     8
  0
VERTEX
  8
St
 10
-118.675
 20
-42.275
 70
     8
  0
VERTEX
  8
St
 10
-118.65
 20
-42.275
 70
     8
  0
VERTEX
  8
St
 10
-118.65
 20
-42.275
 70
     8
  0
VERTEX
  8
St
 10
-118.65
 20
-42.3
 70
     8
  0
VERTEX
  8
St
 10
-118.625
 20
-42.3
 70
     8
  0
VERTEX
  8
St
 10
-118.625
 20
-42.3
 70
     8
  0
VERTEX
  8
St
 10
-118.625
 20
-42.3
 70
     8
  0
VERTEX
  8
St
 10
-118.6
 20
-42.325
 70
     8
  0
VERTEX
  8
St
 10
-118.6
 20
-42.325
 70
     8
  0
VERTEX
  8
St
 10
-118.6
 20
-42.325
 70
     8
  0
VERTEX
  8
St
 10
-118.575
 20
-42.325
 70
     8
  0
VERTEX
  8
St
 10
-118.575
 20
-42.35
 70
     8
  0
VERTEX
  8
St
 10
-118.575
 20
-42.35
 70
     8
  0
VERTEX
  8
St
 10
-118.55
 20
-42.35
 70
     8
  0
VERTEX
  8
St
 10
-118.55
 20
-42.375
 70
     8
  0
VERTEX
  8
St
 10
-118.55
 20
-42.375
 70
     8
  0
VERTEX
  8
St
 10
-118.525
 20
-42.375
 70
     8
  0
VERTEX
  8
St
 10
-118.525
 20
-42.375
 70
     8
  0
VERTEX
  8
St
 10
-118.525
 20
-42.4
 70
     8
  0
VERTEX
  8
St
 10
-118.5
 20
-42.4
 70
     8
  0
VERTEX
  8
St
 10
-118.5
 20
-42.4
 70
     8
  0
VERTEX
  8
St
 10
-118.5
 20
-42.4
 70
     8
  0
VERTEX
  8
St
 10
-118.475
 20
-42.425
 70
     8
  0
VERTEX
  8
St
 10
-118.475
 20
-42.425
 70
     8
  0
VERTEX
  8
St
 10
-118.475
 20
-42.425
 70
     8
  0
VERTEX
  8
St
 10
-118.45
 20
-42.45
 70
     8
  0
VERTEX
  8
St
 10
-118.45
 20
-42.45
 70
     8
  0
VERTEX
  8
St
 10
-118.45
 20
-42.45
 70
     8
  0
VERTEX
  8
St
 10
-118.425
 20
-42.45
 70
     8
  0
VERTEX
  8
St
 10
-118.425
 20
-42.475
 70
     8
  0
VERTEX
  8
St
 10
-118.425
 20
-42.475
 70
     8
  0
VERTEX
  8
St
 10
-118.4
 20
-42.475
 70
     8
  0
VERTEX
  8
St
 10
-118.4
 20
-42.475
 70
     8
  0
VERTEX
  8
St
 10
-118.4
 20
-42.5
 70
     8
  0
VERTEX
  8
St
 10
-118.375
 20
-42.5
 70
     8
  0
VERTEX
  8
St
 10
-118.375
 20
-42.5
 70
     8
  0
VERTEX
  8
St
 10
-118.35
 20
-42.5
 70
     8
  0
VERTEX
  8
St
 10
-118.35
 20
-42.525
 70
     8
  0
VERTEX
  8
St
 10
-118.35
 20
-42.525
 70
     8
  0
VERTEX
  8
St
 10
-118.325
 20
-42.525
 70
     8
  0
VERTEX
  8
St
 10
-118.325
 20
-42.55
 70
     8
  0
VERTEX
  8
St
 10
-118.325
 20
-42.55
 70
     8
  0
VERTEX
  8
St
 10
-118.3
 20
-42.55
 70
     8
  0
VERTEX
  8
St
 10
-118.3
 20
-42.55
 70
     8
  0
VERTEX
  8
St
 10
-118.3
 20
-42.575
 70
     8
  0
VERTEX
  8
St
 10
-118.275
 20
-42.575
 70
     8
  0
VERTEX
  8
St
 10
-118.275
 20
-42.575
 70
     8
  0
VERTEX
  8
St
 10
-118.25
 20
-42.575
 70
     8
  0
VERTEX
  8
St
 10
-118.25
 20
-42.6
 70
     8
  0
VERTEX
  8
St
 10
-118.25
 20
-42.6
 70
     8
  0
VERTEX
  8
St
 10
-118.225
 20
-42.6
 70
     8
  0
VERTEX
  8
St
 10
-118.225
 20
-42.6
 70
     8
  0
VERTEX
  8
St
 10
-118.225
 20
-42.6
 70
     8
  0
VERTEX
  8
St
 10
-118.2
 20
-42.625
 70
     8
  0
VERTEX
  8
St
 10
-118.2
 20
-42.625
 70
     8
  0
VERTEX
  8
St
 10
-118.175
 20
-42.625
 70
     8
  0
VERTEX
  8
St
 10
-118.175
 20
-42.625
 70
     8
  0
VERTEX
  8
St
 10
-118.175
 20
-42.65
 70
     8
  0
VERTEX
  8
St
 10
-118.15
 20
-42.65
 70
     8
  0
VERTEX
  8
St
 10
-118.15
 20
-42.65
 70
     8
  0
VERTEX
  8
St
 10
-118.125
 20
-42.65
 70
     8
  0
VERTEX
  8
St
 10
-118.125
 20
-42.65
 70
     8
  0
VERTEX
  8
St
 10
-118.125
 20
-42.675
 70
     8
  0
VERTEX
  8
St
 10
-118.1
 20
-42.675
 70
     8
  0
VERTEX
  8
St
 10
-118.1
 20
-42.675
 70
     8
  0
VERTEX
  8
St
 10
-118.075
 20
-42.675
 70
     8
  0
VERTEX
  8
St
 10
-118.075
 20
-42.675
 70
     8
  0
VERTEX
  8
St
 10
-118.075
 20
-42.7
 70
     8
  0
VERTEX
  8
St
 10
-118.05
 20
-42.7
 70
     8
  0
VERTEX
  8
St
 10
-118.05
 20
-42.7
 70
     8
  0
VERTEX
  8
St
 10
-118.025
 20
-42.7
 70
     8
  0
VERTEX
  8
St
 10
-118.025
 20
-42.7
 70
     8
  0
VERTEX
  8
St
 10
-118.0
 20
-42.7
 70
     8
  0
VERTEX
  8
St
 10
-118.0
 20
-42.725
 70
     8
  0
VERTEX
  8
St
 10
-118.0
 20
-42.725
 70
     8
  0
VERTEX
  8
St
 10
-117.975
 20
-42.725
 70
     8
  0
VERTEX
  8
St
 10
-117.975
 20
-42.725
 70
     8
  0
VERTEX
  8
St
 10
-117.95
 20
-42.725
 70
     8
  0
VERTEX
  8
St
 10
-117.95
 20
-42.725
 70
     8
  0
VERTEX
  8
St
 10
-117.925
 20
-42.75
 70
     8
  0
VERTEX
  8
St
 10
-117.925
 20
-42.75
 70
     8
  0
VERTEX
  8
St
 10
-117.925
 20
-42.75
 70
     8
  0
VERTEX
  8
St
 10
-117.9
 20
-42.75
 70
     8
  0
VERTEX
  8
St
 10
-117.9
 20
-42.75
 70
     8
  0
VERTEX
  8
St
 10
-117.875
 20
-42.75
 70
     8
  0
VERTEX
  8
St
 10
-117.875
 20
-42.75
 70
     8
  0
VERTEX
  8
St
 10
-117.85
 20
-42.75
 70
     8
  0
VERTEX
  8
St
 10
-117.85
 20
-42.75
 70
     8
  0
VERTEX
  8
St
 10
-117.825
 20
-42.75
 70
     8
  0
VERTEX
  8
St
 10
-117.825
 20
-42.775
 70
     8
  0
VERTEX
  8
St
 10
-117.8
 20
-42.775
 70
     8
  0
VERTEX
  8
St
 10
-117.8
 20
-42.775
 70
     8
  0
VERTEX
  8
St
 10
-117.775
 20
-42.775
 70
     8
  0
VERTEX
  8
St
 10
-117.775
 20
-42.775
 70
     8
  0
VERTEX
  8
St
 10
-117.775
 20
-42.775
 70
     8
  0
VERTEX
  8
St
 10
-117.75
 20
-42.775
 70
     8
  0
VERTEX
  8
St
 10
-117.75
 20
-42.775
 70
     8
  0
VERTEX
  8
St
 10
-117.725
 20
-42.775
 70
     8
  0
VERTEX
  8
St
 10
-117.725
 20
-42.775
 70
     8
  0
VERTEX
  8
St
 10
-117.7
 20
-42.775
 70
     8
  0
VERTEX
  8
St
 10
-117.7
 20
-42.775
 70
     8
  0
VERTEX
  8
St
 10
-117.675
 20
-42.775
 70
     8
  0
VERTEX
  8
St
 10
-117.675
 20
-42.775
 70
     8
  0
VERTEX
  8
St
 10
-117.65
 20
-42.775
 70
     8
  0
VERTEX
  8
St
 10
-117.65
 20
-42.775
 70
     8
  0
VERTEX
  8
St
 10
-117.625
 20
-42.775
 70
     8
  0
VERTEX
  8
St
 10
-117.625
 20
-42.775
 70
     8
  0
VERTEX
  8
St
 10
-117.6
 20
-42.775
 70
     8
  0
VERTEX
  8
St
 10
-117.6
 20
-42.775
 70
     8
  0
VERTEX
  8
St
 10
-117.575
 20
-42.775
 70
     8
  0
VERTEX
  8
St
 10
-117.55
 20
-42.775
 70
     8
  0
VERTEX
  8
St
 10
-117.55
 20
-42.775
 70
     8
  0
VERTEX
  8
St
 10
-117.525
 20
-42.775
 70
     8
  0
VERTEX
  8
St
 10
-117.525
 20
-42.775
 70
     8
  0
VERTEX
  8
St
 10
-117.5
 20
-42.775
 70
     8
  0
VERTEX
  8
St
 10
-117.5
 20
-42.775
 70
     8
  0
VERTEX
  8
St
 10
-117.475
 20
-42.75
 70
     8
  0
VERTEX
  8
St
 10
-117.475
 20
-42.75
 70
     8
  0
VERTEX
  8
St
 10
-117.45
 20
-42.75
 70
     8
  0
VERTEX
  8
St
 10
-117.45
 20
-42.75
 70
     8
  0
VERTEX
  8
St
 10
-117.425
 20
-42.75
 70
     8
  0
VERTEX
  8
St
 10
-117.425
 20
-42.75
 70
     8
  0
VERTEX
  8
St
 10
-117.4
 20
-42.75
 70
     8
  0
VERTEX
  8
St
 10
-117.4
 20
-42.75
 70
     8
  0
VERTEX
  8
St
 10
-117.375
 20
-42.75
 70
     8
  0
VERTEX
  8
St
 10
-117.375
 20
-42.725
 70
     8
  0
VERTEX
  8
St
 10
-117.35
 20
-42.725
 70
     8
  0
VERTEX
  8
St
 10
-117.35
 20
-42.725
 70
     8
  0
VERTEX
  8
St
 10
-117.325
 20
-42.725
 70
     8
  0
VERTEX
  8
St
 10
-117.325
 20
-42.725
 70
     8
  0
VERTEX
  8
St
 10
-117.3
 20
-42.725
 70
     8
  0
VERTEX
  8
St
 10
-117.3
 20
-42.725
 70
     8
  0
VERTEX
  8
St
 10
-117.275
 20
-42.7
 70
     8
  0
VERTEX
  8
St
 10
-117.275
 20
-42.7
 70
     8
  0
VERTEX
  8
St
 10
-117.25
 20
-42.7
 70
     8
  0
VERTEX
  8
St
 10
-117.25
 20
-42.7
 70
     8
  0
VERTEX
  8
St
 10
-117.225
 20
-42.7
 70
     8
  0
VERTEX
  8
St
 10
-117.225
 20
-42.7
 70
     8
  0
VERTEX
  8
St
 10
-117.2
 20
-42.675
 70
     8
  0
VERTEX
  8
St
 10
-117.2
 20
-42.675
 70
     8
  0
VERTEX
  8
St
 10
-117.175
 20
-42.675
 70
     8
  0
VERTEX
  8
St
 10
-117.175
 20
-42.675
 70
     8
  0
VERTEX
  8
St
 10
-117.175
 20
-42.675
 70
     8
  0
VERTEX
  8
St
 10
-117.15
 20
-42.65
 70
     8
  0
VERTEX
  8
St
 10
-117.15
 20
-42.65
 70
     8
  0
VERTEX
  8
St
 10
-117.125
 20
-42.65
 70
     8
  0
VERTEX
  8
St
 10
-117.125
 20
-42.65
 70
     8
  0
VERTEX
  8
St
 10
-117.1
 20
-42.65
 70
     8
  0
VERTEX
  8
St
 10
-117.1
 20
-42.625
 70
     8
  0
VERTEX
  8
St
 10
-117.1
 20
-42.625
 70
     8
  0
VERTEX
  8
St
 10
-117.075
 20
-42.625
 70
     8
  0
VERTEX
  8
St
 10
-117.075
 20
-42.625
 70
     8
  0
VERTEX
  8
St
 10
-117.075
 20
-42.625
 70
     8
  0
VERTEX
  8
St
 10
-117.05
 20
-42.6
 70
     8
  0
VERTEX
  8
St
 10
-117.05
 20
-42.6
 70
     8
  0
VERTEX
  8
St
 10
-117.05
 20
-42.6
 70
     8
  0
VERTEX
  8
St
 10
-117.025
 20
-42.6
 70
     8
  0
VERTEX
  8
St
 10
-117.025
 20
-42.575
 70
     8
  0
VERTEX
  8
St
 10
-117.025
 20
-42.575
 70
     8
  0
VERTEX
  8
St
 10
-117.0
 20
-42.575
 70
     8
  0
VERTEX
  8
St
 10
-117.0
 20
-42.575
 70
     8
  0
VERTEX
  8
St
 10
-117.0
 20
-42.575
 70
     8
  0
VERTEX
  8
St
 10
-117.0
 20
-42.55
 70
     8
  0
VERTEX
  8
St
 10
-116.975
 20
-42.55
 70
     8
  0
VERTEX
  8
St
 10
-116.975
 20
-42.55
 70
     8
  0
VERTEX
  8
St
 10
-116.975
 20
-42.55
 70
     8
  0
VERTEX
  8
St
 10
-116.975
 20
-42.525
 70
     8
  0
VERTEX
  8
St
 10
-116.975
 20
-42.525
 70
     8
  0
VERTEX
  8
St
 10
-116.95
 20
-42.525
 70
     8
  0
VERTEX
  8
St
 10
-116.95
 20
-42.525
 70
     8
  0
VERTEX
  8
St
 10
-116.95
 20
-42.525
 70
     8
  0
VERTEX
  8
St
 10
-116.95
 20
-42.5
 70
     8
  0
VERTEX
  8
St
 10
-116.95
 20
-42.5
 70
     8
  0
VERTEX
  8
St
 10
-116.95
 20
-42.5
 70
     8
  0
VERTEX
  8
St
 10
-116.95
 20
-42.5
 70
     8
  0
VERTEX
  8
St
 10
-116.95
 20
-42.475
 70
     8
  0
VERTEX
  8
St
 10
-116.95
 20
-42.475
 70
     8
  0
VERTEX
  8
St
 10
-116.925
 20
-42.475
 70
     8
  0
VERTEX
  8
St
 10
-116.925
 20
-42.475
 70
     8
  0
VERTEX
  8
St
 10
-116.925
 20
-42.45
 70
     8
  0
VERTEX
  8
St
 10
-116.925
 20
-42.45
 70
     8
  0
VERTEX
  8
St
 10
-116.925
 20
-42.45
 70
     8
  0
VERTEX
  8
St
 10
-116.925
 20
-42.45
 70
     8
  0
VERTEX
  8
St
 10
-116.95
 20
-42.45
 70
     8
  0
VERTEX
  8
St
 10
-116.95
 20
-42.425
 70
     8
  0
VERTEX
  8
St
 10
-116.95
 20
-42.425
 70
     8
  0
VERTEX
  8
St
 10
-116.95
 20
-42.425
 70
     8
  0
VERTEX
  8
St
 10
-116.95
 20
-42.425
 70
     8
  0
VERTEX
  8
St
 10
-116.95
 20
-42.425
 70
     8
  0
VERTEX
  8
St
 10
-116.95
 20
-42.4
 70
     8
  0
VERTEX
  8
St
 10
-116.95
 20
-42.4
 70
     8
  0
VERTEX
  8
St
 10
-116.95
 20
-42.4
 70
     8
  0
VERTEX
  8
St
 10
-116.975
 20
-42.4
 70
     8
  0
VERTEX
  8
St
 10
-116.975
 20
-42.4
 70
     8
  0
VERTEX
  8
St
 10
-116.975
 20
-42.375
 70
     8
  0
VERTEX
  8
St
 10
-116.975
 20
-42.375
 70
     8
  0
VERTEX
  8
St
 10
-117.0
 20
-42.375
 70
     8
  0
VERTEX
  8
St
 10
-117.0
 20
-42.375
 70
     8
  0
VERTEX
  8
St
 10
-117.0
 20
-42.375
 70
     8
  0
VERTEX
  8
St
 10
-117.0
 20
-42.35
 70
     8
  0
VERTEX
  8
St
 10
-117.025
 20
-42.35
 70
     8
  0
VERTEX
  8
St
 10
-117.025
 20
-42.35
 70
     8
  0
VERTEX
  8
St
 10
-117.025
 20
-42.35
 70
     8
  0
VERTEX
  8
St
 10
-117.025
 20
-42.35
 70
     8
  0
VERTEX
  8
St
 10
-117.05
 20
-42.325
 70
     8
  0
VERTEX
  8
St
 10
-117.05
 20
-42.325
 70
     8
  0
VERTEX
  8
St
 10
-117.05
 20
-42.325
 70
     8
  0
VERTEX
  8
St
 10
-117.075
 20
-42.325
 70
     8
  0
VERTEX
  8
St
 10
-117.075
 20
-42.325
 70
     8
  0
VERTEX
  8
St
 10
-117.1
 20
-42.3
 70
     8
  0
VERTEX
  8
St
 10
-117.1
 20
-42.3
 70
     8
  0
VERTEX
  8
St
 10
-117.1
 20
-42.3
 70
     8
  0
VERTEX
  8
St
 10
-117.125
 20
-42.3
 70
     8
  0
VERTEX
  8
St
 10
-117.125
 20
-42.3
 70
     8
  0
VERTEX
  8
St
 10
-117.125
 20
-42.3
 70
     8
  0
VERTEX
  8
St
 10
-117.15
 20
-42.275
 70
     8
  0
VERTEX
  8
St
 10
-117.15
 20
-42.275
 70
     8
  0
VERTEX
  8
St
 10
-117.175
 20
-42.275
 70
     8
  0
VERTEX
  8
St
 10
-117.175
 20
-42.275
 70
     8
  0
VERTEX
  8
St
 10
-117.2
 20
-42.275
 70
     8
  0
VERTEX
  8
St
 10
-117.2
 20
-42.275
 70
     8
  0
VERTEX
  8
St
 10
-117.225
 20
-42.275
 70
     8
  0
VERTEX
  8
St
 10
-117.225
 20
-42.25
 70
     8
  0
VERTEX
  8
St
 10
-117.225
 20
-42.25
 70
     8
  0
VERTEX
  8
St
 10
-117.25
 20
-42.25
 70
     8
  0
VERTEX
  8
St
 10
-117.25
 20
-42.25
 70
     8
  0
VERTEX
  8
St
 10
-117.275
 20
-42.25
 70
     8
  0
VERTEX
  8
St
 10
-117.275
 20
-42.25
 70
     8
  0
VERTEX
  8
St
 10
-117.3
 20
-42.25
 70
     8
  0
VERTEX
  8
St
 10
-117.3
 20
-42.225
 70
     8
  0
VERTEX
  8
St
 10
-117.325
 20
-42.225
 70
     8
  0
VERTEX
  8
St
 10
-117.325
 20
-42.225
 70
     8
  0
VERTEX
  8
St
 10
-117.35
 20
-42.225
 70
     8
  0
VERTEX
  8
St
 10
-117.35
 20
-42.225
 70
     8
  0
VERTEX
  8
St
 10
-117.375
 20
-42.225
 70
     8
  0
VERTEX
  8
St
 10
-117.375
 20
-42.225
 70
     8
  0
VERTEX
  8
St
 10
-117.4
 20
-42.225
 70
     8
  0
VERTEX
  8
St
 10
-117.425
 20
-42.2
 70
     8
  0
VERTEX
  8
St
 10
-117.425
 20
-42.2
 70
     8
  0
VERTEX
  8
St
 10
-117.45
 20
-42.2
 70
     8
  0
VERTEX
  8
St
 10
-117.45
 20
-42.2
 70
     8
  0
VERTEX
  8
St
 10
-117.475
 20
-42.2
 70
     8
  0
VERTEX
  8
St
 10
-117.475
 20
-42.2
 70
     8
  0
VERTEX
  8
St
 10
-117.5
 20
-42.2
 70
     8
  0
VERTEX
  8
St
 10
-117.5
 20
-42.2
 70
     8
  0
VERTEX
  8
St
 10
-117.525
 20
-42.2
 70
     8
  0
VERTEX
  8
St
 10
-117.525
 20
-42.2
 70
     8
  0
VERTEX
  8
St
 10
-117.55
 20
-42.2
 70
     8
  0
VERTEX
  8
St
 10
-117.55
 20
-42.175
 70
     8
  0
VERTEX
  8
St
 10
-117.575
 20
-42.175
 70
     8
  0
VERTEX
  8
St
 10
-117.575
 20
-42.175
 70
     8
  0
VERTEX
  8
St
 10
-117.6
 20
-42.175
 70
     8
  0
VERTEX
  8
St
 10
-117.6
 20
-42.175
 70
     8
  0
VERTEX
  8
St
 10
-117.625
 20
-42.175
 70
     8
  0
VERTEX
  8
St
 10
-117.65
 20
-42.175
 70
     8
  0
VERTEX
  8
St
 10
-117.65
 20
-42.175
 70
     8
  0
VERTEX
  8
St
 10
-117.675
 20
-42.175
 70
     8
  0
VERTEX
  8
St
 10
-117.675
 20
-42.175
 70
     8
  0
VERTEX
  8
St
 10
-117.7
 20
-42.175
 70
     8
  0
VERTEX
  8
St
 10
-117.7
 20
-42.175
 70
     8
  0
VERTEX
  8
St
 10
-117.725
 20
-42.175
 70
     8
  0
VERTEX
  8
St
 10
-117.725
 20
-42.175
 70
     8
  0
VERTEX
  8
St
 10
-117.75
 20
-42.175
 70
     8
  0
VERTEX
  8
St
 10
-117.75
 20
-42.175
 70
     8
  0
VERTEX
  8
St
 10
-117.775
 20
-42.175
 70
     8
  0
VERTEX
  8
St
 10
-117.775
 20
-42.175
 70
     8
  0
VERTEX
  8
St
 10
-117.8
 20
-42.175
 70
     8
  0
VERTEX
  8
St
 10
-117.8
 20
-42.15
 70
     8
  0
VERTEX
  8
St
 10
-117.825
 20
-42.15
 70
     8
  0
VERTEX
  8
St
 10
-117.825
 20
-42.15
 70
     8
  0
VERTEX
  8
St
 10
-117.825
 20
-42.15
 70
     8
  0
VERTEX
  8
St
 10
-117.85
 20
-42.15
 70
     8
  0
VERTEX
  8
St
 10
-117.85
 20
-42.15
 70
     8
  0
VERTEX
  8
St
 10
-117.875
 20
-42.15
 70
     8
  0
VERTEX
  8
St
 10
-117.875
 20
-42.15
 70
     8
  0
VERTEX
  8
St
 10
-117.9
 20
-42.15
 70
     8
  0
VERTEX
  8
St
 10
-117.9
 20
-42.15
 70
     8
  0
VERTEX
  8
St
 10
-117.925
 20
-42.15
 70
     8
  0
VERTEX
  8
St
 10
-117.925
 20
-42.15
 70
     8
  0
VERTEX
  8
St
 10
-117.95
 20
-42.15
 70
     8
  0
VERTEX
  8
St
 10
-117.95
 20
-42.15
 70
     8
  0
VERTEX
  8
St
 10
-117.975
 20
-42.15
 70
     8
  0
VERTEX
  8
St
 10
-117.975
 20
-42.15
 70
     8
  0
VERTEX
  8
St
 10
-117.975
 20
-42.15
 70
     8
  0
VERTEX
  8
St
 10
-118.0
 20
-42.175
 70
     8
  0
VERTEX
  8
St
 10
-118.0
 20
-42.175
 70
     8
  0
VERTEX
  8
St
 10
-118.025
 20
-42.175
 70
     8
  0
VERTEX
  8
St
 10
-118.025
 20
-42.175
 70
     8
  0
VERTEX
  8
St
 10
-118.05
 20
-42.175
 70
     8
  0
VERTEX
  8
St
 10
-118.05
 20
-42.175
 70
     8
  0
VERTEX
  8
St
 10
-118.05
 20
-42.175
 70
     8
  0
VERTEX
  8
St
 10
-118.075
 20
-42.175
 70
     8
  0
VERTEX
  8
St
 10
-118.075
 20
-42.175
 70
     8
  0
VERTEX
  8
St
 10
-118.1
 20
-42.175
 70
     8
  0
VERTEX
  8
St
 10
-118.1
 20
-42.175
 70
     8
  0
VERTEX
  8
St
 10
-118.125
 20
-42.175
 70
     8
  0
VERTEX
  8
St
 10
-118.125
 20
-42.175
 70
     8
  0
VERTEX
  8
St
 10
-118.125
 20
-42.175
 70
     8
  0
VERTEX
  8
St
 10
-118.15
 20
-42.175
 70
     8
  0
VERTEX
  8
St
 10
-118.15
 20
-42.175
 70
     8
  0
VERTEX
  8
St
 10
-118.175
 20
-42.175
 70
     8
  0
VERTEX
  8
St
 10
-118.175
 20
-42.175
 70
     8
  0
VERTEX
  8
St
 10
-118.175
 20
-42.175
 70
     8
  0
VERTEX
  8
St
 10
-118.2
 20
-42.175
 70
     8
  0
VERTEX
  8
St
 10
-118.2
 20
-42.175
 70
     8
  0
VERTEX
  8
St
 10
-118.225
 20
-42.175
 70
     8
  0
VERTEX
  8
St
 10
-118.225
 20
-42.175
 70
     8
  0
VERTEX
  8
St
 10
-118.225
 20
-42.2
 70
     8
  0
VERTEX
  8
St
 10
-118.25
 20
-42.2
 70
     8
  0
VERTEX
  8
St
 10
-118.25
 20
-42.2
 70
     8
  0
VERTEX
  8
St
 10
-118.275
 20
-42.2
 70
     8
  0
VERTEX
  8
St
 10
-118.275
 20
-42.2
 70
     8
  0
VERTEX
  8
St
 10
-118.275
 20
-42.2
 70
     8
  0
VERTEX
  8
St
 10
-118.3
 20
-42.2
 70
     8
  0
VERTEX
  8
St
 10
-118.3
 20
-42.2
 70
     8
  0
VERTEX
  8
St
 10
-118.3
 20
-42.2
 70
     8
  0
VERTEX
  8
St
 10
-118.325
 20
-42.2
 70
     8
  0
VERTEX
  8
St
 10
-118.325
 20
-42.2
 70
     8
  0
VERTEX
  8
St
 10
-118.35
 20
-42.2
 70
     8
  0
VERTEX
  8
St
 10
-118.35
 20
-42.2
 70
     8
  0
VERTEX
  8
St
 10
-118.35
 20
-42.225
 70
     8
  0
VERTEX
  8
St
 10
-118.375
 20
-42.225
 70
     8
  0
VERTEX
  8
St
 10
-118.375
 20
-42.225
 70
     8
  0
VERTEX
  8
St
 10
-118.375
 20
-42.225
 70
     8
  0
VERTEX
  8
St
 10
-118.4
 20
-42.225
 70
     8
  0
VERTEX
  8
St
 10
-118.4
 20
-42.225
 70
     8
  0
VERTEX
  8
St
 10
-118.425
 20
-42.225
 70
     8
  0
VERTEX
  8
St
 10
-118.425
 20
-42.225
 70
     8
  0
VERTEX
  8
St
 10
-118.425
 20
-42.225
 70
     8
  0
VERTEX
  8
St
 10
-118.45
 20
-42.225
 70
     8
  0
VERTEX
  8
St
 10
-118.45
 20
-42.225
 70
     8
  0
VERTEX
  8
St
 10
-118.45
 20
-42.225
 70
     8
  0
VERTEX
  8
St
 10
-118.475
 20
-42.25
 70
     8
  0
VERTEX
  8
St
 10
-118.475
 20
-42.25
 70
     8
  0
VERTEX
  8
St
 10
-118.5
 20
-42.25
 70
     8
  0
VERTEX
  8
St
 10
-118.5
 20
-42.25
 70
     8
  0
VERTEX
  8
St
 10
-118.5
 20
-42.25
 70
     8
  0
VERTEX
  8
St
 10
-118.525
 20
-42.25
 70
     8
  0
VERTEX
  8
St
 10
-118.525
 20
-42.25
 70
     8
  0
VERTEX
  8
St
 10
-118.525
 20
-42.25
 70
     8
  0
VERTEX
  8
St
 10
-118.55
 20
-42.25
 70
     8
  0
VERTEX
  8
St
 10
-118.55
 20
-42.25
 70
     8
  0
VERTEX
  8
St
 10
-118.55
 20
-42.275
 70
     8
  0
VERTEX
  8
St
 10
-118.575
 20
-42.275
 70
     8
  0
VERTEX
  8
St
 10
-118.575
 20
-42.275
 70
     8
  0
VERTEX
  8
St
 10
-118.575
 20
-42.275
 70
     8
  0
VERTEX
  8
St
 10
-118.6
 20
-42.275
 70
     8
  0
VERTEX
  8
St
 10
-118.6
 20
-42.275
 70
     8
  0
VERTEX
  8
St
 10
-118.625
 20
-42.275
 70
     8
  0
VERTEX
  8
St
 10
-118.625
 20
-42.275
 70
     8
  0
VERTEX
  8
St
 10
-118.625
 20
-42.275
 70
     8
  0
VERTEX
  8
St
 10
-118.65
 20
-42.275
 70
     8
  0
VERTEX
  8
St
 10
-118.65
 20
-42.3
 70
     8
  0
VERTEX
  8
St
 10
-118.65
 20
-42.3
 70
     8
  0
VERTEX
  8
St
 10
-118.675
 20
-42.3
 70
     8
  0
SEQEND
  0
LINE
  8
St
  6
CONTINUOUS
 10
-116.923253
 20
-42.44799
 11
-116.923253
 21
-57.653038
  0
LINE
  8
St
  6
CONTINUOUS
 10
-119.923253
 20
-42.44799
 11
-119.923253
 21
-57.653038
  0
LINE
  8
St
  6
DASHDOT
 10
-118.423253
 20
-42.44799
 11
-118.423253
 21
-57.653038
  0
POLYLINE
  8
St
  6
CONTINUOUS
 66
     1
 70
     4
  0
VERTEX
  8
St
 10
-120.55
 20
-43.9
 70
     8
  0
VERTEX
  8
St
 10
-120.55
 20
-43.925
 70
     8
  0
VERTEX
  8
St
 10
-120.55
 20
-43.925
 70
     8
  0
VERTEX
  8
St
 10
-120.55
 20
-43.95
 70
     8
  0
VERTEX
  8
St
 10
-120.525
 20
-43.95
 70
     8
  0
VERTEX
  8
St
 10
-120.525
 20
-43.975
 70
     8
  0
VERTEX
  8
St
 10
-120.525
 20
-44.0
 70
     8
  0
VERTEX
  8
St
 10
-120.525
 20
-44.0
 70
     8
  0
VERTEX
  8
St
 10
-120.525
 20
-44.025
 70
     8
  0
VERTEX
  8
St
 10
-120.525
 20
-44.025
 70
     8
  0
VERTEX
  8
St
 10
-120.525
 20
-44.05
 70
     8
  0
VERTEX
  8
St
 10
-120.525
 20
-44.05
 70
     8
  0
VERTEX
  8
St
 10
-120.525
 20
-44.075
 70
     8
  0
VERTEX
  8
St
 10
-120.525
 20
-44.075
 70
     8
  0
VERTEX
  8
St
 10
-120.5
 20
-44.1
 70
     8
  0
VERTEX
  8
St
 10
-120.5
 20
-44.125
 70
     8
  0
VERTEX
  8
St
 10
-120.5
 20
-44.125
 70
     8
  0
VERTEX
  8
St
 10
-120.5
 20
-44.15
 70
     8
  0
VERTEX
  8
St
 10
-120.5
 20
-44.15
 70
     8
  0
VERTEX
  8
St
 10
-120.5
 20
-44.175
 70
     8
  0
VERTEX
  8
St
 10
-120.5
 20
-44.175
 70
     8
  0
VERTEX
  8
St
 10
-120.5
 20
-44.2
 70
     8
  0
VERTEX
  8
St
 10
-120.5
 20
-44.2
 70
     8
  0
VERTEX
  8
St
 10
-120.475
 20
-44.225
 70
     8
  0
VERTEX
  8
St
 10
-120.475
 20
-44.225
 70
     8
  0
VERTEX
  8
St
 10
-120.475
 20
-44.25
 70
     8
  0
VERTEX
  8
St
 10
-120.475
 20
-44.25
 70
     8
  0
VERTEX
  8
St
 10
-120.475
 20
-44.275
 70
     8
  0
VERTEX
  8
St
 10
-120.475
 20
-44.275
 70
     8
  0
VERTEX
  8
St
 10
-120.475
 20
-44.3
 70
     8
  0
VERTEX
  8
St
 10
-120.475
 20
-44.3
 70
     8
  0
VERTEX
  8
St
 10
-120.45
 20
-44.325
 70
     8
  0
VERTEX
  8
St
 10
-120.45
 20
-44.35
 70
     8
  0
VERTEX
  8
St
 10
-120.45
 20
-44.35
 70
     8
  0
VERTEX
  8
St
 10
-120.45
 20
-44.375
 70
     8
  0
VERTEX
  8
St
 10
-120.45
 20
-44.375
 70
     8
  0
VERTEX
  8
St
 10
-120.45
 20
-44.375
 70
     8
  0
VERTEX
  8
St
 10
-120.45
 20
-44.4
 70
     8
  0
VERTEX
  8
St
 10
-120.45
 20
-44.4
 70
     8
  0
VERTEX
  8
St
 10
-120.425
 20
-44.425
 70
     8
  0
VERTEX
  8
St
 10
-120.425
 20
-44.425
 70
     8
  0
VERTEX
  8
St
 10
-120.425
 20
-44.45
 70
     8
  0
VERTEX
  8
St
 10
-120.425
 20
-44.45
 70
     8
  0
VERTEX
  8
St
 10
-120.425
 20
-44.475
 70
     8
  0
VERTEX
  8
St
 10
-120.425
 20
-44.475
 70
     8
  0
VERTEX
  8
St
 10
-120.4
 20
-44.5
 70
     8
  0
VERTEX
  8
St
 10
-120.4
 20
-44.5
 70
     8
  0
VERTEX
  8
St
 10
-120.4
 20
-44.525
 70
     8
  0
VERTEX
  8
St
 10
-120.4
 20
-44.525
 70
     8
  0
VERTEX
  8
St
 10
-120.4
 20
-44.525
 70
     8
  0
VERTEX
  8
St
 10
-120.4
 20
-44.55
 70
     8
  0
VERTEX
  8
St
 10
-120.4
 20
-44.55
 70
     8
  0
VERTEX
  8
St
 10
-120.375
 20
-44.575
 70
     8
  0
VERTEX
  8
St
 10
-120.375
 20
-44.575
 70
     8
  0
VERTEX
  8
St
 10
-120.375
 20
-44.6
 70
     8
  0
VERTEX
  8
St
 10
-120.375
 20
-44.6
 70
     8
  0
VERTEX
  8
St
 10
-120.375
 20
-44.6
 70
     8
  0
VERTEX
  8
St
 10
-120.35
 20
-44.625
 70
     8
  0
VERTEX
  8
St
 10
-120.35
 20
-44.625
 70
     8
  0
VERTEX
  8
St
 10
-120.35
 20
-44.65
 70
     8
  0
VERTEX
  8
St
 10
-120.35
 20
-44.65
 70
     8
  0
VERTEX
  8
St
 10
-120.35
 20
-44.65
 70
     8
  0
VERTEX
  8
St
 10
-120.325
 20
-44.675
 70
     8
  0
VERTEX
  8
St
 10
-120.325
 20
-44.675
 70
     8
  0
VERTEX
  8
St
 10
-120.325
 20
-44.675
 70
     8
  0
VERTEX
  8
St
 10
-120.325
 20
-44.7
 70
     8
  0
VERTEX
  8
St
 10
-120.325
 20
-44.7
 70
     8
  0
VERTEX
  8
St
 10
-120.3
 20
-44.7
 70
     8
  0
VERTEX
  8
St
 10
-120.3
 20
-44.725
 70
     8
  0
VERTEX
  8
St
 10
-120.3
 20
-44.725
 70
     8
  0
VERTEX
  8
St
 10
-120.3
 20
-44.725
 70
     8
  0
VERTEX
  8
St
 10
-120.3
 20
-44.725
 70
     8
  0
VERTEX
  8
St
 10
-120.275
 20
-44.75
 70
     8
  0
VERTEX
  8
St
 10
-120.275
 20
-44.75
 70
     8
  0
VERTEX
  8
St
 10
-120.275
 20
-44.75
 70
     8
  0
VERTEX
  8
St
 10
-120.275
 20
-44.775
 70
     8
  0
VERTEX
  8
St
 10
-120.25
 20
-44.775
 70
     8
  0
VERTEX
  8
St
 10
-120.25
 20
-44.775
 70
     8
  0
VERTEX
  8
St
 10
-120.25
 20
-44.775
 70
     8
  0
VERTEX
  8
St
 10
-120.25
 20
-44.8
 70
     8
  0
VERTEX
  8
St
 10
-120.225
 20
-44.8
 70
     8
  0
VERTEX
  8
St
 10
-120.225
 20
-44.8
 70
     8
  0
VERTEX
  8
St
 10
-120.225
 20
-44.8
 70
     8
  0
VERTEX
  8
St
 10
-120.2
 20
-44.8
 70
     8
  0
VERTEX
  8
St
 10
-120.2
 20
-44.825
 70
     8
  0
VERTEX
  8
St
 10
-120.2
 20
-44.825
 70
     8
  0
VERTEX
  8
St
 10
-120.2
 20
-44.825
 70
     8
  0
VERTEX
  8
St
 10
-120.175
 20
-44.825
 70
     8
  0
VERTEX
  8
St
 10
-120.175
 20
-44.825
 70
     8
  0
VERTEX
  8
St
 10
-120.175
 20
-44.825
 70
     8
  0
VERTEX
  8
St
 10
-120.15
 20
-44.825
 70
     8
  0
VERTEX
  8
St
 10
-120.15
 20
-44.85
 70
     8
  0
VERTEX
  8
St
 10
-120.15
 20
-44.85
 70
     8
  0
VERTEX
  8
St
 10
-120.125
 20
-44.85
 70
     8
  0
VERTEX
  8
St
 10
-120.125
 20
-44.85
 70
     8
  0
VERTEX
  8
St
 10
-120.125
 20
-44.85
 70
     8
  0
VERTEX
  8
St
 10
-120.1
 20
-44.85
 70
     8
  0
VERTEX
  8
St
 10
-120.1
 20
-44.85
 70
     8
  0
VERTEX
  8
St
 10
-120.1
 20
-44.85
 70
     8
  0
VERTEX
  8
St
 10
-120.075
 20
-44.85
 70
     8
  0
VERTEX
  8
St
 10
-120.075
 20
-44.85
 70
     8
  0
VERTEX
  8
St
 10
-120.075
 20
-44.85
 70
     8
  0
VERTEX
  8
St
 10
-120.05
 20
-44.85
 70
     8
  0
VERTEX
  8
St
 10
-120.05
 20
-44.85
 70
     8
  0
VERTEX
  8
St
 10
-120.05
 20
-44.85
 70
     8
  0
VERTEX
  8
St
 10
-120.025
 20
-44.85
 70
     8
  0
VERTEX
  8
St
 10
-120.025
 20
-44.85
 70
     8
  0
VERTEX
  8
St
 10
-120.025
 20
-44.85
 70
     8
  0
VERTEX
  8
St
 10
-120.0
 20
-44.85
 70
     8
  0
VERTEX
  8
St
 10
-120.0
 20
-44.85
 70
     8
  0
VERTEX
  8
St
 10
-119.975
 20
-44.85
 70
     8
  0
VERTEX
  8
St
 10
-119.975
 20
-44.85
 70
     8
  0
VERTEX
  8
St
 10
-119.975
 20
-44.85
 70
     8
  0
VERTEX
  8
St
 10
-119.95
 20
-44.85
 70
     8
  0
VERTEX
  8
St
 10
-119.95
 20
-44.85
 70
     8
  0
VERTEX
  8
St
 10
-119.925
 20
-44.85
 70
     8
  0
VERTEX
  8
St
 10
-119.925
 20
-44.85
 70
     8
  0
VERTEX
  8
St
 10
-119.925
 20
-44.85
 70
     8
  0
VERTEX
  8
St
 10
-119.9
 20
-44.85
 70
     8
  0
VERTEX
  8
St
 10
-119.9
 20
-44.85
 70
     8
  0
VERTEX
  8
St
 10
-119.875
 20
-44.85
 70
     8
  0
VERTEX
  8
St
 10
-119.875
 20
-44.85
 70
     8
  0
VERTEX
  8
St
 10
-119.875
 20
-44.825
 70
     8
  0
VERTEX
  8
St
 10
-119.85
 20
-44.825
 70
     8
  0
VERTEX
  8
St
 10
-119.85
 20
-44.825
 70
     8
  0
VERTEX
  8
St
 10
-119.825
 20
-44.825
 70
     8
  0
VERTEX
  8
St
 10
-119.825
 20
-44.825
 70
     8
  0
VERTEX
  8
St
 10
-119.8
 20
-44.825
 70
     8
  0
VERTEX
  8
St
 10
-119.8
 20
-44.825
 70
     8
  0
VERTEX
  8
St
 10
-119.8
 20
-44.825
 70
     8
  0
VERTEX
  8
St
 10
-119.775
 20
-44.825
 70
     8
  0
VERTEX
  8
St
 10
-119.775
 20
-44.8
 70
     8
  0
VERTEX
  8
St
 10
-119.75
 20
-44.8
 70
     8
  0
VERTEX
  8
St
 10
-119.75
 20
-44.8
 70
     8
  0
VERTEX
  8
St
 10
-119.725
 20
-44.8
 70
     8
  0
VERTEX
  8
St
 10
-119.725
 20
-44.8
 70
     8
  0
VERTEX
  8
St
 10
-119.7
 20
-44.8
 70
     8
  0
VERTEX
  8
St
 10
-119.7
 20
-44.775
 70
     8
  0
VERTEX
  8
St
 10
-119.675
 20
-44.775
 70
     8
  0
VERTEX
  8
St
 10
-119.675
 20
-44.775
 70
     8
  0
VERTEX
  8
St
 10
-119.675
 20
-44.775
 70
     8
  0
VERTEX
  8
St
 10
-119.65
 20
-44.775
 70
     8
  0
VERTEX
  8
St
 10
-119.65
 20
-44.775
 70
     8
  0
VERTEX
  8
St
 10
-119.625
 20
-44.75
 70
     8
  0
VERTEX
  8
St
 10
-119.625
 20
-44.75
 70
     8
  0
VERTEX
  8
St
 10
-119.6
 20
-44.75
 70
     8
  0
VERTEX
  8
St
 10
-119.6
 20
-44.75
 70
     8
  0
VERTEX
  8
St
 10
-119.575
 20
-44.75
 70
     8
  0
VERTEX
  8
St
 10
-119.575
 20
-44.75
 70
     8
  0
VERTEX
  8
St
 10
-119.55
 20
-44.725
 70
     8
  0
VERTEX
  8
St
 10
-119.55
 20
-44.725
 70
     8
  0
VERTEX
  8
St
 10
-119.525
 20
-44.725
 70
     8
  0
VERTEX
  8
St
 10
-119.525
 20
-44.725
 70
     8
  0
VERTEX
  8
St
 10
-119.5
 20
-44.725
 70
     8
  0
VERTEX
  8
St
 10
-119.5
 20
-44.7
 70
     8
  0
VERTEX
  8
St
 10
-119.475
 20
-44.7
 70
     8
  0
VERTEX
  8
St
 10
-119.475
 20
-44.7
 70
     8
  0
VERTEX
  8
St
 10
-119.45
 20
-44.7
 70
     8
  0
VERTEX
  8
St
 10
-119.45
 20
-44.7
 70
     8
  0
VERTEX
  8
St
 10
-119.425
 20
-44.675
 70
     8
  0
VERTEX
  8
St
 10
-119.425
 20
-44.675
 70
     8
  0
VERTEX
  8
St
 10
-119.4
 20
-44.675
 70
     8
  0
VERTEX
  8
St
 10
-119.4
 20
-44.675
 70
     8
  0
VERTEX
  8
St
 10
-119.375
 20
-44.675
 70
     8
  0
VERTEX
  8
St
 10
-119.375
 20
-44.65
 70
     8
  0
VERTEX
  8
St
 10
-119.35
 20
-44.65
 70
     8
  0
VERTEX
  8
St
 10
-119.35
 20
-44.65
 70
     8
  0
VERTEX
  8
St
 10
-119.325
 20
-44.65
 70
     8
  0
VERTEX
  8
St
 10
-119.325
 20
-44.65
 70
     8
  0
VERTEX
  8
St
 10
-119.3
 20
-44.625
 70
     8
  0
VERTEX
  8
St
 10
-119.3
 20
-44.625
 70
     8
  0
VERTEX
  8
St
 10
-119.275
 20
-44.625
 70
     8
  0
VERTEX
  8
St
 10
-119.275
 20
-44.625
 70
     8
  0
VERTEX
  8
St
 10
-119.25
 20
-44.625
 70
     8
  0
VERTEX
  8
St
 10
-119.25
 20
-44.6
 70
     8
  0
VERTEX
  8
St
 10
-119.225
 20
-44.6
 70
     8
  0
VERTEX
  8
St
 10
-119.225
 20
-44.6
 70
     8
  0
VERTEX
  8
St
 10
-119.2
 20
-44.6
 70
     8
  0
VERTEX
  8
St
 10
-119.2
 20
-44.6
 70
     8
  0
VERTEX
  8
St
 10
-119.175
 20
-44.575
 70
     8
  0
VERTEX
  8
St
 10
-119.175
 20
-44.575
 70
     8
  0
VERTEX
  8
St
 10
-119.15
 20
-44.575
 70
     8
  0
VERTEX
  8
St
 10
-119.15
 20
-44.575
 70
     8
  0
VERTEX
  8
St
 10
-119.125
 20
-44.575
 70
     8
  0
VERTEX
  8
St
 10
-119.125
 20
-44.575
 70
     8
  0
VERTEX
  8
St
 10
-119.1
 20
-44.55
 70
     8
  0
VERTEX
  8
St
 10
-119.1
 20
-44.55
 70
     8
  0
VERTEX
  8
St
 10
-119.075
 20
-44.55
 70
     8
  0
VERTEX
  8
St
 10
-119.075
 20
-44.55
 70
     8
  0
VERTEX
  8
St
 10
-119.05
 20
-44.55
 70
     8
  0
VERTEX
  8
St
 10
-119.05
 20
-44.55
 70
     8
  0
VERTEX
  8
St
 10
-119.025
 20
-44.525
 70
     8
  0
VERTEX
  8
St
 10
-119.025
 20
-44.525
 70
     8
  0
VERTEX
  8
St
 10
-119.0
 20
-44.525
 70
     8
  0
VERTEX
  8
St
 10
-119.0
 20
-44.525
 70
     8
  0
VERTEX
  8
St
 10
-118.975
 20
-44.525
 70
     8
  0
VERTEX
  8
St
 10
-118.975
 20
-44.525
 70
     8
  0
VERTEX
  8
St
 10
-118.95
 20
-44.525
 70
     8
  0
VERTEX
  8
St
 10
-118.95
 20
-44.525
 70
     8
  0
VERTEX
  8
St
 10
-118.925
 20
-44.5
 70
     8
  0
VERTEX
  8
St
 10
-118.925
 20
-44.5
 70
     8
  0
VERTEX
  8
St
 10
-118.9
 20
-44.5
 70
     8
  0
VERTEX
  8
St
 10
-118.9
 20
-44.5
 70
     8
  0
VERTEX
  8
St
 10
-118.875
 20
-44.5
 70
     8
  0
VERTEX
  8
St
 10
-118.875
 20
-44.5
 70
     8
  0
VERTEX
  8
St
 10
-118.85
 20
-44.5
 70
     8
  0
VERTEX
  8
St
 10
-118.85
 20
-44.5
 70
     8
  0
VERTEX
  8
St
 10
-118.825
 20
-44.5
 70
     8
  0
VERTEX
  8
St
 10
-118.825
 20
-44.5
 70
     8
  0
VERTEX
  8
St
 10
-118.8
 20
-44.475
 70
     8
  0
VERTEX
  8
St
 10
-118.8
 20
-44.475
 70
     8
  0
VERTEX
  8
St
 10
-118.775
 20
-44.475
 70
     8
  0
VERTEX
  8
St
 10
-118.775
 20
-44.475
 70
     8
  0
VERTEX
  8
St
 10
-118.75
 20
-44.475
 70
     8
  0
VERTEX
  8
St
 10
-118.75
 20
-44.475
 70
     8
  0
VERTEX
  8
St
 10
-118.725
 20
-44.475
 70
     8
  0
VERTEX
  8
St
 10
-118.725
 20
-44.475
 70
     8
  0
VERTEX
  8
St
 10
-118.7
 20
-44.475
 70
     8
  0
VERTEX
  8
St
 10
-118.7
 20
-44.475
 70
     8
  0
VERTEX
  8
St
 10
-118.7
 20
-44.475
 70
     8
  0
VERTEX
  8
St
 10
-118.675
 20
-44.475
 70
     8
  0
VERTEX
  8
St
 10
-118.675
 20
-44.475
 70
     8
  0
VERTEX
  8
St
 10
-118.65
 20
-44.475
 70
     8
  0
VERTEX
  8
St
 10
-118.65
 20
-44.475
 70
     8
  0
VERTEX
  8
St
 10
-118.625
 20
-44.475
 70
     8
  0
VERTEX
  8
St
 10
-118.625
 20
-44.475
 70
     8
  0
VERTEX
  8
St
 10
-118.6
 20
-44.475
 70
     8
  0
VERTEX
  8
St
 10
-118.6
 20
-44.475
 70
     8
  0
VERTEX
  8
St
 10
-118.575
 20
-44.475
 70
     8
  0
VERTEX
  8
St
 10
-118.575
 20
-44.5
 70
     8
  0
VERTEX
  8
St
 10
-118.55
 20
-44.5
 70
     8
  0
VERTEX
  8
St
 10
-118.55
 20
-44.5
 70
     8
  0
VERTEX
  8
St
 10
-118.55
 20
-44.5
 70
     8
  0
VERTEX
  8
St
 10
-118.525
 20
-44.5
 70
     8
  0
VERTEX
  8
St
 10
-118.525
 20
-44.5
 70
     8
  0
VERTEX
  8
St
 10
-118.5
 20
-44.5
 70
     8
  0
VERTEX
  8
St
 10
-118.5
 20
-44.5
 70
     8
  0
VERTEX
  8
St
 10
-118.475
 20
-44.5
 70
     8
  0
VERTEX
  8
St
 10
-118.475
 20
-44.525
 70
     8
  0
VERTEX
  8
St
 10
-118.45
 20
-44.525
 70
     8
  0
VERTEX
  8
St
 10
-118.45
 20
-44.525
 70
     8
  0
VERTEX
  8
St
 10
-118.45
 20
-44.525
 70
     8
  0
VERTEX
  8
St
 10
-118.425
 20
-44.525
 70
     8
  0
VERTEX
  8
St
 10
-118.425
 20
-44.525
 70
     8
  0
VERTEX
  8
St
 10
-118.4
 20
-44.55
 70
     8
  0
VERTEX
  8
St
 10
-118.4
 20
-44.55
 70
     8
  0
VERTEX
  8
St
 10
-118.4
 20
-44.55
 70
     8
  0
VERTEX
  8
St
 10
-118.375
 20
-44.55
 70
     8
  0
VERTEX
  8
St
 10
-118.375
 20
-44.575
 70
     8
  0
VERTEX
  8
St
 10
-118.35
 20
-44.575
 70
     8
  0
VERTEX
  8
St
 10
-118.35
 20
-44.575
 70
     8
  0
VERTEX
  8
St
 10
-118.35
 20
-44.575
 70
     8
  0
VERTEX
  8
St
 10
-118.325
 20
-44.6
 70
     8
  0
VERTEX
  8
St
 10
-118.325
 20
-44.6
 70
     8
  0
VERTEX
  8
St
 10
-118.3
 20
-44.6
 70
     8
  0
VERTEX
  8
St
 10
-118.3
 20
-44.625
 70
     8
  0
VERTEX
  8
St
 10
-118.3
 20
-44.625
 70
     8
  0
VERTEX
  8
St
 10
-118.275
 20
-44.625
 70
     8
  0
VERTEX
  8
St
 10
-118.275
 20
-44.65
 70
     8
  0
VERTEX
  8
St
 10
-118.25
 20
-44.65
 70
     8
  0
VERTEX
  8
St
 10
-118.25
 20
-44.65
 70
     8
  0
VERTEX
  8
St
 10
-118.25
 20
-44.675
 70
     8
  0
VERTEX
  8
St
 10
-118.225
 20
-44.675
 70
     8
  0
VERTEX
  8
St
 10
-118.225
 20
-44.7
 70
     8
  0
VERTEX
  8
St
 10
-118.225
 20
-44.7
 70
     8
  0
VERTEX
  8
St
 10
-118.2
 20
-44.7
 70
     8
  0
VERTEX
  8
St
 10
-118.2
 20
-44.725
 70
     8
  0
VERTEX
  8
St
 10
-118.2
 20
-44.725
 70
     8
  0
VERTEX
  8
St
 10
-118.175
 20
-44.75
 70
     8
  0
VERTEX
  8
St
 10
-118.175
 20
-44.75
 70
     8
  0
VERTEX
  8
St
 10
-118.175
 20
-44.75
 70
     8
  0
VERTEX
  8
St
 10
-118.15
 20
-44.775
 70
     8
  0
VERTEX
  8
St
 10
-118.15
 20
-44.775
 70
     8
  0
VERTEX
  8
St
 10
-118.15
 20
-44.8
 70
     8
  0
VERTEX
  8
St
 10
-118.15
 20
-44.8
 70
     8
  0
VERTEX
  8
St
 10
-118.125
 20
-44.825
 70
     8
  0
VERTEX
  8
St
 10
-118.125
 20
-44.825
 70
     8
  0
VERTEX
  8
St
 10
-118.125
 20
-44.85
 70
     8
  0
VERTEX
  8
St
 10
-118.1
 20
-44.85
 70
     8
  0
VERTEX
  8
St
 10
-118.1
 20
-44.875
 70
     8
  0
VERTEX
  8
St
 10
-118.1
 20
-44.875
 70
     8
  0
VERTEX
  8
St
 10
-118.1
 20
-44.9
 70
     8
  0
VERTEX
  8
St
 10
-118.075
 20
-44.9
 70
     8
  0
VERTEX
  8
St
 10
-118.075
 20
-44.925
 70
     8
  0
VERTEX
  8
St
 10
-118.075
 20
-44.925
 70
     8
  0
VERTEX
  8
St
 10
-118.075
 20
-44.95
 70
     8
  0
VERTEX
  8
St
 10
-118.05
 20
-44.95
 70
     8
  0
VERTEX
  8
St
 10
-118.05
 20
-44.95
 70
     8
  0
VERTEX
  8
St
 10
-118.05
 20
-44.975
 70
     8
  0
VERTEX
  8
St
 10
-118.05
 20
-45.0
 70
     8
  0
VERTEX
  8
St
 10
-118.05
 20
-45.0
 70
     8
  0
VERTEX
  8
St
 10
-118.025
 20
-45.025
 70
     8
  0
VERTEX
  8
St
 10
-118.025
 20
-45.025
 70
     8
  0
VERTEX
  8
St
 10
-118.025
 20
-45.05
 70
     8
  0
VERTEX
  8
St
 10
-118.025
 20
-45.05
 70
     8
  0
VERTEX
  8
St
 10
-118.025
 20
-45.075
 70
     8
  0
VERTEX
  8
St
 10
-118.025
 20
-45.075
 70
     8
  0
VERTEX
  8
St
 10
-118.0
 20
-45.1
 70
     8
  0
VERTEX
  8
St
 10
-118.0
 20
-45.1
 70
     8
  0
VERTEX
  8
St
 10
-118.0
 20
-45.125
 70
     8
  0
VERTEX
  8
St
 10
-118.0
 20
-45.125
 70
     8
  0
VERTEX
  8
St
 10
-118.0
 20
-45.15
 70
     8
  0
VERTEX
  8
St
 10
-118.0
 20
-45.15
 70
     8
  0
VERTEX
  8
St
 10
-118.0
 20
-45.175
 70
     8
  0
VERTEX
  8
St
 10
-117.975
 20
-45.175
 70
     8
  0
VERTEX
  8
St
 10
-117.975
 20
-45.2
 70
     8
  0
VERTEX
  8
St
 10
-117.975
 20
-45.2
 70
     8
  0
VERTEX
  8
St
 10
-117.975
 20
-45.225
 70
     8
  0
VERTEX
  8
St
 10
-117.975
 20
-45.225
 70
     8
  0
VERTEX
  8
St
 10
-117.975
 20
-45.25
 70
     8
  0
VERTEX
  8
St
 10
-117.975
 20
-45.25
 70
     8
  0
VERTEX
  8
St
 10
-117.975
 20
-45.275
 70
     8
  0
VERTEX
  8
St
 10
-117.975
 20
-45.275
 70
     8
  0
VERTEX
  8
St
 10
-117.975
 20
-45.275
 70
     8
  0
VERTEX
  8
St
 10
-117.975
 20
-45.3
 70
     8
  0
VERTEX
  8
St
 10
-117.975
 20
-45.3
 70
     8
  0
VERTEX
  8
St
 10
-117.975
 20
-45.325
 70
     8
  0
VERTEX
  8
St
 10
-117.975
 20
-45.325
 70
     8
  0
VERTEX
  8
St
 10
-117.975
 20
-45.35
 70
     8
  0
VERTEX
  8
St
 10
-117.975
 20
-45.35
 70
     8
  0
VERTEX
  8
St
 10
-117.975
 20
-45.375
 70
     8
  0
VERTEX
  8
St
 10
-117.975
 20
-45.375
 70
     8
  0
VERTEX
  8
St
 10
-117.975
 20
-45.4
 70
     8
  0
VERTEX
  8
St
 10
-117.975
 20
-45.4
 70
     8
  0
VERTEX
  8
St
 10
-117.975
 20
-45.4
 70
     8
  0
VERTEX
  8
St
 10
-117.975
 20
-45.425
 70
     8
  0
VERTEX
  8
St
 10
-117.975
 20
-45.425
 70
     8
  0
VERTEX
  8
St
 10
-117.975
 20
-45.45
 70
     8
  0
VERTEX
  8
St
 10
-118.0
 20
-45.45
 70
     8
  0
VERTEX
  8
St
 10
-118.0
 20
-45.45
 70
     8
  0
VERTEX
  8
St
 10
-118.0
 20
-45.475
 70
     8
  0
VERTEX
  8
St
 10
-118.0
 20
-45.475
 70
     8
  0
VERTEX
  8
St
 10
-118.0
 20
-45.475
 70
     8
  0
VERTEX
  8
St
 10
-118.0
 20
-45.5
 70
     8
  0
VERTEX
  8
St
 10
-118.0
 20
-45.5
 70
     8
  0
VERTEX
  8
St
 10
-118.025
 20
-45.5
 70
     8
  0
VERTEX
  8
St
 10
-118.025
 20
-45.525
 70
     8
  0
VERTEX
  8
St
 10
-118.025
 20
-45.525
 70
     8
  0
VERTEX
  8
St
 10
-118.025
 20
-45.525
 70
     8
  0
VERTEX
  8
St
 10
-118.025
 20
-45.55
 70
     8
  0
VERTEX
  8
St
 10
-118.05
 20
-45.55
 70
     8
  0
VERTEX
  8
St
 10
-118.05
 20
-45.55
 70
     8
  0
VERTEX
  8
St
 10
-118.05
 20
-45.575
 70
     8
  0
VERTEX
  8
St
 10
-118.05
 20
-45.575
 70
     8
  0
VERTEX
  8
St
 10
-118.075
 20
-45.575
 70
     8
  0
VERTEX
  8
St
 10
-118.075
 20
-45.575
 70
     8
  0
VERTEX
  8
St
 10
-118.075
 20
-45.6
 70
     8
  0
VERTEX
  8
St
 10
-118.075
 20
-45.6
 70
     8
  0
VERTEX
  8
St
 10
-118.1
 20
-45.6
 70
     8
  0
VERTEX
  8
St
 10
-118.1
 20
-45.6
 70
     8
  0
VERTEX
  8
St
 10
-118.1
 20
-45.6
 70
     8
  0
VERTEX
  8
St
 10
-118.125
 20
-45.625
 70
     8
  0
VERTEX
  8
St
 10
-118.125
 20
-45.625
 70
     8
  0
VERTEX
  8
St
 10
-118.125
 20
-45.625
 70
     8
  0
VERTEX
  8
St
 10
-118.15
 20
-45.625
 70
     8
  0
VERTEX
  8
St
 10
-118.15
 20
-45.625
 70
     8
  0
VERTEX
  8
St
 10
-118.15
 20
-45.625
 70
     8
  0
VERTEX
  8
St
 10
-118.175
 20
-45.625
 70
     8
  0
VERTEX
  8
St
 10
-118.175
 20
-45.65
 70
     8
  0
VERTEX
  8
St
 10
-118.2
 20
-45.65
 70
     8
  0
VERTEX
  8
St
 10
-118.2
 20
-45.65
 70
     8
  0
VERTEX
  8
St
 10
-118.2
 20
-45.65
 70
     8
  0
VERTEX
  8
St
 10
-118.225
 20
-45.65
 70
     8
  0
VERTEX
  8
St
 10
-118.225
 20
-45.65
 70
     8
  0
VERTEX
  8
St
 10
-118.25
 20
-45.65
 70
     8
  0
VERTEX
  8
St
 10
-118.25
 20
-45.65
 70
     8
  0
VERTEX
  8
St
 10
-118.275
 20
-45.65
 70
     8
  0
VERTEX
  8
St
 10
-118.275
 20
-45.65
 70
     8
  0
VERTEX
  8
St
 10
-118.275
 20
-45.65
 70
     8
  0
VERTEX
  8
St
 10
-118.3
 20
-45.65
 70
     8
  0
VERTEX
  8
St
 10
-118.3
 20
-45.65
 70
     8
  0
VERTEX
  8
St
 10
-118.325
 20
-45.65
 70
     8
  0
VERTEX
  8
St
 10
-118.325
 20
-45.65
 70
     8
  0
VERTEX
  8
St
 10
-118.35
 20
-45.65
 70
     8
  0
VERTEX
  8
St
 10
-118.35
 20
-45.65
 70
     8
  0
VERTEX
  8
St
 10
-118.375
 20
-45.65
 70
     8
  0
VERTEX
  8
St
 10
-118.375
 20
-45.65
 70
     8
  0
VERTEX
  8
St
 10
-118.4
 20
-45.65
 70
     8
  0
VERTEX
  8
St
 10
-118.4
 20
-45.65
 70
     8
  0
VERTEX
  8
St
 10
-118.425
 20
-45.65
 70
     8
  0
VERTEX
  8
St
 10
-118.425
 20
-45.65
 70
     8
  0
VERTEX
  8
St
 10
-118.45
 20
-45.65
 70
     8
  0
VERTEX
  8
St
 10
-118.45
 20
-45.65
 70
     8
  0
VERTEX
  8
St
 10
-118.475
 20
-45.65
 70
     8
  0
VERTEX
  8
St
 10
-118.475
 20
-45.65
 70
     8
  0
VERTEX
  8
St
 10
-118.5
 20
-45.65
 70
     8
  0
VERTEX
  8
St
 10
-118.5
 20
-45.65
 70
     8
  0
VERTEX
  8
St
 10
-118.525
 20
-45.65
 70
     8
  0
VERTEX
  8
St
 10
-118.525
 20
-45.65
 70
     8
  0
VERTEX
  8
St
 10
-118.55
 20
-45.625
 70
     8
  0
VERTEX
  8
St
 10
-118.55
 20
-45.625
 70
     8
  0
VERTEX
  8
St
 10
-118.575
 20
-45.625
 70
     8
  0
VERTEX
  8
St
 10
-118.575
 20
-45.625
 70
     8
  0
VERTEX
  8
St
 10
-118.6
 20
-45.625
 70
     8
  0
VERTEX
  8
St
 10
-118.6
 20
-45.625
 70
     8
  0
VERTEX
  8
St
 10
-118.625
 20
-45.625
 70
     8
  0
VERTEX
  8
St
 10
-118.65
 20
-45.6
 70
     8
  0
VERTEX
  8
St
 10
-118.65
 20
-45.6
 70
     8
  0
VERTEX
  8
St
 10
-118.675
 20
-45.6
 70
     8
  0
VERTEX
  8
St
 10
-118.675
 20
-45.6
 70
     8
  0
VERTEX
  8
St
 10
-118.7
 20
-45.6
 70
     8
  0
VERTEX
  8
St
 10
-118.7
 20
-45.6
 70
     8
  0
VERTEX
  8
St
 10
-118.725
 20
-45.575
 70
     8
  0
VERTEX
  8
St
 10
-118.725
 20
-45.575
 70
     8
  0
VERTEX
  8
St
 10
-118.75
 20
-45.575
 70
     8
  0
VERTEX
  8
St
 10
-118.75
 20
-45.575
 70
     8
  0
VERTEX
  8
St
 10
-118.775
 20
-45.575
 70
     8
  0
VERTEX
  8
St
 10
-118.775
 20
-45.55
 70
     8
  0
VERTEX
  8
St
 10
-118.8
 20
-45.55
 70
     8
  0
VERTEX
  8
St
 10
-118.8
 20
-45.55
 70
     8
  0
VERTEX
  8
St
 10
-118.825
 20
-45.55
 70
     8
  0
VERTEX
  8
St
 10
-118.825
 20
-45.525
 70
     8
  0
VERTEX
  8
St
 10
-118.85
 20
-45.525
 70
     8
  0
VERTEX
  8
St
 10
-118.875
 20
-45.525
 70
     8
  0
VERTEX
  8
St
 10
-118.875
 20
-45.525
 70
     8
  0
VERTEX
  8
St
 10
-118.9
 20
-45.5
 70
     8
  0
VERTEX
  8
St
 10
-118.9
 20
-45.5
 70
     8
  0
VERTEX
  8
St
 10
-118.925
 20
-45.5
 70
     8
  0
VERTEX
  8
St
 10
-118.925
 20
-45.5
 70
     8
  0
VERTEX
  8
St
 10
-118.95
 20
-45.475
 70
     8
  0
VERTEX
  8
St
 10
-118.95
 20
-45.475
 70
     8
  0
VERTEX
  8
St
 10
-118.975
 20
-45.475
 70
     8
  0
VERTEX
  8
St
 10
-118.975
 20
-45.475
 70
     8
  0
VERTEX
  8
St
 10
-118.975
 20
-45.45
 70
     8
  0
VERTEX
  8
St
 10
-119.0
 20
-45.45
 70
     8
  0
VERTEX
  8
St
 10
-119.0
 20
-45.45
 70
     8
  0
VERTEX
  8
St
 10
-119.025
 20
-45.425
 70
     8
  0
VERTEX
  8
St
 10
-119.025
 20
-45.425
 70
     8
  0
VERTEX
  8
St
 10
-119.05
 20
-45.425
 70
     8
  0
VERTEX
  8
St
 10
-119.05
 20
-45.4
 70
     8
  0
VERTEX
  8
St
 10
-119.075
 20
-45.4
 70
     8
  0
VERTEX
  8
St
 10
-119.075
 20
-45.4
 70
     8
  0
VERTEX
  8
St
 10
-119.1
 20
-45.375
 70
     8
  0
VERTEX
  8
St
 10
-119.1
 20
-45.375
 70
     8
  0
VERTEX
  8
St
 10
-119.1
 20
-45.375
 70
     8
  0
VERTEX
  8
St
 10
-119.125
 20
-45.35
 70
     8
  0
VERTEX
  8
St
 10
-119.125
 20
-45.35
 70
     8
  0
VERTEX
  8
St
 10
-119.15
 20
-45.35
 70
     8
  0
VERTEX
  8
St
 10
-119.15
 20
-45.325
 70
     8
  0
VERTEX
  8
St
 10
-119.15
 20
-45.325
 70
     8
  0
VERTEX
  8
St
 10
-119.175
 20
-45.325
 70
     8
  0
VERTEX
  8
St
 10
-119.175
 20
-45.3
 70
     8
  0
VERTEX
  8
St
 10
-119.2
 20
-45.3
 70
     8
  0
VERTEX
  8
St
 10
-119.2
 20
-45.3
 70
     8
  0
VERTEX
  8
St
 10
-119.2
 20
-45.275
 70
     8
  0
VERTEX
  8
St
 10
-119.225
 20
-45.275
 70
     8
  0
VERTEX
  8
St
 10
-119.225
 20
-45.25
 70
     8
  0
VERTEX
  8
St
 10
-119.225
 20
-45.25
 70
     8
  0
VERTEX
  8
St
 10
-119.25
 20
-45.25
 70
     8
  0
VERTEX
  8
St
 10
-119.25
 20
-45.225
 70
     8
  0
VERTEX
  8
St
 10
-119.25
 20
-45.225
 70
     8
  0
VERTEX
  8
St
 10
-119.275
 20
-45.225
 70
     8
  0
VERTEX
  8
St
 10
-119.275
 20
-45.2
 70
     8
  0
VERTEX
  8
St
 10
-119.275
 20
-45.2
 70
     8
  0
VERTEX
  8
St
 10
-119.275
 20
-45.175
 70
     8
  0
VERTEX
  8
St
 10
-119.3
 20
-45.175
 70
     8
  0
VERTEX
  8
St
 10
-119.3
 20
-45.175
 70
     8
  0
VERTEX
  8
St
 10
-119.3
 20
-45.15
 70
     8
  0
VERTEX
  8
St
 10
-119.3
 20
-45.15
 70
     8
  0
VERTEX
  8
St
 10
-119.325
 20
-45.125
 70
     8
  0
VERTEX
  8
St
 10
-119.325
 20
-45.125
 70
     8
  0
VERTEX
  8
St
 10
-119.325
 20
-45.125
 70
     8
  0
VERTEX
  8
St
 10
-119.325
 20
-45.1
 70
     8
  0
VERTEX
  8
St
 10
-119.35
 20
-45.1
 70
     8
  0
VERTEX
  8
St
 10
-119.35
 20
-45.075
 70
     8
  0
VERTEX
  8
St
 10
-119.35
 20
-45.075
 70
     8
  0
VERTEX
  8
St
 10
-119.35
 20
-45.05
 70
     8
  0
VERTEX
  8
St
 10
-119.35
 20
-45.05
 70
     8
  0
VERTEX
  8
St
 10
-119.35
 20
-45.05
 70
     8
  0
VERTEX
  8
St
 10
-119.375
 20
-45.025
 70
     8
  0
VERTEX
  8
St
 10
-119.375
 20
-45.025
 70
     8
  0
VERTEX
  8
St
 10
-119.375
 20
-45.0
 70
     8
  0
VERTEX
  8
St
 10
-119.375
 20
-45.0
 70
     8
  0
VERTEX
  8
St
 10
-119.375
 20
-45.0
 70
     8
  0
VERTEX
  8
St
 10
-119.375
 20
-44.975
 70
     8
  0
VERTEX
  8
St
 10
-119.4
 20
-44.975
 70
     8
  0
VERTEX
  8
St
 10
-119.4
 20
-44.95
 70
     8
  0
VERTEX
  8
St
 10
-119.4
 20
-44.95
 70
     8
  0
VERTEX
  8
St
 10
-119.4
 20
-44.925
 70
     8
  0
VERTEX
  8
St
 10
-119.4
 20
-44.925
 70
     8
  0
VERTEX
  8
St
 10
-119.4
 20
-44.9
 70
     8
  0
VERTEX
  8
St
 10
-119.4
 20
-44.9
 70
     8
  0
VERTEX
  8
St
 10
-119.4
 20
-44.9
 70
     8
  0
VERTEX
  8
St
 10
-119.425
 20
-44.875
 70
     8
  0
VERTEX
  8
St
 10
-119.425
 20
-44.875
 70
     8
  0
VERTEX
  8
St
 10
-119.425
 20
-44.85
 70
     8
  0
VERTEX
  8
St
 10
-119.425
 20
-44.85
 70
     8
  0
VERTEX
  8
St
 10
-119.425
 20
-44.825
 70
     8
  0
VERTEX
  8
St
 10
-119.425
 20
-44.825
 70
     8
  0
VERTEX
  8
St
 10
-119.425
 20
-44.8
 70
     8
  0
VERTEX
  8
St
 10
-119.425
 20
-44.8
 70
     8
  0
VERTEX
  8
St
 10
-119.425
 20
-44.8
 70
     8
  0
VERTEX
  8
St
 10
-119.425
 20
-44.775
 70
     8
  0
VERTEX
  8
St
 10
-119.45
 20
-44.775
 70
     8
  0
VERTEX
  8
St
 10
-119.45
 20
-44.75
 70
     8
  0
VERTEX
  8
St
 10
-119.45
 20
-44.75
 70
     8
  0
VERTEX
  8
St
 10
-119.45
 20
-44.725
 70
     8
  0
VERTEX
  8
St
 10
-119.45
 20
-44.725
 70
     8
  0
VERTEX
  8
St
 10
-119.45
 20
-44.7
 70
     8
  0
VERTEX
  8
St
 10
-119.45
 20
-44.7
 70
     8
  0
VERTEX
  8
St
 10
-119.45
 20
-44.7
 70
     8
  0
SEQEND
  0
POLYLINE
  8
St
  6
CONTINUOUS
 66
     1
 70
     4
  0
VERTEX
  8
St
 10
-110.425
 20
-28.325
 70
     8
  0
VERTEX
  8
St
 10
-110.4
 20
-28.325
 70
     8
  0
VERTEX
  8
St
 10
-110.4
 20
-28.325
 70
     8
  0
VERTEX
  8
St
 10
-110.375
 20
-28.325
 70
     8
  0
VERTEX
  8
St
 10
-110.375
 20
-28.325
 70
     8
  0
VERTEX
  8
St
 10
-110.35
 20
-28.3
 70
     8
  0
VERTEX
  8
St
 10
-110.35
 20
-28.3
 70
     8
  0
VERTEX
  8
St
 10
-110.325
 20
-28.3
 70
     8
  0
VERTEX
  8
St
 10
-110.325
 20
-28.3
 70
     8
  0
VERTEX
  8
St
 10
-110.3
 20
-28.3
 70
     8
  0
VERTEX
  8
St
 10
-110.3
 20
-28.3
 70
     8
  0
VERTEX
  8
St
 10
-110.275
 20
-28.3
 70
     8
  0
VERTEX
  8
St
 10
-110.275
 20
-28.3
 70
     8
  0
VERTEX
  8
St
 10
-110.25
 20
-28.275
 70
     8
  0
VERTEX
  8
St
 10
-110.25
 20
-28.275
 70
     8
  0
VERTEX
  8
St
 10
-110.225
 20
-28.275
 70
     8
  0
VERTEX
  8
St
 10
-110.225
 20
-28.275
 70
     8
  0
VERTEX
  8
St
 10
-110.2
 20
-28.275
 70
     8
  0
VERTEX
  8
St
 10
-110.2
 20
-28.275
 70
     8
  0
VERTEX
  8
St
 10
-110.175
 20
-28.275
 70
     8
  0
VERTEX
  8
St
 10
-110.175
 20
-28.275
 70
     8
  0
VERTEX
  8
St
 10
-110.15
 20
-28.25
 70
     8
  0
VERTEX
  8
St
 10
-110.125
 20
-28.25
 70
     8
  0
VERTEX
  8
St
 10
-110.125
 20
-28.25
 70
     8
  0
VERTEX
  8
St
 10
-110.1
 20
-28.25
 70
     8
  0
VERTEX
  8
St
 10
-110.1
 20
-28.25
 70
     8
  0
VERTEX
  8
St
 10
-110.075
 20
-28.25
 70
     8
  0
VERTEX
  8
St
 10
-110.075
 20
-28.25
 70
     8
  0
VERTEX
  8
St
 10
-110.05
 20
-28.25
 70
     8
  0
VERTEX
  8
St
 10
-110.05
 20
-28.25
 70
     8
  0
VERTEX
  8
St
 10
-110.025
 20
-28.225
 70
     8
  0
VERTEX
  8
St
 10
-110.025
 20
-28.225
 70
     8
  0
VERTEX
  8
St
 10
-110.025
 20
-28.225
 70
     8
  0
VERTEX
  8
St
 10
-110.0
 20
-28.225
 70
     8
  0
VERTEX
  8
St
 10
-110.0
 20
-28.225
 70
     8
  0
VERTEX
  8
St
 10
-109.975
 20
-28.225
 70
     8
  0
VERTEX
  8
St
 10
-109.975
 20
-28.225
 70
     8
  0
VERTEX
  8
St
 10
-109.95
 20
-28.225
 70
     8
  0
VERTEX
  8
St
 10
-109.95
 20
-28.225
 70
     8
  0
VERTEX
  8
St
 10
-109.925
 20
-28.225
 70
     8
  0
VERTEX
  8
St
 10
-109.925
 20
-28.225
 70
     8
  0
VERTEX
  8
St
 10
-109.9
 20
-28.225
 70
     8
  0
VERTEX
  8
St
 10
-109.9
 20
-28.225
 70
     8
  0
VERTEX
  8
St
 10
-109.875
 20
-28.2
 70
     8
  0
VERTEX
  8
St
 10
-109.875
 20
-28.2
 70
     8
  0
VERTEX
  8
St
 10
-109.85
 20
-28.2
 70
     8
  0
VERTEX
  8
St
 10
-109.85
 20
-28.2
 70
     8
  0
VERTEX
  8
St
 10
-109.825
 20
-28.2
 70
     8
  0
VERTEX
  8
St
 10
-109.825
 20
-28.2
 70
     8
  0
VERTEX
  8
St
 10
-109.825
 20
-28.2
 70
     8
  0
VERTEX
  8
St
 10
-109.8
 20
-28.2
 70
     8
  0
VERTEX
  8
St
 10
-109.8
 20
-28.2
 70
     8
  0
VERTEX
  8
St
 10
-109.775
 20
-28.2
 70
     8
  0
VERTEX
  8
St
 10
-109.775
 20
-28.2
 70
     8
  0
VERTEX
  8
St
 10
-109.75
 20
-28.2
 70
     8
  0
VERTEX
  8
St
 10
-109.75
 20
-28.2
 70
     8
  0
VERTEX
  8
St
 10
-109.75
 20
-28.2
 70
     8
  0
VERTEX
  8
St
 10
-109.725
 20
-28.2
 70
     8
  0
VERTEX
  8
St
 10
-109.725
 20
-28.2
 70
     8
  0
VERTEX
  8
St
 10
-109.7
 20
-28.2
 70
     8
  0
VERTEX
  8
St
 10
-109.7
 20
-28.2
 70
     8
  0
VERTEX
  8
St
 10
-109.7
 20
-28.2
 70
     8
  0
VERTEX
  8
St
 10
-109.675
 20
-28.2
 70
     8
  0
VERTEX
  8
St
 10
-109.675
 20
-28.2
 70
     8
  0
VERTEX
  8
St
 10
-109.65
 20
-28.2
 70
     8
  0
VERTEX
  8
St
 10
-109.65
 20
-28.2
 70
     8
  0
VERTEX
  8
St
 10
-109.65
 20
-28.2
 70
     8
  0
VERTEX
  8
St
 10
-109.625
 20
-28.2
 70
     8
  0
VERTEX
  8
St
 10
-109.625
 20
-28.225
 70
     8
  0
VERTEX
  8
St
 10
-109.625
 20
-28.225
 70
     8
  0
VERTEX
  8
St
 10
-109.6
 20
-28.225
 70
     8
  0
VERTEX
  8
St
 10
-109.6
 20
-28.225
 70
     8
  0
VERTEX
  8
St
 10
-109.6
 20
-28.225
 70
     8
  0
VERTEX
  8
St
 10
-109.575
 20
-28.225
 70
     8
  0
VERTEX
  8
St
 10
-109.575
 20
-28.225
 70
     8
  0
VERTEX
  8
St
 10
-109.575
 20
-28.225
 70
     8
  0
VERTEX
  8
St
 10
-109.55
 20
-28.225
 70
     8
  0
VERTEX
  8
St
 10
-109.55
 20
-28.225
 70
     8
  0
VERTEX
  8
St
 10
-109.55
 20
-28.25
 70
     8
  0
VERTEX
  8
St
 10
-109.525
 20
-28.25
 70
     8
  0
VERTEX
  8
St
 10
-109.525
 20
-28.25
 70
     8
  0
VERTEX
  8
St
 10
-109.525
 20
-28.25
 70
     8
  0
VERTEX
  8
St
 10
-109.5
 20
-28.25
 70
     8
  0
VERTEX
  8
St
 10
-109.5
 20
-28.25
 70
     8
  0
VERTEX
  8
St
 10
-109.5
 20
-28.25
 70
     8
  0
VERTEX
  8
St
 10
-109.5
 20
-28.275
 70
     8
  0
VERTEX
  8
St
 10
-109.475
 20
-28.275
 70
     8
  0
VERTEX
  8
St
 10
-109.475
 20
-28.275
 70
     8
  0
VERTEX
  8
St
 10
-109.475
 20
-28.275
 70
     8
  0
VERTEX
  8
St
 10
-109.45
 20
-28.275
 70
     8
  0
VERTEX
  8
St
 10
-109.45
 20
-28.3
 70
     8
  0
VERTEX
  8
St
 10
-109.45
 20
-28.3
 70
     8
  0
VERTEX
  8
St
 10
-109.45
 20
-28.3
 70
     8
  0
VERTEX
  8
St
 10
-109.45
 20
-28.3
 70
     8
  0
VERTEX
  8
St
 10
-109.425
 20
-28.325
 70
     8
  0
VERTEX
  8
St
 10
-109.425
 20
-28.325
 70
     8
  0
VERTEX
  8
St
 10
-109.425
 20
-28.325
 70
     8
  0
VERTEX
  8
St
 10
-109.425
 20
-28.325
 70
     8
  0
VERTEX
  8
St
 10
-109.4
 20
-28.35
 70
     8
  0
VERTEX
  8
St
 10
-109.4
 20
-28.35
 70
     8
  0
VERTEX
  8
St
 10
-109.4
 20
-28.35
 70
     8
  0
VERTEX
  8
St
 10
-109.4
 20
-28.35
 70
     8
  0
VERTEX
  8
St
 10
-109.4
 20
-28.375
 70
     8
  0
VERTEX
  8
St
 10
-109.4
 20
-28.375
 70
     8
  0
VERTEX
  8
St
 10
-109.375
 20
-28.375
 70
     8
  0
VERTEX
  8
St
 10
-109.375
 20
-28.4
 70
     8
  0
VERTEX
  8
St
 10
-109.375
 20
-28.4
 70
     8
  0
VERTEX
  8
St
 10
-109.375
 20
-28.4
 70
     8
  0
VERTEX
  8
St
 10
-109.375
 20
-28.425
 70
     8
  0
VERTEX
  8
St
 10
-109.375
 20
-28.425
 70
     8
  0
VERTEX
  8
St
 10
-109.35
 20
-28.425
 70
     8
  0
VERTEX
  8
St
 10
-109.35
 20
-28.45
 70
     8
  0
VERTEX
  8
St
 10
-109.35
 20
-28.45
 70
     8
  0
VERTEX
  8
St
 10
-109.35
 20
-28.45
 70
     8
  0
VERTEX
  8
St
 10
-109.35
 20
-28.475
 70
     8
  0
VERTEX
  8
St
 10
-109.35
 20
-28.475
 70
     8
  0
VERTEX
  8
St
 10
-109.35
 20
-28.475
 70
     8
  0
VERTEX
  8
St
 10
-109.325
 20
-28.5
 70
     8
  0
VERTEX
  8
St
 10
-109.325
 20
-28.5
 70
     8
  0
VERTEX
  8
St
 10
-109.325
 20
-28.525
 70
     8
  0
VERTEX
  8
St
 10
-109.325
 20
-28.525
 70
     8
  0
VERTEX
  8
St
 10
-109.325
 20
-28.525
 70
     8
  0
VERTEX
  8
St
 10
-109.325
 20
-28.55
 70
     8
  0
VERTEX
  8
St
 10
-109.325
 20
-28.55
 70
     8
  0
VERTEX
  8
St
 10
-109.325
 20
-28.55
 70
     8
  0
VERTEX
  8
St
 10
-109.325
 20
-28.575
 70
     8
  0
VERTEX
  8
St
 10
-109.3
 20
-28.575
 70
     8
  0
VERTEX
  8
St
 10
-109.3
 20
-28.6
 70
     8
  0
VERTEX
  8
St
 10
-109.3
 20
-28.6
 70
     8
  0
VERTEX
  8
St
 10
-109.3
 20
-28.625
 70
     8
  0
VERTEX
  8
St
 10
-109.3
 20
-28.625
 70
     8
  0
VERTEX
  8
St
 10
-109.3
 20
-28.625
 70
     8
  0
VERTEX
  8
St
 10
-109.3
 20
-28.65
 70
     8
  0
VERTEX
  8
St
 10
-109.3
 20
-28.65
 70
     8
  0
VERTEX
  8
St
 10
-109.3
 20
-28.675
 70
     8
  0
VERTEX
  8
St
 10
-109.3
 20
-28.675
 70
     8
  0
VERTEX
  8
St
 10
-109.275
 20
-28.7
 70
     8
  0
VERTEX
  8
St
 10
-109.275
 20
-28.7
 70
     8
  0
VERTEX
  8
St
 10
-109.275
 20
-28.725
 70
     8
  0
VERTEX
  8
St
 10
-109.275
 20
-28.725
 70
     8
  0
VERTEX
  8
St
 10
-109.275
 20
-28.725
 70
     8
  0
VERTEX
  8
St
 10
-109.275
 20
-28.75
 70
     8
  0
VERTEX
  8
St
 10
-109.275
 20
-28.75
 70
     8
  0
VERTEX
  8
St
 10
-109.275
 20
-28.775
 70
     8
  0
VERTEX
  8
St
 10
-109.275
 20
-28.775
 70
     8
  0
VERTEX
  8
St
 10
-109.275
 20
-28.8
 70
     8
  0
VERTEX
  8
St
 10
-109.275
 20
-28.8
 70
     8
  0
VERTEX
  8
St
 10
-109.275
 20
-28.825
 70
     8
  0
VERTEX
  8
St
 10
-109.275
 20
-28.825
 70
     8
  0
VERTEX
  8
St
 10
-109.275
 20
-28.85
 70
     8
  0
VERTEX
  8
St
 10
-109.25
 20
-28.85
 70
     8
  0
VERTEX
  8
St
 10
-109.25
 20
-28.875
 70
     8
  0
VERTEX
  8
St
 10
-109.25
 20
-28.875
 70
     8
  0
VERTEX
  8
St
 10
-109.25
 20
-28.9
 70
     8
  0
VERTEX
  8
St
 10
-109.25
 20
-28.9
 70
     8
  0
VERTEX
  8
St
 10
-109.25
 20
-28.925
 70
     8
  0
VERTEX
  8
St
 10
-109.25
 20
-28.925
 70
     8
  0
VERTEX
  8
St
 10
-109.25
 20
-28.95
 70
     8
  0
VERTEX
  8
St
 10
-109.25
 20
-28.95
 70
     8
  0
VERTEX
  8
St
 10
-109.25
 20
-28.975
 70
     8
  0
VERTEX
  8
St
 10
-109.25
 20
-28.975
 70
     8
  0
VERTEX
  8
St
 10
-109.25
 20
-29.0
 70
     8
  0
VERTEX
  8
St
 10
-109.25
 20
-29.0
 70
     8
  0
VERTEX
  8
St
 10
-109.25
 20
-29.025
 70
     8
  0
VERTEX
  8
St
 10
-109.25
 20
-29.025
 70
     8
  0
VERTEX
  8
St
 10
-109.225
 20
-29.05
 70
     8
  0
VERTEX
  8
St
 10
-109.225
 20
-29.05
 70
     8
  0
VERTEX
  8
St
 10
-109.225
 20
-29.075
 70
     8
  0
VERTEX
  8
St
 10
-109.225
 20
-29.075
 70
     8
  0
VERTEX
  8
St
 10
-109.225
 20
-29.1
 70
     8
  0
VERTEX
  8
St
 10
-109.225
 20
-29.1
 70
     8
  0
VERTEX
  8
St
 10
-109.225
 20
-29.125
 70
     8
  0
VERTEX
  8
St
 10
-109.225
 20
-29.125
 70
     8
  0
VERTEX
  8
St
 10
-109.225
 20
-29.15
 70
     8
  0
VERTEX
  8
St
 10
-109.225
 20
-29.15
 70
     8
  0
VERTEX
  8
St
 10
-109.225
 20
-29.175
 70
     8
  0
VERTEX
  8
St
 10
-109.225
 20
-29.175
 70
     8
  0
VERTEX
  8
St
 10
-109.2
 20
-29.2
 70
     8
  0
VERTEX
  8
St
 10
-109.2
 20
-29.2
 70
     8
  0
VERTEX
  8
St
 10
-109.2
 20
-29.225
 70
     8
  0
VERTEX
  8
St
 10
-109.2
 20
-29.225
 70
     8
  0
VERTEX
  8
St
 10
-109.2
 20
-29.25
 70
     8
  0
VERTEX
  8
St
 10
-109.2
 20
-29.25
 70
     8
  0
VERTEX
  8
St
 10
-109.2
 20
-29.275
 70
     8
  0
VERTEX
  8
St
 10
-109.2
 20
-29.275
 70
     8
  0
VERTEX
  8
St
 10
-109.2
 20
-29.3
 70
     8
  0
VERTEX
  8
St
 10
-109.2
 20
-29.3
 70
     8
  0
VERTEX
  8
St
 10
-109.2
 20
-29.325
 70
     8
  0
VERTEX
  8
St
 10
-109.175
 20
-29.325
 70
     8
  0
VERTEX
  8
St
 10
-109.175
 20
-29.35
 70
     8
  0
VERTEX
  8
St
 10
-109.175
 20
-29.35
 70
     8
  0
VERTEX
  8
St
 10
-109.175
 20
-29.375
 70
     8
  0
VERTEX
  8
St
 10
-109.175
 20
-29.375
 70
     8
  0
VERTEX
  8
St
 10
-109.175
 20
-29.4
 70
     8
  0
VERTEX
  8
St
 10
-109.175
 20
-29.4
 70
     8
  0
VERTEX
  8
St
 10
-109.175
 20
-29.425
 70
     8
  0
VERTEX
  8
St
 10
-109.15
 20
-29.425
 70
     8
  0
VERTEX
  8
St
 10
-109.15
 20
-29.45
 70
     8
  0
VERTEX
  8
St
 10
-109.15
 20
-29.45
 70
     8
  0
VERTEX
  8
St
 10
-109.15
 20
-29.475
 70
     8
  0
VERTEX
  8
St
 10
-109.15
 20
-29.475
 70
     8
  0
VERTEX
  8
St
 10
-109.15
 20
-29.475
 70
     8
  0
VERTEX
  8
St
 10
-109.125
 20
-29.5
 70
     8
  0
VERTEX
  8
St
 10
-109.125
 20
-29.5
 70
     8
  0
VERTEX
  8
St
 10
-109.125
 20
-29.525
 70
     8
  0
VERTEX
  8
St
 10
-109.125
 20
-29.525
 70
     8
  0
VERTEX
  8
St
 10
-109.125
 20
-29.55
 70
     8
  0
VERTEX
  8
St
 10
-109.125
 20
-29.55
 70
     8
  0
VERTEX
  8
St
 10
-109.1
 20
-29.575
 70
     8
  0
VERTEX
  8
St
 10
-109.1
 20
-29.575
 70
     8
  0
VERTEX
  8
St
 10
-109.1
 20
-29.6
 70
     8
  0
VERTEX
  8
St
 10
-109.1
 20
-29.6
 70
     8
  0
VERTEX
  8
St
 10
-109.1
 20
-29.625
 70
     8
  0
VERTEX
  8
St
 10
-109.075
 20
-29.625
 70
     8
  0
VERTEX
  8
St
 10
-109.075
 20
-29.625
 70
     8
  0
VERTEX
  8
St
 10
-109.075
 20
-29.65
 70
     8
  0
VERTEX
  8
St
 10
-109.075
 20
-29.65
 70
     8
  0
VERTEX
  8
St
 10
-109.075
 20
-29.675
 70
     8
  0
VERTEX
  8
St
 10
-109.05
 20
-29.675
 70
     8
  0
VERTEX
  8
St
 10
-109.05
 20
-29.7
 70
     8
  0
VERTEX
  8
St
 10
-109.05
 20
-29.7
 70
     8
  0
VERTEX
  8
St
 10
-109.05
 20
-29.7
 70
     8
  0
VERTEX
  8
St
 10
-109.025
 20
-29.725
 70
     8
  0
VERTEX
  8
St
 10
-109.025
 20
-29.725
 70
     8
  0
VERTEX
  8
St
 10
-109.025
 20
-29.75
 70
     8
  0
VERTEX
  8
St
 10
-109.025
 20
-29.75
 70
     8
  0
VERTEX
  8
St
 10
-109.0
 20
-29.75
 70
     8
  0
VERTEX
  8
St
 10
-109.0
 20
-29.775
 70
     8
  0
VERTEX
  8
St
 10
-109.0
 20
-29.775
 70
     8
  0
VERTEX
  8
St
 10
-108.975
 20
-29.8
 70
     8
  0
VERTEX
  8
St
 10
-108.975
 20
-29.8
 70
     8
  0
VERTEX
  8
St
 10
-108.975
 20
-29.8
 70
     8
  0
VERTEX
  8
St
 10
-108.975
 20
-29.825
 70
     8
  0
VERTEX
  8
St
 10
-108.95
 20
-29.825
 70
     8
  0
VERTEX
  8
St
 10
-108.95
 20
-29.825
 70
     8
  0
VERTEX
  8
St
 10
-108.95
 20
-29.85
 70
     8
  0
VERTEX
  8
St
 10
-108.925
 20
-29.85
 70
     8
  0
VERTEX
  8
St
 10
-108.925
 20
-29.85
 70
     8
  0
VERTEX
  8
St
 10
-108.9
 20
-29.875
 70
     8
  0
VERTEX
  8
St
 10
-108.9
 20
-29.875
 70
     8
  0
VERTEX
  8
St
 10
-108.9
 20
-29.875
 70
     8
  0
VERTEX
  8
St
 10
-108.875
 20
-29.9
 70
     8
  0
VERTEX
  8
St
 10
-108.875
 20
-29.9
 70
     8
  0
VERTEX
  8
St
 10
-108.875
 20
-29.9
 70
     8
  0
VERTEX
  8
St
 10
-108.85
 20
-29.925
 70
     8
  0
VERTEX
  8
St
 10
-108.85
 20
-29.925
 70
     8
  0
VERTEX
  8
St
 10
-108.825
 20
-29.925
 70
     8
  0
VERTEX
  8
St
 10
-108.825
 20
-29.95
 70
     8
  0
VERTEX
  8
St
 10
-108.825
 20
-29.95
 70
     8
  0
VERTEX
  8
St
 10
-108.8
 20
-29.95
 70
     8
  0
VERTEX
  8
St
 10
-108.8
 20
-29.95
 70
     8
  0
VERTEX
  8
St
 10
-108.775
 20
-29.975
 70
     8
  0
VERTEX
  8
St
 10
-108.775
 20
-29.975
 70
     8
  0
VERTEX
  8
St
 10
-108.75
 20
-29.975
 70
     8
  0
VERTEX
  8
St
 10
-108.75
 20
-29.975
 70
     8
  0
VERTEX
  8
St
 10
-108.725
 20
-30.0
 70
     8
  0
VERTEX
  8
St
 10
-108.725
 20
-30.0
 70
     8
  0
VERTEX
  8
St
 10
-108.7
 20
-30.0
 70
     8
  0
VERTEX
  8
St
 10
-108.7
 20
-30.0
 70
     8
  0
VERTEX
  8
St
 10
-108.675
 20
-30.025
 70
     8
  0
VERTEX
  8
St
 10
-108.675
 20
-30.025
 70
     8
  0
VERTEX
  8
St
 10
-108.65
 20
-30.025
 70
     8
  0
VERTEX
  8
St
 10
-108.65
 20
-30.025
 70
     8
  0
VERTEX
  8
St
 10
-108.625
 20
-30.025
 70
     8
  0
VERTEX
  8
St
 10
-108.625
 20
-30.05
 70
     8
  0
VERTEX
  8
St
 10
-108.6
 20
-30.05
 70
     8
  0
VERTEX
  8
St
 10
-108.6
 20
-30.05
 70
     8
  0
VERTEX
  8
St
 10
-108.575
 20
-30.05
 70
     8
  0
VERTEX
  8
St
 10
-108.575
 20
-30.05
 70
     8
  0
VERTEX
  8
St
 10
-108.55
 20
-30.05
 70
     8
  0
VERTEX
  8
St
 10
-108.55
 20
-30.05
 70
     8
  0
VERTEX
  8
St
 10
-108.525
 20
-30.075
 70
     8
  0
VERTEX
  8
St
 10
-108.525
 20
-30.075
 70
     8
  0
VERTEX
  8
St
 10
-108.5
 20
-30.075
 70
     8
  0
VERTEX
  8
St
 10
-108.5
 20
-30.075
 70
     8
  0
VERTEX
  8
St
 10
-108.475
 20
-30.075
 70
     8
  0
VERTEX
  8
St
 10
-108.475
 20
-30.075
 70
     8
  0
VERTEX
  8
St
 10
-108.45
 20
-30.075
 70
     8
  0
VERTEX
  8
St
 10
-108.45
 20
-30.075
 70
     8
  0
VERTEX
  8
St
 10
-108.425
 20
-30.075
 70
     8
  0
VERTEX
  8
St
 10
-108.425
 20
-30.1
 70
     8
  0
VERTEX
  8
St
 10
-108.4
 20
-30.1
 70
     8
  0
VERTEX
  8
St
 10
-108.4
 20
-30.1
 70
     8
  0
VERTEX
  8
St
 10
-108.375
 20
-30.1
 70
     8
  0
VERTEX
  8
St
 10
-108.375
 20
-30.1
 70
     8
  0
VERTEX
  8
St
 10
-108.35
 20
-30.1
 70
     8
  0
VERTEX
  8
St
 10
-108.35
 20
-30.1
 70
     8
  0
VERTEX
  8
St
 10
-108.325
 20
-30.1
 70
     8
  0
VERTEX
  8
St
 10
-108.325
 20
-30.1
 70
     8
  0
VERTEX
  8
St
 10
-108.3
 20
-30.1
 70
     8
  0
VERTEX
  8
St
 10
-108.3
 20
-30.1
 70
     8
  0
VERTEX
  8
St
 10
-108.275
 20
-30.1
 70
     8
  0
VERTEX
  8
St
 10
-108.275
 20
-30.1
 70
     8
  0
VERTEX
  8
St
 10
-108.25
 20
-30.1
 70
     8
  0
VERTEX
  8
St
 10
-108.25
 20
-30.1
 70
     8
  0
VERTEX
  8
St
 10
-108.225
 20
-30.1
 70
     8
  0
VERTEX
  8
St
 10
-108.225
 20
-30.1
 70
     8
  0
VERTEX
  8
St
 10
-108.2
 20
-30.1
 70
     8
  0
VERTEX
  8
St
 10
-108.2
 20
-30.1
 70
     8
  0
VERTEX
  8
St
 10
-108.175
 20
-30.1
 70
     8
  0
VERTEX
  8
St
 10
-108.175
 20
-30.1
 70
     8
  0
VERTEX
  8
St
 10
-108.15
 20
-30.1
 70
     8
  0
VERTEX
  8
St
 10
-108.15
 20
-30.1
 70
     8
  0
VERTEX
  8
St
 10
-108.125
 20
-30.075
 70
     8
  0
VERTEX
  8
St
 10
-108.125
 20
-30.075
 70
     8
  0
VERTEX
  8
St
 10
-108.1
 20
-30.075
 70
     8
  0
VERTEX
  8
St
 10
-108.1
 20
-30.075
 70
     8
  0
VERTEX
  8
St
 10
-108.1
 20
-30.075
 70
     8
  0
VERTEX
  8
St
 10
-108.075
 20
-30.075
 70
     8
  0
VERTEX
  8
St
 10
-108.075
 20
-30.075
 70
     8
  0
VERTEX
  8
St
 10
-108.05
 20
-30.075
 70
     8
  0
VERTEX
  8
St
 10
-108.05
 20
-30.075
 70
     8
  0
VERTEX
  8
St
 10
-108.05
 20
-30.05
 70
     8
  0
VERTEX
  8
St
 10
-108.025
 20
-30.05
 70
     8
  0
VERTEX
  8
St
 10
-108.025
 20
-30.05
 70
     8
  0
VERTEX
  8
St
 10
-108.0
 20
-30.05
 70
     8
  0
VERTEX
  8
St
 10
-108.0
 20
-30.05
 70
     8
  0
VERTEX
  8
St
 10
-108.0
 20
-30.05
 70
     8
  0
VERTEX
  8
St
 10
-107.975
 20
-30.025
 70
     8
  0
VERTEX
  8
St
 10
-107.975
 20
-30.025
 70
     8
  0
VERTEX
  8
St
 10
-107.975
 20
-30.025
 70
     8
  0
VERTEX
  8
St
 10
-107.95
 20
-30.025
 70
     8
  0
VERTEX
  8
St
 10
-107.95
 20
-30.0
 70
     8
  0
VERTEX
  8
St
 10
-107.95
 20
-30.0
 70
     8
  0
VERTEX
  8
St
 10
-107.95
 20
-30.0
 70
     8
  0
VERTEX
  8
St
 10
-107.925
 20
-30.0
 70
     8
  0
VERTEX
  8
St
 10
-107.925
 20
-29.975
 70
     8
  0
VERTEX
  8
St
 10
-107.925
 20
-29.975
 70
     8
  0
VERTEX
  8
St
 10
-107.925
 20
-29.975
 70
     8
  0
VERTEX
  8
St
 10
-107.9
 20
-29.975
 70
     8
  0
VERTEX
  8
St
 10
-107.9
 20
-29.95
 70
     8
  0
VERTEX
  8
St
 10
-107.9
 20
-29.95
 70
     8
  0
VERTEX
  8
St
 10
-107.9
 20
-29.95
 70
     8
  0
VERTEX
  8
St
 10
-107.9
 20
-29.925
 70
     8
  0
VERTEX
  8
St
 10
-107.9
 20
-29.925
 70
     8
  0
VERTEX
  8
St
 10
-107.875
 20
-29.925
 70
     8
  0
VERTEX
  8
St
 10
-107.875
 20
-29.925
 70
     8
  0
VERTEX
  8
St
 10
-107.875
 20
-29.9
 70
     8
  0
VERTEX
  8
St
 10
-107.875
 20
-29.9
 70
     8
  0
VERTEX
  8
St
 10
-107.875
 20
-29.875
 70
     8
  0
VERTEX
  8
St
 10
-107.875
 20
-29.875
 70
     8
  0
VERTEX
  8
St
 10
-107.875
 20
-29.875
 70
     8
  0
VERTEX
  8
St
 10
-107.875
 20
-29.85
 70
     8
  0
VERTEX
  8
St
 10
-107.875
 20
-29.85
 70
     8
  0
VERTEX
  8
St
 10
-107.875
 20
-29.85
 70
     8
  0
VERTEX
  8
St
 10
-107.85
 20
-29.825
 70
     8
  0
VERTEX
  8
St
 10
-107.85
 20
-29.825
 70
     8
  0
VERTEX
  8
St
 10
-107.85
 20
-29.8
 70
     8
  0
VERTEX
  8
St
 10
-107.85
 20
-29.8
 70
     8
  0
VERTEX
  8
St
 10
-107.85
 20
-29.8
 70
     8
  0
VERTEX
  8
St
 10
-107.85
 20
-29.775
 70
     8
  0
VERTEX
  8
St
 10
-107.85
 20
-29.775
 70
     8
  0
VERTEX
  8
St
 10
-107.85
 20
-29.75
 70
     8
  0
VERTEX
  8
St
 10
-107.875
 20
-29.75
 70
     8
  0
VERTEX
  8
St
 10
-107.875
 20
-29.75
 70
     8
  0
VERTEX
  8
St
 10
-107.875
 20
-29.725
 70
     8
  0
VERTEX
  8
St
 10
-107.875
 20
-29.725
 70
     8
  0
VERTEX
  8
St
 10
-107.875
 20
-29.7
 70
     8
  0
VERTEX
  8
St
 10
-107.875
 20
-29.7
 70
     8
  0
VERTEX
  8
St
 10
-107.875
 20
-29.675
 70
     8
  0
VERTEX
  8
St
 10
-107.875
 20
-29.675
 70
     8
  0
VERTEX
  8
St
 10
-107.875
 20
-29.675
 70
     8
  0
VERTEX
  8
St
 10
-107.875
 20
-29.65
 70
     8
  0
VERTEX
  8
St
 10
-107.875
 20
-29.65
 70
     8
  0
VERTEX
  8
St
 10
-107.9
 20
-29.625
 70
     8
  0
VERTEX
  8
St
 10
-107.9
 20
-29.625
 70
     8
  0
VERTEX
  8
St
 10
-107.9
 20
-29.6
 70
     8
  0
VERTEX
  8
St
 10
-107.9
 20
-29.6
 70
     8
  0
VERTEX
  8
St
 10
-107.9
 20
-29.575
 70
     8
  0
VERTEX
  8
St
 10
-107.9
 20
-29.575
 70
     8
  0
VERTEX
  8
St
 10
-107.925
 20
-29.55
 70
     8
  0
VERTEX
  8
St
 10
-107.925
 20
-29.55
 70
     8
  0
VERTEX
  8
St
 10
-107.925
 20
-29.525
 70
     8
  0
VERTEX
  8
St
 10
-107.925
 20
-29.525
 70
     8
  0
VERTEX
  8
St
 10
-107.925
 20
-29.525
 70
     8
  0
VERTEX
  8
St
 10
-107.95
 20
-29.5
 70
     8
  0
VERTEX
  8
St
 10
-107.95
 20
-29.5
 70
     8
  0
VERTEX
  8
St
 10
-107.95
 20
-29.475
 70
     8
  0
VERTEX
  8
St
 10
-107.95
 20
-29.475
 70
     8
  0
VERTEX
  8
St
 10
-107.975
 20
-29.45
 70
     8
  0
VERTEX
  8
St
 10
-107.975
 20
-29.45
 70
     8
  0
VERTEX
  8
St
 10
-107.975
 20
-29.425
 70
     8
  0
VERTEX
  8
St
 10
-107.975
 20
-29.425
 70
     8
  0
VERTEX
  8
St
 10
-108.0
 20
-29.4
 70
     8
  0
VERTEX
  8
St
 10
-108.0
 20
-29.4
 70
     8
  0
VERTEX
  8
St
 10
-108.0
 20
-29.375
 70
     8
  0
VERTEX
  8
St
 10
-108.0
 20
-29.375
 70
     8
  0
VERTEX
  8
St
 10
-108.025
 20
-29.375
 70
     8
  0
VERTEX
  8
St
 10
-108.025
 20
-29.35
 70
     8
  0
VERTEX
  8
St
 10
-108.025
 20
-29.35
 70
     8
  0
VERTEX
  8
St
 10
-108.05
 20
-29.325
 70
     8
  0
VERTEX
  8
St
 10
-108.05
 20
-29.325
 70
     8
  0
VERTEX
  8
St
 10
-108.05
 20
-29.3
 70
     8
  0
VERTEX
  8
St
 10
-108.075
 20
-29.3
 70
     8
  0
VERTEX
  8
St
 10
-108.075
 20
-29.275
 70
     8
  0
VERTEX
  8
St
 10
-108.075
 20
-29.275
 70
     8
  0
VERTEX
  8
St
 10
-108.1
 20
-29.275
 70
     8
  0
VERTEX
  8
St
 10
-108.1
 20
-29.25
 70
     8
  0
VERTEX
  8
St
 10
-108.1
 20
-29.25
 70
     8
  0
VERTEX
  8
St
 10
-108.125
 20
-29.225
 70
     8
  0
VERTEX
  8
St
 10
-108.125
 20
-29.225
 70
     8
  0
VERTEX
  8
St
 10
-108.125
 20
-29.2
 70
     8
  0
VERTEX
  8
St
 10
-108.15
 20
-29.2
 70
     8
  0
VERTEX
  8
St
 10
-108.15
 20
-29.2
 70
     8
  0
VERTEX
  8
St
 10
-108.15
 20
-29.175
 70
     8
  0
VERTEX
  8
St
 10
-108.175
 20
-29.175
 70
     8
  0
VERTEX
  8
St
 10
-108.175
 20
-29.15
 70
     8
  0
VERTEX
  8
St
 10
-108.2
 20
-29.15
 70
     8
  0
VERTEX
  8
St
 10
-108.2
 20
-29.15
 70
     8
  0
VERTEX
  8
St
 10
-108.2
 20
-29.125
 70
     8
  0
VERTEX
  8
St
 10
-108.225
 20
-29.125
 70
     8
  0
VERTEX
  8
St
 10
-108.225
 20
-29.125
 70
     8
  0
VERTEX
  8
St
 10
-108.25
 20
-29.1
 70
     8
  0
VERTEX
  8
St
 10
-108.25
 20
-29.1
 70
     8
  0
VERTEX
  8
St
 10
-108.25
 20
-29.1
 70
     8
  0
VERTEX
  8
St
 10
-108.275
 20
-29.075
 70
     8
  0
VERTEX
  8
St
 10
-108.275
 20
-29.075
 70
     8
  0
VERTEX
  8
St
 10
-108.3
 20
-29.075
 70
     8
  0
VERTEX
  8
St
 10
-108.3
 20
-29.05
 70
     8
  0
VERTEX
  8
St
 10
-108.3
 20
-29.05
 70
     8
  0
VERTEX
  8
St
 10
-108.325
 20
-29.05
 70
     8
  0
VERTEX
  8
St
 10
-108.325
 20
-29.025
 70
     8
  0
VERTEX
  8
St
 10
-108.35
 20
-29.025
 70
     8
  0
VERTEX
  8
St
 10
-108.35
 20
-29.025
 70
     8
  0
VERTEX
  8
St
 10
-108.35
 20
-29.025
 70
     8
  0
VERTEX
  8
St
 10
-108.375
 20
-29.0
 70
     8
  0
VERTEX
  8
St
 10
-108.375
 20
-29.0
 70
     8
  0
VERTEX
  8
St
 10
-108.4
 20
-29.0
 70
     8
  0
VERTEX
  8
St
 10
-108.4
 20
-29.0
 70
     8
  0
VERTEX
  8
St
 10
-108.425
 20
-28.975
 70
     8
  0
VERTEX
  8
St
 10
-108.425
 20
-28.975
 70
     8
  0
VERTEX
  8
St
 10
-108.425
 20
-28.975
 70
     8
  0
VERTEX
  8
St
 10
-108.45
 20
-28.975
 70
     8
  0
VERTEX
  8
St
 10
-108.45
 20
-28.975
 70
     8
  0
VERTEX
  8
St
 10
-108.475
 20
-28.975
 70
     8
  0
VERTEX
  8
St
 10
-108.475
 20
-28.95
 70
     8
  0
VERTEX
  8
St
 10
-108.5
 20
-28.95
 70
     8
  0
VERTEX
  8
St
 10
-108.5
 20
-28.95
 70
     8
  0
VERTEX
  8
St
 10
-108.5
 20
-28.95
 70
     8
  0
VERTEX
  8
St
 10
-108.525
 20
-28.95
 70
     8
  0
VERTEX
  8
St
 10
-108.525
 20
-28.95
 70
     8
  0
VERTEX
  8
St
 10
-108.55
 20
-28.95
 70
     8
  0
VERTEX
  8
St
 10
-108.55
 20
-28.925
 70
     8
  0
VERTEX
  8
St
 10
-108.575
 20
-28.925
 70
     8
  0
VERTEX
  8
St
 10
-108.575
 20
-28.925
 70
     8
  0
VERTEX
  8
St
 10
-108.575
 20
-28.925
 70
     8
  0
VERTEX
  8
St
 10
-108.6
 20
-28.925
 70
     8
  0
VERTEX
  8
St
 10
-108.6
 20
-28.925
 70
     8
  0
VERTEX
  8
St
 10
-108.625
 20
-28.925
 70
     8
  0
VERTEX
  8
St
 10
-108.625
 20
-28.925
 70
     8
  0
VERTEX
  8
St
 10
-108.65
 20
-28.925
 70
     8
  0
VERTEX
  8
St
 10
-108.65
 20
-28.925
 70
     8
  0
VERTEX
  8
St
 10
-108.65
 20
-28.925
 70
     8
  0
VERTEX
  8
St
 10
-108.675
 20
-28.925
 70
     8
  0
VERTEX
  8
St
 10
-108.675
 20
-28.925
 70
     8
  0
VERTEX
  8
St
 10
-108.7
 20
-28.9
 70
     8
  0
VERTEX
  8
St
 10
-108.7
 20
-28.9
 70
     8
  0
VERTEX
  8
St
 10
-108.725
 20
-28.9
 70
     8
  0
VERTEX
  8
St
 10
-108.725
 20
-28.9
 70
     8
  0
VERTEX
  8
St
 10
-108.75
 20
-28.9
 70
     8
  0
VERTEX
  8
St
 10
-108.75
 20
-28.9
 70
     8
  0
VERTEX
  8
St
 10
-108.75
 20
-28.9
 70
     8
  0
VERTEX
  8
St
 10
-108.775
 20
-28.9
 70
     8
  0
VERTEX
  8
St
 10
-108.775
 20
-28.9
 70
     8
  0
VERTEX
  8
St
 10
-108.8
 20
-28.9
 70
     8
  0
VERTEX
  8
St
 10
-108.8
 20
-28.9
 70
     8
  0
VERTEX
  8
St
 10
-108.825
 20
-28.9
 70
     8
  0
VERTEX
  8
St
 10
-108.825
 20
-28.9
 70
     8
  0
VERTEX
  8
St
 10
-108.85
 20
-28.9
 70
     8
  0
VERTEX
  8
St
 10
-108.85
 20
-28.925
 70
     8
  0
VERTEX
  8
St
 10
-108.85
 20
-28.925
 70
     8
  0
VERTEX
  8
St
 10
-108.875
 20
-28.925
 70
     8
  0
VERTEX
  8
St
 10
-108.875
 20
-28.925
 70
     8
  0
VERTEX
  8
St
 10
-108.9
 20
-28.925
 70
     8
  0
VERTEX
  8
St
 10
-108.9
 20
-28.925
 70
     8
  0
VERTEX
  8
St
 10
-108.925
 20
-28.925
 70
     8
  0
VERTEX
  8
St
 10
-108.925
 20
-28.925
 70
     8
  0
VERTEX
  8
St
 10
-108.95
 20
-28.925
 70
     8
  0
VERTEX
  8
St
 10
-108.95
 20
-28.925
 70
     8
  0
VERTEX
  8
St
 10
-108.975
 20
-28.925
 70
     8
  0
VERTEX
  8
St
 10
-108.975
 20
-28.925
 70
     8
  0
VERTEX
  8
St
 10
-108.975
 20
-28.925
 70
     8
  0
VERTEX
  8
St
 10
-109.0
 20
-28.925
 70
     8
  0
VERTEX
  8
St
 10
-109.0
 20
-28.925
 70
     8
  0
VERTEX
  8
St
 10
-109.025
 20
-28.925
 70
     8
  0
VERTEX
  8
St
 10
-109.025
 20
-28.925
 70
     8
  0
VERTEX
  8
St
 10
-109.05
 20
-28.95
 70
     8
  0
VERTEX
  8
St
 10
-109.05
 20
-28.95
 70
     8
  0
VERTEX
  8
St
 10
-109.075
 20
-28.95
 70
     8
  0
VERTEX
  8
St
 10
-109.075
 20
-28.95
 70
     8
  0
VERTEX
  8
St
 10
-109.1
 20
-28.95
 70
     8
  0
VERTEX
  8
St
 10
-109.1
 20
-28.95
 70
     8
  0
VERTEX
  8
St
 10
-109.1
 20
-28.95
 70
     8
  0
VERTEX
  8
St
 10
-109.125
 20
-28.95
 70
     8
  0
VERTEX
  8
St
 10
-109.125
 20
-28.95
 70
     8
  0
VERTEX
  8
St
 10
-109.15
 20
-28.95
 70
     8
  0
VERTEX
  8
St
 10
-109.15
 20
-28.95
 70
     8
  0
VERTEX
  8
St
 10
-109.175
 20
-28.95
 70
     8
  0
VERTEX
  8
St
 10
-109.175
 20
-28.975
 70
     8
  0
VERTEX
  8
St
 10
-109.2
 20
-28.975
 70
     8
  0
VERTEX
  8
St
 10
-109.2
 20
-28.975
 70
     8
  0
SEQEND
  0
LINE
  8
St
  6
CONTINUOUS
 10
-120.533935
 20
-43.892415
 11
-110.415408
 21
-28.32332
  0
LINE
  8
St
  6
CONTINUOUS
 10
-118.018502
 20
-45.52722
 11
-107.899975
 21
-29.95813
  0
LINE
  8
St
  6
CONTINUOUS
 62
    47
 10
142.573618
 20
-33.870865
 11
147.073618
 21
-33.870865
  0
INSERT
  2
*GRP_0061
  8
St
  6
CONTINUOUS
 10
0.0
 20
0.0
  0
INSERT
  2
*GRP_0062
  8
St
  6
CONTINUOUS
 10
0.0
 20
0.0
  0
LINE
  8
St
  6
CONTINUOUS
 10
-103.220783
 20
-2.706172
 11
-100.38745
 21
-2.706172
  0
LINE
  8
St
  6
CONTINUOUS
 10
-103.220783
 20
-2.706172
 11
-103.3883
 21
-3.206172
  0
INSERT
  2
*GRP_0063
  8
St
 10
0.0
 20
0.0
  0
LINE
  8
St
  6
CONTINUOUS
 10
123.838838
 20
-2.706182
 11
121.005505
 21
-2.706182
  0
LINE
  8
St
  6
CONTINUOUS
 10
123.838838
 20
-2.706182
 11
124.006355
 21
-3.206182
  0
INSERT
  2
*GRP_0064
  8
St
 10
0.0
 20
0.0
  0
INSERT
  2
*GRP_0076
  8
St
  6
DOT
 10
0.0
 20
0.0
  0
INSERT
  2
*GRP_0077
  8
St
  6
DOT
 10
0.0
 20
0.0
  0
INSERT
  2
*GRP_0082
  8
St
  6
CONTINUOUS
 10
0.0
 20
0.0
  0
INSERT
  2
*GRP_0083
  8
St
  6
CONTINUOUS
 10
0.0
 20
0.0
  0
INSERT
  2
*GRP_0086
  8
St
  6
DOT
 10
0.0
 20
0.0
  0
INSERT
  2
*GRP_0087
  8
St
  6
DOT
 10
0.0
 20
0.0
  0
INSERT
  2
*GRP_0088
  8
St
  6
CONTINUOUS
 10
0.0
 20
0.0
  0
INSERT
  2
*GRP_0089
  8
St
  6
CONTINUOUS
 10
0.0
 20
0.0
  0
LINE
  8
その他部品等
  6
CONTINUOUS
 10
-92.054125
 20
2.79382
 11
-92.054133
 21
-0.272847
  0
LINE
  8
その他部品等
  6
CONTINUOUS
 10
-0.523185
 20
2.793822
 11
-0.523178
 21
-0.272828
  0
LINE
  8
その他部品等
  6
CONTINUOUS
 10
12.80983
 20
-0.206163
 11
7.810132
 21
-0.206163
  0
LINE
  8
その他部品等
  6
CONTINUOUS
 10
7.81013
 20
-1.87283
 11
12.80983
 21
-0.206163
  0
LINE
  8
その他部品等
  6
CONTINUOUS
 10
-100.387435
 20
-11.116382
 11
-98.273358
 21
-9.372822
  0
INSERT
  2
*HAT_0012
  8
その他部品等
 10
0.0
 20
0.0
  0
LINE
  8
その他部品等
  6
CONTINUOUS
 10
121.00549
 20
-9.449733
 11
118.891412
 21
-7.706172
  0
INSERT
  2
*HAT_0013
  8
その他部品等
 10
0.0
 20
0.0
  0
LINE
  8
その他部品等
  6
CONTINUOUS
 10
112.67218
 20
2.79381
 11
112.672192
 21
-2.272847
  0
LINE
  8
その他部品等
  6
CONTINUOUS
 10
21.14315
 20
2.793822
 11
21.143132
 21
-2.272847
  0
LINE
  8
その他部品等
  6
DOT
 10
-107.054127
 20
1.177088
 11
-107.054122
 21
-0.039487
  0
LINE
  8
その他部品等
  6
CONTINUOUS
 10
12.809825
 20
3.293837
 11
7.81014
 21
3.293837
  0
LINE
  8
その他部品等
  6
CONTINUOUS
 10
-95.38745
 20
2.79382
 11
-95.387425
 21
-0.27283
  0
LINE
  8
その他部品等
  6
CONTINUOUS
 10
-97.0541
 20
2.793813
 11
-97.054093
 21
-0.272837
  0
LINE
  8
その他部品等
  6
CONTINUOUS
 10
-97.054093
 20
-0.272837
 11
-95.38745
 21
2.79382
  0
LINE
  8
その他部品等
  6
CONTINUOUS
 10
116.005525
 20
2.79381
 11
116.005482
 21
-2.272847
  0
LINE
  8
その他部品等
  6
CONTINUOUS
 10
117.672175
 20
2.793802
 11
117.672163
 21
-2.272847
  0
LINE
  8
その他部品等
  6
CONTINUOUS
 10
117.672175
 20
2.793802
 11
116.005482
 21
-2.272847
  0
LINE
  8
その他部品等
  6
CONTINUOUS
 10
18.143165
 20
2.793813
 11
18.143123
 21
-2.272847
  0
LINE
  8
その他部品等
  6
CONTINUOUS
 10
16.47649
 20
2.793822
 11
16.476503
 21
-2.272847
  0
LINE
  8
その他部品等
  6
CONTINUOUS
 10
18.143165
 20
2.793813
 11
16.476655
 21
-2.272847
  0
LINE
  8
その他部品等
  6
CONTINUOUS
 10
2.476798
 20
2.793813
 11
2.476822
 21
-0.272828
  0
LINE
  8
その他部品等
  6
CONTINUOUS
 10
4.143472
 20
2.793822
 11
4.143465
 21
-0.272828
  0
LINE
  8
その他部品等
  6
CONTINUOUS
 10
2.476822
 20
-0.272828
 11
4.143472
 21
2.793822
  0
LINE
  8
SUNPO
 62
     7
 10
-96.84144
 20
-3.998705
 11
-96.84144
 21
-3.998705
  0
LINE
  8
SUNPO
 62
     7
 10
-96.216432
 20
-3.998697
 11
-96.216432
 21
-3.998697
  0
ENDSEC
  0
EOF
