  0
SECTION
  2
HEADER
  9
$EXTMIN
 10
-210.0
 20
-148.5
  9
$EXTMAX
 10
210.0
 20
148.5
  9
$PDMODE
 70
    32
  9
$PDSIZE
 40
0.1
  9
$LTSCALE
 40
10.0
  0
ENDSEC
  0
SECTION
  2
TABLES
  0
TABLE
  2
LTYPE
 70
    15
  0
LTYPE
  2
CONTINUOUS
 70
    64
  3
実線
 72
    65
 73
     0
 40
0.0
  0
LTYPE
  2
DASHED
 70
    64
  3
破線A
 72
    65
 73
     2
 40
0.6
 49
0.4
 49
-0.2
  0
LTYPE
  2
DASHEDX2
 70
    64
  3
破線B
 72
    65
 73
     2
 40
1.3
 49
0.9
 49
-0.4
  0
LTYPE
  2
DASHDOT
 70
    64
  3
１点鎖線A
 72
    65
 73
     4
 40
0.5375
 49
0.375
 49
-0.05
 49
0.0625
 49
-0.05
  0
LTYPE
  2
DASHDOTX2
 70
    64
  3
１点鎖線B
 72
    65
 73
     4
 40
1.075
 49
0.75
 49
-0.1
 49
0.125
 49
-0.1
  0
LTYPE
  2
DIVIDE2
 70
    64
  3
２点鎖線A
 72
    65
 73
     6
 40
0.5125
 49
0.3
 49
-0.0375
 49
0.05
 49
-0.0375
 49
0.05
 49
-0.0375
  0
LTYPE
  2
DIVIDE
 70
    64
  3
２点鎖線B
 72
    65
 73
     6
 40
1.05
 49
0.55
 49
-0.1
 49
0.1
 49
-0.1
 49
0.1
 49
-0.1
  0
LTYPE
  2
DOT
 70
    64
  3
点線A
 72
    65
 73
     2
 40
0.1125
 49
0.0625
 49
-0.05
  0
LTYPE
  2
DOTX2
 70
    64
  3
点線B
 72
    65
 73
     2
 40
0.275
 49
0.15
 49
-0.125
  0
LTYPE
  2
CONTINUOUS
 70
    64
  3
実線
 72
    65
 73
     0
 40
0.0
  0
LTYPE
  2
CONTINUOUS
 70
    64
  3
実線
 72
    65
 73
     0
 40
0.0
  0
LTYPE
  2
CONTINUOUS
 70
    64
  3
実線
 72
    65
 73
     0
 40
0.0
  0
LTYPE
  2
CONTINUOUS
 70
    64
  3
実線
 72
    65
 73
     0
 40
0.0
  0
LTYPE
  2
CONTINUOUS
 70
    64
  3
実線
 72
    65
 73
     0
 40
0.0
  0
LTYPE
  2
CONTINUOUS
 70
    64
  3
実線
 72
    65
 73
     0
 40
0.0
  0
ENDTAB
  0
TABLE
  2
LAYER
 70
    34
  0
LAYER
  2
通り芯
 70
     0
 62
    15
  6
CONTINUOUS
  0
LAYER
  2
補助線
 70
     0
 62
    16
  6
DOT
  0
LAYER
  2
躯体
 70
     0
 62
    31
  6
CONTINUOUS
  0
LAYER
  2
型材
 70
     0
 62
    32
  6
CONTINUOUS
  0
LAYER
  2
型材断面
 70
     0
 62
    47
  6
CONTINUOUS
  0
LAYER
  2
ガラス
 70
     0
 62
    48
  6
CONTINUOUS
  0
LAYER
  2
ゴム等
 70
     0
 62
    63
  6
CONTINUOUS
  0
LAYER
  2
ボルト／ビス
 70
     0
 62
    64
  6
CONTINUOUS
  0
LAYER
  2
文字
 70
     0
 62
    79
  6
CONTINUOUS
  0
LAYER
  2
寸法
 70
     0
 62
    80
  6
CONTINUOUS
  0
LAYER
  2
ﾊｯﾁﾝｸﾞ
 70
     0
 62
    95
  6
CONTINUOUS
  0
LAYER
  2
別途部材
 70
     0
 62
    96
  6
CONTINUOUS
  0
LAYER
  2
曲げ物
 70
     0
 62
   111
  6
CONTINUOUS
  0
LAYER
  2
鉄骨等
 70
     0
 62
   112
  6
CONTINUOUS
  0
LAYER
  2
St
 70
     0
 62
   127
  6
CONTINUOUS
  0
LAYER
  2
その他部品等
 70
     0
 62
   128
  6
CONTINUOUS
  0
LAYER
  2
ｶﾞｽｹｯﾄ
 70
     0
 62
   143
  6
CONTINUOUS
  0
LAYER
  2
ｽｹｯﾁ
 70
     0
 62
    14
  6
CONTINUOUS
  0
LAYER
  2
0
 70
     0
 62
    17
  6
CONTINUOUS
  0
LAYER
  2
1
 70
     0
 62
    30
  6
CONTINUOUS
  0
LAYER
  2
4
 70
     0
 62
    33
  6
CONTINUOUS
  0
LAYER
  2
ﾚｲﾔ3
 70
     0
 62
    46
  6
CONTINUOUS
  0
LAYER
  2
外形線
 70
     0
 62
    49
  6
CONTINUOUS
  0
LAYER
  2
部品
 70
     0
 62
    14
  6
CONTINUOUS
  0
LAYER
  2
サッシ芯
 70
     0
 62
    17
  6
DASHDOTX2
  0
LAYER
  2
寸法線
 70
     0
 62
    62
  6
CONTINUOUS
  0
LAYER
  2
姿図外形線
 70
     0
 62
    65
  6
CONTINUOUS
  0
LAYER
  2
姿補助線
 70
     0
 62
    30
  6
CONTINUOUS
  0
LAYER
  2
透視線
 70
     0
 62
    78
  6
DOT
  0
LAYER
  2
用紙
 70
     0
 62
    81
  6
CONTINUOUS
  0
LAYER
  2
実線図枠
 70
     0
 62
    94
  6
CONTINUOUS
  0
LAYER
  2
補助図枠
 70
     0
 62
    97
  6
CONTINUOUS
  0
LAYER
  2
建具記号
 70
     0
 62
   110
  6
CONTINUOUS
  0
LAYER
  2
補助文字
 70
     0
 62
   113
  6
CONTINUOUS
  0
ENDTAB
  0
TABLE
  2
STYLE
 70
    10
  0
STYLE
  2
STANDARD
 70
     0
 40
1.0
 41
1.0
 42
1.0
 50
0.0
 71
     0
  3
TXT
  4
BIGFONT
  0
STYLE
  2
TATE
 70
     4
 40
1.0
 41
1.0
 42
1.0
 50
0.0
 71
     0
  3
TXT
  4
BIGFONT
  0
STYLE
  2
TextStyle03
 70
     0
 40
1.0
 41
1.0
 42
1.0
 50
0.0
 71
     0
  3
MONOTXT
  4
BIGFONT
  0
STYLE
  2
TextStyle04
 70
     0
 40
1.0
 41
1.0
 42
1.0
 50
0.0
 71
     0
  3
MONOTXT
  4
BIGFONT
  0
STYLE
  2
TextStyle05
 70
     0
 40
1.0
 41
1.0
 42
1.0
 50
0.0
 71
     0
  3
MONOTXT
  4
BIGFONT
  0
STYLE
  2
TextStyle06
 70
     0
 40
1.0
 41
1.0
 42
1.0
 50
0.0
 71
     0
  3
MONOTXT
  4
BIGFONT
  0
STYLE
  2
TextStyle07
 70
     0
 40
1.0
 41
1.0
 42
1.0
 50
0.0
 71
     0
  3
MONOTXT
  4
BIGFONT
  0
STYLE
  2
TextStyle08
 70
     0
 40
1.0
 41
1.0
 42
1.0
 50
0.0
 71
     0
  3
MONOTXT
  4
BIGFONT
  0
STYLE
  2
TextStyle09
 70
     0
 40
1.0
 41
1.0
 42
1.0
 50
0.0
 71
     0
  3
MONOTXT
  4
BIGFONT
  0
STYLE
  2
TextStyle10
 70
     0
 40
1.0
 41
1.0
 42
1.0
 50
0.0
 71
     0
  3
MONOTXT
  4
BIGFONT
  0
ENDTAB
  0
ENDSEC
  0
SECTION
  2
BLOCKS
  0
BLOCK
  2
*HAT_0001
 70
    65
 10
0.0
 20
0.0
  0
LINE
  8
St
 10
-96.6
 20
-23.475
 11
-96.6
 21
-23.475
  0
LINE
  8
St
 10
-97.075
 20
-23.475
 11
-96.75
 21
-23.125
  0
LINE
  8
St
 10
-97.55
 20
-23.475
 11
-97.05
 21
-22.975
  0
LINE
  8
St
 10
-98.025
 20
-23.475
 11
-97.525
 21
-22.975
  0
LINE
  8
St
 10
-98.5
 20
-23.475
 11
-98.0
 21
-22.975
  0
LINE
  8
St
 10
-98.975
 20
-23.475
 11
-98.475
 21
-22.975
  0
LINE
  8
St
 10
-99.925
 20
-23.975
 11
-98.925
 21
-22.975
  0
LINE
  8
St
 10
-100.4
 20
-23.975
 11
-99.4
 21
-22.975
  0
LINE
  8
St
 10
-100.875
 20
-23.975
 11
-99.875
 21
-22.975
  0
LINE
  8
St
 10
-101.35
 20
-23.975
 11
-100.35
 21
-22.975
  0
LINE
  8
St
 10
-101.825
 20
-23.975
 11
-100.825
 21
-22.975
  0
LINE
  8
St
 10
-102.3
 20
-23.975
 11
-101.3
 21
-22.975
  0
LINE
  8
St
 10
-102.75
 20
-23.975
 11
-101.75
 21
-22.975
  0
LINE
  8
St
 10
-103.225
 20
-23.975
 11
-102.225
 21
-22.975
  0
LINE
  8
St
 10
-103.7
 20
-23.975
 11
-102.7
 21
-22.975
  0
LINE
  8
St
 10
-104.175
 20
-23.975
 11
-103.175
 21
-22.975
  0
LINE
  8
St
 10
-104.65
 20
-23.975
 11
-103.65
 21
-22.975
  0
LINE
  8
St
 10
-105.125
 20
-23.975
 11
-104.125
 21
-22.975
  0
LINE
  8
St
 10
-105.575
 20
-23.975
 11
-104.575
 21
-22.975
  0
LINE
  8
St
 10
-106.05
 20
-23.975
 11
-105.05
 21
-22.975
  0
LINE
  8
St
 10
-106.425
 20
-23.875
 11
-105.525
 21
-22.975
  0
LINE
  8
St
 10
-106.6
 20
-23.575
 11
-106.0
 21
-22.975
  0
ENDBLK
  0
BLOCK
  2
*HAT_0002
 70
    65
 10
0.0
 20
0.0
  0
LINE
  8
St
 10
122.05
 20
-23.475
 11
122.05
 21
-23.475
  0
LINE
  8
St
 10
122.525
 20
-23.475
 11
122.2
 21
-23.125
  0
LINE
  8
St
 10
123.0
 20
-23.475
 11
122.5
 21
-22.975
  0
LINE
  8
St
 10
123.475
 20
-23.475
 11
122.975
 21
-22.975
  0
LINE
  8
St
 10
123.95
 20
-23.475
 11
123.45
 21
-22.975
  0
LINE
  8
St
 10
124.425
 20
-23.475
 11
123.925
 21
-22.975
  0
LINE
  8
St
 10
125.375
 20
-23.975
 11
124.375
 21
-22.975
  0
LINE
  8
St
 10
125.85
 20
-23.975
 11
124.85
 21
-22.975
  0
LINE
  8
St
 10
126.325
 20
-23.975
 11
125.325
 21
-22.975
  0
LINE
  8
St
 10
126.8
 20
-23.975
 11
125.8
 21
-22.975
  0
LINE
  8
St
 10
127.275
 20
-23.975
 11
126.275
 21
-22.975
  0
LINE
  8
St
 10
127.75
 20
-23.975
 11
126.75
 21
-22.975
  0
LINE
  8
St
 10
128.2
 20
-23.975
 11
127.2
 21
-22.975
  0
LINE
  8
St
 10
128.675
 20
-23.975
 11
127.675
 21
-22.975
  0
LINE
  8
St
 10
129.15
 20
-23.975
 11
128.15
 21
-22.975
  0
LINE
  8
St
 10
129.625
 20
-23.975
 11
128.625
 21
-22.975
  0
LINE
  8
St
 10
130.1
 20
-23.975
 11
129.1
 21
-22.975
  0
LINE
  8
St
 10
130.575
 20
-23.975
 11
129.575
 21
-22.975
  0
LINE
  8
St
 10
131.025
 20
-23.975
 11
130.025
 21
-22.975
  0
LINE
  8
St
 10
131.5
 20
-23.975
 11
130.5
 21
-22.975
  0
LINE
  8
St
 10
131.875
 20
-23.875
 11
130.975
 21
-22.975
  0
LINE
  8
St
 10
132.05
 20
-23.575
 11
131.45
 21
-22.975
  0
ENDBLK
  0
BLOCK
  2
*HAT_0003
 70
    65
 10
0.0
 20
0.0
  0
LINE
  8
型材断面
 10
-120.55
 20
-57.575
 11
-120.375
 21
-57.375
  0
LINE
  8
型材断面
 10
-121.65
 20
-57.725
 11
-120.375
 21
-56.425
  0
LINE
  8
型材断面
 10
-122.65
 20
-57.775
 11
-120.375
 21
-55.5
  0
LINE
  8
型材断面
 10
-122.65
 20
-56.825
 11
-120.375
 21
-54.575
  0
LINE
  8
型材断面
 10
-122.65
 20
-55.9
 11
-120.375
 21
-53.625
  0
LINE
  8
型材断面
 10
-122.65
 20
-54.95
 11
-120.55
 21
-52.85
  0
LINE
  8
型材断面
 10
-122.65
 20
-54.025
 11
-121.5
 21
-52.85
  0
LINE
  8
型材断面
 10
-122.65
 20
-53.075
 11
-122.425
 21
-52.85
  0
LINE
  8
型材断面
 10
-122.65
 20
-57.05
 11
-121.95
 21
-57.75
  0
LINE
  8
型材断面
 10
-122.65
 20
-56.1
 11
-121.125
 21
-57.625
  0
LINE
  8
型材断面
 10
-122.65
 20
-55.175
 11
-120.375
 21
-57.45
  0
LINE
  8
型材断面
 10
-122.65
 20
-54.225
 11
-120.375
 21
-56.5
  0
LINE
  8
型材断面
 10
-122.65
 20
-53.275
 11
-120.375
 21
-55.575
  0
LINE
  8
型材断面
 10
-122.15
 20
-52.85
 11
-120.375
 21
-54.625
  0
LINE
  8
型材断面
 10
-121.2
 20
-52.85
 11
-120.375
 21
-53.675
  0
ENDBLK
  0
BLOCK
  2
*HAT_0004
 70
    65
 10
0.0
 20
0.0
  0
LINE
  8
型材断面
 10
-155.55
 20
-83.125
 11
-154.65
 21
-82.25
  0
LINE
  8
型材断面
 10
-156.475
 20
-83.125
 11
-154.65
 21
-81.3
  0
LINE
  8
型材断面
 10
-157.425
 20
-83.125
 11
-154.65
 21
-80.375
  0
LINE
  8
型材断面
 10
-158.35
 20
-83.125
 11
-155.35
 21
-80.1
  0
LINE
  8
型材断面
 10
-159.3
 20
-83.125
 11
-156.275
 21
-80.1
  0
LINE
  8
型材断面
 10
-160.25
 20
-83.125
 11
-157.225
 21
-80.1
  0
LINE
  8
型材断面
 10
-161.0
 20
-82.925
 11
-158.15
 21
-80.1
  0
LINE
  8
型材断面
 10
-161.0
 20
-81.975
 11
-160.95
 21
-81.975
  0
LINE
  8
型材断面
 10
-160.5
 20
-81.475
 11
-159.1
 21
-80.1
  0
LINE
  8
型材断面
 10
-161.0
 20
-82.725
 11
-160.6
 21
-83.125
  0
LINE
  8
型材断面
 10
-160.8
 20
-81.975
 11
-159.65
 21
-83.125
  0
LINE
  8
型材断面
 10
-160.5
 20
-81.325
 11
-158.7
 21
-83.125
  0
LINE
  8
型材断面
 10
-160.225
 20
-80.675
 11
-157.75
 21
-83.125
  0
LINE
  8
型材断面
 10
-159.85
 20
-80.1
 11
-156.825
 21
-83.125
  0
LINE
  8
型材断面
 10
-158.9
 20
-80.1
 11
-155.875
 21
-83.125
  0
LINE
  8
型材断面
 10
-157.95
 20
-80.1
 11
-154.95
 21
-83.125
  0
LINE
  8
型材断面
 10
-157.025
 20
-80.1
 11
-154.65
 21
-82.475
  0
LINE
  8
型材断面
 10
-156.075
 20
-80.1
 11
-154.65
 21
-81.525
  0
LINE
  8
型材断面
 10
-155.15
 20
-80.1
 11
-154.65
 21
-80.575
  0
ENDBLK
  0
BLOCK
  2
*HAT_0005
 70
    65
 10
0.0
 20
0.0
  0
LINE
  8
型材断面
 10
146.0
 20
-57.575
 11
145.825
 21
-57.375
  0
LINE
  8
型材断面
 10
147.1
 20
-57.725
 11
145.825
 21
-56.425
  0
LINE
  8
型材断面
 10
148.1
 20
-57.775
 11
145.825
 21
-55.5
  0
LINE
  8
型材断面
 10
148.1
 20
-56.825
 11
145.825
 21
-54.575
  0
LINE
  8
型材断面
 10
148.1
 20
-55.9
 11
145.825
 21
-53.625
  0
LINE
  8
型材断面
 10
148.1
 20
-54.95
 11
146.0
 21
-52.85
  0
LINE
  8
型材断面
 10
148.1
 20
-54.025
 11
146.95
 21
-52.85
  0
LINE
  8
型材断面
 10
148.1
 20
-53.075
 11
147.875
 21
-52.85
  0
LINE
  8
型材断面
 10
148.1
 20
-57.05
 11
147.4
 21
-57.75
  0
LINE
  8
型材断面
 10
148.1
 20
-56.1
 11
146.575
 21
-57.625
  0
LINE
  8
型材断面
 10
148.1
 20
-55.175
 11
145.825
 21
-57.45
  0
LINE
  8
型材断面
 10
148.1
 20
-54.225
 11
145.825
 21
-56.5
  0
LINE
  8
型材断面
 10
148.1
 20
-53.275
 11
145.825
 21
-55.575
  0
LINE
  8
型材断面
 10
147.6
 20
-52.85
 11
145.825
 21
-54.625
  0
LINE
  8
型材断面
 10
146.65
 20
-52.85
 11
145.825
 21
-53.675
  0
ENDBLK
  0
BLOCK
  2
*HAT_0006
 70
    65
 10
0.0
 20
0.0
  0
LINE
  8
型材断面
 10
181.0
 20
-83.125
 11
180.1
 21
-82.25
  0
LINE
  8
型材断面
 10
181.925
 20
-83.125
 11
180.1
 21
-81.3
  0
LINE
  8
型材断面
 10
182.875
 20
-83.125
 11
180.1
 21
-80.375
  0
LINE
  8
型材断面
 10
183.8
 20
-83.125
 11
180.8
 21
-80.1
  0
LINE
  8
型材断面
 10
184.75
 20
-83.125
 11
181.725
 21
-80.1
  0
LINE
  8
型材断面
 10
185.7
 20
-83.125
 11
182.675
 21
-80.1
  0
LINE
  8
型材断面
 10
186.45
 20
-82.925
 11
183.6
 21
-80.1
  0
LINE
  8
型材断面
 10
186.45
 20
-81.975
 11
186.4
 21
-81.975
  0
LINE
  8
型材断面
 10
185.95
 20
-81.475
 11
184.55
 21
-80.1
  0
LINE
  8
型材断面
 10
186.45
 20
-82.725
 11
186.05
 21
-83.125
  0
LINE
  8
型材断面
 10
186.25
 20
-81.975
 11
185.1
 21
-83.125
  0
LINE
  8
型材断面
 10
185.95
 20
-81.325
 11
184.15
 21
-83.125
  0
LINE
  8
型材断面
 10
185.675
 20
-80.675
 11
183.2
 21
-83.125
  0
LINE
  8
型材断面
 10
185.3
 20
-80.1
 11
182.275
 21
-83.125
  0
LINE
  8
型材断面
 10
184.35
 20
-80.1
 11
181.325
 21
-83.125
  0
LINE
  8
型材断面
 10
183.4
 20
-80.1
 11
180.4
 21
-83.125
  0
LINE
  8
型材断面
 10
182.475
 20
-80.1
 11
180.1
 21
-82.475
  0
LINE
  8
型材断面
 10
181.525
 20
-80.1
 11
180.1
 21
-81.525
  0
LINE
  8
型材断面
 10
180.6
 20
-80.1
 11
180.1
 21
-80.575
  0
ENDBLK
  0
BLOCK
  2
*HAT_0007
 70
    65
 10
0.0
 20
0.0
  0
LINE
  8
型材断面
 10
-93.925
 20
-38.025
 11
-93.425
 21
-37.5
  0
LINE
  8
型材断面
 10
-94.775
 20
-38.025
 11
-93.425
 21
-36.65
  0
LINE
  8
型材断面
 10
-95.625
 20
-38.025
 11
-93.425
 21
-35.8
  0
LINE
  8
型材断面
 10
-96.075
 20
-37.625
 11
-93.8
 21
-35.35
  0
LINE
  8
型材断面
 10
-96.075
 20
-36.775
 11
-94.65
 21
-35.35
  0
LINE
  8
型材断面
 10
-96.075
 20
-35.925
 11
-95.5
 21
-35.35
  0
ENDBLK
  0
BLOCK
  2
*HAT_0008
 70
    65
 10
0.0
 20
0.0
  0
LINE
  8
型材断面
 10
119.4
 20
-38.025
 11
118.9
 21
-37.5
  0
LINE
  8
型材断面
 10
120.25
 20
-38.025
 11
118.9
 21
-36.65
  0
LINE
  8
型材断面
 10
121.1
 20
-38.025
 11
118.9
 21
-35.8
  0
LINE
  8
型材断面
 10
121.55
 20
-37.625
 11
119.275
 21
-35.35
  0
LINE
  8
型材断面
 10
121.55
 20
-36.775
 11
120.125
 21
-35.35
  0
LINE
  8
型材断面
 10
121.55
 20
-35.925
 11
120.975
 21
-35.35
  0
ENDBLK
  0
BLOCK
  2
*HAT_0009
 70
    65
 10
0.0
 20
0.0
  0
LINE
  8
St
 10
-98.825
 20
-17.95
 11
-98.225
 21
-17.325
  0
LINE
  8
St
 10
-99.3
 20
-17.95
 11
-98.4
 21
-17.05
  0
LINE
  8
St
 10
-99.775
 20
-17.95
 11
-98.775
 21
-16.95
  0
LINE
  8
St
 10
-100.25
 20
-17.95
 11
-99.25
 21
-16.95
  0
LINE
  8
St
 10
-100.725
 20
-17.95
 11
-99.725
 21
-16.95
  0
LINE
  8
St
 10
-101.175
 20
-17.95
 11
-100.175
 21
-16.95
  0
LINE
  8
St
 10
-101.65
 20
-17.95
 11
-100.65
 21
-16.95
  0
LINE
  8
St
 10
-102.125
 20
-17.95
 11
-101.125
 21
-16.95
  0
LINE
  8
St
 10
-102.6
 20
-17.95
 11
-101.6
 21
-16.95
  0
LINE
  8
St
 10
-103.075
 20
-17.95
 11
-102.075
 21
-16.95
  0
LINE
  8
St
 10
-103.55
 20
-17.95
 11
-102.55
 21
-16.95
  0
LINE
  8
St
 10
-104.0
 20
-17.95
 11
-103.0
 21
-16.95
  0
LINE
  8
St
 10
-104.475
 20
-17.95
 11
-103.475
 21
-16.95
  0
LINE
  8
St
 10
-104.95
 20
-17.95
 11
-103.95
 21
-16.95
  0
LINE
  8
St
 10
-105.425
 20
-17.95
 11
-104.425
 21
-16.95
  0
LINE
  8
St
 10
-105.9
 20
-17.95
 11
-104.9
 21
-16.95
  0
LINE
  8
St
 10
-106.375
 20
-17.95
 11
-105.375
 21
-16.95
  0
LINE
  8
St
 10
-106.825
 20
-17.95
 11
-105.825
 21
-16.95
  0
LINE
  8
St
 10
-107.3
 20
-17.95
 11
-106.3
 21
-16.95
  0
LINE
  8
St
 10
-107.775
 20
-17.95
 11
-106.775
 21
-16.95
  0
LINE
  8
St
 10
-108.075
 20
-17.775
 11
-107.25
 21
-16.95
  0
LINE
  8
St
 10
-108.2
 20
-17.425
 11
-107.725
 21
-16.95
  0
ENDBLK
  0
BLOCK
  2
*HAT_0010
 70
    65
 10
0.0
 20
0.0
  0
LINE
  8
St
 10
124.275
 20
-17.95
 11
123.675
 21
-17.325
  0
LINE
  8
St
 10
124.75
 20
-17.95
 11
123.85
 21
-17.05
  0
LINE
  8
St
 10
125.225
 20
-17.95
 11
124.225
 21
-16.95
  0
LINE
  8
St
 10
125.7
 20
-17.95
 11
124.7
 21
-16.95
  0
LINE
  8
St
 10
126.175
 20
-17.95
 11
125.175
 21
-16.95
  0
LINE
  8
St
 10
126.625
 20
-17.95
 11
125.625
 21
-16.95
  0
LINE
  8
St
 10
127.1
 20
-17.95
 11
126.1
 21
-16.95
  0
LINE
  8
St
 10
127.575
 20
-17.95
 11
126.575
 21
-16.95
  0
LINE
  8
St
 10
128.05
 20
-17.95
 11
127.05
 21
-16.95
  0
LINE
  8
St
 10
128.525
 20
-17.95
 11
127.525
 21
-16.95
  0
LINE
  8
St
 10
129.0
 20
-17.95
 11
128.0
 21
-16.95
  0
LINE
  8
St
 10
129.45
 20
-17.95
 11
128.45
 21
-16.95
  0
LINE
  8
St
 10
129.925
 20
-17.95
 11
128.925
 21
-16.95
  0
LINE
  8
St
 10
130.4
 20
-17.95
 11
129.4
 21
-16.95
  0
LINE
  8
St
 10
130.875
 20
-17.95
 11
129.875
 21
-16.95
  0
LINE
  8
St
 10
131.35
 20
-17.95
 11
130.35
 21
-16.95
  0
LINE
  8
St
 10
131.825
 20
-17.95
 11
130.825
 21
-16.95
  0
LINE
  8
St
 10
132.275
 20
-17.95
 11
131.275
 21
-16.95
  0
LINE
  8
St
 10
132.75
 20
-17.95
 11
131.75
 21
-16.95
  0
LINE
  8
St
 10
133.225
 20
-17.95
 11
132.225
 21
-16.95
  0
LINE
  8
St
 10
133.525
 20
-17.775
 11
132.7
 21
-16.95
  0
LINE
  8
St
 10
133.65
 20
-17.425
 11
133.175
 21
-16.95
  0
ENDBLK
  0
BLOCK
  2
*HAT_0011
 70
    65
 10
0.0
 20
0.0
  0
LINE
  8
その他部品等
 10
-96.625
 20
-39.85
 11
-95.275
 21
-38.525
  0
LINE
  8
その他部品等
 10
-96.6
 20
-38.975
 11
-96.425
 21
-38.825
  0
LINE
  8
その他部品等
 10
-96.625
 20
-39.8
 11
-96.375
 21
-40.05
  0
LINE
  8
その他部品等
 10
-96.6
 20
-38.975
 11
-95.9
 21
-39.675
  0
LINE
  8
その他部品等
 10
-96.075
 20
-38.65
 11
-95.425
 21
-39.3
  0
LINE
  8
その他部品等
 10
-95.35
 20
-38.525
 11
-94.975
 21
-38.925
  0
LINE
  8
その他部品等
 10
-94.5
 20
-38.525
 11
-94.5
 21
-38.525
  0
ENDBLK
  0
BLOCK
  2
*HAT_0012
 70
    65
 10
0.0
 20
0.0
  0
LINE
  8
その他部品等
 10
122.1
 20
-39.85
 11
120.75
 21
-38.525
  0
LINE
  8
その他部品等
 10
122.075
 20
-38.975
 11
121.9
 21
-38.825
  0
LINE
  8
その他部品等
 10
122.1
 20
-39.8
 11
121.85
 21
-40.05
  0
LINE
  8
その他部品等
 10
122.075
 20
-38.975
 11
121.375
 21
-39.675
  0
LINE
  8
その他部品等
 10
121.55
 20
-38.65
 11
120.9
 21
-39.3
  0
LINE
  8
その他部品等
 10
120.825
 20
-38.525
 11
120.45
 21
-38.925
  0
LINE
  8
その他部品等
 10
119.975
 20
-38.525
 11
119.975
 21
-38.525
  0
ENDBLK
  0
BLOCK
  2
*GRP_0001
 70
    65
 10
0.0
 20
0.0
  0
LINE
  8
型材断面
  6
CONTINUOUS
 10
195.0
 20
133.5
 11
195.0
 21
-133.5
  0
LINE
  8
型材断面
  6
CONTINUOUS
 10
195.0
 20
-133.5
 11
-185.0
 21
-133.5
  0
LINE
  8
型材断面
  6
CONTINUOUS
 10
-185.0
 20
-133.5
 11
-185.0
 21
133.5
  0
LINE
  8
型材断面
  6
CONTINUOUS
 10
195.0
 20
133.5
 11
-185.0
 21
133.5
  0
LINE
  8
型材断面
  6
CONTINUOUS
 10
145.0
 20
-133.5
 11
145.0
 21
-118.5
  0
LINE
  8
型材断面
  6
CONTINUOUS
 10
195.0
 20
-118.5
 11
145.0
 21
-118.5
  0
ENDBLK
  0
BLOCK
  2
*GRP_0002
 70
    65
 10
0.0
 20
0.0
  0
ARC
  8
型材断面
  6
CONTINUOUS
 10
-118.64216
 20
-57.292259
 40
0.5
 50
-82.252227
 51
0.0
  0
LINE
  8
型材断面
  6
CONTINUOUS
 10
-118.142158
 20
-57.728838
 11
-160.975493
 21
-63.556502
  0
LINE
  8
型材断面
  6
CONTINUOUS
 10
-160.97553
 20
-83.119925
 11
-160.975493
 21
-63.556502
  0
ARC
  8
型材断面
  6
CONTINUOUS
 10
-160.975494
 20
-63.556505
 40
0.5
 50
97.747773
 51
179.999885
  0
LINE
  8
型材断面
  6
CONTINUOUS
 10
-118.642158
 20
-57.29226
 11
-161.47549
 21
-63.119925
  0
LINE
  8
型材断面
  6
CONTINUOUS
 62
    47
 10
-161.47553
 20
-83.119925
 11
-161.47549
 21
-63.119925
  0
LINE
  8
型材断面
  6
CONTINUOUS
 62
    47
 10
-161.47553
 20
-83.119925
 11
-160.97553
 21
-83.119925
  0
INSERT
  2
*GRP_0003
  8
型材断面
  6
CONTINUOUS
 10
0.0
 20
0.0
  0
LINE
  8
型材断面
  6
CONTINUOUS
 10
-118.642158
 20
-53.428838
 11
-118.142158
 21
-53.428838
  0
LINE
  8
型材断面
  6
CONTINUOUS
 10
-118.642158
 20
-55.26217
 11
-118.142158
 21
-55.26217
  0
LINE
  8
型材断面
  6
CONTINUOUS
 10
-118.642158
 20
-54.26217
 11
-118.142158
 21
-54.26217
  0
LINE
  8
型材断面
  6
CONTINUOUS
 10
-118.642158
 20
-56.26217
 11
-118.142158
 21
-56.26217
  0
LINE
  8
型材断面
  6
CONTINUOUS
 10
-118.517158
 20
-54.26217
 11
-118.517158
 21
-56.26217
  0
LINE
  8
型材断面
  6
CONTINUOUS
 10
-118.392158
 20
-54.26217
 11
-118.392158
 21
-56.26217
  0
LINE
  8
型材断面
  6
CONTINUOUS
 10
-118.267158
 20
-54.26217
 11
-118.267158
 21
-56.26217
  0
LINE
  8
型材断面
  6
CONTINUOUS
 62
    47
 10
-118.142158
 20
-57.728838
 11
-118.142158
 21
-53.428838
  0
LINE
  8
型材断面
  6
CONTINUOUS
 10
-118.642158
 20
-57.29226
 11
-118.642158
 21
-53.428838
  0
INSERT
  2
*GRP_0004
  8
型材断面
  6
CONTINUOUS
 10
0.0
 20
0.0
  0
INSERT
  2
*GRP_0005
  8
型材断面
  6
CONTINUOUS
 10
0.0
 20
0.0
  0
ENDBLK
  0
BLOCK
  2
*GRP_0003
 70
    65
 10
0.0
 20
0.0
  0
LINE
  8
型材断面
  6
CONTINUOUS
 10
-120.475605
 20
-58.651845
 11
-119.565622
 21
-57.922508
  0
LINE
  8
型材断面
  6
CONTINUOUS
 10
-120.27097
 20
-59.12861
 11
-119.360988
 21
-58.399273
  0
LINE
  8
型材断面
  6
CONTINUOUS
 10
-120.27097
 20
-59.12861
 11
-121.39907
 21
-59.282095
  0
LINE
  8
型材断面
  6
CONTINUOUS
 10
-121.39907
 20
-59.282095
 11
-121.466475
 21
-58.78666
  0
LINE
  8
型材断面
  6
CONTINUOUS
 10
-121.466475
 20
-58.78666
 11
-120.475605
 21
-58.651845
  0
LINE
  8
型材断面
  6
CONTINUOUS
 10
-119.360988
 20
-58.399273
 11
-118.507345
 21
-58.28313
  0
LINE
  8
型材断面
  6
CONTINUOUS
 10
-118.507345
 20
-58.28313
 11
-118.57475
 21
-57.787695
  0
LINE
  8
型材断面
  6
CONTINUOUS
 10
-119.565622
 20
-57.922508
 11
-118.57475
 21
-57.787695
  0
LINE
  8
型材断面
  6
CONTINUOUS
 10
-119.085353
 20
-58.36177
 11
-119.15276
 21
-57.866335
  0
LINE
  8
型材断面
  6
CONTINUOUS
 10
-118.520825
 20
-58.184045
 11
-119.098835
 21
-58.262685
  0
LINE
  8
型材断面
  6
CONTINUOUS
 10
-118.534307
 20
-58.084958
 11
-119.112315
 21
-58.163598
  0
LINE
  8
型材断面
  6
CONTINUOUS
 10
-118.547787
 20
-57.985868
 11
-119.125798
 21
-58.06451
  0
LINE
  8
型材断面
  6
CONTINUOUS
 10
-118.56127
 20
-57.886783
 11
-119.139278
 21
-57.965423
  0
ENDBLK
  0
BLOCK
  2
*GRP_0004
 70
    65
 10
0.0
 20
0.0
  0
LINE
  8
型材断面
  6
CONTINUOUS
 10
-156.602155
 20
-63.567018
 11
-157.673913
 21
-63.107308
  0
LINE
  8
型材断面
  6
CONTINUOUS
 10
-156.671975
 20
-64.081125
 11
-157.743735
 21
-63.621415
  0
LINE
  8
型材断面
  6
CONTINUOUS
 10
-156.671975
 20
-64.081125
 11
-155.543875
 21
-63.92764
  0
LINE
  8
型材断面
  6
CONTINUOUS
 10
-155.543875
 20
-63.92764
 11
-155.611283
 21
-63.432205
  0
LINE
  8
型材断面
  6
CONTINUOUS
 10
-155.611283
 20
-63.432205
 11
-156.602155
 21
-63.567018
  0
LINE
  8
型材断面
  6
CONTINUOUS
 10
-157.743735
 20
-63.621415
 11
-158.597378
 21
-63.737558
  0
LINE
  8
型材断面
  6
CONTINUOUS
 10
-158.597378
 20
-63.737558
 11
-158.664785
 21
-63.242123
  0
LINE
  8
型材断面
  6
CONTINUOUS
 10
-157.673913
 20
-63.107308
 11
-158.664785
 21
-63.242123
  0
LINE
  8
型材断面
  6
CONTINUOUS
 10
-158.01937
 20
-63.658915
 11
-158.086775
 21
-63.16348
  0
LINE
  8
型材断面
  6
CONTINUOUS
 10
-158.610858
 20
-63.63847
 11
-158.03285
 21
-63.55983
  0
LINE
  8
型材断面
  6
CONTINUOUS
 10
-158.62434
 20
-63.539385
 11
-158.04633
 21
-63.460743
  0
LINE
  8
型材断面
  6
CONTINUOUS
 10
-158.637823
 20
-63.440295
 11
-158.059813
 21
-63.361655
  0
LINE
  8
型材断面
  6
CONTINUOUS
 10
-158.651303
 20
-63.34121
 11
-158.073295
 21
-63.262568
  0
ENDBLK
  0
BLOCK
  2
*GRP_0005
 70
    65
 10
0.0
 20
0.0
  0
LINE
  8
型材断面
  6
CONTINUOUS
 10
-160.375528
 20
-79.953258
 11
-160.975528
 21
-80.953258
  0
LINE
  8
型材断面
  6
CONTINUOUS
 10
-159.875528
 20
-80.09175
 11
-160.475528
 21
-81.09175
  0
LINE
  8
型材断面
  6
CONTINUOUS
 10
-159.875528
 20
-80.09175
 11
-159.875528
 21
-78.953258
  0
LINE
  8
型材断面
  6
CONTINUOUS
 10
-159.875528
 20
-78.953258
 11
-160.375528
 21
-78.953258
  0
LINE
  8
型材断面
  6
CONTINUOUS
 10
-160.375528
 20
-78.953258
 11
-160.375528
 21
-79.953258
  0
LINE
  8
型材断面
  6
CONTINUOUS
 10
-160.475528
 20
-81.09175
 11
-160.475528
 21
-81.953258
  0
LINE
  8
型材断面
  6
CONTINUOUS
 10
-160.475528
 20
-81.953258
 11
-160.975528
 21
-81.953258
  0
LINE
  8
型材断面
  6
CONTINUOUS
 10
-160.975528
 20
-80.953258
 11
-160.975528
 21
-81.953258
  0
LINE
  8
型材断面
  6
CONTINUOUS
 10
-160.475528
 20
-81.369925
 11
-160.975528
 21
-81.369925
  0
LINE
  8
型材断面
  6
CONTINUOUS
 10
-160.575528
 20
-81.953258
 11
-160.575528
 21
-81.369925
  0
LINE
  8
型材断面
  6
CONTINUOUS
 10
-160.675528
 20
-81.953258
 11
-160.675528
 21
-81.369925
  0
LINE
  8
型材断面
  6
CONTINUOUS
 10
-160.775528
 20
-81.953258
 11
-160.775528
 21
-81.369925
  0
LINE
  8
型材断面
  6
CONTINUOUS
 10
-160.875528
 20
-81.953258
 11
-160.875528
 21
-81.369925
  0
ENDBLK
  0
BLOCK
  2
*GRP_0006
 70
    65
 10
0.0
 20
0.0
  0
LINE
  8
ボルト／ビス
  6
CONTINUOUS
 62
    64
 10
-118.642158
 20
-54.095503
 11
-118.991545
 21
-54.12607
  0
ARC
  8
ボルト／ビス
  6
CONTINUOUS
 62
    64
 10
-118.942157
 20
-54.690581
 40
0.566667
 50
94.999989
 51
180.0
  0
LINE
  8
ボルト／ビス
  6
CONTINUOUS
 62
    64
 10
-119.508825
 20
-54.69058
 11
-119.508825
 21
-55.26217
  0
LINE
  8
ボルト／ビス
  6
CONTINUOUS
 62
    64
 10
-118.642158
 20
-56.428838
 11
-118.991545
 21
-56.39827
  0
ARC
  8
ボルト／ビス
  6
CONTINUOUS
 62
    64
 10
-118.942157
 20
-55.833759
 40
0.566667
 50
180.0
 51
265.000011
  0
LINE
  8
ボルト／ビス
  6
CONTINUOUS
 62
    64
 10
-119.508825
 20
-55.83376
 11
-119.508825
 21
-55.26217
  0
LINE
  8
ボルト／ビス
  6
CONTINUOUS
 62
    64
 10
-119.380523
 20
-54.46329
 11
-119.461243
 21
-54.46329
  0
LINE
  8
ボルト／ビス
  6
CONTINUOUS
 62
    64
 10
-119.163828
 20
-55.028838
 11
-119.163828
 21
-55.26217
  0
LINE
  8
ボルト／ビス
  6
CONTINUOUS
 62
    64
 10
-119.380523
 20
-54.895503
 11
-119.380523
 21
-54.46329
  0
LINE
  8
ボルト／ビス
  6
CONTINUOUS
 62
    64
 10
-119.163828
 20
-55.028838
 11
-119.24719
 21
-55.028838
  0
ARC
  8
ボルト／ビス
  6
CONTINUOUS
 62
    64
 10
-119.247189
 20
-54.895503
 40
0.133333
 50
180.0
 51
270.0
  0
LINE
  8
ボルト／ビス
  6
CONTINUOUS
 62
    64
 10
-119.380523
 20
-56.06105
 11
-119.461243
 21
-56.06105
  0
LINE
  8
ボルト／ビス
  6
CONTINUOUS
 62
    64
 10
-119.163828
 20
-55.495503
 11
-119.163828
 21
-55.26217
  0
LINE
  8
ボルト／ビス
  6
CONTINUOUS
 62
    64
 10
-119.380523
 20
-55.628838
 11
-119.380523
 21
-56.06105
  0
LINE
  8
ボルト／ビス
  6
CONTINUOUS
 62
    64
 10
-119.163828
 20
-55.495503
 11
-119.24719
 21
-55.495503
  0
ARC
  8
ボルト／ビス
  6
CONTINUOUS
 62
    64
 10
-119.247189
 20
-55.628837
 40
0.133333
 50
90.0
 51
180.0
  0
LINE
  8
ボルト／ビス
  6
CONTINUOUS
 62
    64
 10
-118.642158
 20
-54.095503
 11
-118.642158
 21
-56.428838
  0
LINE
  8
ボルト／ビス
  6
CONTINUOUS
 62
    64
 10
-115.47549
 20
-54.595503
 11
-115.308825
 21
-54.76217
  0
LINE
  8
ボルト／ビス
  6
CONTINUOUS
 62
    64
 10
-115.47549
 20
-55.928838
 11
-115.308825
 21
-55.76217
  0
LINE
  8
ボルト／ビス
  6
CONTINUOUS
 62
    64
 10
-115.47549
 20
-54.595503
 11
-115.47549
 21
-55.928838
  0
LINE
  8
ボルト／ビス
  6
CONTINUOUS
 62
    64
 10
-115.308825
 20
-54.76217
 11
-115.308825
 21
-55.76217
  0
LINE
  8
ボルト／ビス
  6
CONTINUOUS
 62
    64
 10
-120.165953
 20
-55.26217
 11
-114.783868
 21
-55.26217
  0
LINE
  8
ボルト／ビス
  6
CONTINUOUS
 62
    64
 10
-118.642158
 20
-54.595503
 11
-115.47549
 21
-54.595503
  0
LINE
  8
ボルト／ビス
  6
CONTINUOUS
 62
    64
 10
-118.642158
 20
-55.928838
 11
-115.47549
 21
-55.928838
  0
LINE
  8
ボルト／ビス
  6
CONTINUOUS
 62
    64
 10
-118.642158
 20
-55.76217
 11
-115.308825
 21
-55.76217
  0
LINE
  8
ボルト／ビス
  6
CONTINUOUS
 62
    64
 10
-118.642158
 20
-54.76217
 11
-115.308825
 21
-54.76217
  0
ENDBLK
  0
BLOCK
  2
*DIM_0007
 70
    65
 10
0.0
 20
0.0
  0
LINE
  8
寸法
  6
BYBLOCK
 62
     0
 10
-123.642158
 20
-57.836478
 11
-176.190362
 21
-57.836478
  0
LINE
  8
寸法
  6
BYBLOCK
 62
     0
 10
-176.190362
 20
-52.836475
 11
-176.190362
 21
-57.836478
  0
POINT
  8
寸法
 62
     0
 10
-176.190362
 20
-52.836475
  0
POINT
  8
寸法
 62
     0
 10
-176.190362
 20
-57.836478
  0
TEXT
  7
TextStyle03
  8
寸法
  6
CONTINUOUS
 62
     0
 10
-176.575
 20
-56.94375
  1
15
 40
3.0
 50
90.0
 72
     5
 11
-176.575
 21
-53.75625
  0
ENDBLK
  0
BLOCK
  2
*DIM_0008
 70
    65
 10
0.0
 20
0.0
  0
LINE
  8
寸法
  6
BYBLOCK
 62
     0
 10
-100.30736
 20
-69.503145
 11
-81.75831
 21
-69.503145
  0
LINE
  8
寸法
  6
BYBLOCK
 62
     0
 10
-117.142155
 20
-52.836475
 11
-81.75831
 21
-52.836475
  0
LINE
  8
寸法
  6
BYBLOCK
 62
     0
 10
-81.75831
 20
-69.503145
 11
-81.75831
 21
-52.836475
  0
POINT
  8
寸法
 62
     0
 10
-81.75831
 20
-69.503145
  0
POINT
  8
寸法
 62
     0
 10
-81.75831
 20
-52.836475
  0
TEXT
  7
TextStyle03
  8
寸法
  6
CONTINUOUS
 62
     0
 10
-82.15
 20
-62.76875
  1
50
 40
3.0
 50
90.0
 72
     5
 11
-82.15
 21
-59.58125
  0
ENDBLK
  0
BLOCK
  2
*GRP_0009
 70
    65
 10
0.0
 20
0.0
  0
ARC
  8
型材断面
  6
CONTINUOUS
 10
144.087075
 20
-57.292259
 40
0.5
 50
180.0
 51
262.252227
  0
LINE
  8
型材断面
  6
CONTINUOUS
 10
143.587073
 20
-57.728838
 11
186.420407
 21
-63.556502
  0
LINE
  8
型材断面
  6
CONTINUOUS
 10
186.420445
 20
-83.119925
 11
186.420407
 21
-63.556502
  0
ARC
  8
型材断面
  6
CONTINUOUS
 10
186.420409
 20
-63.556505
 40
0.5
 50
0.000115
 51
82.252227
  0
LINE
  8
型材断面
  6
CONTINUOUS
 10
144.087073
 20
-57.29226
 11
186.920405
 21
-63.119925
  0
LINE
  8
型材断面
  6
CONTINUOUS
 62
    47
 10
186.920445
 20
-83.119925
 11
186.920405
 21
-63.119925
  0
LINE
  8
型材断面
  6
CONTINUOUS
 62
    47
 10
186.920445
 20
-83.119925
 11
186.420445
 21
-83.119925
  0
INSERT
  2
*GRP_0011
  8
型材断面
  6
CONTINUOUS
 10
0.0
 20
0.0
  0
LINE
  8
型材断面
  6
CONTINUOUS
 10
144.087073
 20
-53.428838
 11
143.587073
 21
-53.428838
  0
LINE
  8
型材断面
  6
CONTINUOUS
 10
144.087073
 20
-55.26217
 11
143.587073
 21
-55.26217
  0
LINE
  8
型材断面
  6
CONTINUOUS
 10
144.087073
 20
-54.26217
 11
143.587073
 21
-54.26217
  0
LINE
  8
型材断面
  6
CONTINUOUS
 10
144.087073
 20
-56.26217
 11
143.587073
 21
-56.26217
  0
LINE
  8
型材断面
  6
CONTINUOUS
 10
143.962073
 20
-54.26217
 11
143.962073
 21
-56.26217
  0
LINE
  8
型材断面
  6
CONTINUOUS
 10
143.837073
 20
-54.26217
 11
143.837073
 21
-56.26217
  0
LINE
  8
型材断面
  6
CONTINUOUS
 10
143.712073
 20
-54.26217
 11
143.712073
 21
-56.26217
  0
LINE
  8
型材断面
  6
CONTINUOUS
 62
    47
 10
143.587073
 20
-57.728838
 11
143.587073
 21
-53.428838
  0
LINE
  8
型材断面
  6
CONTINUOUS
 10
144.087073
 20
-57.29226
 11
144.087073
 21
-53.428838
  0
INSERT
  2
*GRP_0012
  8
型材断面
  6
CONTINUOUS
 10
0.0
 20
0.0
  0
INSERT
  2
*GRP_0013
  8
型材断面
  6
CONTINUOUS
 10
0.0
 20
0.0
  0
ENDBLK
  0
BLOCK
  2
*GRP_0010
 70
    65
 10
0.0
 20
0.0
  0
LINE
  8
ボルト／ビス
  6
CONTINUOUS
 62
    64
 10
144.087073
 20
-54.095503
 11
144.43646
 21
-54.12607
  0
ARC
  8
ボルト／ビス
  6
CONTINUOUS
 62
    64
 10
144.387072
 20
-54.690581
 40
0.566667
 50
0.0
 51
85.000011
  0
LINE
  8
ボルト／ビス
  6
CONTINUOUS
 62
    64
 10
144.95374
 20
-54.69058
 11
144.95374
 21
-55.26217
  0
LINE
  8
ボルト／ビス
  6
CONTINUOUS
 62
    64
 10
144.087073
 20
-56.428838
 11
144.43646
 21
-56.39827
  0
ARC
  8
ボルト／ビス
  6
CONTINUOUS
 62
    64
 10
144.387072
 20
-55.833759
 40
0.566667
 50
274.999989
 51
360.0
  0
LINE
  8
ボルト／ビス
  6
CONTINUOUS
 62
    64
 10
144.95374
 20
-55.83376
 11
144.95374
 21
-55.26217
  0
LINE
  8
ボルト／ビス
  6
CONTINUOUS
 62
    64
 10
144.825438
 20
-54.46329
 11
144.906157
 21
-54.46329
  0
LINE
  8
ボルト／ビス
  6
CONTINUOUS
 62
    64
 10
144.608742
 20
-55.028838
 11
144.608742
 21
-55.26217
  0
LINE
  8
ボルト／ビス
  6
CONTINUOUS
 62
    64
 10
144.825438
 20
-54.895503
 11
144.825438
 21
-54.46329
  0
LINE
  8
ボルト／ビス
  6
CONTINUOUS
 62
    64
 10
144.608742
 20
-55.028838
 11
144.692105
 21
-55.028838
  0
ARC
  8
ボルト／ビス
  6
CONTINUOUS
 62
    64
 10
144.692104
 20
-54.895503
 40
0.133333
 50
270.0
 51
360.0
  0
LINE
  8
ボルト／ビス
  6
CONTINUOUS
 62
    64
 10
144.825438
 20
-56.06105
 11
144.906157
 21
-56.06105
  0
LINE
  8
ボルト／ビス
  6
CONTINUOUS
 62
    64
 10
144.608742
 20
-55.495503
 11
144.608742
 21
-55.26217
  0
LINE
  8
ボルト／ビス
  6
CONTINUOUS
 62
    64
 10
144.825438
 20
-55.628838
 11
144.825438
 21
-56.06105
  0
LINE
  8
ボルト／ビス
  6
CONTINUOUS
 62
    64
 10
144.608742
 20
-55.495503
 11
144.692105
 21
-55.495503
  0
ARC
  8
ボルト／ビス
  6
CONTINUOUS
 62
    64
 10
144.692104
 20
-55.628837
 40
0.133333
 50
0.0
 51
90.0
  0
LINE
  8
ボルト／ビス
  6
CONTINUOUS
 62
    64
 10
144.087073
 20
-54.095503
 11
144.087073
 21
-56.428838
  0
LINE
  8
ボルト／ビス
  6
CONTINUOUS
 62
    64
 10
140.920405
 20
-54.595503
 11
140.75374
 21
-54.76217
  0
LINE
  8
ボルト／ビス
  6
CONTINUOUS
 62
    64
 10
140.920405
 20
-55.928838
 11
140.75374
 21
-55.76217
  0
LINE
  8
ボルト／ビス
  6
CONTINUOUS
 62
    64
 10
140.920405
 20
-54.595503
 11
140.920405
 21
-55.928838
  0
LINE
  8
ボルト／ビス
  6
CONTINUOUS
 62
    64
 10
140.75374
 20
-54.76217
 11
140.75374
 21
-55.76217
  0
LINE
  8
ボルト／ビス
  6
CONTINUOUS
 62
    64
 10
145.610867
 20
-55.26217
 11
140.228782
 21
-55.26217
  0
LINE
  8
ボルト／ビス
  6
CONTINUOUS
 62
    64
 10
144.087073
 20
-54.595503
 11
140.920405
 21
-54.595503
  0
LINE
  8
ボルト／ビス
  6
CONTINUOUS
 62
    64
 10
144.087073
 20
-55.928838
 11
140.920405
 21
-55.928838
  0
LINE
  8
ボルト／ビス
  6
CONTINUOUS
 62
    64
 10
144.087073
 20
-55.76217
 11
140.75374
 21
-55.76217
  0
LINE
  8
ボルト／ビス
  6
CONTINUOUS
 62
    64
 10
144.087073
 20
-54.76217
 11
140.75374
 21
-54.76217
  0
ENDBLK
  0
BLOCK
  2
*GRP_0011
 70
    65
 10
0.0
 20
0.0
  0
LINE
  8
型材断面
  6
CONTINUOUS
 10
145.92052
 20
-58.651845
 11
145.010537
 21
-57.922508
  0
LINE
  8
型材断面
  6
CONTINUOUS
 10
145.715885
 20
-59.12861
 11
144.805903
 21
-58.399273
  0
LINE
  8
型材断面
  6
CONTINUOUS
 10
145.715885
 20
-59.12861
 11
146.843985
 21
-59.282095
  0
LINE
  8
型材断面
  6
CONTINUOUS
 10
146.843985
 20
-59.282095
 11
146.91139
 21
-58.78666
  0
LINE
  8
型材断面
  6
CONTINUOUS
 10
146.91139
 20
-58.78666
 11
145.92052
 21
-58.651845
  0
LINE
  8
型材断面
  6
CONTINUOUS
 10
144.805903
 20
-58.399273
 11
143.95226
 21
-58.28313
  0
LINE
  8
型材断面
  6
CONTINUOUS
 10
143.95226
 20
-58.28313
 11
144.019665
 21
-57.787695
  0
LINE
  8
型材断面
  6
CONTINUOUS
 10
145.010537
 20
-57.922508
 11
144.019665
 21
-57.787695
  0
LINE
  8
型材断面
  6
CONTINUOUS
 10
144.530268
 20
-58.36177
 11
144.597675
 21
-57.866335
  0
LINE
  8
型材断面
  6
CONTINUOUS
 10
143.96574
 20
-58.184045
 11
144.54375
 21
-58.262685
  0
LINE
  8
型材断面
  6
CONTINUOUS
 10
143.979222
 20
-58.084958
 11
144.55723
 21
-58.163598
  0
LINE
  8
型材断面
  6
CONTINUOUS
 10
143.992703
 20
-57.985868
 11
144.570713
 21
-58.06451
  0
LINE
  8
型材断面
  6
CONTINUOUS
 10
144.006185
 20
-57.886783
 11
144.584193
 21
-57.965423
  0
ENDBLK
  0
BLOCK
  2
*GRP_0012
 70
    65
 10
0.0
 20
0.0
  0
LINE
  8
型材断面
  6
CONTINUOUS
 10
182.04707
 20
-63.567018
 11
183.118828
 21
-63.107308
  0
LINE
  8
型材断面
  6
CONTINUOUS
 10
182.11689
 20
-64.081125
 11
183.18865
 21
-63.621415
  0
LINE
  8
型材断面
  6
CONTINUOUS
 10
182.11689
 20
-64.081125
 11
180.98879
 21
-63.92764
  0
LINE
  8
型材断面
  6
CONTINUOUS
 10
180.98879
 20
-63.92764
 11
181.056198
 21
-63.432205
  0
LINE
  8
型材断面
  6
CONTINUOUS
 10
181.056198
 20
-63.432205
 11
182.04707
 21
-63.567018
  0
LINE
  8
型材断面
  6
CONTINUOUS
 10
183.18865
 20
-63.621415
 11
184.042293
 21
-63.737558
  0
LINE
  8
型材断面
  6
CONTINUOUS
 10
184.042293
 20
-63.737558
 11
184.1097
 21
-63.242123
  0
LINE
  8
型材断面
  6
CONTINUOUS
 10
183.118828
 20
-63.107308
 11
184.1097
 21
-63.242123
  0
LINE
  8
型材断面
  6
CONTINUOUS
 10
183.464285
 20
-63.658915
 11
183.53169
 21
-63.16348
  0
LINE
  8
型材断面
  6
CONTINUOUS
 10
184.055773
 20
-63.63847
 11
183.477765
 21
-63.55983
  0
LINE
  8
型材断面
  6
CONTINUOUS
 10
184.069255
 20
-63.539385
 11
183.491245
 21
-63.460743
  0
LINE
  8
型材断面
  6
CONTINUOUS
 10
184.082738
 20
-63.440295
 11
183.504728
 21
-63.361655
  0
LINE
  8
型材断面
  6
CONTINUOUS
 10
184.096218
 20
-63.34121
 11
183.51821
 21
-63.262568
  0
ENDBLK
  0
BLOCK
  2
*GRP_0013
 70
    65
 10
0.0
 20
0.0
  0
LINE
  8
型材断面
  6
CONTINUOUS
 10
185.820442
 20
-79.953258
 11
186.420442
 21
-80.953258
  0
LINE
  8
型材断面
  6
CONTINUOUS
 10
185.320442
 20
-80.09175
 11
185.920442
 21
-81.09175
  0
LINE
  8
型材断面
  6
CONTINUOUS
 10
185.320442
 20
-80.09175
 11
185.320442
 21
-78.953258
  0
LINE
  8
型材断面
  6
CONTINUOUS
 10
185.320442
 20
-78.953258
 11
185.820442
 21
-78.953258
  0
LINE
  8
型材断面
  6
CONTINUOUS
 10
185.820442
 20
-78.953258
 11
185.820442
 21
-79.953258
  0
LINE
  8
型材断面
  6
CONTINUOUS
 10
185.920442
 20
-81.09175
 11
185.920442
 21
-81.953258
  0
LINE
  8
型材断面
  6
CONTINUOUS
 10
185.920442
 20
-81.953258
 11
186.420442
 21
-81.953258
  0
LINE
  8
型材断面
  6
CONTINUOUS
 10
186.420442
 20
-80.953258
 11
186.420442
 21
-81.953258
  0
LINE
  8
型材断面
  6
CONTINUOUS
 10
185.920442
 20
-81.369925
 11
186.420442
 21
-81.369925
  0
LINE
  8
型材断面
  6
CONTINUOUS
 10
186.020443
 20
-81.953258
 11
186.020443
 21
-81.369925
  0
LINE
  8
型材断面
  6
CONTINUOUS
 10
186.120443
 20
-81.953258
 11
186.120443
 21
-81.369925
  0
LINE
  8
型材断面
  6
CONTINUOUS
 10
186.220442
 20
-81.953258
 11
186.220442
 21
-81.369925
  0
LINE
  8
型材断面
  6
CONTINUOUS
 10
186.320442
 20
-81.953258
 11
186.320442
 21
-81.369925
  0
ENDBLK
  0
BLOCK
  2
*DIM_0014
 70
    65
 10
0.0
 20
0.0
  0
LINE
  8
寸法
  6
BYBLOCK
 62
     0
 10
-161.47553
 20
-84.119925
 11
-161.47553
 21
-101.159973
  0
LINE
  8
寸法
  6
BYBLOCK
 62
     0
 10
-154.64073
 20
-95.24364
 11
-154.64073
 21
-101.159973
  0
LINE
  8
寸法
  6
BYBLOCK
 62
     0
 10
-161.47553
 20
-101.159973
 11
-154.64073
 21
-101.159973
  0
POINT
  8
寸法
 62
     0
 10
-161.47553
 20
-101.159973
  0
POINT
  8
寸法
 62
     0
 10
-154.64073
 20
-101.159973
  0
TEXT
  7
TextStyle03
  8
寸法
  6
CONTINUOUS
 62
     0
 10
-161.35625
 20
-100.8
  1
20.5
 40
3.0
 72
     5
 11
-154.79375
 21
-100.8
  0
ENDBLK
  0
BLOCK
  2
*DIM_0015
 70
    65
 10
0.0
 20
0.0
  0
LINE
  8
寸法
  6
BYBLOCK
 62
     0
 10
-151.3074
 20
-95.24364
 11
-151.3074
 21
-101.159973
  0
LINE
  8
寸法
  6
BYBLOCK
 62
     0
 10
-154.64073
 20
-101.159973
 11
-151.3074
 21
-101.159973
  0
POINT
  8
寸法
 62
     0
 10
-151.3074
 20
-101.159973
  0
TEXT
  7
TextStyle03
  8
寸法
  6
CONTINUOUS
 62
     0
 10
-154.56875
 20
-104.175
  1
10
 40
3.0
 72
     5
 11
-151.38125
 21
-104.175
  0
ENDBLK
  0
BLOCK
  2
*DIM_0016
 70
    65
 10
0.0
 20
0.0
  0
LINE
  8
寸法
  6
BYBLOCK
 62
     0
 10
-101.30736
 20
-95.24364
 11
-101.30736
 21
-101.159973
  0
LINE
  8
寸法
  6
BYBLOCK
 62
     0
 10
-151.3074
 20
-101.159973
 11
-101.30736
 21
-101.159973
  0
POINT
  8
寸法
 62
     0
 10
-101.30736
 20
-101.159973
  0
TEXT
  7
TextStyle03
  8
寸法
  6
CONTINUOUS
 62
     0
 10
-128.7625
 20
-100.8
  1
150
 40
3.0
 72
     5
 11
-123.8875
 21
-100.8
  0
ENDBLK
  0
BLOCK
  2
*DIM_0017
 70
    65
 10
0.0
 20
0.0
  0
LINE
  8
寸法
  6
BYBLOCK
 62
     0
 10
-89.640695
 20
-95.24364
 11
-89.640695
 21
-101.159973
  0
LINE
  8
寸法
  6
BYBLOCK
 62
     0
 10
-101.30736
 20
-101.159973
 11
-89.640695
 21
-101.159973
  0
POINT
  8
寸法
 62
     0
 10
-89.640695
 20
-101.159973
  0
TEXT
  7
TextStyle03
  8
寸法
  6
CONTINUOUS
 62
     0
 10
-97.06875
 20
-100.8
  1
35
 40
3.0
 72
     5
 11
-93.88125
 21
-100.8
  0
ENDBLK
  0
BLOCK
  2
*DIM_0018
 70
    65
 10
0.0
 20
0.0
  0
LINE
  8
寸法
  6
BYBLOCK
 62
     0
 10
-87.974028
 20
-40.880313
 11
-87.974028
 21
-101.159973
  0
LINE
  8
寸法
  6
BYBLOCK
 62
     0
 10
-89.640695
 20
-101.159973
 11
-87.974028
 21
-101.159973
  0
POINT
  8
寸法
 62
     0
 10
-87.974028
 20
-101.159973
  0
TEXT
  7
TextStyle03
  8
寸法
  6
CONTINUOUS
 62
     0
 10
-87.9
 20
-100.8
  1
5
 40
3.0
 72
     5
 11
-86.4
 21
-100.8
  0
ENDBLK
  0
BLOCK
  2
*DIM_0019
 70
    65
 10
0.0
 20
0.0
  0
LINE
  8
寸法
  6
BYBLOCK
 62
     0
 10
113.418943
 20
-40.880313
 11
113.418943
 21
-101.159973
  0
LINE
  8
寸法
  6
BYBLOCK
 62
     0
 10
115.08561
 20
-95.24364
 11
115.08561
 21
-101.159973
  0
LINE
  8
寸法
  6
BYBLOCK
 62
     0
 10
113.418943
 20
-101.159973
 11
115.08561
 21
-101.159973
  0
POINT
  8
寸法
 62
     0
 10
113.418943
 20
-101.159973
  0
POINT
  8
寸法
 62
     0
 10
115.08561
 20
-101.159973
  0
TEXT
  7
TextStyle03
  8
寸法
  6
CONTINUOUS
 62
     0
 10
111.825
 20
-100.8
  1
5
 40
3.0
 72
     5
 11
113.325
 21
-100.8
  0
ENDBLK
  0
BLOCK
  2
*DIM_0020
 70
    65
 10
0.0
 20
0.0
  0
LINE
  8
寸法
  6
BYBLOCK
 62
     0
 10
126.752275
 20
-95.24364
 11
126.752275
 21
-101.159973
  0
LINE
  8
寸法
  6
BYBLOCK
 62
     0
 10
115.08561
 20
-101.159973
 11
126.752275
 21
-101.159973
  0
POINT
  8
寸法
 62
     0
 10
126.752275
 20
-101.159973
  0
TEXT
  7
TextStyle03
  8
寸法
  6
CONTINUOUS
 62
     0
 10
119.30625
 20
-100.8
  1
35
 40
3.0
 72
     5
 11
122.49375
 21
-100.8
  0
ENDBLK
  0
BLOCK
  2
*DIM_0021
 70
    65
 10
0.0
 20
0.0
  0
LINE
  8
寸法
  6
BYBLOCK
 62
     0
 10
176.752315
 20
-95.24364
 11
176.752315
 21
-101.159973
  0
LINE
  8
寸法
  6
BYBLOCK
 62
     0
 10
126.752275
 20
-101.159973
 11
176.752315
 21
-101.159973
  0
POINT
  8
寸法
 62
     0
 10
176.752315
 20
-101.159973
  0
TEXT
  7
TextStyle03
  8
寸法
  6
CONTINUOUS
 62
     0
 10
149.3125
 20
-100.8
  1
150
 40
3.0
 72
     5
 11
154.1875
 21
-100.8
  0
ENDBLK
  0
BLOCK
  2
*DIM_0022
 70
    65
 10
0.0
 20
0.0
  0
LINE
  8
寸法
  6
BYBLOCK
 62
     0
 10
180.085645
 20
-95.24364
 11
180.085645
 21
-101.159973
  0
LINE
  8
寸法
  6
BYBLOCK
 62
     0
 10
176.752315
 20
-101.159973
 11
180.085645
 21
-101.159973
  0
POINT
  8
寸法
 62
     0
 10
180.085645
 20
-101.159973
  0
TEXT
  7
TextStyle03
  8
寸法
  6
CONTINUOUS
 62
     0
 10
176.80625
 20
-104.175
  1
10
 40
3.0
 72
     5
 11
179.99375
 21
-104.175
  0
ENDBLK
  0
BLOCK
  2
*DIM_0023
 70
    65
 10
0.0
 20
0.0
  0
LINE
  8
寸法
  6
BYBLOCK
 62
     0
 10
186.920445
 20
-84.119925
 11
186.920445
 21
-101.159973
  0
LINE
  8
寸法
  6
BYBLOCK
 62
     0
 10
180.085645
 20
-101.159973
 11
186.920445
 21
-101.159973
  0
POINT
  8
寸法
 62
     0
 10
186.920445
 20
-101.159973
  0
TEXT
  7
TextStyle03
  8
寸法
  6
CONTINUOUS
 62
     0
 10
180.21875
 20
-100.8
  1
20.5
 40
3.0
 72
     5
 11
186.78125
 21
-100.8
  0
ENDBLK
  0
BLOCK
  2
*GRP_0024
 70
    65
 10
0.0
 20
0.0
  0
POLYLINE
  8
寸法
  6
BYBLOCK
 62
     0
 66
     1
  0
VERTEX
  8
寸法
 10
154.963645
 20
-55.969908
  0
VERTEX
  8
寸法
 10
153.463645
 20
-58.567985
  0
VERTEX
  8
寸法
 10
156.061723
 20
-57.067985
  0
SEQEND
  0
POLYLINE
  8
寸法
  6
BYBLOCK
 62
     0
 66
     1
  0
VERTEX
  8
寸法
 10
153.463645
 20
-58.567985
  0
VERTEX
  8
寸法
 10
159.920895
 20
-52.110735
  0
VERTEX
  8
寸法
 10
163.052208
 20
-52.110735
  0
SEQEND
  0
ENDBLK
  0
BLOCK
  2
*DIM_0025
 70
    65
 10
0.0
 20
0.0
  0
LINE
  8
寸法
  6
BYBLOCK
 62
     0
 10
142.58707
 20
-52.836475
 11
102.388157
 21
-52.836475
  0
LINE
  8
寸法
  6
BYBLOCK
 62
     0
 10
125.752277
 20
-69.50315
 11
102.388157
 21
-69.50315
  0
LINE
  8
寸法
  6
BYBLOCK
 62
     0
 10
102.388157
 20
-52.836475
 11
102.388157
 21
-69.50315
  0
POINT
  8
寸法
 62
     0
 10
102.388157
 20
-52.836475
  0
POINT
  8
寸法
 62
     0
 10
102.388157
 20
-69.50315
  0
TEXT
  7
TextStyle03
  8
寸法
  6
CONTINUOUS
 62
     0
 10
102.0
 20
-62.76875
  1
50
 40
3.0
 50
90.0
 72
     5
 11
102.0
 21
-59.58125
  0
ENDBLK
  0
BLOCK
  2
*GRP_0026
 70
    65
 10
0.0
 20
0.0
  0
LINE
  8
ボルト／ビス
  6
CONTINUOUS
 62
    64
 10
138.818243
 20
-63.254692
 11
138.666475
 21
-63.671667
  0
ARC
  8
ボルト／ビス
  6
CONTINUOUS
 62
    64
 10
137.453518
 20
-63.046206
 40
1.364723
 50
0.0
 51
27.277966
  0
LINE
  8
ボルト／ビス
  6
CONTINUOUS
 62
    64
 10
138.818243
 20
-59.08494
 11
138.666475
 21
-58.667965
  0
ARC
  8
ボルト／ビス
  6
CONTINUOUS
 62
    64
 10
137.453518
 20
-59.293427
 40
1.364723
 50
332.722034
 51
360.0
  0
ARC
  8
ボルト／ビス
  6
CONTINUOUS
 62
    64
 10
133.586998
 20
-61.169816
 40
5.231244
 50
346.165046
 51
373.834954
  0
LINE
  8
ボルト／ビス
  6
CONTINUOUS
 62
    64
 10
137.101575
 20
-63.671667
 11
138.666475
 21
-63.671667
  0
LINE
  8
ボルト／ビス
  6
CONTINUOUS
 62
    64
 10
137.101575
 20
-58.667965
 11
138.666475
 21
-58.667965
  0
LINE
  8
ボルト／ビス
  6
CONTINUOUS
 62
    64
 10
138.818243
 20
-59.08494
 11
138.818243
 21
-63.254692
  0
LINE
  8
ボルト／ビス
  6
CONTINUOUS
 62
    64
 10
138.666475
 20
-59.91889
 11
137.101575
 21
-59.91889
  0
LINE
  8
ボルト／ビス
  6
CONTINUOUS
 62
    64
 10
138.666475
 20
-62.420742
 11
137.101575
 21
-62.420742
  0
LINE
  8
ボルト／ビス
  6
CONTINUOUS
 62
    64
 10
137.101575
 20
-58.667965
 11
137.101575
 21
-63.671667
  0
LINE
  8
ボルト／ビス
  6
CONTINUOUS
 62
    64
 10
136.501575
 20
-64.086482
 11
136.168243
 21
-64.086482
  0
LINE
  8
ボルト／ビス
  6
CONTINUOUS
 62
    64
 10
136.501575
 20
-58.25315
 11
136.168243
 21
-58.25315
  0
LINE
  8
ボルト／ビス
  6
CONTINUOUS
 62
    64
 10
136.501575
 20
-64.086482
 11
136.501575
 21
-58.25315
  0
LINE
  8
ボルト／ビス
  6
CONTINUOUS
 62
    64
 10
136.168243
 20
-64.086482
 11
136.168243
 21
-58.25315
  0
LINE
  8
ボルト／ビス
  6
CONTINUOUS
 62
    64
 10
137.101575
 20
-61.169815
 11
136.501575
 21
-61.169815
  0
LINE
  8
ボルト／ビス
  6
CONTINUOUS
 62
    64
 10
137.101575
 20
-58.536482
 11
136.501575
 21
-58.536482
  0
LINE
  8
ボルト／ビス
  6
CONTINUOUS
 62
    64
 10
137.101575
 20
-63.80315
 11
136.501575
 21
-63.80315
  0
LINE
  8
ボルト／ビス
  6
CONTINUOUS
 62
    64
 10
137.101575
 20
-58.536482
 11
137.101575
 21
-63.80315
  0
LINE
  8
ボルト／ビス
  6
CONTINUOUS
 62
    64
 10
140.484908
 20
-61.169815
 11
127.101575
 21
-61.169815
  0
LINE
  8
ボルト／ビス
  6
CONTINUOUS
 62
    64
 10
128.768243
 20
-60.10315
 11
128.768243
 21
-62.236482
  0
LINE
  8
ボルト／ビス
  6
CONTINUOUS
 62
    64
 10
129.168243
 20
-59.836482
 11
128.768243
 21
-60.10315
  0
LINE
  8
ボルト／ビス
  6
CONTINUOUS
 62
    64
 10
129.168243
 20
-62.50315
 11
128.768243
 21
-62.236482
  0
LINE
  8
ボルト／ビス
  6
CONTINUOUS
 62
    64
 10
128.768243
 20
-60.10315
 11
128.768243
 21
-62.236482
  0
LINE
  8
ボルト／ビス
  6
CONTINUOUS
 62
    64
 10
129.168243
 20
-59.836482
 11
129.168243
 21
-62.50315
  0
LINE
  8
ボルト／ビス
  6
CONTINUOUS
 62
    64
 10
136.168243
 20
-59.836482
 11
129.168243
 21
-59.836482
  0
LINE
  8
ボルト／ビス
  6
CONTINUOUS
 62
    64
 10
136.168243
 20
-62.50315
 11
129.168243
 21
-62.50315
  0
LINE
  8
ボルト／ビス
  6
CONTINUOUS
 62
    64
 10
136.168243
 20
-60.10315
 11
128.768243
 21
-60.10315
  0
LINE
  8
ボルト／ビス
  6
CONTINUOUS
 62
    64
 10
136.168243
 20
-62.236482
 11
128.768243
 21
-62.236482
  0
ENDBLK
  0
BLOCK
  2
*GRP_0027
 70
    65
 10
0.0
 20
0.0
  0
LINE
  8
ボルト／ビス
  6
CONTINUOUS
 62
    64
 10
131.384908
 20
-63.25469
 11
131.536672
 21
-63.671665
  0
ARC
  8
ボルト／ビス
  6
CONTINUOUS
 62
    64
 10
132.749629
 20
-63.046204
 40
1.364723
 50
152.722034
 51
180.0
  0
LINE
  8
ボルト／ビス
  6
CONTINUOUS
 62
    64
 10
131.384908
 20
-59.084937
 11
131.536672
 21
-58.667962
  0
ARC
  8
ボルト／ビス
  6
CONTINUOUS
 62
    64
 10
132.749629
 20
-59.293426
 40
1.364723
 50
180.0
 51
207.277966
  0
ARC
  8
ボルト／ビス
  6
CONTINUOUS
 62
    64
 10
136.61615
 20
-61.169815
 40
5.231244
 50
166.165046
 51
193.834954
  0
LINE
  8
ボルト／ビス
  6
CONTINUOUS
 62
    64
 10
133.101575
 20
-63.671665
 11
131.536672
 21
-63.671665
  0
LINE
  8
ボルト／ビス
  6
CONTINUOUS
 62
    64
 10
133.101575
 20
-58.667962
 11
131.536672
 21
-58.667962
  0
LINE
  8
ボルト／ビス
  6
CONTINUOUS
 62
    64
 10
131.384908
 20
-59.084937
 11
131.384908
 21
-63.25469
  0
LINE
  8
ボルト／ビス
  6
CONTINUOUS
 62
    64
 10
131.536672
 20
-59.918887
 11
133.101575
 21
-59.918887
  0
LINE
  8
ボルト／ビス
  6
CONTINUOUS
 62
    64
 10
131.536672
 20
-62.42074
 11
133.101575
 21
-62.42074
  0
LINE
  8
ボルト／ビス
  6
CONTINUOUS
 62
    64
 10
133.101575
 20
-58.667962
 11
133.101575
 21
-63.671665
  0
LINE
  8
ボルト／ビス
  6
CONTINUOUS
 62
    64
 10
133.701575
 20
-64.08648
 11
134.034908
 21
-64.08648
  0
LINE
  8
ボルト／ビス
  6
CONTINUOUS
 62
    64
 10
133.701575
 20
-58.253147
 11
134.034908
 21
-58.253147
  0
LINE
  8
ボルト／ビス
  6
CONTINUOUS
 62
    64
 10
133.701575
 20
-64.08648
 11
133.701575
 21
-58.253147
  0
LINE
  8
ボルト／ビス
  6
CONTINUOUS
 62
    64
 10
134.034908
 20
-64.08648
 11
134.034908
 21
-58.253147
  0
LINE
  8
ボルト／ビス
  6
CONTINUOUS
 62
    64
 10
133.101575
 20
-61.169812
 11
133.701575
 21
-61.169812
  0
LINE
  8
ボルト／ビス
  6
CONTINUOUS
 62
    64
 10
133.101575
 20
-58.53648
 11
133.701575
 21
-58.53648
  0
LINE
  8
ボルト／ビス
  6
CONTINUOUS
 62
    64
 10
133.101575
 20
-63.803147
 11
133.701575
 21
-63.803147
  0
LINE
  8
ボルト／ビス
  6
CONTINUOUS
 62
    64
 10
133.101575
 20
-58.53648
 11
133.101575
 21
-63.803147
  0
ENDBLK
  0
BLOCK
  2
*GRP_0028
 70
    65
 10
0.0
 20
0.0
  0
LINE
  8
St
  6
CONTINUOUS
 62
   127
 10
135.101575
 20
-66.169812
 11
134.03491
 21
-66.169812
  0
LINE
  8
St
  6
CONTINUOUS
 10
134.03491
 20
-57.193408
 11
135.101575
 21
-58.260073
  0
LINE
  8
St
  6
CONTINUOUS
 62
   127
 10
134.03491
 20
-66.169812
 11
134.03491
 21
-45.099587
  0
LINE
  8
St
  6
CONTINUOUS
 10
122.053452
 20
-41.371255
 11
122.370383
 21
-40.35276
  0
LINE
  8
St
  6
CONTINUOUS
 10
134.03491
 20
-45.099587
 11
122.053452
 21
-41.371255
  0
ARC
  8
St
  6
CONTINUOUS
 10
134.034909
 20
-45.099587
 40
1.066667
 50
0.0
 51
72.715153
  0
LINE
  8
St
  6
CONTINUOUS
 10
135.101575
 20
-58.495775
 11
134.03491
 21
-57.42911
  0
LINE
  8
St
  6
CONTINUOUS
 10
135.101575
 20
-50.364163
 11
134.03491
 21
-49.297498
  0
LINE
  8
St
  6
CONTINUOUS
 10
127.940603
 20
-43.20319
 11
126.318832
 21
-41.58142
  0
LINE
  8
St
  6
CONTINUOUS
 10
135.101575
 20
-50.599865
 11
134.03491
 21
-49.5332
  0
LINE
  8
St
  6
CONTINUOUS
 10
127.598423
 20
-43.096713
 11
125.976652
 21
-41.474942
  0
LINE
  8
St
  6
CONTINUOUS
 10
134.03491
 20
-62.836482
 11
135.101575
 21
-62.836482
  0
LINE
  8
St
  6
CONTINUOUS
 10
134.03491
 20
-59.503147
 11
135.101575
 21
-59.503147
  0
LINE
  8
St
  6
CONTINUOUS
 10
134.301577
 20
-59.503147
 11
134.301577
 21
-62.836482
  0
LINE
  8
St
  6
CONTINUOUS
 10
134.568243
 20
-59.503147
 11
134.568243
 21
-62.836482
  0
LINE
  8
St
  6
CONTINUOUS
 10
134.83491
 20
-59.503147
 11
134.83491
 21
-62.836482
  0
LINE
  8
St
  6
CONTINUOUS
 10
136.43491
 20
-61.169815
 11
132.66493
 21
-61.169815
  0
LINE
  8
St
  6
CONTINUOUS
 10
122.370383
 20
-40.35276
 11
135.101575
 21
-44.314393
  0
LINE
  8
St
  6
CONTINUOUS
 62
   127
 10
135.101575
 20
-66.169812
 11
135.101575
 21
-44.314393
  0
ENDBLK
  0
BLOCK
  2
*GRP_0029
 70
    65
 10
0.0
 20
0.0
  0
LINE
  8
ゴム等
  6
CONTINUOUS
 10
-87.974032
 20
-35.838148
 11
-88.474028
 21
-35.838148
  0
LINE
  8
ゴム等
  6
CONTINUOUS
 10
-88.47403
 20
-37.67148
 11
-88.474028
 21
-35.838148
  0
LINE
  8
ゴム等
  6
CONTINUOUS
 10
-91.307365
 20
-38.004813
 11
-88.807365
 21
-38.004813
  0
LINE
  8
ゴム等
  6
CONTINUOUS
 10
-88.47403
 20
-37.67148
 11
-88.807365
 21
-38.004813
  0
LINE
  8
ゴム等
  6
CONTINUOUS
 10
-87.974032
 20
-35.838148
 11
-87.97403
 21
-35.338145
  0
LINE
  8
ゴム等
  6
CONTINUOUS
 10
-87.97403
 20
-35.338145
 11
-91.307362
 21
-35.338148
  0
LINE
  8
ゴム等
  6
CONTINUOUS
 10
-91.307365
 20
-38.004813
 11
-91.307362
 21
-35.338148
  0
LINE
  8
ゴム等
  6
CONTINUOUS
 10
-88.30078
 20
-35.338148
 11
-87.97403
 21
-35.664895
  0
LINE
  8
ゴム等
  6
CONTINUOUS
 10
-88.772182
 20
-35.338148
 11
-88.272185
 21
-35.838148
  0
LINE
  8
ゴム等
  6
CONTINUOUS
 10
-89.24359
 20
-35.338148
 11
-88.47403
 21
-36.107708
  0
LINE
  8
ゴム等
  6
CONTINUOUS
 10
-89.714992
 20
-35.338148
 11
-88.474028
 21
-36.57911
  0
LINE
  8
ゴム等
  6
CONTINUOUS
 10
-90.186392
 20
-35.338145
 11
-88.47403
 21
-37.050512
  0
LINE
  8
ゴム等
  6
CONTINUOUS
 10
-90.657802
 20
-35.338148
 11
-88.47403
 21
-37.52192
  0
LINE
  8
ゴム等
  6
CONTINUOUS
 10
-91.129205
 20
-35.338148
 11
-88.63495
 21
-37.8324
  0
LINE
  8
ゴム等
  6
CONTINUOUS
 10
-91.307365
 20
-35.631393
 11
-88.933945
 21
-38.00481
  0
LINE
  8
ゴム等
  6
CONTINUOUS
 10
-91.307365
 20
-36.102797
 11
-89.40535
 21
-38.00481
  0
LINE
  8
ゴム等
  6
CONTINUOUS
 10
-91.307365
 20
-36.574202
 11
-89.876755
 21
-38.004813
  0
LINE
  8
ゴム等
  6
CONTINUOUS
 10
-91.307365
 20
-37.04561
 11
-90.34816
 21
-38.004815
  0
LINE
  8
ゴム等
  6
CONTINUOUS
 10
-91.307365
 20
-37.51701
 11
-90.819563
 21
-38.004815
  0
ENDBLK
  0
BLOCK
  2
*GRP_0030
 70
    65
 10
0.0
 20
0.0
  0
LINE
  8
ゴム等
  6
CONTINUOUS
 10
113.418943
 20
-35.838148
 11
113.918938
 21
-35.838148
  0
LINE
  8
ゴム等
  6
CONTINUOUS
 10
113.91894
 20
-37.67148
 11
113.918938
 21
-35.838148
  0
LINE
  8
ゴム等
  6
CONTINUOUS
 10
116.752275
 20
-38.004813
 11
114.252275
 21
-38.004813
  0
LINE
  8
ゴム等
  6
CONTINUOUS
 10
113.91894
 20
-37.67148
 11
114.252275
 21
-38.004813
  0
LINE
  8
ゴム等
  6
CONTINUOUS
 10
113.418943
 20
-35.838148
 11
113.41894
 21
-35.338145
  0
LINE
  8
ゴム等
  6
CONTINUOUS
 10
113.41894
 20
-35.338145
 11
116.752273
 21
-35.338148
  0
LINE
  8
ゴム等
  6
CONTINUOUS
 10
116.752275
 20
-38.004813
 11
116.752273
 21
-35.338148
  0
LINE
  8
ゴム等
  6
CONTINUOUS
 10
113.74569
 20
-35.338148
 11
113.41894
 21
-35.664895
  0
LINE
  8
ゴム等
  6
CONTINUOUS
 10
114.217093
 20
-35.338148
 11
113.717095
 21
-35.838148
  0
LINE
  8
ゴム等
  6
CONTINUOUS
 10
114.6885
 20
-35.338148
 11
113.91894
 21
-36.107708
  0
LINE
  8
ゴム等
  6
CONTINUOUS
 10
115.159902
 20
-35.338148
 11
113.918938
 21
-36.57911
  0
LINE
  8
ゴム等
  6
CONTINUOUS
 10
115.631302
 20
-35.338145
 11
113.91894
 21
-37.050512
  0
LINE
  8
ゴム等
  6
CONTINUOUS
 10
116.102713
 20
-35.338148
 11
113.91894
 21
-37.52192
  0
LINE
  8
ゴム等
  6
CONTINUOUS
 10
116.574115
 20
-35.338148
 11
114.07986
 21
-37.8324
  0
LINE
  8
ゴム等
  6
CONTINUOUS
 10
116.752275
 20
-35.631393
 11
114.378855
 21
-38.00481
  0
LINE
  8
ゴム等
  6
CONTINUOUS
 10
116.752275
 20
-36.102797
 11
114.85026
 21
-38.00481
  0
LINE
  8
ゴム等
  6
CONTINUOUS
 10
116.752275
 20
-36.574202
 11
115.321665
 21
-38.004813
  0
LINE
  8
ゴム等
  6
CONTINUOUS
 10
116.752275
 20
-37.04561
 11
115.79307
 21
-38.004815
  0
LINE
  8
ゴム等
  6
CONTINUOUS
 10
116.752275
 20
-37.51701
 11
116.264473
 21
-38.004815
  0
ENDBLK
  0
BLOCK
  2
*GRP_0031
 70
    65
 10
0.0
 20
0.0
  0
POLYLINE
  8
ガラス
  6
CONTINUOUS
 66
     1
 70
     4
  0
VERTEX
  8
ガラス
 10
-93.95
 20
-37.225
 70
     8
  0
VERTEX
  8
ガラス
 10
-93.925
 20
-37.225
 70
     8
  0
VERTEX
  8
ガラス
 10
-93.9
 20
-37.225
 70
     8
  0
VERTEX
  8
ガラス
 10
-93.875
 20
-37.225
 70
     8
  0
VERTEX
  8
ガラス
 10
-93.85
 20
-37.225
 70
     8
  0
VERTEX
  8
ガラス
 10
-93.8
 20
-37.225
 70
     8
  0
VERTEX
  8
ガラス
 10
-93.775
 20
-37.225
 70
     8
  0
VERTEX
  8
ガラス
 10
-93.75
 20
-37.225
 70
     8
  0
VERTEX
  8
ガラス
 10
-93.725
 20
-37.225
 70
     8
  0
VERTEX
  8
ガラス
 10
-93.675
 20
-37.225
 70
     8
  0
VERTEX
  8
ガラス
 10
-93.65
 20
-37.2
 70
     8
  0
VERTEX
  8
ガラス
 10
-93.625
 20
-37.2
 70
     8
  0
VERTEX
  8
ガラス
 10
-93.6
 20
-37.225
 70
     8
  0
VERTEX
  8
ガラス
 10
-93.575
 20
-37.225
 70
     8
  0
VERTEX
  8
ガラス
 10
-93.55
 20
-37.225
 70
     8
  0
VERTEX
  8
ガラス
 10
-93.5
 20
-37.225
 70
     8
  0
VERTEX
  8
ガラス
 10
-93.475
 20
-37.225
 70
     8
  0
VERTEX
  8
ガラス
 10
-93.45
 20
-37.225
 70
     8
  0
VERTEX
  8
ガラス
 10
-93.425
 20
-37.225
 70
     8
  0
VERTEX
  8
ガラス
 10
-93.4
 20
-37.25
 70
     8
  0
VERTEX
  8
ガラス
 10
-93.375
 20
-37.25
 70
     8
  0
VERTEX
  8
ガラス
 10
-93.35
 20
-37.25
 70
     8
  0
VERTEX
  8
ガラス
 10
-93.325
 20
-37.275
 70
     8
  0
VERTEX
  8
ガラス
 10
-93.3
 20
-37.275
 70
     8
  0
VERTEX
  8
ガラス
 10
-93.275
 20
-37.3
 70
     8
  0
VERTEX
  8
ガラス
 10
-93.25
 20
-37.325
 70
     8
  0
VERTEX
  8
ガラス
 10
-93.225
 20
-37.325
 70
     8
  0
VERTEX
  8
ガラス
 10
-93.2
 20
-37.35
 70
     8
  0
VERTEX
  8
ガラス
 10
-93.175
 20
-37.375
 70
     8
  0
VERTEX
  8
ガラス
 10
-93.15
 20
-37.375
 70
     8
  0
VERTEX
  8
ガラス
 10
-93.15
 20
-37.4
 70
     8
  0
VERTEX
  8
ガラス
 10
-93.125
 20
-37.425
 70
     8
  0
VERTEX
  8
ガラス
 10
-93.1
 20
-37.45
 70
     8
  0
VERTEX
  8
ガラス
 10
-93.075
 20
-37.475
 70
     8
  0
VERTEX
  8
ガラス
 10
-93.05
 20
-37.5
 70
     8
  0
VERTEX
  8
ガラス
 10
-93.025
 20
-37.5
 70
     8
  0
VERTEX
  8
ガラス
 10
-93.025
 20
-37.525
 70
     8
  0
VERTEX
  8
ガラス
 10
-93.0
 20
-37.55
 70
     8
  0
VERTEX
  8
ガラス
 10
-92.975
 20
-37.575
 70
     8
  0
VERTEX
  8
ガラス
 10
-92.95
 20
-37.6
 70
     8
  0
VERTEX
  8
ガラス
 10
-92.925
 20
-37.625
 70
     8
  0
SEQEND
  0
POLYLINE
  8
ガラス
  6
CONTINUOUS
 66
     1
 70
     4
  0
VERTEX
  8
ガラス
 10
-92.925
 20
-37.625
 70
     8
  0
VERTEX
  8
ガラス
 10
-92.95
 20
-37.625
 70
     8
  0
VERTEX
  8
ガラス
 10
-92.975
 20
-37.625
 70
     8
  0
VERTEX
  8
ガラス
 10
-93.0
 20
-37.625
 70
     8
  0
VERTEX
  8
ガラス
 10
-93.025
 20
-37.625
 70
     8
  0
VERTEX
  8
ガラス
 10
-93.025
 20
-37.65
 70
     8
  0
VERTEX
  8
ガラス
 10
-93.05
 20
-37.65
 70
     8
  0
VERTEX
  8
ガラス
 10
-93.075
 20
-37.65
 70
     8
  0
VERTEX
  8
ガラス
 10
-93.1
 20
-37.65
 70
     8
  0
VERTEX
  8
ガラス
 10
-93.125
 20
-37.65
 70
     8
  0
VERTEX
  8
ガラス
 10
-93.125
 20
-37.65
 70
     8
  0
VERTEX
  8
ガラス
 10
-93.15
 20
-37.65
 70
     8
  0
VERTEX
  8
ガラス
 10
-93.175
 20
-37.65
 70
     8
  0
VERTEX
  8
ガラス
 10
-93.2
 20
-37.65
 70
     8
  0
VERTEX
  8
ガラス
 10
-93.225
 20
-37.675
 70
     8
  0
VERTEX
  8
ガラス
 10
-93.225
 20
-37.675
 70
     8
  0
VERTEX
  8
ガラス
 10
-93.25
 20
-37.675
 70
     8
  0
VERTEX
  8
ガラス
 10
-93.275
 20
-37.675
 70
     8
  0
VERTEX
  8
ガラス
 10
-93.3
 20
-37.675
 70
     8
  0
VERTEX
  8
ガラス
 10
-93.325
 20
-37.675
 70
     8
  0
VERTEX
  8
ガラス
 10
-93.325
 20
-37.7
 70
     8
  0
VERTEX
  8
ガラス
 10
-93.35
 20
-37.7
 70
     8
  0
VERTEX
  8
ガラス
 10
-93.375
 20
-37.7
 70
     8
  0
VERTEX
  8
ガラス
 10
-93.4
 20
-37.7
 70
     8
  0
VERTEX
  8
ガラス
 10
-93.425
 20
-37.7
 70
     8
  0
VERTEX
  8
ガラス
 10
-93.425
 20
-37.725
 70
     8
  0
VERTEX
  8
ガラス
 10
-93.45
 20
-37.725
 70
     8
  0
VERTEX
  8
ガラス
 10
-93.475
 20
-37.725
 70
     8
  0
VERTEX
  8
ガラス
 10
-93.5
 20
-37.725
 70
     8
  0
VERTEX
  8
ガラス
 10
-93.5
 20
-37.75
 70
     8
  0
VERTEX
  8
ガラス
 10
-93.525
 20
-37.75
 70
     8
  0
VERTEX
  8
ガラス
 10
-93.55
 20
-37.75
 70
     8
  0
VERTEX
  8
ガラス
 10
-93.575
 20
-37.775
 70
     8
  0
VERTEX
  8
ガラス
 10
-93.6
 20
-37.775
 70
     8
  0
VERTEX
  8
ガラス
 10
-93.6
 20
-37.775
 70
     8
  0
VERTEX
  8
ガラス
 10
-93.625
 20
-37.775
 70
     8
  0
VERTEX
  8
ガラス
 10
-93.65
 20
-37.8
 70
     8
  0
VERTEX
  8
ガラス
 10
-93.675
 20
-37.8
 70
     8
  0
VERTEX
  8
ガラス
 10
-93.675
 20
-37.8
 70
     8
  0
VERTEX
  8
ガラス
 10
-93.7
 20
-37.825
 70
     8
  0
VERTEX
  8
ガラス
 10
-93.725
 20
-37.825
 70
     8
  0
SEQEND
  0
ARC
  8
ガラス
  6
CONTINUOUS
 10
-93.829081
 20
-37.518981
 40
0.318378
 50
112.264588
 51
292.264588
  0
ENDBLK
  0
BLOCK
  2
*GRP_0032
 70
    65
 10
0.0
 20
0.0
  0
POLYLINE
  8
ガラス
  6
CONTINUOUS
 66
     1
 70
     4
  0
VERTEX
  8
ガラス
 10
-97.425
 20
-37.225
 70
     8
  0
VERTEX
  8
ガラス
 10
-97.375
 20
-37.225
 70
     8
  0
VERTEX
  8
ガラス
 10
-97.35
 20
-37.225
 70
     8
  0
VERTEX
  8
ガラス
 10
-97.325
 20
-37.225
 70
     8
  0
VERTEX
  8
ガラス
 10
-97.3
 20
-37.225
 70
     8
  0
VERTEX
  8
ガラス
 10
-97.25
 20
-37.225
 70
     8
  0
VERTEX
  8
ガラス
 10
-97.225
 20
-37.225
 70
     8
  0
VERTEX
  8
ガラス
 10
-97.2
 20
-37.225
 70
     8
  0
VERTEX
  8
ガラス
 10
-97.175
 20
-37.225
 70
     8
  0
VERTEX
  8
ガラス
 10
-97.15
 20
-37.225
 70
     8
  0
VERTEX
  8
ガラス
 10
-97.1
 20
-37.2
 70
     8
  0
VERTEX
  8
ガラス
 10
-97.075
 20
-37.2
 70
     8
  0
VERTEX
  8
ガラス
 10
-97.05
 20
-37.225
 70
     8
  0
VERTEX
  8
ガラス
 10
-97.025
 20
-37.225
 70
     8
  0
VERTEX
  8
ガラス
 10
-97.0
 20
-37.225
 70
     8
  0
VERTEX
  8
ガラス
 10
-96.975
 20
-37.225
 70
     8
  0
VERTEX
  8
ガラス
 10
-96.925
 20
-37.225
 70
     8
  0
VERTEX
  8
ガラス
 10
-96.9
 20
-37.225
 70
     8
  0
VERTEX
  8
ガラス
 10
-96.875
 20
-37.225
 70
     8
  0
VERTEX
  8
ガラス
 10
-96.85
 20
-37.25
 70
     8
  0
VERTEX
  8
ガラス
 10
-96.825
 20
-37.25
 70
     8
  0
VERTEX
  8
ガラス
 10
-96.8
 20
-37.25
 70
     8
  0
VERTEX
  8
ガラス
 10
-96.775
 20
-37.275
 70
     8
  0
VERTEX
  8
ガラス
 10
-96.75
 20
-37.275
 70
     8
  0
VERTEX
  8
ガラス
 10
-96.725
 20
-37.3
 70
     8
  0
VERTEX
  8
ガラス
 10
-96.7
 20
-37.325
 70
     8
  0
VERTEX
  8
ガラス
 10
-96.675
 20
-37.325
 70
     8
  0
VERTEX
  8
ガラス
 10
-96.65
 20
-37.35
 70
     8
  0
VERTEX
  8
ガラス
 10
-96.65
 20
-37.375
 70
     8
  0
VERTEX
  8
ガラス
 10
-96.625
 20
-37.375
 70
     8
  0
VERTEX
  8
ガラス
 10
-96.6
 20
-37.4
 70
     8
  0
VERTEX
  8
ガラス
 10
-96.575
 20
-37.425
 70
     8
  0
VERTEX
  8
ガラス
 10
-96.55
 20
-37.45
 70
     8
  0
VERTEX
  8
ガラス
 10
-96.525
 20
-37.475
 70
     8
  0
VERTEX
  8
ガラス
 10
-96.5
 20
-37.5
 70
     8
  0
VERTEX
  8
ガラス
 10
-96.5
 20
-37.5
 70
     8
  0
VERTEX
  8
ガラス
 10
-96.475
 20
-37.525
 70
     8
  0
VERTEX
  8
ガラス
 10
-96.45
 20
-37.55
 70
     8
  0
VERTEX
  8
ガラス
 10
-96.425
 20
-37.575
 70
     8
  0
VERTEX
  8
ガラス
 10
-96.4
 20
-37.6
 70
     8
  0
VERTEX
  8
ガラス
 10
-96.375
 20
-37.625
 70
     8
  0
SEQEND
  0
POLYLINE
  8
ガラス
  6
CONTINUOUS
 66
     1
 70
     4
  0
VERTEX
  8
ガラス
 10
-96.375
 20
-37.625
 70
     8
  0
VERTEX
  8
ガラス
 10
-96.4
 20
-37.625
 70
     8
  0
VERTEX
  8
ガラス
 10
-96.425
 20
-37.625
 70
     8
  0
VERTEX
  8
ガラス
 10
-96.45
 20
-37.625
 70
     8
  0
VERTEX
  8
ガラス
 10
-96.475
 20
-37.625
 70
     8
  0
VERTEX
  8
ガラス
 10
-96.5
 20
-37.65
 70
     8
  0
VERTEX
  8
ガラス
 10
-96.5
 20
-37.65
 70
     8
  0
VERTEX
  8
ガラス
 10
-96.525
 20
-37.65
 70
     8
  0
VERTEX
  8
ガラス
 10
-96.55
 20
-37.65
 70
     8
  0
VERTEX
  8
ガラス
 10
-96.575
 20
-37.65
 70
     8
  0
VERTEX
  8
ガラス
 10
-96.6
 20
-37.65
 70
     8
  0
VERTEX
  8
ガラス
 10
-96.6
 20
-37.65
 70
     8
  0
VERTEX
  8
ガラス
 10
-96.625
 20
-37.65
 70
     8
  0
VERTEX
  8
ガラス
 10
-96.65
 20
-37.65
 70
     8
  0
VERTEX
  8
ガラス
 10
-96.675
 20
-37.675
 70
     8
  0
VERTEX
  8
ガラス
 10
-96.7
 20
-37.675
 70
     8
  0
VERTEX
  8
ガラス
 10
-96.7
 20
-37.675
 70
     8
  0
VERTEX
  8
ガラス
 10
-96.725
 20
-37.675
 70
     8
  0
VERTEX
  8
ガラス
 10
-96.75
 20
-37.675
 70
     8
  0
VERTEX
  8
ガラス
 10
-96.775
 20
-37.675
 70
     8
  0
VERTEX
  8
ガラス
 10
-96.8
 20
-37.7
 70
     8
  0
VERTEX
  8
ガラス
 10
-96.8
 20
-37.7
 70
     8
  0
VERTEX
  8
ガラス
 10
-96.825
 20
-37.7
 70
     8
  0
VERTEX
  8
ガラス
 10
-96.85
 20
-37.7
 70
     8
  0
VERTEX
  8
ガラス
 10
-96.875
 20
-37.7
 70
     8
  0
VERTEX
  8
ガラス
 10
-96.9
 20
-37.725
 70
     8
  0
VERTEX
  8
ガラス
 10
-96.9
 20
-37.725
 70
     8
  0
VERTEX
  8
ガラス
 10
-96.925
 20
-37.725
 70
     8
  0
VERTEX
  8
ガラス
 10
-96.95
 20
-37.725
 70
     8
  0
VERTEX
  8
ガラス
 10
-96.975
 20
-37.75
 70
     8
  0
VERTEX
  8
ガラス
 10
-96.975
 20
-37.75
 70
     8
  0
VERTEX
  8
ガラス
 10
-97.0
 20
-37.75
 70
     8
  0
VERTEX
  8
ガラス
 10
-97.025
 20
-37.775
 70
     8
  0
VERTEX
  8
ガラス
 10
-97.05
 20
-37.775
 70
     8
  0
VERTEX
  8
ガラス
 10
-97.05
 20
-37.775
 70
     8
  0
VERTEX
  8
ガラス
 10
-97.075
 20
-37.775
 70
     8
  0
VERTEX
  8
ガラス
 10
-97.1
 20
-37.8
 70
     8
  0
VERTEX
  8
ガラス
 10
-97.125
 20
-37.8
 70
     8
  0
VERTEX
  8
ガラス
 10
-97.125
 20
-37.8
 70
     8
  0
VERTEX
  8
ガラス
 10
-97.15
 20
-37.825
 70
     8
  0
VERTEX
  8
ガラス
 10
-97.175
 20
-37.825
 70
     8
  0
SEQEND
  0
ARC
  8
ガラス
  6
CONTINUOUS
 10
-97.282344
 20
-37.518981
 40
0.318378
 50
112.264588
 51
292.264588
  0
ENDBLK
  0
BLOCK
  2
*GRP_0033
 70
    65
 10
0.0
 20
0.0
  0
POLYLINE
  8
ガラス
  6
CONTINUOUS
 66
     1
 70
     4
  0
VERTEX
  8
ガラス
 10
-98.9
 20
-39.25
 70
     8
  0
VERTEX
  8
ガラス
 10
-98.875
 20
-39.225
 70
     8
  0
VERTEX
  8
ガラス
 10
-98.875
 20
-39.2
 70
     8
  0
VERTEX
  8
ガラス
 10
-98.85
 20
-39.175
 70
     8
  0
VERTEX
  8
ガラス
 10
-98.825
 20
-39.15
 70
     8
  0
VERTEX
  8
ガラス
 10
-98.825
 20
-39.125
 70
     8
  0
VERTEX
  8
ガラス
 10
-98.8
 20
-39.1
 70
     8
  0
VERTEX
  8
ガラス
 10
-98.775
 20
-39.075
 70
     8
  0
VERTEX
  8
ガラス
 10
-98.775
 20
-39.05
 70
     8
  0
VERTEX
  8
ガラス
 10
-98.75
 20
-39.025
 70
     8
  0
VERTEX
  8
ガラス
 10
-98.725
 20
-39.0
 70
     8
  0
VERTEX
  8
ガラス
 10
-98.725
 20
-38.975
 70
     8
  0
VERTEX
  8
ガラス
 10
-98.7
 20
-38.95
 70
     8
  0
VERTEX
  8
ガラス
 10
-98.675
 20
-38.925
 70
     8
  0
VERTEX
  8
ガラス
 10
-98.675
 20
-38.9
 70
     8
  0
VERTEX
  8
ガラス
 10
-98.65
 20
-38.875
 70
     8
  0
VERTEX
  8
ガラス
 10
-98.625
 20
-38.85
 70
     8
  0
VERTEX
  8
ガラス
 10
-98.6
 20
-38.85
 70
     8
  0
VERTEX
  8
ガラス
 10
-98.575
 20
-38.825
 70
     8
  0
VERTEX
  8
ガラス
 10
-98.575
 20
-38.8
 70
     8
  0
VERTEX
  8
ガラス
 10
-98.55
 20
-38.8
 70
     8
  0
VERTEX
  8
ガラス
 10
-98.525
 20
-38.775
 70
     8
  0
VERTEX
  8
ガラス
 10
-98.5
 20
-38.75
 70
     8
  0
VERTEX
  8
ガラス
 10
-98.475
 20
-38.75
 70
     8
  0
VERTEX
  8
ガラス
 10
-98.45
 20
-38.725
 70
     8
  0
VERTEX
  8
ガラス
 10
-98.425
 20
-38.725
 70
     8
  0
VERTEX
  8
ガラス
 10
-98.4
 20
-38.725
 70
     8
  0
VERTEX
  8
ガラス
 10
-98.375
 20
-38.7
 70
     8
  0
VERTEX
  8
ガラス
 10
-98.35
 20
-38.7
 70
     8
  0
VERTEX
  8
ガラス
 10
-98.3
 20
-38.7
 70
     8
  0
VERTEX
  8
ガラス
 10
-98.275
 20
-38.675
 70
     8
  0
VERTEX
  8
ガラス
 10
-98.25
 20
-38.675
 70
     8
  0
VERTEX
  8
ガラス
 10
-98.225
 20
-38.675
 70
     8
  0
VERTEX
  8
ガラス
 10
-98.2
 20
-38.675
 70
     8
  0
VERTEX
  8
ガラス
 10
-98.175
 20
-38.675
 70
     8
  0
VERTEX
  8
ガラス
 10
-98.125
 20
-38.65
 70
     8
  0
VERTEX
  8
ガラス
 10
-98.1
 20
-38.65
 70
     8
  0
VERTEX
  8
ガラス
 10
-98.075
 20
-38.65
 70
     8
  0
VERTEX
  8
ガラス
 10
-98.05
 20
-38.65
 70
     8
  0
VERTEX
  8
ガラス
 10
-98.0
 20
-38.65
 70
     8
  0
VERTEX
  8
ガラス
 10
-97.975
 20
-38.65
 70
     8
  0
SEQEND
  0
POLYLINE
  8
ガラス
  6
CONTINUOUS
 66
     1
 70
     4
  0
VERTEX
  8
ガラス
 10
-97.975
 20
-38.65
 70
     8
  0
VERTEX
  8
ガラス
 10
-98.0
 20
-38.65
 70
     8
  0
VERTEX
  8
ガラス
 10
-98.0
 20
-38.675
 70
     8
  0
VERTEX
  8
ガラス
 10
-98.0
 20
-38.7
 70
     8
  0
VERTEX
  8
ガラス
 10
-98.025
 20
-38.725
 70
     8
  0
VERTEX
  8
ガラス
 10
-98.025
 20
-38.725
 70
     8
  0
VERTEX
  8
ガラス
 10
-98.05
 20
-38.75
 70
     8
  0
VERTEX
  8
ガラス
 10
-98.05
 20
-38.775
 70
     8
  0
VERTEX
  8
ガラス
 10
-98.05
 20
-38.8
 70
     8
  0
VERTEX
  8
ガラス
 10
-98.075
 20
-38.8
 70
     8
  0
VERTEX
  8
ガラス
 10
-98.075
 20
-38.825
 70
     8
  0
VERTEX
  8
ガラス
 10
-98.075
 20
-38.85
 70
     8
  0
VERTEX
  8
ガラス
 10
-98.1
 20
-38.85
 70
     8
  0
VERTEX
  8
ガラス
 10
-98.1
 20
-38.875
 70
     8
  0
VERTEX
  8
ガラス
 10
-98.125
 20
-38.9
 70
     8
  0
VERTEX
  8
ガラス
 10
-98.125
 20
-38.925
 70
     8
  0
VERTEX
  8
ガラス
 10
-98.125
 20
-38.925
 70
     8
  0
VERTEX
  8
ガラス
 10
-98.15
 20
-38.95
 70
     8
  0
VERTEX
  8
ガラス
 10
-98.15
 20
-38.975
 70
     8
  0
VERTEX
  8
ガラス
 10
-98.15
 20
-39.0
 70
     8
  0
VERTEX
  8
ガラス
 10
-98.175
 20
-39.0
 70
     8
  0
VERTEX
  8
ガラス
 10
-98.175
 20
-39.025
 70
     8
  0
VERTEX
  8
ガラス
 10
-98.175
 20
-39.05
 70
     8
  0
VERTEX
  8
ガラス
 10
-98.175
 20
-39.075
 70
     8
  0
VERTEX
  8
ガラス
 10
-98.2
 20
-39.075
 70
     8
  0
VERTEX
  8
ガラス
 10
-98.2
 20
-39.1
 70
     8
  0
VERTEX
  8
ガラス
 10
-98.2
 20
-39.125
 70
     8
  0
VERTEX
  8
ガラス
 10
-98.2
 20
-39.15
 70
     8
  0
VERTEX
  8
ガラス
 10
-98.225
 20
-39.175
 70
     8
  0
VERTEX
  8
ガラス
 10
-98.225
 20
-39.175
 70
     8
  0
VERTEX
  8
ガラス
 10
-98.225
 20
-39.2
 70
     8
  0
VERTEX
  8
ガラス
 10
-98.225
 20
-39.225
 70
     8
  0
VERTEX
  8
ガラス
 10
-98.225
 20
-39.25
 70
     8
  0
VERTEX
  8
ガラス
 10
-98.25
 20
-39.25
 70
     8
  0
VERTEX
  8
ガラス
 10
-98.25
 20
-39.275
 70
     8
  0
VERTEX
  8
ガラス
 10
-98.25
 20
-39.3
 70
     8
  0
VERTEX
  8
ガラス
 10
-98.25
 20
-39.325
 70
     8
  0
VERTEX
  8
ガラス
 10
-98.25
 20
-39.35
 70
     8
  0
VERTEX
  8
ガラス
 10
-98.275
 20
-39.35
 70
     8
  0
VERTEX
  8
ガラス
 10
-98.275
 20
-39.375
 70
     8
  0
VERTEX
  8
ガラス
 10
-98.275
 20
-39.4
 70
     8
  0
SEQEND
  0
ARC
  8
ガラス
  6
CONTINUOUS
 10
-98.572218
 20
-39.316045
 40
0.318378
 50
166.72691
 51
346.72691
  0
ENDBLK
  0
BLOCK
  2
*GRP_0034
 70
    65
 10
0.0
 20
0.0
  0
POLYLINE
  8
ガラス
  6
CONTINUOUS
 66
     1
 70
     4
  0
VERTEX
  8
ガラス
 10
119.375
 20
-37.225
 70
     8
  0
VERTEX
  8
ガラス
 10
119.35
 20
-37.225
 70
     8
  0
VERTEX
  8
ガラス
 10
119.325
 20
-37.225
 70
     8
  0
VERTEX
  8
ガラス
 10
119.3
 20
-37.225
 70
     8
  0
VERTEX
  8
ガラス
 10
119.25
 20
-37.225
 70
     8
  0
VERTEX
  8
ガラス
 10
119.225
 20
-37.225
 70
     8
  0
VERTEX
  8
ガラス
 10
119.2
 20
-37.225
 70
     8
  0
VERTEX
  8
ガラス
 10
119.175
 20
-37.225
 70
     8
  0
VERTEX
  8
ガラス
 10
119.125
 20
-37.225
 70
     8
  0
VERTEX
  8
ガラス
 10
119.1
 20
-37.225
 70
     8
  0
VERTEX
  8
ガラス
 10
119.075
 20
-37.2
 70
     8
  0
VERTEX
  8
ガラス
 10
119.05
 20
-37.2
 70
     8
  0
VERTEX
  8
ガラス
 10
119.025
 20
-37.225
 70
     8
  0
VERTEX
  8
ガラス
 10
119.0
 20
-37.225
 70
     8
  0
VERTEX
  8
ガラス
 10
118.95
 20
-37.225
 70
     8
  0
VERTEX
  8
ガラス
 10
118.925
 20
-37.225
 70
     8
  0
VERTEX
  8
ガラス
 10
118.9
 20
-37.225
 70
     8
  0
VERTEX
  8
ガラス
 10
118.875
 20
-37.225
 70
     8
  0
VERTEX
  8
ガラス
 10
118.85
 20
-37.225
 70
     8
  0
VERTEX
  8
ガラス
 10
118.825
 20
-37.25
 70
     8
  0
VERTEX
  8
ガラス
 10
118.8
 20
-37.25
 70
     8
  0
VERTEX
  8
ガラス
 10
118.775
 20
-37.25
 70
     8
  0
VERTEX
  8
ガラス
 10
118.75
 20
-37.275
 70
     8
  0
VERTEX
  8
ガラス
 10
118.725
 20
-37.275
 70
     8
  0
VERTEX
  8
ガラス
 10
118.7
 20
-37.3
 70
     8
  0
VERTEX
  8
ガラス
 10
118.675
 20
-37.325
 70
     8
  0
VERTEX
  8
ガラス
 10
118.65
 20
-37.325
 70
     8
  0
VERTEX
  8
ガラス
 10
118.625
 20
-37.35
 70
     8
  0
VERTEX
  8
ガラス
 10
118.6
 20
-37.375
 70
     8
  0
VERTEX
  8
ガラス
 10
118.575
 20
-37.375
 70
     8
  0
VERTEX
  8
ガラス
 10
118.55
 20
-37.4
 70
     8
  0
VERTEX
  8
ガラス
 10
118.55
 20
-37.425
 70
     8
  0
VERTEX
  8
ガラス
 10
118.525
 20
-37.45
 70
     8
  0
VERTEX
  8
ガラス
 10
118.5
 20
-37.475
 70
     8
  0
VERTEX
  8
ガラス
 10
118.475
 20
-37.5
 70
     8
  0
VERTEX
  8
ガラス
 10
118.45
 20
-37.5
 70
     8
  0
VERTEX
  8
ガラス
 10
118.425
 20
-37.525
 70
     8
  0
VERTEX
  8
ガラス
 10
118.425
 20
-37.55
 70
     8
  0
VERTEX
  8
ガラス
 10
118.4
 20
-37.575
 70
     8
  0
VERTEX
  8
ガラス
 10
118.375
 20
-37.6
 70
     8
  0
VERTEX
  8
ガラス
 10
118.35
 20
-37.625
 70
     8
  0
SEQEND
  0
POLYLINE
  8
ガラス
  6
CONTINUOUS
 66
     1
 70
     4
  0
VERTEX
  8
ガラス
 10
118.35
 20
-37.625
 70
     8
  0
VERTEX
  8
ガラス
 10
118.375
 20
-37.625
 70
     8
  0
VERTEX
  8
ガラス
 10
118.4
 20
-37.625
 70
     8
  0
VERTEX
  8
ガラス
 10
118.425
 20
-37.625
 70
     8
  0
VERTEX
  8
ガラス
 10
118.425
 20
-37.625
 70
     8
  0
VERTEX
  8
ガラス
 10
118.45
 20
-37.65
 70
     8
  0
VERTEX
  8
ガラス
 10
118.475
 20
-37.65
 70
     8
  0
VERTEX
  8
ガラス
 10
118.5
 20
-37.65
 70
     8
  0
VERTEX
  8
ガラス
 10
118.525
 20
-37.65
 70
     8
  0
VERTEX
  8
ガラス
 10
118.525
 20
-37.65
 70
     8
  0
VERTEX
  8
ガラス
 10
118.55
 20
-37.65
 70
     8
  0
VERTEX
  8
ガラス
 10
118.575
 20
-37.65
 70
     8
  0
VERTEX
  8
ガラス
 10
118.6
 20
-37.65
 70
     8
  0
VERTEX
  8
ガラス
 10
118.625
 20
-37.65
 70
     8
  0
VERTEX
  8
ガラス
 10
118.625
 20
-37.675
 70
     8
  0
VERTEX
  8
ガラス
 10
118.65
 20
-37.675
 70
     8
  0
VERTEX
  8
ガラス
 10
118.675
 20
-37.675
 70
     8
  0
VERTEX
  8
ガラス
 10
118.7
 20
-37.675
 70
     8
  0
VERTEX
  8
ガラス
 10
118.725
 20
-37.675
 70
     8
  0
VERTEX
  8
ガラス
 10
118.725
 20
-37.675
 70
     8
  0
VERTEX
  8
ガラス
 10
118.75
 20
-37.7
 70
     8
  0
VERTEX
  8
ガラス
 10
118.775
 20
-37.7
 70
     8
  0
VERTEX
  8
ガラス
 10
118.8
 20
-37.7
 70
     8
  0
VERTEX
  8
ガラス
 10
118.825
 20
-37.7
 70
     8
  0
VERTEX
  8
ガラス
 10
118.825
 20
-37.7
 70
     8
  0
VERTEX
  8
ガラス
 10
118.85
 20
-37.725
 70
     8
  0
VERTEX
  8
ガラス
 10
118.875
 20
-37.725
 70
     8
  0
VERTEX
  8
ガラス
 10
118.9
 20
-37.725
 70
     8
  0
VERTEX
  8
ガラス
 10
118.9
 20
-37.725
 70
     8
  0
VERTEX
  8
ガラス
 10
118.925
 20
-37.75
 70
     8
  0
VERTEX
  8
ガラス
 10
118.95
 20
-37.75
 70
     8
  0
VERTEX
  8
ガラス
 10
118.975
 20
-37.75
 70
     8
  0
VERTEX
  8
ガラス
 10
119.0
 20
-37.775
 70
     8
  0
VERTEX
  8
ガラス
 10
119.0
 20
-37.775
 70
     8
  0
VERTEX
  8
ガラス
 10
119.025
 20
-37.775
 70
     8
  0
VERTEX
  8
ガラス
 10
119.05
 20
-37.775
 70
     8
  0
VERTEX
  8
ガラス
 10
119.075
 20
-37.8
 70
     8
  0
VERTEX
  8
ガラス
 10
119.075
 20
-37.8
 70
     8
  0
VERTEX
  8
ガラス
 10
119.1
 20
-37.8
 70
     8
  0
VERTEX
  8
ガラス
 10
119.125
 20
-37.825
 70
     8
  0
VERTEX
  8
ガラス
 10
119.15
 20
-37.825
 70
     8
  0
SEQEND
  0
ARC
  8
ガラス
  6
CONTINUOUS
 10
119.273996
 20
-37.518981
 40
0.318378
 50
247.735412
 51
427.735412
  0
ENDBLK
  0
BLOCK
  2
*GRP_0035
 70
    65
 10
0.0
 20
0.0
  0
POLYLINE
  8
ガラス
  6
CONTINUOUS
 66
     1
 70
     4
  0
VERTEX
  8
ガラス
 10
122.825
 20
-37.225
 70
     8
  0
VERTEX
  8
ガラス
 10
122.8
 20
-37.225
 70
     8
  0
VERTEX
  8
ガラス
 10
122.775
 20
-37.225
 70
     8
  0
VERTEX
  8
ガラス
 10
122.75
 20
-37.225
 70
     8
  0
VERTEX
  8
ガラス
 10
122.7
 20
-37.225
 70
     8
  0
VERTEX
  8
ガラス
 10
122.675
 20
-37.225
 70
     8
  0
VERTEX
  8
ガラス
 10
122.65
 20
-37.225
 70
     8
  0
VERTEX
  8
ガラス
 10
122.625
 20
-37.225
 70
     8
  0
VERTEX
  8
ガラス
 10
122.6
 20
-37.225
 70
     8
  0
VERTEX
  8
ガラス
 10
122.55
 20
-37.225
 70
     8
  0
VERTEX
  8
ガラス
 10
122.525
 20
-37.2
 70
     8
  0
VERTEX
  8
ガラス
 10
122.5
 20
-37.2
 70
     8
  0
VERTEX
  8
ガラス
 10
122.475
 20
-37.225
 70
     8
  0
VERTEX
  8
ガラス
 10
122.45
 20
-37.225
 70
     8
  0
VERTEX
  8
ガラス
 10
122.425
 20
-37.225
 70
     8
  0
VERTEX
  8
ガラス
 10
122.375
 20
-37.225
 70
     8
  0
VERTEX
  8
ガラス
 10
122.35
 20
-37.225
 70
     8
  0
VERTEX
  8
ガラス
 10
122.325
 20
-37.225
 70
     8
  0
VERTEX
  8
ガラス
 10
122.3
 20
-37.225
 70
     8
  0
VERTEX
  8
ガラス
 10
122.275
 20
-37.25
 70
     8
  0
VERTEX
  8
ガラス
 10
122.25
 20
-37.25
 70
     8
  0
VERTEX
  8
ガラス
 10
122.225
 20
-37.25
 70
     8
  0
VERTEX
  8
ガラス
 10
122.2
 20
-37.275
 70
     8
  0
VERTEX
  8
ガラス
 10
122.175
 20
-37.275
 70
     8
  0
VERTEX
  8
ガラス
 10
122.15
 20
-37.3
 70
     8
  0
VERTEX
  8
ガラス
 10
122.125
 20
-37.325
 70
     8
  0
VERTEX
  8
ガラス
 10
122.1
 20
-37.325
 70
     8
  0
VERTEX
  8
ガラス
 10
122.075
 20
-37.35
 70
     8
  0
VERTEX
  8
ガラス
 10
122.05
 20
-37.375
 70
     8
  0
VERTEX
  8
ガラス
 10
122.025
 20
-37.375
 70
     8
  0
VERTEX
  8
ガラス
 10
122.025
 20
-37.4
 70
     8
  0
VERTEX
  8
ガラス
 10
122.0
 20
-37.425
 70
     8
  0
VERTEX
  8
ガラス
 10
121.975
 20
-37.45
 70
     8
  0
VERTEX
  8
ガラス
 10
121.95
 20
-37.475
 70
     8
  0
VERTEX
  8
ガラス
 10
121.925
 20
-37.5
 70
     8
  0
VERTEX
  8
ガラス
 10
121.9
 20
-37.5
 70
     8
  0
VERTEX
  8
ガラス
 10
121.875
 20
-37.525
 70
     8
  0
VERTEX
  8
ガラス
 10
121.875
 20
-37.55
 70
     8
  0
VERTEX
  8
ガラス
 10
121.85
 20
-37.575
 70
     8
  0
VERTEX
  8
ガラス
 10
121.825
 20
-37.6
 70
     8
  0
VERTEX
  8
ガラス
 10
121.8
 20
-37.625
 70
     8
  0
SEQEND
  0
POLYLINE
  8
ガラス
  6
CONTINUOUS
 66
     1
 70
     4
  0
VERTEX
  8
ガラス
 10
121.8
 20
-37.625
 70
     8
  0
VERTEX
  8
ガラス
 10
121.825
 20
-37.625
 70
     8
  0
VERTEX
  8
ガラス
 10
121.85
 20
-37.625
 70
     8
  0
VERTEX
  8
ガラス
 10
121.875
 20
-37.625
 70
     8
  0
VERTEX
  8
ガラス
 10
121.875
 20
-37.625
 70
     8
  0
VERTEX
  8
ガラス
 10
121.9
 20
-37.65
 70
     8
  0
VERTEX
  8
ガラス
 10
121.925
 20
-37.65
 70
     8
  0
VERTEX
  8
ガラス
 10
121.95
 20
-37.65
 70
     8
  0
VERTEX
  8
ガラス
 10
121.975
 20
-37.65
 70
     8
  0
VERTEX
  8
ガラス
 10
122.0
 20
-37.65
 70
     8
  0
VERTEX
  8
ガラス
 10
122.0
 20
-37.65
 70
     8
  0
VERTEX
  8
ガラス
 10
122.025
 20
-37.65
 70
     8
  0
VERTEX
  8
ガラス
 10
122.05
 20
-37.65
 70
     8
  0
VERTEX
  8
ガラス
 10
122.075
 20
-37.65
 70
     8
  0
VERTEX
  8
ガラス
 10
122.1
 20
-37.675
 70
     8
  0
VERTEX
  8
ガラス
 10
122.1
 20
-37.675
 70
     8
  0
VERTEX
  8
ガラス
 10
122.125
 20
-37.675
 70
     8
  0
VERTEX
  8
ガラス
 10
122.15
 20
-37.675
 70
     8
  0
VERTEX
  8
ガラス
 10
122.175
 20
-37.675
 70
     8
  0
VERTEX
  8
ガラス
 10
122.2
 20
-37.675
 70
     8
  0
VERTEX
  8
ガラス
 10
122.2
 20
-37.7
 70
     8
  0
VERTEX
  8
ガラス
 10
122.225
 20
-37.7
 70
     8
  0
VERTEX
  8
ガラス
 10
122.25
 20
-37.7
 70
     8
  0
VERTEX
  8
ガラス
 10
122.275
 20
-37.7
 70
     8
  0
VERTEX
  8
ガラス
 10
122.3
 20
-37.7
 70
     8
  0
VERTEX
  8
ガラス
 10
122.3
 20
-37.725
 70
     8
  0
VERTEX
  8
ガラス
 10
122.325
 20
-37.725
 70
     8
  0
VERTEX
  8
ガラス
 10
122.35
 20
-37.725
 70
     8
  0
VERTEX
  8
ガラス
 10
122.375
 20
-37.725
 70
     8
  0
VERTEX
  8
ガラス
 10
122.375
 20
-37.75
 70
     8
  0
VERTEX
  8
ガラス
 10
122.4
 20
-37.75
 70
     8
  0
VERTEX
  8
ガラス
 10
122.425
 20
-37.75
 70
     8
  0
VERTEX
  8
ガラス
 10
122.45
 20
-37.775
 70
     8
  0
VERTEX
  8
ガラス
 10
122.45
 20
-37.775
 70
     8
  0
VERTEX
  8
ガラス
 10
122.475
 20
-37.775
 70
     8
  0
VERTEX
  8
ガラス
 10
122.5
 20
-37.775
 70
     8
  0
VERTEX
  8
ガラス
 10
122.525
 20
-37.8
 70
     8
  0
VERTEX
  8
ガラス
 10
122.525
 20
-37.8
 70
     8
  0
VERTEX
  8
ガラス
 10
122.55
 20
-37.8
 70
     8
  0
VERTEX
  8
ガラス
 10
122.575
 20
-37.825
 70
     8
  0
VERTEX
  8
ガラス
 10
122.6
 20
-37.825
 70
     8
  0
SEQEND
  0
ARC
  8
ガラス
  6
CONTINUOUS
 10
122.727259
 20
-37.518981
 40
0.318378
 50
247.735412
 51
427.735412
  0
ENDBLK
  0
BLOCK
  2
*GRP_0036
 70
    65
 10
0.0
 20
0.0
  0
POLYLINE
  8
ガラス
  6
CONTINUOUS
 66
     1
 70
     4
  0
VERTEX
  8
ガラス
 10
124.325
 20
-39.25
 70
     8
  0
VERTEX
  8
ガラス
 10
124.3
 20
-39.225
 70
     8
  0
VERTEX
  8
ガラス
 10
124.275
 20
-39.2
 70
     8
  0
VERTEX
  8
ガラス
 10
124.275
 20
-39.175
 70
     8
  0
VERTEX
  8
ガラス
 10
124.25
 20
-39.15
 70
     8
  0
VERTEX
  8
ガラス
 10
124.25
 20
-39.125
 70
     8
  0
VERTEX
  8
ガラス
 10
124.225
 20
-39.1
 70
     8
  0
VERTEX
  8
ガラス
 10
124.2
 20
-39.075
 70
     8
  0
VERTEX
  8
ガラス
 10
124.2
 20
-39.05
 70
     8
  0
VERTEX
  8
ガラス
 10
124.175
 20
-39.025
 70
     8
  0
VERTEX
  8
ガラス
 10
124.15
 20
-39.0
 70
     8
  0
VERTEX
  8
ガラス
 10
124.15
 20
-38.975
 70
     8
  0
VERTEX
  8
ガラス
 10
124.125
 20
-38.95
 70
     8
  0
VERTEX
  8
ガラス
 10
124.1
 20
-38.925
 70
     8
  0
VERTEX
  8
ガラス
 10
124.075
 20
-38.9
 70
     8
  0
VERTEX
  8
ガラス
 10
124.075
 20
-38.875
 70
     8
  0
VERTEX
  8
ガラス
 10
124.05
 20
-38.85
 70
     8
  0
VERTEX
  8
ガラス
 10
124.025
 20
-38.85
 70
     8
  0
VERTEX
  8
ガラス
 10
124.0
 20
-38.825
 70
     8
  0
VERTEX
  8
ガラス
 10
123.975
 20
-38.8
 70
     8
  0
VERTEX
  8
ガラス
 10
123.95
 20
-38.8
 70
     8
  0
VERTEX
  8
ガラス
 10
123.95
 20
-38.775
 70
     8
  0
VERTEX
  8
ガラス
 10
123.925
 20
-38.75
 70
     8
  0
VERTEX
  8
ガラス
 10
123.9
 20
-38.75
 70
     8
  0
VERTEX
  8
ガラス
 10
123.875
 20
-38.725
 70
     8
  0
VERTEX
  8
ガラス
 10
123.85
 20
-38.725
 70
     8
  0
VERTEX
  8
ガラス
 10
123.8
 20
-38.725
 70
     8
  0
VERTEX
  8
ガラス
 10
123.775
 20
-38.7
 70
     8
  0
VERTEX
  8
ガラス
 10
123.75
 20
-38.7
 70
     8
  0
VERTEX
  8
ガラス
 10
123.725
 20
-38.7
 70
     8
  0
VERTEX
  8
ガラス
 10
123.7
 20
-38.675
 70
     8
  0
VERTEX
  8
ガラス
 10
123.675
 20
-38.675
 70
     8
  0
VERTEX
  8
ガラス
 10
123.65
 20
-38.675
 70
     8
  0
VERTEX
  8
ガラス
 10
123.625
 20
-38.675
 70
     8
  0
VERTEX
  8
ガラス
 10
123.575
 20
-38.675
 70
     8
  0
VERTEX
  8
ガラス
 10
123.55
 20
-38.65
 70
     8
  0
VERTEX
  8
ガラス
 10
123.525
 20
-38.65
 70
     8
  0
VERTEX
  8
ガラス
 10
123.5
 20
-38.65
 70
     8
  0
VERTEX
  8
ガラス
 10
123.45
 20
-38.65
 70
     8
  0
VERTEX
  8
ガラス
 10
123.425
 20
-38.65
 70
     8
  0
VERTEX
  8
ガラス
 10
123.4
 20
-38.65
 70
     8
  0
SEQEND
  0
POLYLINE
  8
ガラス
  6
CONTINUOUS
 66
     1
 70
     4
  0
VERTEX
  8
ガラス
 10
123.4
 20
-38.65
 70
     8
  0
VERTEX
  8
ガラス
 10
123.4
 20
-38.65
 70
     8
  0
VERTEX
  8
ガラス
 10
123.425
 20
-38.675
 70
     8
  0
VERTEX
  8
ガラス
 10
123.425
 20
-38.7
 70
     8
  0
VERTEX
  8
ガラス
 10
123.45
 20
-38.725
 70
     8
  0
VERTEX
  8
ガラス
 10
123.45
 20
-38.725
 70
     8
  0
VERTEX
  8
ガラス
 10
123.45
 20
-38.75
 70
     8
  0
VERTEX
  8
ガラス
 10
123.475
 20
-38.775
 70
     8
  0
VERTEX
  8
ガラス
 10
123.475
 20
-38.8
 70
     8
  0
VERTEX
  8
ガラス
 10
123.5
 20
-38.8
 70
     8
  0
VERTEX
  8
ガラス
 10
123.5
 20
-38.825
 70
     8
  0
VERTEX
  8
ガラス
 10
123.5
 20
-38.85
 70
     8
  0
VERTEX
  8
ガラス
 10
123.525
 20
-38.85
 70
     8
  0
VERTEX
  8
ガラス
 10
123.525
 20
-38.875
 70
     8
  0
VERTEX
  8
ガラス
 10
123.525
 20
-38.9
 70
     8
  0
VERTEX
  8
ガラス
 10
123.55
 20
-38.925
 70
     8
  0
VERTEX
  8
ガラス
 10
123.55
 20
-38.925
 70
     8
  0
VERTEX
  8
ガラス
 10
123.55
 20
-38.95
 70
     8
  0
VERTEX
  8
ガラス
 10
123.575
 20
-38.975
 70
     8
  0
VERTEX
  8
ガラス
 10
123.575
 20
-39.0
 70
     8
  0
VERTEX
  8
ガラス
 10
123.575
 20
-39.0
 70
     8
  0
VERTEX
  8
ガラス
 10
123.6
 20
-39.025
 70
     8
  0
VERTEX
  8
ガラス
 10
123.6
 20
-39.05
 70
     8
  0
VERTEX
  8
ガラス
 10
123.6
 20
-39.075
 70
     8
  0
VERTEX
  8
ガラス
 10
123.6
 20
-39.075
 70
     8
  0
VERTEX
  8
ガラス
 10
123.625
 20
-39.1
 70
     8
  0
VERTEX
  8
ガラス
 10
123.625
 20
-39.125
 70
     8
  0
VERTEX
  8
ガラス
 10
123.625
 20
-39.15
 70
     8
  0
VERTEX
  8
ガラス
 10
123.625
 20
-39.175
 70
     8
  0
VERTEX
  8
ガラス
 10
123.65
 20
-39.175
 70
     8
  0
VERTEX
  8
ガラス
 10
123.65
 20
-39.2
 70
     8
  0
VERTEX
  8
ガラス
 10
123.65
 20
-39.225
 70
     8
  0
VERTEX
  8
ガラス
 10
123.65
 20
-39.25
 70
     8
  0
VERTEX
  8
ガラス
 10
123.65
 20
-39.25
 70
     8
  0
VERTEX
  8
ガラス
 10
123.675
 20
-39.275
 70
     8
  0
VERTEX
  8
ガラス
 10
123.675
 20
-39.3
 70
     8
  0
VERTEX
  8
ガラス
 10
123.675
 20
-39.325
 70
     8
  0
VERTEX
  8
ガラス
 10
123.675
 20
-39.35
 70
     8
  0
VERTEX
  8
ガラス
 10
123.675
 20
-39.35
 70
     8
  0
VERTEX
  8
ガラス
 10
123.7
 20
-39.375
 70
     8
  0
VERTEX
  8
ガラス
 10
123.7
 20
-39.4
 70
     8
  0
SEQEND
  0
ARC
  8
ガラス
  6
CONTINUOUS
 10
124.017133
 20
-39.316045
 40
0.318378
 50
193.27309
 51
373.27309
  0
ENDBLK
  0
BLOCK
  2
*GRP_0037
 70
    65
 10
0.0
 20
0.0
  0
LINE
  8
ボルト／ビス
  6
CONTINUOUS
 62
    64
 10
148.434908
 20
-62.369308
 11
148.434908
 21
-85.616208
  0
LINE
  8
ボルト／ビス
  6
CONTINUOUS
 62
    64
 10
147.268292
 20
-65.005533
 11
147.503967
 21
-64.76969
  0
LINE
  8
ボルト／ビス
  6
CONTINUOUS
 62
    64
 10
147.268292
 20
-65.005533
 11
147.268292
 21
-67.103015
  0
LINE
  8
ボルト／ビス
  6
CONTINUOUS
 62
    64
 10
147.268292
 20
-65.005533
 11
147.032618
 21
-64.76969
  0
LINE
  8
ボルト／ビス
  6
CONTINUOUS
 62
    64
 10
147.337325
 20
-63.1031
 11
147.337325
 21
-64.76969
  0
LINE
  8
ボルト／ビス
  6
CONTINUOUS
 62
    64
 10
145.768275
 20
-67.103015
 11
145.768275
 21
-67.93639
  0
LINE
  8
ボルト／ビス
  6
CONTINUOUS
 62
    64
 10
147.10155
 20
-74.769733
 11
147.337325
 21
-74.534058
  0
LINE
  8
ボルト／ビス
  6
CONTINUOUS
 62
    64
 10
147.337325
 20
-68.436482
 11
147.337325
 21
-74.534058
  0
LINE
  8
ボルト／ビス
  6
CONTINUOUS
 62
    64
 10
147.10155
 20
-77.902833
 11
145.807482
 21
-82.7325
  0
LINE
  8
ボルト／ビス
  6
CONTINUOUS
 62
    64
 10
147.10155
 20
-68.436482
 11
147.10155
 21
-77.902833
  0
LINE
  8
ボルト／ビス
  6
CONTINUOUS
 62
    64
 10
147.268292
 20
-65.005533
 11
147.503967
 21
-64.76969
  0
LINE
  8
ボルト／ビス
  6
CONTINUOUS
 62
    64
 10
149.581375
 20
-65.005533
 11
149.81705
 21
-64.76969
  0
LINE
  8
ボルト／ビス
  6
CONTINUOUS
 62
    64
 10
149.581375
 20
-65.005533
 11
149.581375
 21
-67.103015
  0
LINE
  8
ボルト／ビス
  6
CONTINUOUS
 62
    64
 10
149.581375
 20
-65.005533
 11
149.3457
 21
-64.76969
  0
LINE
  8
ボルト／ビス
  6
CONTINUOUS
 62
    64
 10
149.53255
 20
-63.1031
 11
149.53255
 21
-64.76969
  0
LINE
  8
ボルト／ビス
  6
CONTINUOUS
 62
    64
 10
151.101642
 20
-67.103015
 11
151.101642
 21
-67.93639
  0
LINE
  8
ボルト／ビス
  6
CONTINUOUS
 62
    64
 10
149.768232
 20
-74.769733
 11
149.53255
 21
-74.534058
  0
LINE
  8
ボルト／ビス
  6
CONTINUOUS
 62
    64
 10
149.53255
 20
-68.436482
 11
149.53255
 21
-74.534058
  0
LINE
  8
ボルト／ビス
  6
CONTINUOUS
 62
    64
 10
149.768232
 20
-77.902833
 11
151.062333
 21
-82.7325
  0
LINE
  8
ボルト／ビス
  6
CONTINUOUS
 62
    64
 10
149.768232
 20
-68.436482
 11
149.768232
 21
-77.902833
  0
LINE
  8
ボルト／ビス
  6
CONTINUOUS
 62
    64
 10
149.768232
 20
-63.338775
 11
149.53255
 21
-63.1031
  0
LINE
  8
ボルト／ビス
  6
CONTINUOUS
 62
    64
 10
149.768232
 20
-64.76969
 11
149.768232
 21
-63.338775
  0
LINE
  8
ボルト／ビス
  6
CONTINUOUS
 62
    64
 10
149.53255
 20
-63.1031
 11
147.337325
 21
-63.1031
  0
LINE
  8
ボルト／ビス
  6
CONTINUOUS
 62
    64
 10
147.337325
 20
-63.1031
 11
147.10155
 21
-63.338775
  0
LINE
  8
ボルト／ビス
  6
CONTINUOUS
 62
    64
 10
149.768232
 20
-63.338775
 11
147.10155
 21
-63.338775
  0
LINE
  8
ボルト／ビス
  6
CONTINUOUS
 62
    64
 10
147.10155
 20
-64.76969
 11
147.10155
 21
-63.338775
  0
LINE
  8
ボルト／ビス
  6
CONTINUOUS
 62
    64
 10
145.501618
 20
-65.005533
 11
145.737292
 21
-64.76969
  0
LINE
  8
ボルト／ビス
  6
CONTINUOUS
 62
    64
 10
145.501618
 20
-65.005533
 11
145.501618
 21
-67.103015
  0
LINE
  8
ボルト／ビス
  6
CONTINUOUS
 62
    64
 10
145.737292
 20
-64.76969
 11
151.132525
 21
-64.76969
  0
LINE
  8
ボルト／ビス
  6
CONTINUOUS
 62
    64
 10
151.3682
 20
-65.005533
 11
151.132525
 21
-64.76969
  0
LINE
  8
ボルト／ビス
  6
CONTINUOUS
 62
    64
 10
151.3682
 20
-65.005533
 11
151.3682
 21
-67.103015
  0
LINE
  8
ボルト／ビス
  6
CONTINUOUS
 62
    64
 10
145.501618
 20
-67.103015
 11
151.3682
 21
-67.103015
  0
LINE
  8
ボルト／ビス
  6
CONTINUOUS
 62
    64
 10
151.684967
 20
-67.93639
 11
151.684967
 21
-68.436482
  0
LINE
  8
ボルト／ビス
  6
CONTINUOUS
 62
    64
 10
151.684967
 20
-67.93639
 11
145.184908
 21
-67.93639
  0
LINE
  8
ボルト／ビス
  6
CONTINUOUS
 62
    64
 10
145.184908
 20
-67.93639
 11
145.184908
 21
-68.436482
  0
LINE
  8
ボルト／ビス
  6
CONTINUOUS
 62
    64
 10
151.684967
 20
-68.436482
 11
145.184908
 21
-68.436482
  0
LINE
  8
ボルト／ビス
  6
CONTINUOUS
 62
    64
 10
148.434908
 20
-78.122325
 11
149.76355
 21
-83.08055
  0
LINE
  8
ボルト／ビス
  6
CONTINUOUS
 62
    64
 10
151.062333
 20
-82.7325
 11
149.76355
 21
-83.08055
  0
LINE
  8
ボルト／ビス
  6
CONTINUOUS
 62
    64
 10
148.434908
 20
-78.122325
 11
147.106358
 21
-83.08055
  0
LINE
  8
ボルト／ビス
  6
CONTINUOUS
 62
    64
 10
145.807482
 20
-82.7325
 11
147.106358
 21
-83.08055
  0
LINE
  8
ボルト／ビス
  6
CONTINUOUS
 62
    64
 10
147.10155
 20
-83.769683
 11
147.53155
 21
-81.330983
  0
LINE
  8
ボルト／ビス
  6
CONTINUOUS
 62
    64
 10
149.768232
 20
-83.769683
 11
149.338268
 21
-81.330983
  0
LINE
  8
ボルト／ビス
  6
CONTINUOUS
 62
    64
 10
147.10155
 20
-83.769683
 11
149.768232
 21
-83.769683
  0
LINE
  8
ボルト／ビス
  6
CONTINUOUS
 62
    64
 10
147.53155
 20
-81.330983
 11
149.338268
 21
-81.330983
  0
ENDBLK
  0
BLOCK
  2
*GRP_0038
 70
    65
 10
0.0
 20
0.0
  0
LINE
  8
曲げ物
  6
CONTINUOUS
 10
184.418985
 20
-76.425085
 11
184.418935
 21
-96.425085
  0
LINE
  8
曲げ物
  6
DOT
 10
184.08566
 20
-76.425085
 11
184.08561
 21
-96.425085
  0
LINE
  8
曲げ物
  6
CONTINUOUS
 10
181.085645
 20
-76.425085
 11
181.08562
 21
-96.425085
  0
LINE
  8
曲げ物
  6
DOT
 10
181.418995
 20
-76.425085
 11
181.418945
 21
-96.425085
  0
LINE
  8
曲げ物
  6
CONTINUOUS
 10
184.418935
 20
-96.425085
 11
181.08562
 21
-96.425085
  0
LINE
  8
曲げ物
  6
CONTINUOUS
 10
184.418985
 20
-76.425085
 11
181.085645
 21
-76.425085
  0
ENDBLK
  0
BLOCK
  2
*GRP_0039
 70
    65
 10
0.0
 20
0.0
  0
POLYLINE
  8
寸法
  6
CONTINUOUS
 66
     1
  0
VERTEX
  8
寸法
 10
182.42007
 20
-85.156808
  0
VERTEX
  8
寸法
 10
177.665618
 20
-89.911262
  0
VERTEX
  8
寸法
 10
172.06157
 20
-89.911262
  0
SEQEND
  0
ENDBLK
  0
BLOCK
  2
*GRP_0040
 70
    65
 10
0.0
 20
0.0
  0
LINE
  8
曲げ物
  6
CONTINUOUS
 10
-155.640708
 20
-76.425085
 11
-155.640758
 21
-96.425085
  0
LINE
  8
曲げ物
  6
DOT
 10
-155.974032
 20
-76.425085
 11
-155.974082
 21
-96.425085
  0
LINE
  8
曲げ物
  6
CONTINUOUS
 10
-158.974047
 20
-76.425085
 11
-158.974072
 21
-96.425085
  0
LINE
  8
曲げ物
  6
DOT
 10
-158.640697
 20
-76.425085
 11
-158.640748
 21
-96.425085
  0
LINE
  8
曲げ物
  6
CONTINUOUS
 10
-155.640758
 20
-96.425085
 11
-158.974072
 21
-96.425085
  0
LINE
  8
曲げ物
  6
CONTINUOUS
 10
-155.640708
 20
-76.425085
 11
-158.974047
 21
-76.425085
  0
ENDBLK
  0
BLOCK
  2
*GRP_0041
 70
    65
 10
0.0
 20
0.0
  0
LINE
  8
ゴム等
  6
CONTINUOUS
 10
21.889118
 20
-35.838148
 11
21.389122
 21
-35.838148
  0
LINE
  8
ゴム等
  6
CONTINUOUS
 10
21.38912
 20
-37.67148
 11
21.389122
 21
-35.838148
  0
LINE
  8
ゴム等
  6
CONTINUOUS
 10
18.555785
 20
-38.004813
 11
21.055785
 21
-38.004813
  0
LINE
  8
ゴム等
  6
CONTINUOUS
 10
21.38912
 20
-37.67148
 11
21.055785
 21
-38.004813
  0
LINE
  8
ゴム等
  6
CONTINUOUS
 10
21.889118
 20
-35.838148
 11
21.88912
 21
-35.338145
  0
LINE
  8
ゴム等
  6
CONTINUOUS
 10
21.88912
 20
-35.338145
 11
18.555788
 21
-35.338148
  0
LINE
  8
ゴム等
  6
CONTINUOUS
 10
18.555785
 20
-38.004813
 11
18.555788
 21
-35.338148
  0
LINE
  8
ゴム等
  6
CONTINUOUS
 10
21.56237
 20
-35.338148
 11
21.88912
 21
-35.664895
  0
LINE
  8
ゴム等
  6
CONTINUOUS
 10
21.090968
 20
-35.338148
 11
21.590965
 21
-35.838148
  0
LINE
  8
ゴム等
  6
CONTINUOUS
 10
20.61956
 20
-35.338148
 11
21.38912
 21
-36.107708
  0
LINE
  8
ゴム等
  6
CONTINUOUS
 10
20.148157
 20
-35.338148
 11
21.389122
 21
-36.57911
  0
LINE
  8
ゴム等
  6
CONTINUOUS
 10
19.676757
 20
-35.338145
 11
21.38912
 21
-37.050512
  0
LINE
  8
ゴム等
  6
CONTINUOUS
 10
19.205348
 20
-35.338148
 11
21.38912
 21
-37.52192
  0
LINE
  8
ゴム等
  6
CONTINUOUS
 10
18.733945
 20
-35.338148
 11
21.2282
 21
-37.8324
  0
LINE
  8
ゴム等
  6
CONTINUOUS
 10
18.555785
 20
-35.631393
 11
20.929205
 21
-38.00481
  0
LINE
  8
ゴム等
  6
CONTINUOUS
 10
18.555785
 20
-36.102797
 11
20.4578
 21
-38.00481
  0
LINE
  8
ゴム等
  6
CONTINUOUS
 10
18.555785
 20
-36.574202
 11
19.986395
 21
-38.004813
  0
LINE
  8
ゴム等
  6
CONTINUOUS
 10
18.555785
 20
-37.04561
 11
19.51499
 21
-38.004815
  0
LINE
  8
ゴム等
  6
CONTINUOUS
 10
18.555785
 20
-37.51701
 11
19.043587
 21
-38.004815
  0
ENDBLK
  0
BLOCK
  2
*GRP_0042
 70
    65
 10
0.0
 20
0.0
  0
LINE
  8
ゴム等
  6
CONTINUOUS
 10
3.555792
 20
-35.838148
 11
4.055788
 21
-35.838148
  0
LINE
  8
ゴム等
  6
CONTINUOUS
 10
4.05579
 20
-37.67148
 11
4.055788
 21
-35.838148
  0
LINE
  8
ゴム等
  6
CONTINUOUS
 10
6.889125
 20
-38.004813
 11
4.389125
 21
-38.004813
  0
LINE
  8
ゴム等
  6
CONTINUOUS
 10
4.05579
 20
-37.67148
 11
4.389125
 21
-38.004813
  0
LINE
  8
ゴム等
  6
CONTINUOUS
 10
3.555792
 20
-35.838148
 11
3.55579
 21
-35.338145
  0
LINE
  8
ゴム等
  6
CONTINUOUS
 10
3.55579
 20
-35.338145
 11
6.889122
 21
-35.338148
  0
LINE
  8
ゴム等
  6
CONTINUOUS
 10
6.889125
 20
-38.004813
 11
6.889122
 21
-35.338148
  0
LINE
  8
ゴム等
  6
CONTINUOUS
 10
3.88254
 20
-35.338148
 11
3.55579
 21
-35.664895
  0
LINE
  8
ゴム等
  6
CONTINUOUS
 10
4.353943
 20
-35.338148
 11
3.853945
 21
-35.838148
  0
LINE
  8
ゴム等
  6
CONTINUOUS
 10
4.82535
 20
-35.338148
 11
4.05579
 21
-36.107708
  0
LINE
  8
ゴム等
  6
CONTINUOUS
 10
5.296753
 20
-35.338148
 11
4.055788
 21
-36.57911
  0
LINE
  8
ゴム等
  6
CONTINUOUS
 10
5.768152
 20
-35.338145
 11
4.05579
 21
-37.050512
  0
LINE
  8
ゴム等
  6
CONTINUOUS
 10
6.239562
 20
-35.338148
 11
4.05579
 21
-37.52192
  0
LINE
  8
ゴム等
  6
CONTINUOUS
 10
6.710965
 20
-35.338148
 11
4.21671
 21
-37.8324
  0
LINE
  8
ゴム等
  6
CONTINUOUS
 10
6.889125
 20
-35.631393
 11
4.515705
 21
-38.00481
  0
LINE
  8
ゴム等
  6
CONTINUOUS
 10
6.889125
 20
-36.102797
 11
4.98711
 21
-38.00481
  0
LINE
  8
ゴム等
  6
CONTINUOUS
 10
6.889125
 20
-36.574202
 11
5.458515
 21
-38.004813
  0
LINE
  8
ゴム等
  6
CONTINUOUS
 10
6.889125
 20
-37.04561
 11
5.92992
 21
-38.004815
  0
LINE
  8
ゴム等
  6
CONTINUOUS
 10
6.889125
 20
-37.51701
 11
6.401323
 21
-38.004815
  0
ENDBLK
  0
BLOCK
  2
*GRP_0043
 70
    65
 10
0.0
 20
0.0
  0
LINE
  8
ゴム等
  6
CONTINUOUS
 10
-26.972475
 20
-76.49817
 11
-27.47247
 21
-76.49817
  0
LINE
  8
ゴム等
  6
CONTINUOUS
 10
-27.472473
 20
-78.331502
 11
-27.47247
 21
-76.49817
  0
LINE
  8
ゴム等
  6
CONTINUOUS
 10
-30.305807
 20
-78.664835
 11
-27.805807
 21
-78.664835
  0
LINE
  8
ゴム等
  6
CONTINUOUS
 10
-27.472473
 20
-78.331502
 11
-27.805807
 21
-78.664835
  0
LINE
  8
ゴム等
  6
CONTINUOUS
 10
-26.972475
 20
-76.49817
 11
-26.972473
 21
-75.998167
  0
LINE
  8
ゴム等
  6
CONTINUOUS
 10
-26.972473
 20
-75.998167
 11
-30.305805
 21
-75.99817
  0
LINE
  8
ゴム等
  6
CONTINUOUS
 10
-30.305807
 20
-78.664835
 11
-30.305805
 21
-75.99817
  0
LINE
  8
ゴム等
  6
CONTINUOUS
 10
-27.299222
 20
-75.99817
 11
-26.972473
 21
-76.324917
  0
LINE
  8
ゴム等
  6
CONTINUOUS
 10
-27.770625
 20
-75.99817
 11
-27.270627
 21
-76.49817
  0
LINE
  8
ゴム等
  6
CONTINUOUS
 10
-28.242033
 20
-75.99817
 11
-27.472473
 21
-76.76773
  0
LINE
  8
ゴム等
  6
CONTINUOUS
 10
-28.713435
 20
-75.99817
 11
-27.47247
 21
-77.239132
  0
LINE
  8
ゴム等
  6
CONTINUOUS
 10
-29.184835
 20
-75.998167
 11
-27.472473
 21
-77.710535
  0
LINE
  8
ゴム等
  6
CONTINUOUS
 10
-29.656245
 20
-75.99817
 11
-27.472473
 21
-78.181942
  0
LINE
  8
ゴム等
  6
CONTINUOUS
 10
-30.127647
 20
-75.99817
 11
-27.633392
 21
-78.492422
  0
LINE
  8
ゴム等
  6
CONTINUOUS
 10
-30.305807
 20
-76.291415
 11
-27.932388
 21
-78.664833
  0
LINE
  8
ゴム等
  6
CONTINUOUS
 10
-30.305807
 20
-76.76282
 11
-28.403792
 21
-78.664833
  0
LINE
  8
ゴム等
  6
CONTINUOUS
 10
-30.305807
 20
-77.234225
 11
-28.875198
 21
-78.664835
  0
LINE
  8
ゴム等
  6
CONTINUOUS
 10
-30.305807
 20
-77.705632
 11
-29.346602
 21
-78.664837
  0
LINE
  8
ゴム等
  6
CONTINUOUS
 10
-30.305807
 20
-78.177033
 11
-29.818005
 21
-78.664837
  0
ENDBLK
  0
BLOCK
  2
*GRP_0044
 70
    65
 10
0.0
 20
0.0
  0
LINE
  8
ゴム等
  6
CONTINUOUS
 10
-45.3058
 20
-76.49817
 11
-44.805805
 21
-76.49817
  0
LINE
  8
ゴム等
  6
CONTINUOUS
 10
-44.805803
 20
-78.331502
 11
-44.805805
 21
-76.49817
  0
LINE
  8
ゴム等
  6
CONTINUOUS
 10
-41.972468
 20
-78.664835
 11
-44.472468
 21
-78.664835
  0
LINE
  8
ゴム等
  6
CONTINUOUS
 10
-44.805803
 20
-78.331502
 11
-44.472468
 21
-78.664835
  0
LINE
  8
ゴム等
  6
CONTINUOUS
 10
-45.3058
 20
-76.49817
 11
-45.305803
 21
-75.998167
  0
LINE
  8
ゴム等
  6
CONTINUOUS
 10
-45.305803
 20
-75.998167
 11
-41.97247
 21
-75.99817
  0
LINE
  8
ゴム等
  6
CONTINUOUS
 10
-41.972468
 20
-78.664835
 11
-41.97247
 21
-75.99817
  0
LINE
  8
ゴム等
  6
CONTINUOUS
 10
-44.979053
 20
-75.99817
 11
-45.305803
 21
-76.324917
  0
LINE
  8
ゴム等
  6
CONTINUOUS
 10
-44.50765
 20
-75.99817
 11
-45.007647
 21
-76.49817
  0
LINE
  8
ゴム等
  6
CONTINUOUS
 10
-44.036243
 20
-75.99817
 11
-44.805803
 21
-76.76773
  0
LINE
  8
ゴム等
  6
CONTINUOUS
 10
-43.56484
 20
-75.99817
 11
-44.805805
 21
-77.239132
  0
LINE
  8
ゴム等
  6
CONTINUOUS
 10
-43.09344
 20
-75.998167
 11
-44.805803
 21
-77.710535
  0
LINE
  8
ゴム等
  6
CONTINUOUS
 10
-42.62203
 20
-75.99817
 11
-44.805803
 21
-78.181942
  0
LINE
  8
ゴム等
  6
CONTINUOUS
 10
-42.150627
 20
-75.99817
 11
-44.644883
 21
-78.492422
  0
LINE
  8
ゴム等
  6
CONTINUOUS
 10
-41.972468
 20
-76.291415
 11
-44.345888
 21
-78.664833
  0
LINE
  8
ゴム等
  6
CONTINUOUS
 10
-41.972468
 20
-76.76282
 11
-43.874482
 21
-78.664833
  0
LINE
  8
ゴム等
  6
CONTINUOUS
 10
-41.972468
 20
-77.234225
 11
-43.403078
 21
-78.664835
  0
LINE
  8
ゴム等
  6
CONTINUOUS
 10
-41.972468
 20
-77.705632
 11
-42.931672
 21
-78.664837
  0
LINE
  8
ゴム等
  6
CONTINUOUS
 10
-41.972468
 20
-78.177033
 11
-42.46027
 21
-78.664837
  0
ENDBLK
  0
BLOCK
  2
*DIM_0045
 70
    65
 10
0.0
 20
0.0
  0
LINE
  8
寸法
  6
CONTINUOUS
 10
-45.305803
 20
-86.081725
 11
-26.972473
 21
-86.081725
  0
POINT
  8
寸法
 10
-45.305803
 20
-86.081725
  0
POINT
  8
寸法
 10
-26.972473
 20
-86.081725
  0
TEXT
  7
TextStyle03
  8
寸法
  6
CONTINUOUS
 10
-37.74375
 20
-85.725
  1
55
 40
3.0
 72
     5
 11
-34.55625
 21
-85.725
  0
ENDBLK
  0
BLOCK
  2
*GRP_0046
 70
    65
 10
0.0
 20
0.0
  0
INSERT
  2
*GRP_0047
  8
補助線
  6
DOT
 62
    64
 10
0.0
 20
0.0
  0
CIRCLE
  8
ボルト／ビス
  6
DOT
 62
    64
 10
-30.47247
 20
-76.998172
 40
1.166668
  0
LINE
  8
ボルト／ビス
  6
DOT
 62
    64
 10
-30.845802
 20
-76.811505
 11
-31.111575
 21
-76.811505
  0
LINE
  8
ボルト／ビス
  6
DOT
 62
    64
 10
-30.659137
 20
-76.62484
 11
-30.659137
 21
-76.359068
  0
ARC
  8
ボルト／ビス
  6
DOT
 62
    64
 10
-30.845807
 20
-76.624837
 40
0.186667
 50
270.0
 51
360.0
  0
LINE
  8
ボルト／ビス
  6
DOT
 62
    64
 10
-30.659137
 20
-76.359068
 11
-30.47247
 21
-76.359068
  0
LINE
  8
ボルト／ビス
  6
DOT
 62
    64
 10
-31.111575
 20
-76.811505
 11
-31.111575
 21
-76.998172
  0
LINE
  8
ボルト／ビス
  6
DOT
 62
    64
 10
-30.099137
 20
-76.811505
 11
-29.833365
 21
-76.811505
  0
LINE
  8
ボルト／ビス
  6
DOT
 62
    64
 10
-30.285803
 20
-76.62484
 11
-30.285803
 21
-76.359068
  0
ARC
  8
ボルト／ビス
  6
DOT
 62
    64
 10
-30.099141
 20
-76.624837
 40
0.186667
 50
180.0
 51
270.0
  0
LINE
  8
ボルト／ビス
  6
DOT
 62
    64
 10
-30.285803
 20
-76.359068
 11
-30.47247
 21
-76.359068
  0
LINE
  8
ボルト／ビス
  6
DOT
 62
    64
 10
-29.833365
 20
-76.811505
 11
-29.833365
 21
-76.998172
  0
LINE
  8
ボルト／ビス
  6
DOT
 62
    64
 10
-30.099137
 20
-77.18484
 11
-29.833365
 21
-77.18484
  0
LINE
  8
ボルト／ビス
  6
DOT
 62
    64
 10
-30.285803
 20
-77.371505
 11
-30.285803
 21
-77.637277
  0
ARC
  8
ボルト／ビス
  6
DOT
 62
    64
 10
-30.099141
 20
-77.371504
 40
0.186667
 50
90.0
 51
180.0
  0
LINE
  8
ボルト／ビス
  6
DOT
 62
    64
 10
-30.285803
 20
-77.637277
 11
-30.47247
 21
-77.637277
  0
LINE
  8
ボルト／ビス
  6
DOT
 62
    64
 10
-29.833365
 20
-77.18484
 11
-29.833365
 21
-76.998172
  0
LINE
  8
ボルト／ビス
  6
DOT
 62
    64
 10
-30.845802
 20
-77.18484
 11
-31.111575
 21
-77.18484
  0
LINE
  8
ボルト／ビス
  6
DOT
 62
    64
 10
-30.659137
 20
-77.371505
 11
-30.659137
 21
-77.637277
  0
ARC
  8
ボルト／ビス
  6
DOT
 62
    64
 10
-30.845807
 20
-77.371504
 40
0.186667
 50
0.0
 51
90.0
  0
LINE
  8
ボルト／ビス
  6
DOT
 62
    64
 10
-30.659137
 20
-77.637277
 11
-30.47247
 21
-77.637277
  0
LINE
  8
ボルト／ビス
  6
DOT
 62
    64
 10
-31.111575
 20
-77.18484
 11
-31.111575
 21
-76.998172
  0
ENDBLK
  0
BLOCK
  2
*GRP_0047
 70
    65
 10
0.0
 20
0.0
  0
LINE
  8
補助線
  6
DOT
 62
    64
 10
-30.47247
 20
-75.26484
 11
-30.47247
 21
-78.731505
  0
LINE
  8
補助線
  6
DOT
 62
    64
 10
-32.205803
 20
-76.998172
 11
-28.739138
 21
-76.998172
  0
ENDBLK
  0
BLOCK
  2
*GRP_0048
 70
    65
 10
0.0
 20
0.0
  0
INSERT
  2
*GRP_0049
  8
補助線
  6
DOT
 62
    64
 10
0.0
 20
0.0
  0
CIRCLE
  8
ボルト／ビス
  6
DOT
 62
    64
 10
-41.805805
 20
-76.998172
 40
1.166668
  0
LINE
  8
ボルト／ビス
  6
DOT
 62
    64
 10
-42.179137
 20
-76.811505
 11
-42.44491
 21
-76.811505
  0
LINE
  8
ボルト／ビス
  6
DOT
 62
    64
 10
-41.992472
 20
-76.62484
 11
-41.992472
 21
-76.359068
  0
ARC
  8
ボルト／ビス
  6
DOT
 62
    64
 10
-42.179141
 20
-76.624837
 40
0.186667
 50
270.0
 51
360.0
  0
LINE
  8
ボルト／ビス
  6
DOT
 62
    64
 10
-41.992472
 20
-76.359068
 11
-41.805805
 21
-76.359068
  0
LINE
  8
ボルト／ビス
  6
DOT
 62
    64
 10
-42.44491
 20
-76.811505
 11
-42.44491
 21
-76.998172
  0
LINE
  8
ボルト／ビス
  6
DOT
 62
    64
 10
-41.432473
 20
-76.811505
 11
-41.1667
 21
-76.811505
  0
LINE
  8
ボルト／ビス
  6
DOT
 62
    64
 10
-41.619138
 20
-76.62484
 11
-41.619138
 21
-76.359068
  0
ARC
  8
ボルト／ビス
  6
DOT
 62
    64
 10
-41.432475
 20
-76.624837
 40
0.186667
 50
180.0
 51
270.0
  0
LINE
  8
ボルト／ビス
  6
DOT
 62
    64
 10
-41.619138
 20
-76.359068
 11
-41.805805
 21
-76.359068
  0
LINE
  8
ボルト／ビス
  6
DOT
 62
    64
 10
-41.1667
 20
-76.811505
 11
-41.1667
 21
-76.998172
  0
LINE
  8
ボルト／ビス
  6
DOT
 62
    64
 10
-41.432473
 20
-77.18484
 11
-41.1667
 21
-77.18484
  0
LINE
  8
ボルト／ビス
  6
DOT
 62
    64
 10
-41.619138
 20
-77.371505
 11
-41.619138
 21
-77.637277
  0
ARC
  8
ボルト／ビス
  6
DOT
 62
    64
 10
-41.432475
 20
-77.371504
 40
0.186667
 50
90.0
 51
180.0
  0
LINE
  8
ボルト／ビス
  6
DOT
 62
    64
 10
-41.619138
 20
-77.637277
 11
-41.805805
 21
-77.637277
  0
LINE
  8
ボルト／ビス
  6
DOT
 62
    64
 10
-41.1667
 20
-77.18484
 11
-41.1667
 21
-76.998172
  0
LINE
  8
ボルト／ビス
  6
DOT
 62
    64
 10
-42.179137
 20
-77.18484
 11
-42.44491
 21
-77.18484
  0
LINE
  8
ボルト／ビス
  6
DOT
 62
    64
 10
-41.992472
 20
-77.371505
 11
-41.992472
 21
-77.637277
  0
ARC
  8
ボルト／ビス
  6
DOT
 62
    64
 10
-42.179141
 20
-77.371504
 40
0.186667
 50
0.0
 51
90.0
  0
LINE
  8
ボルト／ビス
  6
DOT
 62
    64
 10
-41.992472
 20
-77.637277
 11
-41.805805
 21
-77.637277
  0
LINE
  8
ボルト／ビス
  6
DOT
 62
    64
 10
-42.44491
 20
-77.18484
 11
-42.44491
 21
-76.998172
  0
ENDBLK
  0
BLOCK
  2
*GRP_0049
 70
    65
 10
0.0
 20
0.0
  0
LINE
  8
補助線
  6
DOT
 62
    64
 10
-41.805805
 20
-75.26484
 11
-41.805805
 21
-78.731505
  0
LINE
  8
補助線
  6
DOT
 62
    64
 10
-43.539138
 20
-76.998172
 11
-40.072473
 21
-76.998172
  0
ENDBLK
  0
BLOCK
  2
*GRP_0050
 70
    65
 10
0.0
 20
0.0
  0
INSERT
  2
*GRP_0052
  8
補助線
  6
DOT
 62
    64
 10
0.0
 20
0.0
  0
CIRCLE
  8
ボルト／ビス
  6
DOT
 62
    64
 10
18.389122
 20
-27.67148
 40
1.166668
  0
LINE
  8
ボルト／ビス
  6
DOT
 62
    64
 10
18.01579
 20
-27.484813
 11
17.750017
 21
-27.484813
  0
LINE
  8
ボルト／ビス
  6
DOT
 62
    64
 10
18.202455
 20
-27.298147
 11
18.202455
 21
-27.032375
  0
ARC
  8
ボルト／ビス
  6
DOT
 62
    64
 10
18.015785
 20
-27.298144
 40
0.186667
 50
270.0
 51
360.0
  0
LINE
  8
ボルト／ビス
  6
DOT
 62
    64
 10
18.202455
 20
-27.032375
 11
18.389122
 21
-27.032375
  0
LINE
  8
ボルト／ビス
  6
DOT
 62
    64
 10
17.750017
 20
-27.484813
 11
17.750017
 21
-27.67148
  0
LINE
  8
ボルト／ビス
  6
DOT
 62
    64
 10
18.762455
 20
-27.484813
 11
19.028227
 21
-27.484813
  0
LINE
  8
ボルト／ビス
  6
DOT
 62
    64
 10
18.57579
 20
-27.298147
 11
18.57579
 21
-27.032375
  0
ARC
  8
ボルト／ビス
  6
DOT
 62
    64
 10
18.762452
 20
-27.298144
 40
0.186667
 50
180.0
 51
270.0
  0
LINE
  8
ボルト／ビス
  6
DOT
 62
    64
 10
18.57579
 20
-27.032375
 11
18.389122
 21
-27.032375
  0
LINE
  8
ボルト／ビス
  6
DOT
 62
    64
 10
19.028227
 20
-27.484813
 11
19.028227
 21
-27.67148
  0
LINE
  8
ボルト／ビス
  6
DOT
 62
    64
 10
18.762455
 20
-27.858147
 11
19.028227
 21
-27.858147
  0
LINE
  8
ボルト／ビス
  6
DOT
 62
    64
 10
18.57579
 20
-28.044812
 11
18.57579
 21
-28.310585
  0
ARC
  8
ボルト／ビス
  6
DOT
 62
    64
 10
18.762452
 20
-28.044811
 40
0.186667
 50
90.0
 51
180.0
  0
LINE
  8
ボルト／ビス
  6
DOT
 62
    64
 10
18.57579
 20
-28.310585
 11
18.389122
 21
-28.310585
  0
LINE
  8
ボルト／ビス
  6
DOT
 62
    64
 10
19.028227
 20
-27.858147
 11
19.028227
 21
-27.67148
  0
LINE
  8
ボルト／ビス
  6
DOT
 62
    64
 10
18.01579
 20
-27.858147
 11
17.750017
 21
-27.858147
  0
LINE
  8
ボルト／ビス
  6
DOT
 62
    64
 10
18.202455
 20
-28.044812
 11
18.202455
 21
-28.310585
  0
ARC
  8
ボルト／ビス
  6
DOT
 62
    64
 10
18.015785
 20
-28.044811
 40
0.186667
 50
0.0
 51
90.0
  0
LINE
  8
ボルト／ビス
  6
DOT
 62
    64
 10
18.202455
 20
-28.310585
 11
18.389122
 21
-28.310585
  0
LINE
  8
ボルト／ビス
  6
DOT
 62
    64
 10
17.750017
 20
-27.858147
 11
17.750017
 21
-27.67148
  0
ENDBLK
  0
BLOCK
  2
*GRP_0051
 70
    65
 10
0.0
 20
0.0
  0
INSERT
  2
*GRP_0053
  8
補助線
  6
DOT
 62
    64
 10
0.0
 20
0.0
  0
CIRCLE
  8
ボルト／ビス
  6
DOT
 62
    64
 10
7.055788
 20
-27.67148
 40
1.166668
  0
LINE
  8
ボルト／ビス
  6
DOT
 62
    64
 10
6.682455
 20
-27.484813
 11
6.416683
 21
-27.484813
  0
LINE
  8
ボルト／ビス
  6
DOT
 62
    64
 10
6.86912
 20
-27.298147
 11
6.86912
 21
-27.032375
  0
ARC
  8
ボルト／ビス
  6
DOT
 62
    64
 10
6.682451
 20
-27.298144
 40
0.186667
 50
270.0
 51
360.0
  0
LINE
  8
ボルト／ビス
  6
DOT
 62
    64
 10
6.86912
 20
-27.032375
 11
7.055788
 21
-27.032375
  0
LINE
  8
ボルト／ビス
  6
DOT
 62
    64
 10
6.416683
 20
-27.484813
 11
6.416683
 21
-27.67148
  0
LINE
  8
ボルト／ビス
  6
DOT
 62
    64
 10
7.42912
 20
-27.484813
 11
7.694893
 21
-27.484813
  0
LINE
  8
ボルト／ビス
  6
DOT
 62
    64
 10
7.242455
 20
-27.298147
 11
7.242455
 21
-27.032375
  0
ARC
  8
ボルト／ビス
  6
DOT
 62
    64
 10
7.429118
 20
-27.298144
 40
0.186667
 50
180.0
 51
270.0
  0
LINE
  8
ボルト／ビス
  6
DOT
 62
    64
 10
7.242455
 20
-27.032375
 11
7.055788
 21
-27.032375
  0
LINE
  8
ボルト／ビス
  6
DOT
 62
    64
 10
7.694893
 20
-27.484813
 11
7.694893
 21
-27.67148
  0
LINE
  8
ボルト／ビス
  6
DOT
 62
    64
 10
7.42912
 20
-27.858147
 11
7.694893
 21
-27.858147
  0
LINE
  8
ボルト／ビス
  6
DOT
 62
    64
 10
7.242455
 20
-28.044812
 11
7.242455
 21
-28.310585
  0
ARC
  8
ボルト／ビス
  6
DOT
 62
    64
 10
7.429118
 20
-28.044811
 40
0.186667
 50
90.0
 51
180.0
  0
LINE
  8
ボルト／ビス
  6
DOT
 62
    64
 10
7.242455
 20
-28.310585
 11
7.055788
 21
-28.310585
  0
LINE
  8
ボルト／ビス
  6
DOT
 62
    64
 10
7.694893
 20
-27.858147
 11
7.694893
 21
-27.67148
  0
LINE
  8
ボルト／ビス
  6
DOT
 62
    64
 10
6.682455
 20
-27.858147
 11
6.416683
 21
-27.858147
  0
LINE
  8
ボルト／ビス
  6
DOT
 62
    64
 10
6.86912
 20
-28.044812
 11
6.86912
 21
-28.310585
  0
ARC
  8
ボルト／ビス
  6
DOT
 62
    64
 10
6.682451
 20
-28.044811
 40
0.186667
 50
0.0
 51
90.0
  0
LINE
  8
ボルト／ビス
  6
DOT
 62
    64
 10
6.86912
 20
-28.310585
 11
7.055788
 21
-28.310585
  0
LINE
  8
ボルト／ビス
  6
DOT
 62
    64
 10
6.416683
 20
-27.858147
 11
6.416683
 21
-27.67148
  0
ENDBLK
  0
BLOCK
  2
*GRP_0052
 70
    65
 10
0.0
 20
0.0
  0
LINE
  8
補助線
  6
DOT
 62
    64
 10
18.389122
 20
-25.938148
 11
18.389122
 21
-29.404813
  0
LINE
  8
補助線
  6
DOT
 62
    64
 10
16.65579
 20
-27.67148
 11
20.122455
 21
-27.67148
  0
ENDBLK
  0
BLOCK
  2
*GRP_0053
 70
    65
 10
0.0
 20
0.0
  0
LINE
  8
補助線
  6
DOT
 62
    64
 10
7.055788
 20
-25.938148
 11
7.055788
 21
-29.404813
  0
LINE
  8
補助線
  6
DOT
 62
    64
 10
5.322455
 20
-27.67148
 11
8.78912
 21
-27.67148
  0
ENDBLK
  0
BLOCK
  2
*GRP_0054
 70
    65
 10
0.0
 20
0.0
  0
LINE
  8
ボルト／ビス
  6
DOT
 62
    64
 10
-97.074028
 20
-35.171483
 11
-97.423415
 21
-35.20205
  0
ARC
  8
ボルト／ビス
  6
DOT
 62
    64
 10
-97.374027
 20
-35.766561
 40
0.566667
 50
94.999989
 51
180.0
  0
LINE
  8
ボルト／ビス
  6
DOT
 62
    64
 10
-97.940695
 20
-35.76656
 11
-97.940695
 21
-36.33815
  0
LINE
  8
ボルト／ビス
  6
DOT
 62
    64
 10
-97.074028
 20
-37.504817
 11
-97.423415
 21
-37.47425
  0
ARC
  8
ボルト／ビス
  6
DOT
 62
    64
 10
-97.374027
 20
-36.909739
 40
0.566667
 50
180.0
 51
265.000011
  0
LINE
  8
ボルト／ビス
  6
DOT
 62
    64
 10
-97.940695
 20
-36.90974
 11
-97.940695
 21
-36.33815
  0
LINE
  8
ボルト／ビス
  6
DOT
 62
    64
 10
-97.812392
 20
-35.53927
 11
-97.893113
 21
-35.53927
  0
LINE
  8
ボルト／ビス
  6
DOT
 62
    64
 10
-97.595698
 20
-36.104817
 11
-97.595698
 21
-36.33815
  0
LINE
  8
ボルト／ビス
  6
DOT
 62
    64
 10
-97.812392
 20
-35.971483
 11
-97.812392
 21
-35.53927
  0
LINE
  8
ボルト／ビス
  6
DOT
 62
    64
 10
-97.595698
 20
-36.104817
 11
-97.67906
 21
-36.104817
  0
ARC
  8
ボルト／ビス
  6
DOT
 62
    64
 10
-97.679059
 20
-35.971484
 40
0.133333
 50
180.0
 51
270.0
  0
LINE
  8
ボルト／ビス
  6
DOT
 62
    64
 10
-97.812392
 20
-37.13703
 11
-97.893113
 21
-37.13703
  0
LINE
  8
ボルト／ビス
  6
DOT
 62
    64
 10
-97.595698
 20
-36.571483
 11
-97.595698
 21
-36.33815
  0
LINE
  8
ボルト／ビス
  6
DOT
 62
    64
 10
-97.812392
 20
-36.704817
 11
-97.812392
 21
-37.13703
  0
LINE
  8
ボルト／ビス
  6
DOT
 62
    64
 10
-97.595698
 20
-36.571483
 11
-97.67906
 21
-36.571483
  0
ARC
  8
ボルト／ビス
  6
DOT
 62
    64
 10
-97.679059
 20
-36.704817
 40
0.133333
 50
90.0
 51
180.0
  0
LINE
  8
ボルト／ビス
  6
DOT
 62
    64
 10
-97.074028
 20
-35.171483
 11
-97.074028
 21
-37.504817
  0
LINE
  8
ボルト／ビス
  6
DOT
 62
    64
 10
-94.574028
 20
-35.671483
 11
-94.40736
 21
-35.83815
  0
LINE
  8
ボルト／ビス
  6
DOT
 62
    64
 10
-94.574028
 20
-37.004817
 11
-94.40736
 21
-36.83815
  0
LINE
  8
ボルト／ビス
  6
DOT
 62
    64
 10
-97.074028
 20
-35.83815
 11
-94.40736
 21
-35.83815
  0
LINE
  8
ボルト／ビス
  6
DOT
 62
    64
 10
-97.074028
 20
-35.671483
 11
-94.574028
 21
-35.671483
  0
LINE
  8
ボルト／ビス
  6
DOT
 62
    64
 10
-97.074028
 20
-36.83815
 11
-94.40736
 21
-36.83815
  0
LINE
  8
ボルト／ビス
  6
DOT
 62
    64
 10
-97.074028
 20
-37.004817
 11
-94.574028
 21
-37.004817
  0
LINE
  8
ボルト／ビス
  6
DOT
 62
    64
 10
-94.574028
 20
-35.671483
 11
-94.574028
 21
-37.004817
  0
LINE
  8
ボルト／ビス
  6
DOT
 62
    64
 10
-94.40736
 20
-35.83815
 11
-94.40736
 21
-36.83815
  0
LINE
  8
ボルト／ビス
  6
DOT
 62
    64
 10
-98.597822
 20
-36.33815
 11
-93.657195
 21
-36.33815
  0
ENDBLK
  0
BLOCK
  2
*GRP_0055
 70
    65
 10
0.0
 20
0.0
  0
LINE
  8
ボルト／ビス
  6
DOT
 62
    64
 10
122.518943
 20
-35.171483
 11
122.86833
 21
-35.20205
  0
ARC
  8
ボルト／ビス
  6
DOT
 62
    64
 10
122.818941
 20
-35.766561
 40
0.566667
 50
0.0
 51
85.000011
  0
LINE
  8
ボルト／ビス
  6
DOT
 62
    64
 10
123.38561
 20
-35.76656
 11
123.38561
 21
-36.33815
  0
LINE
  8
ボルト／ビス
  6
DOT
 62
    64
 10
122.518943
 20
-37.504817
 11
122.86833
 21
-37.47425
  0
ARC
  8
ボルト／ビス
  6
DOT
 62
    64
 10
122.818941
 20
-36.909739
 40
0.566667
 50
274.999989
 51
360.0
  0
LINE
  8
ボルト／ビス
  6
DOT
 62
    64
 10
123.38561
 20
-36.90974
 11
123.38561
 21
-36.33815
  0
LINE
  8
ボルト／ビス
  6
DOT
 62
    64
 10
123.257308
 20
-35.53927
 11
123.338027
 21
-35.53927
  0
LINE
  8
ボルト／ビス
  6
DOT
 62
    64
 10
123.040612
 20
-36.104817
 11
123.040612
 21
-36.33815
  0
LINE
  8
ボルト／ビス
  6
DOT
 62
    64
 10
123.257308
 20
-35.971483
 11
123.257308
 21
-35.53927
  0
LINE
  8
ボルト／ビス
  6
DOT
 62
    64
 10
123.040612
 20
-36.104817
 11
123.123975
 21
-36.104817
  0
ARC
  8
ボルト／ビス
  6
DOT
 62
    64
 10
123.123973
 20
-35.971484
 40
0.133333
 50
270.0
 51
360.0
  0
LINE
  8
ボルト／ビス
  6
DOT
 62
    64
 10
123.257308
 20
-37.13703
 11
123.338027
 21
-37.13703
  0
LINE
  8
ボルト／ビス
  6
DOT
 62
    64
 10
123.040612
 20
-36.571483
 11
123.040612
 21
-36.33815
  0
LINE
  8
ボルト／ビス
  6
DOT
 62
    64
 10
123.257308
 20
-36.704817
 11
123.257308
 21
-37.13703
  0
LINE
  8
ボルト／ビス
  6
DOT
 62
    64
 10
123.040612
 20
-36.571483
 11
123.123975
 21
-36.571483
  0
ARC
  8
ボルト／ビス
  6
DOT
 62
    64
 10
123.123973
 20
-36.704817
 40
0.133333
 50
0.0
 51
90.0
  0
LINE
  8
ボルト／ビス
  6
DOT
 62
    64
 10
122.518943
 20
-35.171483
 11
122.518943
 21
-37.504817
  0
LINE
  8
ボルト／ビス
  6
DOT
 62
    64
 10
120.018943
 20
-35.671483
 11
119.852275
 21
-35.83815
  0
LINE
  8
ボルト／ビス
  6
DOT
 62
    64
 10
120.018943
 20
-37.004817
 11
119.852275
 21
-36.83815
  0
LINE
  8
ボルト／ビス
  6
DOT
 62
    64
 10
122.518943
 20
-35.83815
 11
119.852275
 21
-35.83815
  0
LINE
  8
ボルト／ビス
  6
DOT
 62
    64
 10
122.518943
 20
-35.671483
 11
120.018943
 21
-35.671483
  0
LINE
  8
ボルト／ビス
  6
DOT
 62
    64
 10
122.518943
 20
-36.83815
 11
119.852275
 21
-36.83815
  0
LINE
  8
ボルト／ビス
  6
DOT
 62
    64
 10
122.518943
 20
-37.004817
 11
120.018943
 21
-37.004817
  0
LINE
  8
ボルト／ビス
  6
DOT
 62
    64
 10
120.018943
 20
-35.671483
 11
120.018943
 21
-37.004817
  0
LINE
  8
ボルト／ビス
  6
DOT
 62
    64
 10
119.852275
 20
-35.83815
 11
119.852275
 21
-36.83815
  0
LINE
  8
ボルト／ビス
  6
DOT
 62
    64
 10
124.042737
 20
-36.33815
 11
119.10211
 21
-36.33815
  0
ENDBLK
  0
BLOCK
  2
*GRP_0056
 70
    65
 10
0.0
 20
0.0
  0
LINE
  8
ボルト／ビス
  6
DOT
 62
    64
 10
16.555788
 20
-31.338148
 11
16.905175
 21
-31.368715
  0
ARC
  8
ボルト／ビス
  6
DOT
 62
    64
 10
16.855786
 20
-31.933224
 40
0.566667
 50
0.0
 51
85.000011
  0
LINE
  8
ボルト／ビス
  6
DOT
 62
    64
 10
17.422452
 20
-31.933225
 11
17.422452
 21
-32.504815
  0
LINE
  8
ボルト／ビス
  6
DOT
 62
    64
 10
16.555788
 20
-33.671483
 11
16.905175
 21
-33.640915
  0
ARC
  8
ボルト／ビス
  6
DOT
 62
    64
 10
16.855786
 20
-33.076402
 40
0.566667
 50
274.999989
 51
360.0
  0
LINE
  8
ボルト／ビス
  6
DOT
 62
    64
 10
17.422452
 20
-33.076405
 11
17.422452
 21
-32.504815
  0
LINE
  8
ボルト／ビス
  6
DOT
 62
    64
 10
17.294153
 20
-31.705935
 11
17.374872
 21
-31.705935
  0
LINE
  8
ボルト／ビス
  6
DOT
 62
    64
 10
17.077457
 20
-32.271483
 11
17.077457
 21
-32.504815
  0
LINE
  8
ボルト／ビス
  6
DOT
 62
    64
 10
17.294153
 20
-32.138148
 11
17.294153
 21
-31.705935
  0
LINE
  8
ボルト／ビス
  6
DOT
 62
    64
 10
17.077457
 20
-32.271483
 11
17.160817
 21
-32.271483
  0
ARC
  8
ボルト／ビス
  6
DOT
 62
    64
 10
17.160818
 20
-32.138147
 40
0.133333
 50
270.0
 51
360.0
  0
LINE
  8
ボルト／ビス
  6
DOT
 62
    64
 10
17.294153
 20
-33.303695
 11
17.374872
 21
-33.303695
  0
LINE
  8
ボルト／ビス
  6
DOT
 62
    64
 10
17.077457
 20
-32.738148
 11
17.077457
 21
-32.504815
  0
LINE
  8
ボルト／ビス
  6
DOT
 62
    64
 10
17.294153
 20
-32.871482
 11
17.294153
 21
-33.303695
  0
LINE
  8
ボルト／ビス
  6
DOT
 62
    64
 10
17.077457
 20
-32.738148
 11
17.160817
 21
-32.738148
  0
ARC
  8
ボルト／ビス
  6
DOT
 62
    64
 10
17.160818
 20
-32.87148
 40
0.133333
 50
0.0
 51
90.0
  0
LINE
  8
ボルト／ビス
  6
DOT
 62
    64
 10
16.555788
 20
-31.338148
 11
16.555788
 21
-33.671483
  0
LINE
  8
ボルト／ビス
  6
DOT
 62
    64
 10
18.079582
 20
-32.504815
 11
13.138955
 21
-32.504815
  0
LINE
  8
ボルト／ビス
  6
DOT
 62
    64
 10
14.722452
 20
-31.838148
 11
14.555788
 21
-32.004815
  0
LINE
  8
ボルト／ビス
  6
DOT
 62
    64
 10
14.722452
 20
-33.171483
 11
14.555788
 21
-33.004815
  0
LINE
  8
ボルト／ビス
  6
DOT
 62
    64
 10
14.722452
 20
-31.838148
 11
14.722452
 21
-33.171483
  0
LINE
  8
ボルト／ビス
  6
DOT
 62
    64
 10
14.555788
 20
-32.004815
 11
14.555788
 21
-33.004815
  0
LINE
  8
ボルト／ビス
  6
DOT
 62
    64
 10
16.555788
 20
-32.004815
 11
14.555788
 21
-32.004815
  0
LINE
  8
ボルト／ビス
  6
DOT
 62
    64
 10
16.555788
 20
-33.004815
 11
14.555788
 21
-33.004815
  0
LINE
  8
ボルト／ビス
  6
DOT
 62
    64
 10
16.555788
 20
-33.171483
 11
14.722452
 21
-33.171483
  0
LINE
  8
ボルト／ビス
  6
DOT
 62
    64
 10
16.555788
 20
-31.838148
 11
14.722452
 21
-31.838148
  0
ENDBLK
  0
BLOCK
  2
*GRP_0057
 70
    65
 10
0.0
 20
0.0
  0
LINE
  8
ボルト／ビス
  6
DOT
 62
    64
 10
8.889122
 20
-31.338148
 11
8.539735
 21
-31.368715
  0
ARC
  8
ボルト／ビス
  6
DOT
 62
    64
 10
8.589124
 20
-31.933224
 40
0.566667
 50
94.999989
 51
180.0
  0
LINE
  8
ボルト／ビス
  6
DOT
 62
    64
 10
8.022458
 20
-31.933225
 11
8.022458
 21
-32.504815
  0
LINE
  8
ボルト／ビス
  6
DOT
 62
    64
 10
8.889122
 20
-33.671483
 11
8.539735
 21
-33.640915
  0
ARC
  8
ボルト／ビス
  6
DOT
 62
    64
 10
8.589124
 20
-33.076402
 40
0.566667
 50
180.0
 51
265.000011
  0
LINE
  8
ボルト／ビス
  6
DOT
 62
    64
 10
8.022458
 20
-33.076405
 11
8.022458
 21
-32.504815
  0
LINE
  8
ボルト／ビス
  6
DOT
 62
    64
 10
8.150757
 20
-31.705935
 11
8.070038
 21
-31.705935
  0
LINE
  8
ボルト／ビス
  6
DOT
 62
    64
 10
8.367453
 20
-32.271483
 11
8.367453
 21
-32.504815
  0
LINE
  8
ボルト／ビス
  6
DOT
 62
    64
 10
8.150757
 20
-32.138148
 11
8.150757
 21
-31.705935
  0
LINE
  8
ボルト／ビス
  6
DOT
 62
    64
 10
8.367453
 20
-32.271483
 11
8.284093
 21
-32.271483
  0
ARC
  8
ボルト／ビス
  6
DOT
 62
    64
 10
8.284092
 20
-32.138147
 40
0.133333
 50
180.0
 51
270.0
  0
LINE
  8
ボルト／ビス
  6
DOT
 62
    64
 10
8.150757
 20
-33.303695
 11
8.070038
 21
-33.303695
  0
LINE
  8
ボルト／ビス
  6
DOT
 62
    64
 10
8.367453
 20
-32.738148
 11
8.367453
 21
-32.504815
  0
LINE
  8
ボルト／ビス
  6
DOT
 62
    64
 10
8.150757
 20
-32.871482
 11
8.150757
 21
-33.303695
  0
LINE
  8
ボルト／ビス
  6
DOT
 62
    64
 10
8.367453
 20
-32.738148
 11
8.284093
 21
-32.738148
  0
ARC
  8
ボルト／ビス
  6
DOT
 62
    64
 10
8.284092
 20
-32.87148
 40
0.133333
 50
90.0
 51
180.0
  0
LINE
  8
ボルト／ビス
  6
DOT
 62
    64
 10
8.889122
 20
-31.338148
 11
8.889122
 21
-33.671483
  0
LINE
  8
ボルト／ビス
  6
DOT
 62
    64
 10
7.365328
 20
-32.504815
 11
12.305955
 21
-32.504815
  0
LINE
  8
ボルト／ビス
  6
DOT
 62
    64
 10
10.722458
 20
-31.838148
 11
10.889122
 21
-32.004815
  0
LINE
  8
ボルト／ビス
  6
DOT
 62
    64
 10
10.722458
 20
-33.171483
 11
10.889122
 21
-33.004815
  0
LINE
  8
ボルト／ビス
  6
DOT
 62
    64
 10
10.722458
 20
-31.838148
 11
10.722458
 21
-33.171483
  0
LINE
  8
ボルト／ビス
  6
DOT
 62
    64
 10
10.889122
 20
-32.004815
 11
10.889122
 21
-33.004815
  0
LINE
  8
ボルト／ビス
  6
DOT
 62
    64
 10
8.889122
 20
-32.004815
 11
10.889122
 21
-32.004815
  0
LINE
  8
ボルト／ビス
  6
DOT
 62
    64
 10
8.889122
 20
-33.004815
 11
10.889122
 21
-33.004815
  0
LINE
  8
ボルト／ビス
  6
DOT
 62
    64
 10
8.889122
 20
-33.171483
 11
10.722458
 21
-33.171483
  0
LINE
  8
ボルト／ビス
  6
DOT
 62
    64
 10
8.889122
 20
-31.838148
 11
10.722458
 21
-31.838148
  0
ENDBLK
  0
BLOCK
  2
*GRP_0058
 70
    65
 10
0.0
 20
0.0
  0
LINE
  8
型材断面
  6
CONTINUOUS
 10
21.889118
 20
-35.838148
 11
21.389118
 21
-35.838148
  0
ARC
  8
型材断面
  6
CONTINUOUS
 10
21.389116
 20
-38.004815
 40
0.5
 50
-90.0
 51
0.000018
  0
LINE
  8
型材断面
  6
CONTINUOUS
 10
21.889118
 20
-35.838148
 11
21.88912
 21
-38.504813
  0
LINE
  8
型材断面
  6
CONTINUOUS
 10
21.38912
 20
-38.004813
 11
16.555788
 21
-38.004813
  0
ARC
  8
型材断面
  6
CONTINUOUS
 10
16.555785
 20
-38.004813
 40
0.5
 50
180.0
 51
270.0
  0
LINE
  8
型材断面
  6
CONTINUOUS
 62
    47
 10
21.88912
 20
-38.504813
 11
16.055788
 21
-38.504813
  0
LINE
  8
型材断面
  6
CONTINUOUS
 10
16.055788
 20
-30.838148
 11
16.555788
 21
-30.838148
  0
LINE
  8
型材断面
  6
CONTINUOUS
 10
16.555788
 20
-38.004813
 11
16.555788
 21
-30.838148
  0
ENDBLK
  0
BLOCK
  2
*GRP_0059
 70
    65
 10
0.0
 20
0.0
  0
LINE
  8
型材断面
  6
CONTINUOUS
 10
3.555792
 20
-35.838148
 11
4.055792
 21
-35.838148
  0
ARC
  8
型材断面
  6
CONTINUOUS
 10
4.055794
 20
-38.004815
 40
0.5
 50
179.999982
 51
270.0
  0
LINE
  8
型材断面
  6
CONTINUOUS
 10
3.555792
 20
-35.838148
 11
3.55579
 21
-38.504813
  0
LINE
  8
型材断面
  6
CONTINUOUS
 10
4.05579
 20
-38.004813
 11
8.889122
 21
-38.004813
  0
ARC
  8
型材断面
  6
CONTINUOUS
 10
8.889125
 20
-38.004813
 40
0.5
 50
-90.0
 51
0.0
  0
LINE
  8
型材断面
  6
CONTINUOUS
 62
    47
 10
3.55579
 20
-38.504813
 11
9.389122
 21
-38.504813
  0
LINE
  8
型材断面
  6
CONTINUOUS
 10
8.889122
 20
-38.004813
 11
8.889122
 21
-30.838148
  0
LINE
  8
型材断面
  6
CONTINUOUS
 10
9.389122
 20
-30.838148
 11
8.889122
 21
-30.838148
  0
ENDBLK
  0
BLOCK
  2
*GRP_0060
 70
    65
 10
0.0
 20
0.0
  0
LINE
  8
型材断面
  6
CONTINUOUS
 10
-26.972475
 20
-76.49817
 11
-27.472475
 21
-76.49817
  0
ARC
  8
型材断面
  6
CONTINUOUS
 10
-27.472476
 20
-78.664835
 40
0.5
 50
-90.0
 51
0.000018
  0
LINE
  8
型材断面
  6
CONTINUOUS
 10
-26.972475
 20
-76.49817
 11
-26.972473
 21
-79.164835
  0
LINE
  8
型材断面
  6
CONTINUOUS
 10
-27.472473
 20
-78.664835
 11
-32.305805
 21
-78.664835
  0
ARC
  8
型材断面
  6
CONTINUOUS
 10
-32.305807
 20
-78.664834
 40
0.5
 50
180.0
 51
270.0
  0
LINE
  8
型材断面
  6
CONTINUOUS
 62
    47
 10
-26.972473
 20
-79.164835
 11
-32.805805
 21
-79.164835
  0
LINE
  8
型材断面
  6
CONTINUOUS
 10
-32.805805
 20
-71.49817
 11
-32.305805
 21
-71.49817
  0
LINE
  8
型材断面
  6
CONTINUOUS
 10
-32.305805
 20
-78.664835
 11
-32.305805
 21
-71.49817
  0
LINE
  8
型材断面
  6
CONTINUOUS
 10
-32.805805
 20
-79.164835
 11
-32.805805
 21
-71.49817
  0
ENDBLK
  0
BLOCK
  2
*GRP_0061
 70
    65
 10
0.0
 20
0.0
  0
LINE
  8
型材断面
  6
CONTINUOUS
 10
-45.305803
 20
-76.49817
 11
-44.805803
 21
-76.49817
  0
ARC
  8
型材断面
  6
CONTINUOUS
 10
-44.805801
 20
-78.664835
 40
0.5
 50
179.999982
 51
270.0
  0
LINE
  8
型材断面
  6
CONTINUOUS
 10
-45.305803
 20
-76.49817
 11
-45.305805
 21
-79.164835
  0
LINE
  8
型材断面
  6
CONTINUOUS
 10
-44.805805
 20
-78.664835
 11
-39.972473
 21
-78.664835
  0
ARC
  8
型材断面
  6
CONTINUOUS
 10
-39.972469
 20
-78.664834
 40
0.5
 50
-90.0
 51
0.0
  0
LINE
  8
型材断面
  6
CONTINUOUS
 62
    47
 10
-45.305805
 20
-79.164835
 11
-39.472473
 21
-79.164835
  0
LINE
  8
型材断面
  6
CONTINUOUS
 10
-39.472473
 20
-71.49817
 11
-39.972473
 21
-71.49817
  0
LINE
  8
型材断面
  6
CONTINUOUS
 10
-39.972473
 20
-78.664835
 11
-39.972473
 21
-71.49817
  0
LINE
  8
型材断面
  6
CONTINUOUS
 10
-39.472473
 20
-79.164835
 11
-39.472473
 21
-71.49817
  0
ENDBLK
  0
BLOCK
  2
*GRP_0062
 70
    65
 10
0.0
 20
0.0
  0
LINE
  8
ボルト／ビス
  6
DOT
 62
    64
 10
-32.305805
 20
-71.99817
 11
-31.956418
 21
-72.028737
  0
ARC
  8
ボルト／ビス
  6
DOT
 62
    64
 10
-32.005806
 20
-72.593247
 40
0.566667
 50
0.0
 51
85.000011
  0
LINE
  8
ボルト／ビス
  6
DOT
 62
    64
 10
-31.43914
 20
-72.593247
 11
-31.43914
 21
-73.164837
  0
LINE
  8
ボルト／ビス
  6
DOT
 62
    64
 10
-32.305805
 20
-74.331505
 11
-31.956418
 21
-74.300937
  0
ARC
  8
ボルト／ビス
  6
DOT
 62
    64
 10
-32.005806
 20
-73.736425
 40
0.566667
 50
274.999989
 51
360.0
  0
LINE
  8
ボルト／ビス
  6
DOT
 62
    64
 10
-31.43914
 20
-73.736427
 11
-31.43914
 21
-73.164837
  0
LINE
  8
ボルト／ビス
  6
DOT
 62
    64
 10
-31.56744
 20
-72.365957
 11
-31.48672
 21
-72.365957
  0
LINE
  8
ボルト／ビス
  6
DOT
 62
    64
 10
-31.784135
 20
-72.931505
 11
-31.784135
 21
-73.164837
  0
LINE
  8
ボルト／ビス
  6
DOT
 62
    64
 10
-31.56744
 20
-72.79817
 11
-31.56744
 21
-72.365957
  0
LINE
  8
ボルト／ビス
  6
DOT
 62
    64
 10
-31.784135
 20
-72.931505
 11
-31.700775
 21
-72.931505
  0
ARC
  8
ボルト／ビス
  6
DOT
 62
    64
 10
-31.700775
 20
-72.798169
 40
0.133333
 50
270.0
 51
360.0
  0
LINE
  8
ボルト／ビス
  6
DOT
 62
    64
 10
-31.56744
 20
-73.963717
 11
-31.48672
 21
-73.963717
  0
LINE
  8
ボルト／ビス
  6
DOT
 62
    64
 10
-31.784135
 20
-73.39817
 11
-31.784135
 21
-73.164837
  0
LINE
  8
ボルト／ビス
  6
DOT
 62
    64
 10
-31.56744
 20
-73.531505
 11
-31.56744
 21
-73.963717
  0
LINE
  8
ボルト／ビス
  6
DOT
 62
    64
 10
-31.784135
 20
-73.39817
 11
-31.700775
 21
-73.39817
  0
ARC
  8
ボルト／ビス
  6
DOT
 62
    64
 10
-31.700775
 20
-73.531503
 40
0.133333
 50
0.0
 51
90.0
  0
LINE
  8
ボルト／ビス
  6
DOT
 62
    64
 10
-32.305805
 20
-71.99817
 11
-32.305805
 21
-74.331505
  0
LINE
  8
ボルト／ビス
  6
DOT
 62
    64
 10
-30.78201
 20
-73.164837
 11
-35.722638
 21
-73.164837
  0
LINE
  8
ボルト／ビス
  6
DOT
 62
    64
 10
-34.13914
 20
-72.49817
 11
-34.305805
 21
-72.664837
  0
LINE
  8
ボルト／ビス
  6
DOT
 62
    64
 10
-34.13914
 20
-73.831505
 11
-34.305805
 21
-73.664837
  0
LINE
  8
ボルト／ビス
  6
DOT
 62
    64
 10
-34.13914
 20
-72.49817
 11
-34.13914
 21
-73.831505
  0
LINE
  8
ボルト／ビス
  6
DOT
 62
    64
 10
-34.305805
 20
-72.664837
 11
-34.305805
 21
-73.664837
  0
LINE
  8
ボルト／ビス
  6
DOT
 62
    64
 10
-32.305805
 20
-72.664837
 11
-34.305805
 21
-72.664837
  0
LINE
  8
ボルト／ビス
  6
DOT
 62
    64
 10
-32.305805
 20
-73.664837
 11
-34.305805
 21
-73.664837
  0
LINE
  8
ボルト／ビス
  6
DOT
 62
    64
 10
-32.305805
 20
-73.831505
 11
-34.13914
 21
-73.831505
  0
LINE
  8
ボルト／ビス
  6
DOT
 62
    64
 10
-32.305805
 20
-72.49817
 11
-34.13914
 21
-72.49817
  0
ENDBLK
  0
BLOCK
  2
*GRP_0063
 70
    65
 10
0.0
 20
0.0
  0
LINE
  8
ボルト／ビス
  6
DOT
 62
    64
 10
-39.97247
 20
-71.99817
 11
-40.321857
 21
-72.028737
  0
ARC
  8
ボルト／ビス
  6
DOT
 62
    64
 10
-40.272469
 20
-72.593247
 40
0.566667
 50
94.999989
 51
180.0
  0
LINE
  8
ボルト／ビス
  6
DOT
 62
    64
 10
-40.839135
 20
-72.593247
 11
-40.839135
 21
-73.164837
  0
LINE
  8
ボルト／ビス
  6
DOT
 62
    64
 10
-39.97247
 20
-74.331505
 11
-40.321857
 21
-74.300937
  0
ARC
  8
ボルト／ビス
  6
DOT
 62
    64
 10
-40.272469
 20
-73.736425
 40
0.566667
 50
180.0
 51
265.000011
  0
LINE
  8
ボルト／ビス
  6
DOT
 62
    64
 10
-40.839135
 20
-73.736427
 11
-40.839135
 21
-73.164837
  0
LINE
  8
ボルト／ビス
  6
DOT
 62
    64
 10
-40.710835
 20
-72.365957
 11
-40.791555
 21
-72.365957
  0
LINE
  8
ボルト／ビス
  6
DOT
 62
    64
 10
-40.49414
 20
-72.931505
 11
-40.49414
 21
-73.164837
  0
LINE
  8
ボルト／ビス
  6
DOT
 62
    64
 10
-40.710835
 20
-72.79817
 11
-40.710835
 21
-72.365957
  0
LINE
  8
ボルト／ビス
  6
DOT
 62
    64
 10
-40.49414
 20
-72.931505
 11
-40.5775
 21
-72.931505
  0
ARC
  8
ボルト／ビス
  6
DOT
 62
    64
 10
-40.5775
 20
-72.798169
 40
0.133333
 50
180.0
 51
270.0
  0
LINE
  8
ボルト／ビス
  6
DOT
 62
    64
 10
-40.710835
 20
-73.963717
 11
-40.791555
 21
-73.963717
  0
LINE
  8
ボルト／ビス
  6
DOT
 62
    64
 10
-40.49414
 20
-73.39817
 11
-40.49414
 21
-73.164837
  0
LINE
  8
ボルト／ビス
  6
DOT
 62
    64
 10
-40.710835
 20
-73.531505
 11
-40.710835
 21
-73.963717
  0
LINE
  8
ボルト／ビス
  6
DOT
 62
    64
 10
-40.49414
 20
-73.39817
 11
-40.5775
 21
-73.39817
  0
ARC
  8
ボルト／ビス
  6
DOT
 62
    64
 10
-40.5775
 20
-73.531503
 40
0.133333
 50
90.0
 51
180.0
  0
LINE
  8
ボルト／ビス
  6
DOT
 62
    64
 10
-39.97247
 20
-71.99817
 11
-39.97247
 21
-74.331505
  0
LINE
  8
ボルト／ビス
  6
DOT
 62
    64
 10
-41.496265
 20
-73.164837
 11
-36.555638
 21
-73.164837
  0
LINE
  8
ボルト／ビス
  6
DOT
 62
    64
 10
-38.139135
 20
-72.49817
 11
-37.97247
 21
-72.664837
  0
LINE
  8
ボルト／ビス
  6
DOT
 62
    64
 10
-38.139135
 20
-73.831505
 11
-37.97247
 21
-73.664837
  0
LINE
  8
ボルト／ビス
  6
DOT
 62
    64
 10
-38.139135
 20
-72.49817
 11
-38.139135
 21
-73.831505
  0
LINE
  8
ボルト／ビス
  6
DOT
 62
    64
 10
-37.97247
 20
-72.664837
 11
-37.97247
 21
-73.664837
  0
LINE
  8
ボルト／ビス
  6
DOT
 62
    64
 10
-39.97247
 20
-72.664837
 11
-37.97247
 21
-72.664837
  0
LINE
  8
ボルト／ビス
  6
DOT
 62
    64
 10
-39.97247
 20
-73.664837
 11
-37.97247
 21
-73.664837
  0
LINE
  8
ボルト／ビス
  6
DOT
 62
    64
 10
-39.97247
 20
-73.831505
 11
-38.139135
 21
-73.831505
  0
LINE
  8
ボルト／ビス
  6
DOT
 62
    64
 10
-39.97247
 20
-72.49817
 11
-38.139135
 21
-72.49817
  0
ENDBLK
  0
BLOCK
  2
*GRP_0064
 70
    65
 10
0.0
 20
0.0
  0
ARC
  8
ボルト／ビス
  6
CONTINUOUS
 10
-104.407362
 20
-27.004814
 40
0.333333
 50
180.0
 51
270.0
  0
LINE
  8
ボルト／ビス
  6
CONTINUOUS
 10
-102.074028
 20
-27.338148
 11
-104.40736
 21
-27.338148
  0
ARC
  8
ボルト／ビス
  6
CONTINUOUS
 10
-102.074028
 20
-27.004814
 40
0.333333
 50
270.0
 51
360.0
  0
LINE
  8
ボルト／ビス
  6
CONTINUOUS
 10
-101.574028
 20
-23.838148
 11
-101.574028
 21
-24.004813
  0
LINE
  8
ボルト／ビス
  6
CONTINUOUS
 10
-104.90736
 20
-23.838148
 11
-104.90736
 21
-24.004813
  0
LINE
  8
ボルト／ビス
  6
CONTINUOUS
 10
-101.574028
 20
-23.838148
 11
-104.90736
 21
-23.838148
  0
LINE
  8
ボルト／ビス
  6
CONTINUOUS
 10
-101.574028
 20
-24.004813
 11
-104.90736
 21
-24.004813
  0
LINE
  8
ボルト／ビス
  6
CONTINUOUS
 10
-101.740695
 20
-27.004813
 11
-101.740695
 21
-25.004813
  0
LINE
  8
ボルト／ビス
  6
CONTINUOUS
 10
-101.740695
 20
-24.504813
 11
-101.740695
 21
-24.004813
  0
LINE
  8
ボルト／ビス
  6
CONTINUOUS
 10
-104.740695
 20
-24.004813
 11
-104.740695
 21
-24.504813
  0
LINE
  8
ボルト／ビス
  6
CONTINUOUS
 10
-104.740695
 20
-25.004813
 11
-104.740695
 21
-27.004813
  0
LINE
  8
ボルト／ビス
  6
CONTINUOUS
 10
-101.324028
 20
-24.504813
 11
-103.240695
 21
-24.504813
  0
ARC
  8
ボルト／ビス
  6
CONTINUOUS
 10
-101.324028
 20
-24.754814
 40
0.25
 50
0.0
 51
90.0
  0
LINE
  8
ボルト／ビス
  6
CONTINUOUS
 10
-101.074028
 20
-24.754813
 11
-101.074028
 21
-24.754813
  0
LINE
  8
ボルト／ビス
  6
CONTINUOUS
 10
-101.324028
 20
-25.004813
 11
-103.240695
 21
-25.004813
  0
ARC
  8
ボルト／ビス
  6
CONTINUOUS
 10
-101.324028
 20
-24.754814
 40
0.25
 50
-90.0
 51
0.0
  0
LINE
  8
ボルト／ビス
  6
CONTINUOUS
 10
-105.15736
 20
-24.504813
 11
-103.240695
 21
-24.504813
  0
ARC
  8
ボルト／ビス
  6
CONTINUOUS
 10
-105.157362
 20
-24.754814
 40
0.25
 50
90.0
 51
180.0
  0
LINE
  8
ボルト／ビス
  6
CONTINUOUS
 10
-105.40736
 20
-24.754813
 11
-105.40736
 21
-24.754813
  0
LINE
  8
ボルト／ビス
  6
CONTINUOUS
 10
-105.15736
 20
-25.004813
 11
-103.240695
 21
-25.004813
  0
ARC
  8
ボルト／ビス
  6
CONTINUOUS
 10
-105.157362
 20
-24.754814
 40
0.25
 50
180.0
 51
270.0
  0
ENDBLK
  0
BLOCK
  2
*GRP_0065
 70
    65
 10
0.0
 20
0.0
  0
LINE
  8
ボルト／ビス
  6
CONTINUOUS
 62
    64
 10
-97.174028
 20
-19.838148
 11
-97.174028
 21
-21.17148
  0
LINE
  8
ボルト／ビス
  6
CONTINUOUS
 62
    64
 10
-99.074028
 20
-19.838148
 11
-99.240695
 21
-20.004813
  0
LINE
  8
ボルト／ビス
  6
CONTINUOUS
 62
    64
 10
-99.074028
 20
-21.17148
 11
-99.240695
 21
-21.004813
  0
LINE
  8
ボルト／ビス
  6
CONTINUOUS
 62
    64
 10
-99.240695
 20
-20.004813
 11
-99.240695
 21
-21.004813
  0
LINE
  8
ボルト／ビス
  6
CONTINUOUS
 62
    64
 10
-99.074028
 20
-19.838148
 11
-99.074028
 21
-21.17148
  0
LINE
  8
ボルト／ビス
  6
CONTINUOUS
 62
    64
 10
-97.174028
 20
-20.004813
 11
-99.240695
 21
-20.004813
  0
LINE
  8
ボルト／ビス
  6
CONTINUOUS
 62
    64
 10
-97.174028
 20
-21.004813
 11
-99.240695
 21
-21.004813
  0
LINE
  8
ボルト／ビス
  6
CONTINUOUS
 62
    64
 10
-97.174028
 20
-21.17148
 11
-99.074028
 21
-21.17148
  0
LINE
  8
ボルト／ビス
  6
CONTINUOUS
 62
    64
 10
-97.174028
 20
-19.838148
 11
-99.074028
 21
-19.838148
  0
LINE
  8
ボルト／ビス
  6
DASHDOT
 62
    64
 10
-95.574028
 20
-20.504813
 11
-100.240695
 21
-20.504813
  0
LINE
  8
ボルト／ビス
  6
DOT
 62
    64
 10
-96.574028
 20
-19.504813
 11
-97.174028
 21
-19.838148
  0
LINE
  8
ボルト／ビス
  6
DOT
 62
    64
 10
-96.574028
 20
-19.504813
 11
-96.574028
 21
-21.504813
  0
LINE
  8
ボルト／ビス
  6
DOT
 62
    64
 10
-96.574028
 20
-21.504813
 11
-97.174028
 21
-21.17148
  0
ENDBLK
  0
BLOCK
  2
*GRP_0066
 70
    65
 10
0.0
 20
0.0
  0
ARC
  8
ボルト／ビス
  6
CONTINUOUS
 10
129.852277
 20
-27.004814
 40
0.333333
 50
270.0
 51
360.0
  0
LINE
  8
ボルト／ビス
  6
CONTINUOUS
 10
127.518943
 20
-27.338148
 11
129.852275
 21
-27.338148
  0
ARC
  8
ボルト／ビス
  6
CONTINUOUS
 10
127.518943
 20
-27.004814
 40
0.333333
 50
180.0
 51
270.0
  0
LINE
  8
ボルト／ビス
  6
CONTINUOUS
 10
127.018943
 20
-23.838148
 11
127.018943
 21
-24.004813
  0
LINE
  8
ボルト／ビス
  6
CONTINUOUS
 10
130.352275
 20
-23.838148
 11
130.352275
 21
-24.004813
  0
LINE
  8
ボルト／ビス
  6
CONTINUOUS
 10
127.018943
 20
-23.838148
 11
130.352275
 21
-23.838148
  0
LINE
  8
ボルト／ビス
  6
CONTINUOUS
 10
127.018943
 20
-24.004813
 11
130.352275
 21
-24.004813
  0
LINE
  8
ボルト／ビス
  6
CONTINUOUS
 10
127.18561
 20
-27.004813
 11
127.18561
 21
-25.004813
  0
LINE
  8
ボルト／ビス
  6
CONTINUOUS
 10
127.18561
 20
-24.504813
 11
127.18561
 21
-24.004813
  0
LINE
  8
ボルト／ビス
  6
CONTINUOUS
 10
130.18561
 20
-24.004813
 11
130.18561
 21
-24.504813
  0
LINE
  8
ボルト／ビス
  6
CONTINUOUS
 10
130.18561
 20
-25.004813
 11
130.18561
 21
-27.004813
  0
LINE
  8
ボルト／ビス
  6
CONTINUOUS
 10
126.768943
 20
-24.504813
 11
128.68561
 21
-24.504813
  0
ARC
  8
ボルト／ビス
  6
CONTINUOUS
 10
126.768943
 20
-24.754814
 40
0.25
 50
90.0
 51
180.0
  0
LINE
  8
ボルト／ビス
  6
CONTINUOUS
 10
126.518943
 20
-24.754813
 11
126.518943
 21
-24.754813
  0
LINE
  8
ボルト／ビス
  6
CONTINUOUS
 10
126.768943
 20
-25.004813
 11
128.68561
 21
-25.004813
  0
ARC
  8
ボルト／ビス
  6
CONTINUOUS
 10
126.768943
 20
-24.754814
 40
0.25
 50
180.0
 51
270.0
  0
LINE
  8
ボルト／ビス
  6
CONTINUOUS
 10
130.602275
 20
-24.504813
 11
128.68561
 21
-24.504813
  0
ARC
  8
ボルト／ビス
  6
CONTINUOUS
 10
130.602277
 20
-24.754814
 40
0.25
 50
0.0
 51
90.0
  0
LINE
  8
ボルト／ビス
  6
CONTINUOUS
 10
130.852275
 20
-24.754813
 11
130.852275
 21
-24.754813
  0
LINE
  8
ボルト／ビス
  6
CONTINUOUS
 10
130.602275
 20
-25.004813
 11
128.68561
 21
-25.004813
  0
ARC
  8
ボルト／ビス
  6
CONTINUOUS
 10
130.602277
 20
-24.754814
 40
0.25
 50
270.0
 51
360.0
  0
ENDBLK
  0
BLOCK
  2
*GRP_0067
 70
    65
 10
0.0
 20
0.0
  0
LINE
  8
ボルト／ビス
  6
CONTINUOUS
 62
    64
 10
122.618943
 20
-19.838148
 11
122.618943
 21
-21.17148
  0
LINE
  8
ボルト／ビス
  6
CONTINUOUS
 62
    64
 10
124.518943
 20
-19.838148
 11
124.68561
 21
-20.004813
  0
LINE
  8
ボルト／ビス
  6
CONTINUOUS
 62
    64
 10
124.518943
 20
-21.17148
 11
124.68561
 21
-21.004813
  0
LINE
  8
ボルト／ビス
  6
CONTINUOUS
 62
    64
 10
124.68561
 20
-20.004813
 11
124.68561
 21
-21.004813
  0
LINE
  8
ボルト／ビス
  6
CONTINUOUS
 62
    64
 10
124.518943
 20
-19.838148
 11
124.518943
 21
-21.17148
  0
LINE
  8
ボルト／ビス
  6
CONTINUOUS
 62
    64
 10
122.618943
 20
-20.004813
 11
124.68561
 21
-20.004813
  0
LINE
  8
ボルト／ビス
  6
CONTINUOUS
 62
    64
 10
122.618943
 20
-21.004813
 11
124.68561
 21
-21.004813
  0
LINE
  8
ボルト／ビス
  6
CONTINUOUS
 62
    64
 10
122.618943
 20
-21.17148
 11
124.518943
 21
-21.17148
  0
LINE
  8
ボルト／ビス
  6
CONTINUOUS
 62
    64
 10
122.618943
 20
-19.838148
 11
124.518943
 21
-19.838148
  0
LINE
  8
ボルト／ビス
  6
DASHDOT
 62
    64
 10
121.018943
 20
-20.504813
 11
125.68561
 21
-20.504813
  0
LINE
  8
ボルト／ビス
  6
DOT
 62
    64
 10
122.018943
 20
-19.504813
 11
122.618943
 21
-19.838148
  0
LINE
  8
ボルト／ビス
  6
DOT
 62
    64
 10
122.018943
 20
-19.504813
 11
122.018943
 21
-21.504813
  0
LINE
  8
ボルト／ビス
  6
DOT
 62
    64
 10
122.018943
 20
-21.504813
 11
122.618943
 21
-21.17148
  0
ENDBLK
  0
BLOCK
  2
*GRP_0068
 70
    65
 10
0.0
 20
0.0
  0
ARC
  8
ゴム等
  6
CONTINUOUS
 62
   127
 10
-97.07403
 20
-23.504813
 40
0.5
 50
0.0
 51
90.0
  0
LINE
  8
ゴム等
  6
CONTINUOUS
 62
   127
 10
-96.574028
 20
-23.504813
 11
-96.574028
 21
-23.504813
  0
LINE
  8
ゴム等
  6
CONTINUOUS
 62
   127
 10
-106.074028
 20
-23.004813
 11
-97.074028
 21
-23.004813
  0
ARC
  8
ゴム等
  6
CONTINUOUS
 62
   127
 10
-106.07403
 20
-23.504813
 40
0.5
 50
90.0
 51
180.0
  0
LINE
  8
ゴム等
  6
CONTINUOUS
 62
   127
 10
-106.574028
 20
-23.504813
 11
-106.574028
 21
-23.504813
  0
ARC
  8
ゴム等
  6
CONTINUOUS
 62
   127
 10
-106.07403
 20
-23.504813
 40
0.5
 50
180.0
 51
270.0
  0
LINE
  8
ゴム等
  6
CONTINUOUS
 62
   127
 10
-106.074028
 20
-24.004813
 11
-99.574898
 21
-24.004813
  0
ARC
  8
St
  6
CONTINUOUS
 10
-101.574029
 20
-24.504813
 40
0.345615
 50
90.0
 51
90.0
  0
ARC
  8
St
  6
CONTINUOUS
 10
-101.574029
 20
-24.504813
 40
0.543736
 50
90.0
 51
90.0
  0
LINE
  8
St
  6
CONTINUOUS
 10
-99.407363
 20
-23.504813
 11
-96.57403
 21
-23.504813
  0
LINE
  8
St
  6
CONTINUOUS
 10
-99.407363
 20
-23.504813
 11
-99.574898
 21
-24.004813
  0
INSERT
  2
*HAT_0001
  8
St
 10
0.0
 20
0.0
  0
ENDBLK
  0
BLOCK
  2
*GRP_0069
 70
    65
 10
0.0
 20
0.0
  0
ARC
  8
ゴム等
  6
CONTINUOUS
 62
   127
 10
-98.680733
 20
-17.504813
 40
0.5
 50
0.0
 51
90.0
  0
LINE
  8
ゴム等
  6
CONTINUOUS
 62
   127
 10
-98.180732
 20
-17.504813
 11
-98.180732
 21
-17.504813
  0
ARC
  8
ゴム等
  6
CONTINUOUS
 62
   127
 10
-98.680733
 20
-17.504813
 40
0.5
 50
-90.0
 51
0.0
  0
LINE
  8
ゴム等
  6
CONTINUOUS
 62
   127
 10
-107.680732
 20
-17.004813
 11
-98.680732
 21
-17.004813
  0
ARC
  8
ゴム等
  6
CONTINUOUS
 62
   127
 10
-107.680733
 20
-17.504813
 40
0.5
 50
90.0
 51
180.0
  0
LINE
  8
ゴム等
  6
CONTINUOUS
 62
   127
 10
-108.180732
 20
-17.504813
 11
-108.180732
 21
-17.504813
  0
LINE
  8
ゴム等
  6
CONTINUOUS
 62
   127
 10
-107.680732
 20
-18.004813
 11
-98.680732
 21
-18.004813
  0
ARC
  8
ゴム等
  6
CONTINUOUS
 62
   127
 10
-107.680733
 20
-17.504813
 40
0.5
 50
180.0
 51
270.0
  0
ENDBLK
  0
BLOCK
  2
*GRP_0070
 70
    65
 10
0.0
 20
0.0
  0
ARC
  8
ゴム等
  6
CONTINUOUS
 62
   127
 10
122.518945
 20
-23.504813
 40
0.5
 50
90.0
 51
180.0
  0
LINE
  8
ゴム等
  6
CONTINUOUS
 62
   127
 10
122.018943
 20
-23.504813
 11
122.018943
 21
-23.504813
  0
LINE
  8
ゴム等
  6
CONTINUOUS
 62
   127
 10
131.518943
 20
-23.004813
 11
122.518943
 21
-23.004813
  0
ARC
  8
ゴム等
  6
CONTINUOUS
 62
   127
 10
131.518945
 20
-23.504813
 40
0.5
 50
0.0
 51
90.0
  0
LINE
  8
ゴム等
  6
CONTINUOUS
 62
   127
 10
132.018943
 20
-23.504813
 11
132.018943
 21
-23.504813
  0
ARC
  8
ゴム等
  6
CONTINUOUS
 62
   127
 10
131.518945
 20
-23.504813
 40
0.5
 50
270.0
 51
360.0
  0
LINE
  8
ゴム等
  6
CONTINUOUS
 62
   127
 10
131.518943
 20
-24.004813
 11
125.019813
 21
-24.004813
  0
ARC
  8
St
  6
CONTINUOUS
 10
127.018944
 20
-24.504813
 40
0.345615
 50
90.0
 51
90.0
  0
ARC
  8
St
  6
CONTINUOUS
 10
127.018944
 20
-24.504813
 40
0.543736
 50
90.0
 51
90.0
  0
LINE
  8
St
  6
CONTINUOUS
 10
124.852277
 20
-23.504813
 11
122.018945
 21
-23.504813
  0
LINE
  8
St
  6
CONTINUOUS
 10
124.852277
 20
-23.504813
 11
125.019813
 21
-24.004813
  0
INSERT
  2
*HAT_0002
  8
St
 10
0.0
 20
0.0
  0
ENDBLK
  0
BLOCK
  2
*GRP_0071
 70
    65
 10
0.0
 20
0.0
  0
ARC
  8
ゴム等
  6
CONTINUOUS
 62
   127
 10
124.125648
 20
-17.504813
 40
0.5
 50
90.0
 51
180.0
  0
LINE
  8
ゴム等
  6
CONTINUOUS
 62
   127
 10
123.625648
 20
-17.504813
 11
123.625648
 21
-17.504813
  0
ARC
  8
ゴム等
  6
CONTINUOUS
 62
   127
 10
124.125648
 20
-17.504813
 40
0.5
 50
180.0
 51
270.0
  0
LINE
  8
ゴム等
  6
CONTINUOUS
 62
   127
 10
133.125648
 20
-17.004813
 11
124.125648
 21
-17.004813
  0
ARC
  8
ゴム等
  6
CONTINUOUS
 62
   127
 10
133.125648
 20
-17.504813
 40
0.5
 50
0.0
 51
90.0
  0
LINE
  8
ゴム等
  6
CONTINUOUS
 62
   127
 10
133.625648
 20
-17.504813
 11
133.625648
 21
-17.504813
  0
LINE
  8
ゴム等
  6
CONTINUOUS
 62
   127
 10
133.125648
 20
-18.004813
 11
124.125648
 21
-18.004813
  0
ARC
  8
ゴム等
  6
CONTINUOUS
 62
   127
 10
133.125648
 20
-17.504813
 40
0.5
 50
270.0
 51
360.0
  0
ENDBLK
  0
BLOCK
  2
*DIM_0072
 70
    65
 10
0.0
 20
0.0
  0
LINE
  8
寸法
  6
CONTINUOUS
 10
-127.642155
 20
-52.836475
 11
-176.190362
 21
-52.836475
  0
LINE
  8
寸法
  6
CONTINUOUS
 10
-118.240695
 20
-16.003618
 11
-176.190362
 21
-16.003618
  0
LINE
  8
寸法
  6
CONTINUOUS
 10
-176.190362
 20
-52.836475
 11
-176.190362
 21
-16.003618
  0
POINT
  8
寸法
 10
-176.190362
 20
-52.836475
  0
POINT
  8
寸法
 10
-176.190362
 20
-16.003618
  0
TEXT
  7
TextStyle03
  8
寸法
  6
CONTINUOUS
 10
-176.575
 20
-38.55
  1
110.5
 40
3.0
 50
90.0
 72
     5
 11
-176.575
 21
-30.3
  0
ENDBLK
  0
BLOCK
  2
*DIM_0073
 70
    65
 10
0.0
 20
0.0
  0
LINE
  8
寸法
  6
CONTINUOUS
 10
-127.642155
 20
-52.836475
 11
-168.564937
 21
-52.836475
  0
LINE
  8
寸法
  6
CONTINUOUS
 10
-127.642155
 20
-47.836475
 11
-168.564937
 21
-47.836475
  0
LINE
  8
寸法
  6
CONTINUOUS
 10
-168.564937
 20
-52.836475
 11
-168.564937
 21
-47.836475
  0
POINT
  8
寸法
 10
-168.564937
 20
-52.836475
  0
POINT
  8
寸法
 10
-168.564937
 20
-47.836475
  0
TEXT
  7
TextStyle03
  8
寸法
  6
CONTINUOUS
 10
-168.95
 20
-51.94375
  1
15
 40
3.0
 50
90.0
 72
     5
 11
-168.95
 21
-48.75625
  0
ENDBLK
  0
BLOCK
  2
*DIM_0074
 70
    65
 10
0.0
 20
0.0
  0
LINE
  8
寸法
  6
CONTINUOUS
 10
-102.074028
 20
-39.880313
 11
-168.564937
 21
-39.880313
  0
LINE
  8
寸法
  6
CONTINUOUS
 10
-168.564937
 20
-47.836475
 11
-168.564937
 21
-39.880313
  0
POINT
  8
寸法
 10
-168.564937
 20
-39.880313
  0
TEXT
  7
TextStyle03
  8
寸法
  6
CONTINUOUS
 10
-168.95
 20
-47.15625
  1
23.9
 40
3.0
 50
90.0
 72
     5
 11
-168.95
 21
-40.59375
  0
ENDBLK
  0
BLOCK
  2
*DIM_0075
 70
    65
 10
0.0
 20
0.0
  0
LINE
  8
寸法
  6
CONTINUOUS
 10
-118.240695
 20
-16.003618
 11
-168.564937
 21
-16.003618
  0
LINE
  8
寸法
  6
CONTINUOUS
 10
-168.564937
 20
-26.003618
 11
-168.564937
 21
-16.003618
  0
POINT
  8
寸法
 10
-168.564937
 20
-16.003618
  0
TEXT
  7
TextStyle03
  8
寸法
  6
CONTINUOUS
 10
-168.95
 20
-22.61875
  1
30
 40
3.0
 50
90.0
 72
     5
 11
-168.95
 21
-19.43125
  0
ENDBLK
  0
BLOCK
  2
*DIM_0076
 70
    65
 10
0.0
 20
0.0
  0
LINE
  8
寸法
  6
CONTINUOUS
 10
-122.240687
 20
-26.003618
 11
-168.564937
 21
-26.003618
  0
LINE
  8
寸法
  6
CONTINUOUS
 10
-168.564937
 20
-39.880313
 11
-168.564937
 21
-26.003618
  0
POINT
  8
寸法
 10
-168.564937
 20
-26.003618
  0
TEXT
  7
TextStyle03
  8
寸法
  6
CONTINUOUS
 10
-168.95
 20
-36.23125
  1
41.6
 40
3.0
 50
90.0
 72
     5
 11
-168.95
 21
-29.66875
  0
ENDBLK
  0
BLOCK
  2
*DIM_0077
 70
    65
 10
0.0
 20
0.0
  0
LINE
  8
寸法
  6
CONTINUOUS
 10
-96.574028
 20
-11.003618
 11
-96.574028
 21
56.230325
  0
LINE
  8
寸法
  6
CONTINUOUS
 10
-113.240695
 20
-11.003618
 11
-113.240695
 21
56.230325
  0
LINE
  8
寸法
  6
CONTINUOUS
 10
-96.574028
 20
56.230325
 11
-113.240695
 21
56.230325
  0
POINT
  8
寸法
 10
-96.574028
 20
56.230325
  0
POINT
  8
寸法
 10
-113.240695
 20
56.230325
  0
TEXT
  7
TextStyle03
  8
寸法
  6
CONTINUOUS
 10
-106.51875
 20
56.6
  1
50
 40
3.0
 72
     5
 11
-103.33125
 21
56.6
  0
ENDBLK
  0
BLOCK
  2
*DIM_0078
 70
    65
 10
0.0
 20
0.0
  0
LINE
  8
寸法
  6
CONTINUOUS
 10
-122.642155
 20
-42.836475
 11
-122.642155
 21
56.230325
  0
LINE
  8
寸法
  6
CONTINUOUS
 10
-113.240695
 20
56.230325
 11
-122.642155
 21
56.230325
  0
POINT
  8
寸法
 10
-122.642155
 20
56.230325
  0
TEXT
  7
TextStyle03
  8
寸法
  6
CONTINUOUS
 10
-121.23125
 20
56.6
  1
28.2
 40
3.0
 72
     5
 11
-114.66875
 21
56.6
  0
ENDBLK
  0
BLOCK
  2
*DIM_0079
 70
    65
 10
0.0
 20
0.0
  0
LINE
  8
寸法
  6
CONTINUOUS
 10
-96.574028
 20
-11.003618
 11
-96.574028
 21
50.589252
  0
LINE
  8
寸法
  6
CONTINUOUS
 10
-103.240695
 20
-8.435287
 11
-103.240695
 21
50.589252
  0
LINE
  8
寸法
  6
CONTINUOUS
 10
-96.574028
 20
50.589252
 11
-103.240695
 21
50.589252
  0
POINT
  8
寸法
 10
-96.574028
 20
50.589252
  0
POINT
  8
寸法
 10
-103.240695
 20
50.589252
  0
TEXT
  7
TextStyle03
  8
寸法
  6
CONTINUOUS
 10
-101.51875
 20
50.95
  1
20
 40
3.0
 72
     5
 11
-98.33125
 21
50.95
  0
ENDBLK
  0
BLOCK
  2
*DIM_0080
 70
    65
 10
0.0
 20
0.0
  0
LINE
  8
寸法
  6
CONTINUOUS
 10
-113.240695
 20
-11.003618
 11
-113.240695
 21
50.589252
  0
LINE
  8
寸法
  6
CONTINUOUS
 10
-103.240695
 20
50.589252
 11
-113.240695
 21
50.589252
  0
POINT
  8
寸法
 10
-113.240695
 20
50.589252
  0
TEXT
  7
TextStyle03
  8
寸法
  6
CONTINUOUS
 10
-109.84375
 20
50.95
  1
30
 40
3.0
 72
     5
 11
-106.65625
 21
50.95
  0
ENDBLK
  0
BLOCK
  2
*DIM_0081
 70
    65
 10
0.0
 20
0.0
  0
LINE
  8
寸法
  6
CONTINUOUS
 10
-87.974032
 20
-30.838148
 11
-87.974032
 21
44.568035
  0
LINE
  8
寸法
  6
CONTINUOUS
 10
-122.642155
 20
-42.836475
 11
-122.642155
 21
44.568035
  0
LINE
  8
寸法
  6
CONTINUOUS
 10
-87.974032
 20
44.568035
 11
-122.642155
 21
44.568035
  0
POINT
  8
寸法
 10
-87.974032
 20
44.568035
  0
POINT
  8
寸法
 10
-122.642155
 20
44.568035
  0
TEXT
  7
TextStyle03
  8
寸法
  6
CONTINUOUS
 10
-107.7625
 20
44.925
  1
104
 40
3.0
 72
     5
 11
-102.8875
 21
44.925
  0
ENDBLK
  0
BLOCK
  2
*DIM_0082
 70
    65
 10
0.0
 20
0.0
  0
LINE
  8
寸法
  6
CONTINUOUS
 10
-87.974032
 20
-30.838148
 11
-87.974032
 21
36.121185
  0
LINE
  8
寸法
  6
CONTINUOUS
 10
-96.574028
 20
-11.003618
 11
-96.574028
 21
36.121185
  0
LINE
  8
寸法
  6
CONTINUOUS
 10
-87.974032
 20
36.121185
 11
-96.574028
 21
36.121185
  0
POINT
  8
寸法
 10
-87.974032
 20
36.121185
  0
POINT
  8
寸法
 10
-96.574028
 20
36.121185
  0
TEXT
  7
TextStyle03
  8
寸法
  6
CONTINUOUS
 10
-95.55625
 20
36.475
  1
25.8
 40
3.0
 72
     5
 11
-88.99375
 21
36.475
  0
ENDBLK
  0
BLOCK
  2
*DIM_0083
 70
    65
 10
0.0
 20
0.0
  0
LINE
  8
寸法
  6
CONTINUOUS
 10
122.018943
 20
-11.003618
 11
122.018943
 21
56.230325
  0
LINE
  8
寸法
  6
CONTINUOUS
 10
138.68561
 20
-11.003618
 11
138.68561
 21
56.230325
  0
LINE
  8
寸法
  6
CONTINUOUS
 10
122.018943
 20
56.230325
 11
138.68561
 21
56.230325
  0
POINT
  8
寸法
 10
122.018943
 20
56.230325
  0
POINT
  8
寸法
 10
138.68561
 20
56.230325
  0
TEXT
  7
TextStyle03
  8
寸法
  6
CONTINUOUS
 10
128.75625
 20
56.6
  1
50
 40
3.0
 72
     5
 11
131.94375
 21
56.6
  0
ENDBLK
  0
BLOCK
  2
*DIM_0084
 70
    65
 10
0.0
 20
0.0
  0
LINE
  8
寸法
  6
CONTINUOUS
 10
138.68561
 20
-11.003618
 11
138.68561
 21
56.230325
  0
LINE
  8
寸法
  6
CONTINUOUS
 10
148.08707
 20
-42.836475
 11
148.08707
 21
56.230325
  0
LINE
  8
寸法
  6
CONTINUOUS
 10
138.68561
 20
56.230325
 11
148.08707
 21
56.230325
  0
POINT
  8
寸法
 10
148.08707
 20
56.230325
  0
TEXT
  7
TextStyle03
  8
寸法
  6
CONTINUOUS
 10
140.09375
 20
56.6
  1
28.2
 40
3.0
 72
     5
 11
146.65625
 21
56.6
  0
ENDBLK
  0
BLOCK
  2
*DIM_0085
 70
    65
 10
0.0
 20
0.0
  0
LINE
  8
寸法
  6
CONTINUOUS
 10
122.018943
 20
-11.003618
 11
122.018943
 21
50.589252
  0
LINE
  8
寸法
  6
CONTINUOUS
 10
128.68561
 20
-8.435287
 11
128.68561
 21
50.589252
  0
LINE
  8
寸法
  6
CONTINUOUS
 10
122.018943
 20
50.589252
 11
128.68561
 21
50.589252
  0
POINT
  8
寸法
 10
122.018943
 20
50.589252
  0
POINT
  8
寸法
 10
128.68561
 20
50.589252
  0
TEXT
  7
TextStyle03
  8
寸法
  6
CONTINUOUS
 10
123.75625
 20
50.95
  1
20
 40
3.0
 72
     5
 11
126.94375
 21
50.95
  0
ENDBLK
  0
BLOCK
  2
*DIM_0086
 70
    65
 10
0.0
 20
0.0
  0
LINE
  8
寸法
  6
CONTINUOUS
 10
128.68561
 20
-8.435287
 11
128.68561
 21
50.589252
  0
LINE
  8
寸法
  6
CONTINUOUS
 10
138.68561
 20
-11.003618
 11
138.68561
 21
50.589252
  0
LINE
  8
寸法
  6
CONTINUOUS
 10
128.68561
 20
50.589252
 11
138.68561
 21
50.589252
  0
POINT
  8
寸法
 10
138.68561
 20
50.589252
  0
TEXT
  7
TextStyle03
  8
寸法
  6
CONTINUOUS
 10
132.08125
 20
50.95
  1
30
 40
3.0
 72
     5
 11
135.26875
 21
50.95
  0
ENDBLK
  0
BLOCK
  2
*DIM_0087
 70
    65
 10
0.0
 20
0.0
  0
LINE
  8
寸法
  6
CONTINUOUS
 10
113.418947
 20
-30.838148
 11
113.418947
 21
44.568035
  0
LINE
  8
寸法
  6
CONTINUOUS
 10
148.08707
 20
-42.836475
 11
148.08707
 21
44.568035
  0
LINE
  8
寸法
  6
CONTINUOUS
 10
113.418947
 20
44.568035
 11
148.08707
 21
44.568035
  0
POINT
  8
寸法
 10
113.418947
 20
44.568035
  0
POINT
  8
寸法
 10
148.08707
 20
44.568035
  0
TEXT
  7
TextStyle03
  8
寸法
  6
CONTINUOUS
 10
128.3125
 20
44.925
  1
104
 40
3.0
 72
     5
 11
133.1875
 21
44.925
  0
ENDBLK
  0
BLOCK
  2
*DIM_0088
 70
    65
 10
0.0
 20
0.0
  0
LINE
  8
寸法
  6
CONTINUOUS
 10
113.418947
 20
-30.838148
 11
113.418947
 21
36.121185
  0
LINE
  8
寸法
  6
CONTINUOUS
 10
122.018943
 20
-11.003618
 11
122.018943
 21
36.121185
  0
LINE
  8
寸法
  6
CONTINUOUS
 10
113.418947
 20
36.121185
 11
122.018943
 21
36.121185
  0
POINT
  8
寸法
 10
113.418947
 20
36.121185
  0
POINT
  8
寸法
 10
122.018943
 20
36.121185
  0
TEXT
  7
TextStyle03
  8
寸法
  6
CONTINUOUS
 10
114.41875
 20
36.475
  1
25.8
 40
3.0
 72
     5
 11
120.98125
 21
36.475
  0
ENDBLK
  0
BLOCK
  2
*GRP_0089
 70
    65
 10
0.0
 20
0.0
  0
LINE
  8
ボルト／ビス
  6
CONTINUOUS
 10
-106.907363
 20
-16.003605
 11
-106.907363
 21
-15.336938
  0
LINE
  8
ボルト／ビス
  6
CONTINUOUS
 10
-106.907363
 20
-15.336938
 11
-99.574028
 21
-15.336938
  0
LINE
  8
ボルト／ビス
  6
CONTINUOUS
 10
-99.574028
 20
-15.336938
 11
-99.574028
 21
-16.003605
  0
LINE
  8
ボルト／ビス
  6
CONTINUOUS
 10
-106.907363
 20
-16.003605
 11
-99.574028
 21
-16.003605
  0
LINE
  8
ボルト／ビス
  6
CONTINUOUS
 10
-106.240695
 20
-15.003605
 11
-106.240695
 21
-15.336938
  0
LINE
  8
ボルト／ビス
  6
CONTINUOUS
 10
-106.240695
 20
-15.003605
 11
-100.240695
 21
-15.003605
  0
LINE
  8
ボルト／ビス
  6
CONTINUOUS
 10
-100.240695
 20
-15.003605
 11
-100.240695
 21
-15.336938
  0
LINE
  8
ボルト／ビス
  6
CONTINUOUS
 62
    64
 10
-104.844445
 20
-13.003605
 11
-105.165195
 21
-13.120348
  0
ARC
  8
ボルト／ビス
  6
CONTINUOUS
 62
    64
 10
-104.684071
 20
-14.053389
 40
1.049784
 50
62.721967
 51
90.0
  0
ARC
  8
ボルト／ビス
  6
CONTINUOUS
 62
    64
 10
-103.240695
 20
-17.027627
 40
4.024022
 50
76.165002
 51
103.834985
  0
LINE
  8
ボルト／ビス
  6
CONTINUOUS
 62
    64
 10
-101.636945
 20
-13.003605
 11
-101.316195
 21
-13.120348
  0
ARC
  8
ボルト／ビス
  6
CONTINUOUS
 62
    64
 10
-101.79732
 20
-14.053389
 40
1.049784
 50
90.0
 51
117.278033
  0
LINE
  8
ボルト／ビス
  6
CONTINUOUS
 62
    64
 10
-104.844445
 20
-13.003605
 11
-101.636945
 21
-13.003605
  0
LINE
  8
ボルト／ビス
  6
CONTINUOUS
 62
    64
 10
-101.316195
 20
-13.120348
 11
-101.316195
 21
-14.336938
  0
LINE
  8
ボルト／ビス
  6
CONTINUOUS
 62
    64
 10
-102.278445
 20
-13.120348
 11
-102.278445
 21
-14.336938
  0
LINE
  8
ボルト／ビス
  6
CONTINUOUS
 62
    64
 10
-105.165195
 20
-13.120348
 11
-105.165195
 21
-14.336938
  0
LINE
  8
ボルト／ビス
  6
CONTINUOUS
 62
    64
 10
-104.202945
 20
-13.120348
 11
-104.202945
 21
-14.336938
  0
LINE
  8
ボルト／ビス
  6
CONTINUOUS
 10
-105.165195
 20
-14.336938
 11
-101.316195
 21
-14.336938
  0
LINE
  8
ボルト／ビス
  6
CONTINUOUS
 10
-105.240695
 20
-14.336938
 11
-105.240695
 21
-15.003605
  0
LINE
  8
ボルト／ビス
  6
CONTINUOUS
 10
-105.240695
 20
-14.336938
 11
-101.240695
 21
-14.336938
  0
LINE
  8
ボルト／ビス
  6
CONTINUOUS
 10
-101.240695
 20
-14.336938
 11
-101.240695
 21
-15.003605
  0
LINE
  8
ボルト／ビス
  6
CONTINUOUS
 62
    64
 10
-104.007363
 20
-29.336938
 11
-102.474028
 21
-29.336938
  0
LINE
  8
ボルト／ビス
  6
CONTINUOUS
 62
    64
 10
-102.240695
 20
-29.003605
 11
-102.474028
 21
-29.336938
  0
LINE
  8
ボルト／ビス
  6
CONTINUOUS
 62
    64
 10
-104.240695
 20
-29.003605
 11
-104.007363
 21
-29.336938
  0
LINE
  8
ボルト／ビス
  6
CONTINUOUS
 62
    64
 10
-104.240695
 20
-29.003605
 11
-102.240695
 21
-29.003605
  0
LINE
  8
ボルト／ビス
  6
CONTINUOUS
 62
    64
 10
-104.007363
 20
-29.336938
 11
-102.474028
 21
-29.336938
  0
LINE
  8
ボルト／ビス
  6
CONTINUOUS
 62
    64
 10
-104.007363
 20
-16.003605
 11
-104.007363
 21
-29.003605
  0
LINE
  8
ボルト／ビス
  6
CONTINUOUS
 62
    64
 10
-104.240695
 20
-16.003605
 11
-104.240695
 21
-29.003605
  0
LINE
  8
ボルト／ビス
  6
CONTINUOUS
 62
    64
 10
-102.474028
 20
-16.003605
 11
-102.474028
 21
-29.003605
  0
LINE
  8
ボルト／ビス
  6
CONTINUOUS
 62
    64
 10
-102.240695
 20
-16.003605
 11
-102.240695
 21
-29.003605
  0
ENDBLK
  0
BLOCK
  2
*GRP_0090
 70
    65
 10
0.0
 20
0.0
  0
LINE
  8
ボルト／ビス
  6
CONTINUOUS
 10
132.352277
 20
-16.003605
 11
132.352277
 21
-15.336938
  0
LINE
  8
ボルト／ビス
  6
CONTINUOUS
 10
132.352277
 20
-15.336938
 11
125.018943
 21
-15.336938
  0
LINE
  8
ボルト／ビス
  6
CONTINUOUS
 10
125.018943
 20
-15.336938
 11
125.018943
 21
-16.003605
  0
LINE
  8
ボルト／ビス
  6
CONTINUOUS
 10
132.352277
 20
-16.003605
 11
125.018943
 21
-16.003605
  0
LINE
  8
ボルト／ビス
  6
CONTINUOUS
 10
131.68561
 20
-15.003605
 11
131.68561
 21
-15.336938
  0
LINE
  8
ボルト／ビス
  6
CONTINUOUS
 10
131.68561
 20
-15.003605
 11
125.68561
 21
-15.003605
  0
LINE
  8
ボルト／ビス
  6
CONTINUOUS
 10
125.68561
 20
-15.003605
 11
125.68561
 21
-15.336938
  0
LINE
  8
ボルト／ビス
  6
CONTINUOUS
 62
    64
 10
130.28936
 20
-13.003605
 11
130.61011
 21
-13.120348
  0
ARC
  8
ボルト／ビス
  6
CONTINUOUS
 62
    64
 10
130.128986
 20
-14.053389
 40
1.049784
 50
90.0
 51
117.278033
  0
ARC
  8
ボルト／ビス
  6
CONTINUOUS
 62
    64
 10
128.68561
 20
-17.027627
 40
4.024022
 50
76.165015
 51
103.834998
  0
LINE
  8
ボルト／ビス
  6
CONTINUOUS
 62
    64
 10
127.08186
 20
-13.003605
 11
126.76111
 21
-13.120348
  0
ARC
  8
ボルト／ビス
  6
CONTINUOUS
 62
    64
 10
127.242235
 20
-14.053389
 40
1.049784
 50
62.721967
 51
90.0
  0
LINE
  8
ボルト／ビス
  6
CONTINUOUS
 62
    64
 10
130.28936
 20
-13.003605
 11
127.08186
 21
-13.003605
  0
LINE
  8
ボルト／ビス
  6
CONTINUOUS
 62
    64
 10
126.76111
 20
-13.120348
 11
126.76111
 21
-14.336938
  0
LINE
  8
ボルト／ビス
  6
CONTINUOUS
 62
    64
 10
127.72336
 20
-13.120348
 11
127.72336
 21
-14.336938
  0
LINE
  8
ボルト／ビス
  6
CONTINUOUS
 62
    64
 10
130.61011
 20
-13.120348
 11
130.61011
 21
-14.336938
  0
LINE
  8
ボルト／ビス
  6
CONTINUOUS
 62
    64
 10
129.64786
 20
-13.120348
 11
129.64786
 21
-14.336938
  0
LINE
  8
ボルト／ビス
  6
CONTINUOUS
 10
130.61011
 20
-14.336938
 11
126.76111
 21
-14.336938
  0
LINE
  8
ボルト／ビス
  6
CONTINUOUS
 10
130.68561
 20
-14.336938
 11
130.68561
 21
-15.003605
  0
LINE
  8
ボルト／ビス
  6
CONTINUOUS
 10
130.68561
 20
-14.336938
 11
126.68561
 21
-14.336938
  0
LINE
  8
ボルト／ビス
  6
CONTINUOUS
 10
126.68561
 20
-14.336938
 11
126.68561
 21
-15.003605
  0
LINE
  8
ボルト／ビス
  6
CONTINUOUS
 62
    64
 10
129.452277
 20
-29.336938
 11
127.918943
 21
-29.336938
  0
LINE
  8
ボルト／ビス
  6
CONTINUOUS
 62
    64
 10
127.68561
 20
-29.003605
 11
127.918943
 21
-29.336938
  0
LINE
  8
ボルト／ビス
  6
CONTINUOUS
 62
    64
 10
129.68561
 20
-29.003605
 11
129.452277
 21
-29.336938
  0
LINE
  8
ボルト／ビス
  6
CONTINUOUS
 62
    64
 10
129.68561
 20
-29.003605
 11
127.68561
 21
-29.003605
  0
LINE
  8
ボルト／ビス
  6
CONTINUOUS
 62
    64
 10
129.452277
 20
-29.336938
 11
127.918943
 21
-29.336938
  0
LINE
  8
ボルト／ビス
  6
CONTINUOUS
 62
    64
 10
129.452277
 20
-16.003605
 11
129.452277
 21
-29.003605
  0
LINE
  8
ボルト／ビス
  6
CONTINUOUS
 62
    64
 10
129.68561
 20
-16.003605
 11
129.68561
 21
-29.003605
  0
LINE
  8
ボルト／ビス
  6
CONTINUOUS
 62
    64
 10
127.918943
 20
-16.003605
 11
127.918943
 21
-29.003605
  0
LINE
  8
ボルト／ビス
  6
CONTINUOUS
 62
    64
 10
127.68561
 20
-16.003605
 11
127.68561
 21
-29.003605
  0
ENDBLK
  0
BLOCK
  2
*DIM_0091
 70
    65
 10
0.0
 20
0.0
  0
LINE
  8
寸法
  6
CONTINUOUS
 10
122.018943
 20
-11.003618
 11
122.018943
 21
56.230325
  0
LINE
  8
寸法
  6
CONTINUOUS
 10
-96.574028
 20
-11.003618
 11
-96.574028
 21
56.230325
  0
LINE
  8
寸法
  6
CONTINUOUS
 10
122.018943
 20
56.230325
 11
-96.574028
 21
56.230325
  0
POINT
  8
寸法
 10
122.018943
 20
56.230325
  0
POINT
  8
寸法
 10
-96.574028
 20
56.230325
  0
TEXT
  7
TextStyle03
  8
寸法
  6
CONTINUOUS
 10
1.075
 20
56.6
  1
ドーム呼称寸法
 40
3.0
 72
     5
 11
24.325
 21
56.6
  0
ENDBLK
  0
BLOCK
  2
*GRP_0092
 70
    65
 10
0.0
 20
0.0
  0
ARC
  8
St
  6
CONTINUOUS
 62
   127
 10
136.168248
 20
-68.436483
 40
1.066667
 50
180.0
 51
270.0
  0
LINE
  8
St
  6
CONTINUOUS
 10
164.315445
 20
-68.436482
 11
165.38211
 21
-69.50315
  0
LINE
  8
St
  6
CONTINUOUS
 10
164.55115
 20
-68.436482
 11
165.617815
 21
-69.50315
  0
LINE
  8
St
  6
CONTINUOUS
 62
   127
 10
136.168243
 20
-68.436482
 11
168.434908
 21
-68.436482
  0
LINE
  8
St
  6
CONTINUOUS
 10
168.434908
 20
-68.436482
 11
168.434908
 21
-69.50315
  0
LINE
  8
St
  6
CONTINUOUS
 62
   127
 10
136.168243
 20
-69.50315
 11
168.434908
 21
-69.50315
  0
LINE
  8
St
  6
CONTINUOUS
 10
143.233252
 20
-69.50315
 11
142.166588
 21
-68.436482
  0
LINE
  8
St
  6
CONTINUOUS
 10
143.468958
 20
-69.50315
 11
142.402292
 21
-68.436482
  0
LINE
  8
St
  6
CONTINUOUS
 10
136.168243
 20
-58.087043
 11
135.101575
 21
-57.020373
  0
LINE
  8
St
  6
CONTINUOUS
 10
136.168243
 20
-57.851338
 11
135.101575
 21
-56.784667
  0
LINE
  8
St
  6
CONTINUOUS
 10
136.168243
 20
-56.169815
 11
135.101575
 21
-56.169815
  0
LINE
  8
St
  6
CONTINUOUS
 62
   127
 10
135.101575
 20
-68.436482
 11
135.101575
 21
-56.169815
  0
LINE
  8
St
  6
CONTINUOUS
 62
   127
 10
136.168243
 20
-68.436482
 11
136.168243
 21
-56.169815
  0
LINE
  8
St
  6
DOT
 10
133.485867
 20
-61.169815
 11
137.702115
 21
-61.169815
  0
LINE
  8
St
  6
DOT
 62
   127
 10
152.35664
 20
-70.368278
 11
152.35664
 21
-70.368275
  0
LINE
  8
St
  6
DOT
 10
145.101575
 20
-68.436482
 11
145.101575
 21
-69.50315
  0
LINE
  8
St
  6
DOT
 10
151.76824
 20
-68.436482
 11
151.76824
 21
-69.50315
  0
LINE
  8
St
  6
DOT
 10
156.76824
 20
-68.436482
 11
156.76824
 21
-69.50315
  0
LINE
  8
St
  6
DOT
 10
160.101575
 20
-68.436482
 11
160.101575
 21
-69.50315
  0
LINE
  8
St
  6
DOT
 10
148.434908
 20
-67.081837
 11
148.434908
 21
-70.908037
  0
LINE
  8
St
  6
DOT
 62
   127
 10
151.76824
 20
-68.70315
 11
145.101575
 21
-68.70315
  0
LINE
  8
St
  6
DOT
 62
   127
 10
151.76824
 20
-68.969815
 11
145.101575
 21
-68.969815
  0
LINE
  8
St
  6
DOT
 62
   127
 10
151.76824
 20
-69.236482
 11
145.101575
 21
-69.236482
  0
LINE
  8
St
  6
DOT
 10
156.76824
 20
-68.70315
 11
160.101575
 21
-68.70315
  0
LINE
  8
St
  6
DOT
 10
156.76824
 20
-68.969815
 11
160.101575
 21
-68.969815
  0
LINE
  8
St
  6
DOT
 10
156.76824
 20
-69.236482
 11
160.101575
 21
-69.236482
  0
LINE
  8
St
  6
DOT
 10
158.434908
 20
-67.081837
 11
158.434908
 21
-70.908037
  0
LINE
  8
St
  6
DOT
 10
135.101575
 20
-68.436482
 11
136.168243
 21
-68.436482
  0
LINE
  8
St
  6
DOT
 10
135.101575
 20
-57.83648
 11
136.168243
 21
-57.83648
  0
LINE
  8
St
  6
DOT
 10
136.168243
 20
-62.169815
 11
135.101575
 21
-62.169815
  0
LINE
  8
St
  6
DOT
 10
136.168243
 20
-60.169815
 11
135.101575
 21
-60.169815
  0
LINE
  8
St
  6
DOT
 62
   127
 10
135.901575
 20
-68.436482
 11
135.901575
 21
-57.83648
  0
LINE
  8
St
  6
DOT
 62
   127
 10
135.63491
 20
-68.436482
 11
135.63491
 21
-57.83648
  0
LINE
  8
St
  6
DOT
 62
   127
 10
135.368243
 20
-68.436482
 11
135.368243
 21
-57.83648
  0
ENDBLK
  0
ENDSEC
  0
SECTION
  2
ENTITIES
  0
POLYLINE
  8
通り芯
  6
CONTINUOUS
 66
     1
 70
     1
  0
VERTEX
  8
通り芯
 10
-210.0
 20
-148.5
  0
VERTEX
  8
通り芯
 10
210.0
 20
-148.5
  0
VERTEX
  8
通り芯
 10
210.0
 20
148.5
  0
VERTEX
  8
通り芯
 10
-210.0
 20
148.5
  0
SEQEND
  0
ARC
  8
通り芯
  6
CONTINUOUS
 10
12.722458
 20
-100.060903
 40
137.881648
 50
90.0
 51
142.436986
  0
ARC
  8
通り芯
  6
CONTINUOUS
 10
12.722458
 20
-100.060903
 40
136.806155
 50
90.0
 51
142.619326
  0
ARC
  8
通り芯
  6
CONTINUOUS
 10
12.722459
 20
-100.060903
 40
137.881648
 50
37.563014
 51
90.0
  0
ARC
  8
通り芯
  6
CONTINUOUS
 10
12.722459
 20
-100.060903
 40
136.806155
 50
37.380674
 51
90.0
  0
INSERT
  2
*GRP_0038
  8
型材
  6
DOT
 10
0.0
 20
0.0
  0
INSERT
  2
*GRP_0040
  8
型材
  6
DOT
 10
0.0
 20
0.0
  0
INSERT
  2
*GRP_0001
  8
型材断面
  6
CONTINUOUS
 10
0.0
 20
0.0
  0
LINE
  8
型材断面
  6
CONTINUOUS
 10
-118.142155
 20
-57.336475
 11
-118.142155
 21
-52.836475
  0
LINE
  8
型材断面
  6
CONTINUOUS
 10
-122.142155
 20
-52.336475
 11
-122.142155
 21
-48.204537
  0
LINE
  8
型材断面
  6
CONTINUOUS
 10
-118.142155
 20
-57.336475
 11
-117.642155
 21
-57.336475
  0
ARC
  8
型材断面
  6
CONTINUOUS
 10
-97.074027
 20
-39.880314
 40
0.5
 50
-72.715162
 51
0.0
  0
ARC
  8
型材断面
  6
CONTINUOUS
 10
-122.142154
 20
-48.204538
 40
0.5
 50
107.284838
 51
180.0
  0
ARC
  8
型材断面
  6
CONTINUOUS
 10
-122.142154
 20
-52.336477
 40
0.5
 50
180.0
 51
270.0
  0
ARC
  8
型材断面
  6
CONTINUOUS
 10
-118.142154
 20
-52.836477
 40
0.5
 50
0.0
 51
90.0
  0
LINE
  8
型材断面
  6
CONTINUOUS
 10
-122.142155
 20
-52.336475
 11
-117.642155
 21
-52.336475
  0
LINE
  8
型材断面
  6
CONTINUOUS
 10
-117.642155
 20
-57.336475
 11
-117.642155
 21
-52.336475
  0
LINE
  8
型材断面
  6
CONTINUOUS
 62
    47
 10
-122.642155
 20
-52.836475
 11
-122.642155
 21
-47.836475
  0
LINE
  8
型材断面
  6
CONTINUOUS
 62
    47
 10
-97.074028
 20
-39.880313
 11
-122.642155
 21
-47.836475
  0
LINE
  8
型材断面
  6
CONTINUOUS
 10
-122.142155
 20
-48.204537
 11
-96.574028
 21
-40.248373
  0
LINE
  8
型材断面
  6
CONTINUOUS
 10
143.58707
 20
-57.336475
 11
143.58707
 21
-52.836475
  0
LINE
  8
型材断面
  6
CONTINUOUS
 10
147.58707
 20
-52.336475
 11
147.58707
 21
-48.204537
  0
LINE
  8
型材断面
  6
CONTINUOUS
 10
143.58707
 20
-57.336475
 11
143.08707
 21
-57.336475
  0
ARC
  8
型材断面
  6
CONTINUOUS
 10
122.518943
 20
-39.880314
 40
0.5
 50
180.0
 51
252.715162
  0
ARC
  8
型材断面
  6
CONTINUOUS
 10
147.587071
 20
-48.204538
 40
0.5
 50
0.0
 51
72.715162
  0
ARC
  8
型材断面
  6
CONTINUOUS
 10
147.587071
 20
-52.336477
 40
0.5
 50
270.0
 51
360.0
  0
ARC
  8
型材断面
  6
CONTINUOUS
 10
143.587071
 20
-52.836477
 40
0.5
 50
90.0
 51
180.0
  0
LINE
  8
型材断面
  6
CONTINUOUS
 10
147.58707
 20
-52.336475
 11
143.08707
 21
-52.336475
  0
LINE
  8
型材断面
  6
CONTINUOUS
 10
143.08707
 20
-57.336475
 11
143.08707
 21
-52.336475
  0
LINE
  8
型材断面
  6
CONTINUOUS
 62
    47
 10
148.08707
 20
-52.836475
 11
148.08707
 21
-47.836475
  0
LINE
  8
型材断面
  6
CONTINUOUS
 62
    47
 10
122.518943
 20
-39.880313
 11
148.08707
 21
-47.836475
  0
LINE
  8
型材断面
  6
CONTINUOUS
 10
147.58707
 20
-48.204537
 11
122.018943
 21
-40.248373
  0
LINE
  8
型材断面
  6
CONTINUOUS
 10
-134.46247
 20
-73.7016
 11
-134.46247
 21
-73.7016
  0
LINE
  8
型材断面
  6
CONTINUOUS
 10
-151.3074
 20
-76.16981
 11
-101.30736
 21
-69.503145
  0
LINE
  8
型材断面
  6
CONTINUOUS
 10
-151.29664
 20
-83.918042
 11
-142.354717
 21
-74.97612
  0
LINE
  8
型材断面
  6
CONTINUOUS
 10
-151.29664
 20
-86.275065
 11
-139.635075
 21
-74.613502
  0
LINE
  8
型材断面
  6
CONTINUOUS
 10
-151.29664
 20
-88.63209
 11
-136.915435
 21
-74.250885
  0
LINE
  8
型材断面
  6
CONTINUOUS
 62
    47
 10
-151.3074
 20
-94.24364
 11
-151.3074
 21
-76.16981
  0
LINE
  8
型材断面
  6
CONTINUOUS
 62
    47
 10
-154.64073
 20
-94.24364
 11
-154.64073
 21
-76.16981
  0
ARC
  8
型材断面
  6
CONTINUOUS
 10
-151.307398
 20
-76.169812
 40
3.333333
 50
97.594638
 51
180.0
  0
LINE
  8
型材断面
  6
CONTINUOUS
 10
-136.54044
 20
-70.838052
 11
-151.747943
 21
-72.865718
  0
ARC
  8
型材断面
  6
CONTINUOUS
 10
-136.099896
 20
-74.142147
 40
3.333333
 50
7.59463
 51
97.594638
  0
LINE
  8
型材断面
  6
CONTINUOUS
 10
-139.119222
 20
-73.704463
 11
-139.119222
 21
-73.704463
  0
LINE
  8
型材断面
  6
CONTINUOUS
 10
-101.30736
 20
-73.947962
 11
-121.60304
 21
-94.24364
  0
LINE
  8
型材断面
  6
CONTINUOUS
 10
-101.30736
 20
-76.304985
 11
-119.246015
 21
-94.24364
  0
LINE
  8
型材断面
  6
CONTINUOUS
 10
-101.30736
 20
-78.66201
 11
-116.888993
 21
-94.24364
  0
INSERT
  2
*GRP_0002
  8
型材断面
  6
CONTINUOUS
 10
0.0
 20
0.0
  0
LINE
  8
型材断面
  6
CONTINUOUS
 10
-122.642158
 20
-52.836478
 11
-122.642158
 21
-57.836478
  0
LINE
  8
型材断面
  6
CONTINUOUS
 10
-120.365745
 20
-52.836478
 11
-120.365745
 21
-57.52676
  0
LINE
  8
型材断面
  6
CONTINUOUS
 10
-120.365745
 20
-52.836478
 11
-118.642158
 21
-57.29226
  0
POLYLINE
  8
型材断面
  6
CONTINUOUS
 66
     1
  0
VERTEX
  8
型材断面
 10
-138.50291
 20
-60.499007
  0
VERTEX
  8
型材断面
 10
-141.16192
 20
-65.910642
  0
VERTEX
  8
型材断面
 10
-141.16192
 20
-71.45425
  0
SEQEND
  0
LINE
  8
型材断面
  6
CONTINUOUS
 10
-160.97553
 20
-83.119925
 11
-154.64073
 21
-83.119925
  0
LINE
  8
型材断面
  6
CONTINUOUS
 10
-154.64073
 20
-80.09175
 11
-159.875528
 21
-80.09175
  0
LINE
  8
型材断面
  6
CONTINUOUS
 10
-154.64073
 20
-77.425085
 11
-159.875528
 21
-77.425085
  0
LINE
  8
型材断面
  6
CONTINUOUS
 10
-159.875528
 20
-78.953258
 11
-159.875528
 21
-77.425085
  0
LINE
  8
型材断面
  6
CONTINUOUS
 10
-159.875528
 20
-77.425085
 11
-154.64073
 21
-80.09175
  0
LINE
  8
型材断面
  6
CONTINUOUS
 10
-101.30736
 20
-41.721267
 11
-101.30736
 21
-94.24364
  0
INSERT
  2
*HAT_0003
  8
型材断面
 10
0.0
 20
0.0
  0
INSERT
  2
*HAT_0004
  8
型材断面
 10
0.0
 20
0.0
  0
LINE
  8
型材断面
  6
CONTINUOUS
 10
159.907385
 20
-73.7016
 11
159.907385
 21
-73.7016
  0
LINE
  8
型材断面
  6
CONTINUOUS
 10
164.564137
 20
-73.704463
 11
164.564137
 21
-73.704463
  0
LINE
  8
型材断面
  6
CONTINUOUS
 10
126.752275
 20
-73.947962
 11
147.047955
 21
-94.24364
  0
LINE
  8
型材断面
  6
CONTINUOUS
 10
126.752275
 20
-76.304985
 11
144.69093
 21
-94.24364
  0
LINE
  8
型材断面
  6
CONTINUOUS
 10
126.752275
 20
-78.66201
 11
142.333907
 21
-94.24364
  0
INSERT
  2
*GRP_0009
  8
型材断面
  6
CONTINUOUS
 10
0.0
 20
0.0
  0
LINE
  8
型材断面
  6
CONTINUOUS
 10
148.087073
 20
-52.836478
 11
148.087073
 21
-57.836478
  0
LINE
  8
型材断面
  6
CONTINUOUS
 10
145.81066
 20
-52.836478
 11
145.81066
 21
-57.52676
  0
LINE
  8
型材断面
  6
CONTINUOUS
 10
145.81066
 20
-52.836478
 11
144.087073
 21
-57.29226
  0
LINE
  8
型材断面
  6
CONTINUOUS
 10
186.420445
 20
-83.119925
 11
180.085645
 21
-83.119925
  0
LINE
  8
型材断面
  6
CONTINUOUS
 10
180.085645
 20
-80.09175
 11
185.320442
 21
-80.09175
  0
LINE
  8
型材断面
  6
CONTINUOUS
 10
180.085645
 20
-77.425085
 11
185.320442
 21
-77.425085
  0
LINE
  8
型材断面
  6
CONTINUOUS
 10
185.320442
 20
-78.953258
 11
185.320442
 21
-77.425085
  0
LINE
  8
型材断面
  6
CONTINUOUS
 10
185.320442
 20
-77.425085
 11
180.085645
 21
-80.09175
  0
LINE
  8
型材断面
  6
CONTINUOUS
 10
126.752275
 20
-41.721267
 11
126.752275
 21
-94.24364
  0
INSERT
  2
*HAT_0005
  8
型材断面
 10
0.0
 20
0.0
  0
INSERT
  2
*HAT_0006
  8
型材断面
 10
0.0
 20
0.0
  0
LINE
  8
型材断面
  6
CONTINUOUS
 10
126.752277
 20
-72.836482
 11
176.752318
 21
-72.836482
  0
LINE
  8
型材断面
  6
CONTINUOUS
 10
126.752277
 20
-69.50315
 11
176.752312
 21
-69.50315
  0
ARC
  8
型材断面
  6
CONTINUOUS
 10
176.752313
 20
-72.836483
 40
3.333333
 50
0.0
 51
90.0
  0
LINE
  8
型材断面
  6
CONTINUOUS
 10
176.741555
 20
-86.275065
 11
163.30297
 21
-72.836482
  0
LINE
  8
型材断面
  6
CONTINUOUS
 10
176.741555
 20
-88.63209
 11
160.945947
 21
-72.836482
  0
LINE
  8
型材断面
  6
CONTINUOUS
 10
176.741555
 20
-83.918042
 11
165.659995
 21
-72.836482
  0
LINE
  8
型材断面
  6
CONTINUOUS
 62
    47
 10
176.752315
 20
-94.24364
 11
176.752315
 21
-72.836482
  0
LINE
  8
型材断面
  6
CONTINUOUS
 62
    47
 10
180.085645
 20
-94.24364
 11
180.085645
 21
-72.836482
  0
LINE
  8
型材断面
  6
CONTINUOUS
 10
-87.974032
 20
-35.838148
 11
-88.474032
 21
-35.838148
  0
LINE
  8
型材断面
  6
CONTINUOUS
 10
-88.47403
 20
-38.004813
 11
-96.07403
 21
-38.004813
  0
ARC
  8
型材断面
  6
CONTINUOUS
 10
-96.074029
 20
-38.004814
 40
0.5
 50
180.0
 51
270.0
  0
ARC
  8
型材断面
  6
CONTINUOUS
 10
-88.47403
 20
-38.004814
 40
0.5
 50
-90.0
 51
0.000018
  0
LINE
  8
型材断面
  6
CONTINUOUS
 10
-87.974032
 20
-35.838148
 11
-87.97403
 21
-38.504813
  0
LINE
  8
型材断面
  6
DOT
 10
-96.07403
 20
-38.004813
 11
-97.07403
 21
-38.004813
  0
LINE
  8
型材断面
  6
DOT
 10
-96.07403
 20
-35.338145
 11
-97.07403
 21
-35.338145
  0
LINE
  8
型材断面
  6
DOT
 10
-96.94903
 20
-35.338145
 11
-96.94903
 21
-38.004813
  0
LINE
  8
型材断面
  6
DOT
 10
-96.82403
 20
-35.338145
 11
-96.82403
 21
-38.004813
  0
LINE
  8
型材断面
  6
DOT
 10
-96.69903
 20
-35.338145
 11
-96.69903
 21
-38.004813
  0
LINE
  8
型材断面
  6
DOT
 10
-96.19903
 20
-35.338145
 11
-96.19903
 21
-38.004813
  0
LINE
  8
型材断面
  6
DOT
 10
-96.32403
 20
-35.338145
 11
-96.32403
 21
-38.004813
  0
LINE
  8
型材断面
  6
DOT
 10
-96.44903
 20
-35.338145
 11
-96.44903
 21
-38.004813
  0
LINE
  8
型材断面
  6
CONTINUOUS
 10
-93.640695
 20
-94.24364
 11
-93.640695
 21
-38.504813
  0
LINE
  8
型材断面
  6
CONTINUOUS
 10
-93.30736
 20
-94.24364
 11
-93.30736
 21
-38.504813
  0
LINE
  8
型材断面
  6
CONTINUOUS
 10
-89.974028
 20
-94.24364
 11
-89.974028
 21
-38.504813
  0
LINE
  8
型材断面
  6
CONTINUOUS
 10
-89.640695
 20
-94.24364
 11
-89.640695
 21
-38.504813
  0
LINE
  8
型材断面
  6
CONTINUOUS
 62
    47
 10
-87.97403
 20
-38.504813
 11
-96.074028
 21
-38.504813
  0
ARC
  8
型材断面
  6
CONTINUOUS
 10
-96.57403
 20
-38.004813
 40
0.655813
 50
270.0
 51
310.32261
  0
ARC
  8
型材断面
  6
CONTINUOUS
 10
-96.57403
 20
-38.004813
 40
0.825703
 50
270.0
 51
322.731932
  0
LINE
  8
型材断面
  6
CONTINUOUS
 10
113.418947
 20
-35.838148
 11
113.918947
 21
-35.838148
  0
LINE
  8
型材断面
  6
CONTINUOUS
 10
113.918945
 20
-38.004813
 11
121.518945
 21
-38.004813
  0
ARC
  8
型材断面
  6
CONTINUOUS
 10
121.518944
 20
-38.004814
 40
0.5
 50
270.0
 51
360.0
  0
ARC
  8
型材断面
  6
CONTINUOUS
 10
113.918945
 20
-38.004814
 40
0.5
 50
179.999982
 51
270.0
  0
LINE
  8
型材断面
  6
CONTINUOUS
 10
113.418947
 20
-35.838148
 11
113.418945
 21
-38.504813
  0
LINE
  8
型材断面
  6
DOT
 10
121.518945
 20
-38.004813
 11
122.518945
 21
-38.004813
  0
LINE
  8
型材断面
  6
DOT
 10
121.518945
 20
-35.338145
 11
122.518945
 21
-35.338145
  0
LINE
  8
型材断面
  6
DOT
 10
122.393945
 20
-35.338145
 11
122.393945
 21
-38.004813
  0
LINE
  8
型材断面
  6
DOT
 10
122.268945
 20
-35.338145
 11
122.268945
 21
-38.004813
  0
LINE
  8
型材断面
  6
DOT
 10
122.143945
 20
-35.338145
 11
122.143945
 21
-38.004813
  0
LINE
  8
型材断面
  6
DOT
 10
121.643945
 20
-35.338145
 11
121.643945
 21
-38.004813
  0
LINE
  8
型材断面
  6
DOT
 10
121.768945
 20
-35.338145
 11
121.768945
 21
-38.004813
  0
LINE
  8
型材断面
  6
DOT
 10
121.893945
 20
-35.338145
 11
121.893945
 21
-38.004813
  0
LINE
  8
型材断面
  6
CONTINUOUS
 62
    47
 10
113.418945
 20
-38.504813
 11
121.518943
 21
-38.504813
  0
ARC
  8
型材断面
  6
CONTINUOUS
 10
122.018945
 20
-38.004813
 40
0.655813
 50
229.67739
 51
270.0
  0
ARC
  8
型材断面
  6
CONTINUOUS
 10
122.018945
 20
-38.004813
 40
0.825703
 50
217.268068
 51
270.0
  0
LINE
  8
型材断面
  6
CONTINUOUS
 10
115.08561
 20
-94.24364
 11
115.08561
 21
-38.504813
  0
LINE
  8
型材断面
  6
CONTINUOUS
 10
115.418943
 20
-94.24364
 11
115.418943
 21
-38.504813
  0
LINE
  8
型材断面
  6
CONTINUOUS
 10
118.752275
 20
-94.24364
 11
118.752275
 21
-38.504813
  0
LINE
  8
型材断面
  6
CONTINUOUS
 10
119.08561
 20
-94.24364
 11
119.08561
 21
-38.504813
  0
LINE
  8
型材断面
  6
CONTINUOUS
 10
-96.07403
 20
-35.338145
 11
-93.40736
 21
-35.338145
  0
LINE
  8
型材断面
  6
CONTINUOUS
 10
-93.40736
 20
-38.004813
 11
-93.40736
 21
-35.338145
  0
INSERT
  2
*HAT_0007
  8
型材断面
 10
0.0
 20
0.0
  0
LINE
  8
型材断面
  6
CONTINUOUS
 10
121.518955
 20
-35.33816
 11
118.852285
 21
-35.338155
  0
LINE
  8
型材断面
  6
CONTINUOUS
 10
118.85228
 20
-38.004822
 11
118.852285
 21
-35.338155
  0
INSERT
  2
*HAT_0008
  8
型材断面
 10
0.0
 20
0.0
  0
LINE
  8
型材断面
  6
CONTINUOUS
 10
9.38912
 20
-25.17148
 11
9.38912
 21
-38.504813
  0
LINE
  8
型材断面
  6
CONTINUOUS
 10
16.055788
 20
-25.17148
 11
16.055788
 21
-38.504813
  0
LINE
  8
型材断面
  6
CONTINUOUS
 10
15.555788
 20
-25.67148
 11
9.88912
 21
-25.67148
  0
LINE
  8
型材断面
  6
CONTINUOUS
 10
15.555788
 20
-25.67148
 11
15.555788
 21
-38.004813
  0
LINE
  8
型材断面
  6
CONTINUOUS
 10
9.88912
 20
-25.67148
 11
9.88912
 21
-38.004813
  0
LINE
  8
型材断面
  6
CONTINUOUS
 10
15.555788
 20
-38.004815
 11
9.88912
 21
-38.004815
  0
LINE
  8
型材断面
  6
CONTINUOUS
 10
16.055788
 20
-38.504815
 11
9.38912
 21
-38.504815
  0
LINE
  8
型材断面
  6
CONTINUOUS
 10
113.418943
 20
-35.838148
 11
21.889118
 21
-35.838148
  0
LINE
  8
型材断面
  6
CONTINUOUS
 10
113.41894
 20
-38.504813
 11
21.88912
 21
-38.504813
  0
LINE
  8
型材断面
  6
CONTINUOUS
 10
-87.974032
 20
-35.838148
 11
3.555792
 21
-35.838148
  0
LINE
  8
型材断面
  6
CONTINUOUS
 10
-87.97403
 20
-38.504813
 11
3.55579
 21
-38.504813
  0
LINE
  8
型材断面
  6
CONTINUOUS
 10
-39.472473
 20
-65.831502
 11
-39.472473
 21
-79.164835
  0
LINE
  8
型材断面
  6
CONTINUOUS
 10
-32.805805
 20
-65.831502
 11
-32.805805
 21
-79.164835
  0
LINE
  8
型材断面
  6
CONTINUOUS
 10
-33.305805
 20
-66.331502
 11
-38.972473
 21
-66.331502
  0
LINE
  8
型材断面
  6
CONTINUOUS
 10
-33.305805
 20
-66.331502
 11
-33.305805
 21
-78.664835
  0
LINE
  8
型材断面
  6
CONTINUOUS
 10
-38.972473
 20
-66.331502
 11
-38.972473
 21
-78.664835
  0
LINE
  8
型材断面
  6
CONTINUOUS
 10
-32.805805
 20
-65.831502
 11
-39.472473
 21
-65.831502
  0
LINE
  8
型材断面
  6
CONTINUOUS
 10
-33.305805
 20
-78.664837
 11
-38.972473
 21
-78.664837
  0
LINE
  8
型材断面
  6
CONTINUOUS
 10
-32.805805
 20
-79.164837
 11
-39.472473
 21
-79.164837
  0
LINE
  8
型材断面
  6
DOT
 10
-26.972477
 20
-74.164837
 11
-45.305797
 21
-74.164837
  0
LINE
  8
型材断面
  6
DOT
 10
-39.472473
 20
-74.164837
 11
-32.805805
 21
-65.831502
  0
LINE
  8
型材断面
  6
DOT
 10
-39.472473
 20
-65.831502
 11
-32.805805
 21
-74.164837
  0
LINE
  8
型材断面
  6
DOT
 10
3.555792
 20
-30.17148
 11
21.889118
 21
-30.17148
  0
LINE
  8
型材断面
  6
DOT
 10
21.889118
 20
-30.17148
 11
21.889118
 21
-25.17148
  0
LINE
  8
型材断面
  6
DOT
 10
3.555792
 20
-30.17148
 11
3.555792
 21
-25.17148
  0
LINE
  8
型材断面
  6
DOT
 10
9.389122
 20
-30.17148
 11
16.055788
 21
-38.504813
  0
LINE
  8
型材断面
  6
DOT
 10
9.38912
 20
-38.504813
 11
16.055788
 21
-30.17148
  0
LINE
  8
型材断面
  6
DOT
 10
-95.574028
 20
-38.004813
 11
-95.574028
 21
-33.504813
  0
LINE
  8
型材断面
  6
DOT
 10
-96.074028
 20
-33.504813
 11
-96.074028
 21
-38.004813
  0
LINE
  8
型材断面
  6
DOT
 10
-95.574028
 20
-33.504813
 11
-77.703135
 21
-25.17148
  0
LINE
  8
型材断面
  6
DOT
 10
121.018943
 20
-38.004813
 11
121.018943
 21
-33.504813
  0
LINE
  8
型材断面
  6
DOT
 10
121.018943
 20
-33.504813
 11
121.518943
 21
-33.504813
  0
LINE
  8
型材断面
  6
DOT
 10
121.518943
 20
-33.504813
 11
121.518943
 21
-38.004813
  0
LINE
  8
型材断面
  6
DOT
 10
-77.703135
 20
-25.17148
 11
103.14805
 21
-25.17148
  0
LINE
  8
型材断面
  6
DOT
 10
121.018943
 20
-33.504813
 11
103.14805
 21
-25.17148
  0
LINE
  8
型材断面
  6
CONTINUOUS
 10
16.055788
 20
-38.504813
 11
16.055788
 21
-30.17148
  0
LINE
  8
型材断面
  6
CONTINUOUS
 10
9.389122
 20
-38.504813
 11
9.389122
 21
-30.17148
  0
INSERT
  2
*GRP_0058
  8
型材断面
  6
DOT
 10
0.0
 20
0.0
  0
INSERT
  2
*GRP_0059
  8
型材断面
  6
DOT
 10
0.0
 20
0.0
  0
LINE
  8
型材断面
  6
DOT
 10
-26.972477
 20
-74.164887
 11
-26.972483
 21
-75.998218
  0
INSERT
  2
*GRP_0060
  8
型材断面
  6
DOT
 10
0.0
 20
0.0
  0
LINE
  8
型材断面
  6
DOT
 10
-45.3058
 20
-74.164837
 11
-45.305805
 21
-75.998167
  0
INSERT
  2
*GRP_0061
  8
型材断面
  6
DOT
 10
0.0
 20
0.0
  0
LINE
  8
型材断面
  6
DOT
 10
-95.574028
 20
-33.504813
 11
-96.074028
 21
-33.504813
  0
LINE
  8
型材断面
  6
CONTINUOUS
 10
16.055788
 20
-28.504813
 11
9.38912
 21
-28.504813
  0
LINE
  8
型材断面
  6
CONTINUOUS
 10
-97.074028
 20
-24.504813
 11
-106.574028
 21
-24.504813
  0
LINE
  8
型材断面
  6
CONTINUOUS
 10
-106.574028
 20
-24.004813
 11
-106.574028
 21
-24.504813
  0
ARC
  8
型材断面
  6
CONTINUOUS
 10
-97.074027
 20
-24.504814
 40
0.5
 50
0.0
 51
90.0
  0
LINE
  8
型材断面
  6
CONTINUOUS
 10
-106.574028
 20
-24.004813
 11
-96.574028
 21
-24.004813
  0
LINE
  8
型材断面
  6
CONTINUOUS
 10
-99.40736
 20
-23.504813
 11
-99.40736
 21
-24.004813
  0
LINE
  8
型材断面
  6
CONTINUOUS
 10
-96.574028
 20
-23.504813
 11
-99.40736
 21
-23.504813
  0
ARC
  8
型材断面
  6
CONTINUOUS
 10
-96.574027
 20
-24.004814
 40
0.5
 50
0.0
 51
90.0
  0
LINE
  8
型材断面
  6
CONTINUOUS
 10
122.518943
 20
-24.504813
 11
132.018943
 21
-24.504813
  0
LINE
  8
型材断面
  6
CONTINUOUS
 10
132.018943
 20
-24.004813
 11
132.018943
 21
-24.504813
  0
ARC
  8
型材断面
  6
CONTINUOUS
 10
122.518942
 20
-24.504814
 40
0.5
 50
90.0
 51
180.0
  0
LINE
  8
型材断面
  6
CONTINUOUS
 10
132.018943
 20
-24.004813
 11
122.018943
 21
-24.004813
  0
LINE
  8
型材断面
  6
CONTINUOUS
 10
124.852275
 20
-23.504813
 11
124.852275
 21
-24.004813
  0
LINE
  8
型材断面
  6
CONTINUOUS
 10
122.018943
 20
-23.504813
 11
124.852275
 21
-23.504813
  0
ARC
  8
型材断面
  6
CONTINUOUS
 10
122.018942
 20
-24.004814
 40
0.5
 50
90.0
 51
180.0
  0
POLYLINE
  8
型材断面
  6
CONTINUOUS
 66
     1
  0
VERTEX
  8
型材断面
 10
-48.614555
 20
-22.7968
  0
VERTEX
  8
型材断面
 10
-53.629478
 20
-22.7968
  0
VERTEX
  8
型材断面
 10
-53.629478
 20
-51.54902
  0
VERTEX
  8
型材断面
 10
-49.450375
 20
-51.54902
  0
SEQEND
  0
LINE
  8
型材断面
  6
CONTINUOUS
 10
-97.074028
 20
-39.880313
 11
-97.074028
 21
-24.504813
  0
LINE
  8
型材断面
  6
CONTINUOUS
 10
-96.574028
 20
-40.248373
 11
-96.574028
 21
-24.004813
  0
LINE
  8
型材断面
  6
CONTINUOUS
 10
-96.074028
 20
-38.004813
 11
-96.074028
 21
-24.004813
  0
LINE
  8
型材断面
  6
CONTINUOUS
 10
122.518943
 20
-39.880313
 11
122.518943
 21
-24.504813
  0
LINE
  8
型材断面
  6
CONTINUOUS
 10
122.018943
 20
-40.248373
 11
122.018943
 21
-24.004813
  0
LINE
  8
型材断面
  6
CONTINUOUS
 10
121.518943
 20
-38.004813
 11
121.518943
 21
-24.004813
  0
INSERT
  2
*GRP_0089
  8
型材断面
  6
DOT
 10
0.0
 20
0.0
  0
INSERT
  2
*GRP_0090
  8
型材断面
  6
DOT
 10
0.0
 20
0.0
  0
LINE
  8
ガラス
  6
CONTINUOUS
 10
-93.240697
 20
-35.338148
 11
-93.240697
 21
-33.071483
  0
LINE
  8
ガラス
  6
CONTINUOUS
 10
118.685613
 20
-35.338148
 11
118.685613
 21
-33.071483
  0
INSERT
  2
*GRP_0031
  8
ガラス
  6
CONTINUOUS
 10
0.0
 20
0.0
  0
INSERT
  2
*GRP_0032
  8
ガラス
  6
CONTINUOUS
 10
0.0
 20
0.0
  0
INSERT
  2
*GRP_0033
  8
ガラス
  6
CONTINUOUS
 10
0.0
 20
0.0
  0
INSERT
  2
*GRP_0034
  8
ガラス
  6
CONTINUOUS
 10
0.0
 20
0.0
  0
INSERT
  2
*GRP_0035
  8
ガラス
  6
CONTINUOUS
 10
0.0
 20
0.0
  0
INSERT
  2
*GRP_0036
  8
ガラス
  6
CONTINUOUS
 10
0.0
 20
0.0
  0
LINE
  8
ガラス
  6
CONTINUOUS
 10
118.685613
 20
-33.071483
 11
18.22245
 21
-33.071483
  0
LINE
  8
ガラス
  6
CONTINUOUS
 10
118.685613
 20
-33.23815
 11
18.22245
 21
-33.23815
  0
LINE
  8
ガラス
  6
CONTINUOUS
 10
118.685613
 20
-35.338148
 11
18.22245
 21
-35.338148
  0
LINE
  8
ガラス
  6
CONTINUOUS
 10
118.685613
 20
-35.17148
 11
18.22245
 21
-35.17148
  0
LINE
  8
ガラス
  6
CONTINUOUS
 10
-93.240697
 20
-35.17148
 11
7.22246
 21
-35.17148
  0
LINE
  8
ガラス
  6
CONTINUOUS
 10
-93.240697
 20
-35.338148
 11
7.22246
 21
-35.338148
  0
LINE
  8
ガラス
  6
CONTINUOUS
 10
-93.240697
 20
-33.23815
 11
7.22246
 21
-33.23815
  0
LINE
  8
ガラス
  6
CONTINUOUS
 10
-93.240697
 20
-33.071483
 11
7.22246
 21
-33.071483
  0
LINE
  8
ガラス
  6
CONTINUOUS
 10
18.22245
 20
-33.071483
 11
18.22245
 21
-35.338148
  0
LINE
  8
ガラス
  6
CONTINUOUS
 10
7.22246
 20
-33.071483
 11
7.22246
 21
-35.338148
  0
INSERT
  2
*GRP_0029
  8
ゴム等
  6
CONTINUOUS
 10
0.0
 20
0.0
  0
INSERT
  2
*GRP_0030
  8
ゴム等
  6
CONTINUOUS
 10
0.0
 20
0.0
  0
INSERT
  2
*GRP_0041
  8
ゴム等
  6
CONTINUOUS
 10
0.0
 20
0.0
  0
INSERT
  2
*GRP_0042
  8
ゴム等
  6
CONTINUOUS
 10
0.0
 20
0.0
  0
INSERT
  2
*GRP_0043
  8
ゴム等
  6
CONTINUOUS
 10
0.0
 20
0.0
  0
INSERT
  2
*GRP_0044
  8
ゴム等
  6
CONTINUOUS
 10
0.0
 20
0.0
  0
LINE
  8
ゴム等
  6
CONTINUOUS
 62
   127
 10
-106.074028
 20
-23.004813
 11
-97.074028
 21
-23.004813
  0
LINE
  8
ゴム等
  6
CONTINUOUS
 62
   127
 10
131.518943
 20
-23.004813
 11
122.518943
 21
-23.004813
  0
INSERT
  2
*GRP_0006
  8
ボルト／ビス
  6
CONTINUOUS
 62
    64
 10
0.0
 20
0.0
  0
INSERT
  2
*GRP_0010
  8
ボルト／ビス
  6
CONTINUOUS
 62
    64
 10
0.0
 20
0.0
  0
INSERT
  2
*GRP_0026
  8
ボルト／ビス
  6
CONTINUOUS
 62
    64
 10
0.0
 20
0.0
  0
INSERT
  2
*GRP_0027
  8
ボルト／ビス
  6
CONTINUOUS
 62
    64
 10
0.0
 20
0.0
  0
INSERT
  2
*GRP_0046
  8
ボルト／ビス
  6
DOT
 62
    64
 10
0.0
 20
0.0
  0
INSERT
  2
*GRP_0048
  8
ボルト／ビス
  6
DOT
 62
    64
 10
0.0
 20
0.0
  0
INSERT
  2
*GRP_0050
  8
ボルト／ビス
  6
DOT
 62
    64
 10
0.0
 20
0.0
  0
INSERT
  2
*GRP_0051
  8
ボルト／ビス
  6
DOT
 62
    64
 10
0.0
 20
0.0
  0
INSERT
  2
*GRP_0054
  8
ボルト／ビス
  6
DOT
 62
    64
 10
0.0
 20
0.0
  0
INSERT
  2
*GRP_0055
  8
ボルト／ビス
  6
DOT
 62
    64
 10
0.0
 20
0.0
  0
INSERT
  2
*GRP_0056
  8
ボルト／ビス
  6
DOT
 62
    64
 10
0.0
 20
0.0
  0
INSERT
  2
*GRP_0057
  8
ボルト／ビス
  6
DOT
 62
    64
 10
0.0
 20
0.0
  0
INSERT
  2
*GRP_0062
  8
ボルト／ビス
  6
DOT
 62
    64
 10
0.0
 20
0.0
  0
INSERT
  2
*GRP_0063
  8
ボルト／ビス
  6
DOT
 62
    64
 10
0.0
 20
0.0
  0
INSERT
  2
*GRP_0064
  8
ボルト／ビス
  6
CONTINUOUS
 10
0.0
 20
0.0
  0
INSERT
  2
*GRP_0065
  8
ボルト／ビス
  6
CONTINUOUS
 10
0.0
 20
0.0
  0
INSERT
  2
*GRP_0066
  8
ボルト／ビス
  6
CONTINUOUS
 10
0.0
 20
0.0
  0
INSERT
  2
*GRP_0067
  8
ボルト／ビス
  6
CONTINUOUS
 10
0.0
 20
0.0
  0
TEXT
  7
TextStyle03
  8
文字
  6
CONTINUOUS
 10
165.825
 20
-53.65
  1
規格水切
 40
3.0
 72
     5
 11
178.95
 21
-53.65
  0
TEXT
  7
TextStyle03
  8
文字
  6
CONTINUOUS
 10
-63.5
 20
-94.0
  1
※中桟使用は1600・2000・Ｌ型タイプのみ
 40
3.0
 72
     5
 11
0.25
 21
-94.0
  0
TEXT
  7
TextStyle03
  8
文字
  6
CONTINUOUS
 10
155.675
 20
-88.275
  1
排水パイプ
 40
3.0
 50
360.0
 72
     5
 11
172.175
 21
-88.275
  0
TEXT
  7
TextStyle03
  8
文字
  6
CONTINUOUS
 10
152.1125
 20
-91.65
  1
(オプション)
 40
3.0
 50
360.0
 72
     5
 11
172.175
 21
-91.65
  0
TEXT
  7
TextStyle03
  8
文字
  6
CONTINUOUS
 10
145.3625
 20
-95.025
  1
□10×10×1 L=60
 40
3.0
 50
360.0
 72
     5
 11
172.175
 21
-95.025
  0
LINE
  8
文字
  6
CONTINUOUS
 10
-26.972473
 20
-80.914933
 11
-26.972473
 21
-86.081725
  0
LINE
  8
文字
  6
CONTINUOUS
 10
-45.305803
 20
-80.914933
 11
-45.305803
 21
-86.081725
  0
TEXT
  7
TextStyle03
  8
文字
  6
CONTINUOUS
 10
-46.2
 20
-24.25
  1
断
 40
3.0
 72
     5
 11
-43.2
 21
-24.25
  0
TEXT
  7
TextStyle03
  8
文字
  6
CONTINUOUS
 10
-46.95
 20
-52.725
  1
断
 40
3.0
 72
     5
 11
-43.95
 21
-52.725
  0
TEXT
  7
TextStyle03
  8
文字
  6
CONTINUOUS
 10
96.1
 20
95.05
  1
ＮＳコード：ＮＳＫＳ
 40
5.0
 72
     5
 11
151.725
 21
95.05
  0
TEXT
  7
TextStyle03
  8
文字
  6
CONTINUOUS
 10
96.375
 20
120.375
  1
シリーズ：ＳＴＤＫ
 40
5.0
 72
     5
 11
146.375
 21
120.375
  0
TEXT
  7
TextStyle03
  8
文字
  6
CONTINUOUS
 10
96.375
 20
114.75
  1
　　　　　（固定）
 40
5.0
 72
     5
 11
146.375
 21
114.75
  0
TEXT
  7
TextStyle03
  8
文字
  6
CONTINUOUS
 10
96.375
 20
109.125
  1
図面名　：全体納まり断面図
 40
5.0
 72
     5
 11
168.875
 21
109.125
  0
TEXT
  7
TextStyle03
  8
文字
  6
CONTINUOUS
 10
96.375
 20
103.5
  1
　　　　　落下防止網仕様
 40
5.0
 72
     5
 11
163.25
 21
103.5
  0
INSERT
  2
*DIM_0007
  8
寸法
  6
CONTINUOUS
 10
0.0
 20
0.0
  0
INSERT
  2
*DIM_0008
  8
寸法
  6
CONTINUOUS
 10
0.0
 20
0.0
  0
INSERT
  2
*DIM_0014
  8
寸法
  6
CONTINUOUS
 10
0.0
 20
0.0
  0
INSERT
  2
*DIM_0015
  8
寸法
  6
CONTINUOUS
 10
0.0
 20
0.0
  0
INSERT
  2
*DIM_0016
  8
寸法
  6
CONTINUOUS
 10
0.0
 20
0.0
  0
INSERT
  2
*DIM_0017
  8
寸法
  6
CONTINUOUS
 10
0.0
 20
0.0
  0
INSERT
  2
*DIM_0018
  8
寸法
  6
CONTINUOUS
 10
0.0
 20
0.0
  0
INSERT
  2
*DIM_0019
  8
寸法
  6
CONTINUOUS
 10
0.0
 20
0.0
  0
INSERT
  2
*DIM_0020
  8
寸法
  6
CONTINUOUS
 10
0.0
 20
0.0
  0
INSERT
  2
*DIM_0021
  8
寸法
  6
CONTINUOUS
 10
0.0
 20
0.0
  0
INSERT
  2
*DIM_0022
  8
寸法
  6
CONTINUOUS
 10
0.0
 20
0.0
  0
INSERT
  2
*DIM_0023
  8
寸法
  6
CONTINUOUS
 10
0.0
 20
0.0
  0
INSERT
  2
*GRP_0024
  8
寸法
  6
CONTINUOUS
 10
0.0
 20
0.0
  0
INSERT
  2
*DIM_0025
  8
寸法
  6
CONTINUOUS
 10
0.0
 20
0.0
  0
INSERT
  2
*GRP_0039
  8
寸法
  6
CONTINUOUS
 10
0.0
 20
0.0
  0
INSERT
  2
*DIM_0045
  8
寸法
  6
CONTINUOUS
 10
0.0
 20
0.0
  0
INSERT
  2
*DIM_0072
  8
寸法
  6
CONTINUOUS
 10
0.0
 20
0.0
  0
INSERT
  2
*DIM_0073
  8
寸法
  6
CONTINUOUS
 10
0.0
 20
0.0
  0
INSERT
  2
*DIM_0074
  8
寸法
  6
CONTINUOUS
 10
0.0
 20
0.0
  0
INSERT
  2
*DIM_0075
  8
寸法
  6
CONTINUOUS
 10
0.0
 20
0.0
  0
INSERT
  2
*DIM_0076
  8
寸法
  6
CONTINUOUS
 10
0.0
 20
0.0
  0
INSERT
  2
*DIM_0077
  8
寸法
  6
CONTINUOUS
 10
0.0
 20
0.0
  0
INSERT
  2
*DIM_0078
  8
寸法
  6
CONTINUOUS
 10
0.0
 20
0.0
  0
INSERT
  2
*DIM_0079
  8
寸法
  6
CONTINUOUS
 10
0.0
 20
0.0
  0
INSERT
  2
*DIM_0080
  8
寸法
  6
CONTINUOUS
 10
0.0
 20
0.0
  0
INSERT
  2
*DIM_0081
  8
寸法
  6
CONTINUOUS
 10
0.0
 20
0.0
  0
INSERT
  2
*DIM_0082
  8
寸法
  6
CONTINUOUS
 10
0.0
 20
0.0
  0
INSERT
  2
*DIM_0083
  8
寸法
  6
CONTINUOUS
 10
0.0
 20
0.0
  0
INSERT
  2
*DIM_0084
  8
寸法
  6
CONTINUOUS
 10
0.0
 20
0.0
  0
INSERT
  2
*DIM_0085
  8
寸法
  6
CONTINUOUS
 10
0.0
 20
0.0
  0
INSERT
  2
*DIM_0086
  8
寸法
  6
CONTINUOUS
 10
0.0
 20
0.0
  0
INSERT
  2
*DIM_0087
  8
寸法
  6
CONTINUOUS
 10
0.0
 20
0.0
  0
INSERT
  2
*DIM_0088
  8
寸法
  6
CONTINUOUS
 10
0.0
 20
0.0
  0
INSERT
  2
*DIM_0091
  8
寸法
  6
CONTINUOUS
 10
0.0
 20
0.0
  0
INSERT
  2
*GRP_0037
  8
別途部材
  6
CONTINUOUS
 10
0.0
 20
0.0
  0
LINE
  8
別途部材
  6
CONTINUOUS
 62
    15
 10
-117.240687
 20
-26.003618
 11
-116.162373
 21
-26.003618
  0
ARC
  8
別途部材
  6
CONTINUOUS
 62
    15
 10
-111.433109
 20
-18.673461
 40
1.668651
 50
90.001373
 51
158.200992
  0
LINE
  8
別途部材
  6
CONTINUOUS
 62
    15
 10
-113.240695
 20
-16.003618
 11
-96.574028
 21
-16.003618
  0
LINE
  8
別途部材
  6
CONTINUOUS
 62
    15
 10
-111.43311
 20
-17.004813
 11
-95.986373
 21
-17.004813
  0
LINE
  8
別途部材
  6
CONTINUOUS
 62
    15
 10
-113.240695
 20
-16.003618
 11
-117.240687
 21
-26.003618
  0
LINE
  8
別途部材
  6
CONTINUOUS
 62
    15
 10
-112.982425
 20
-18.053745
 11
-116.162373
 21
-26.003618
  0
LINE
  8
別途部材
  6
CONTINUOUS
 62
    15
 10
142.685602
 20
-26.003618
 11
141.607287
 21
-26.003618
  0
ARC
  8
別途部材
  6
CONTINUOUS
 62
    15
 10
136.878024
 20
-18.673461
 40
1.668651
 50
21.799008
 51
89.998627
  0
LINE
  8
別途部材
  6
CONTINUOUS
 62
    15
 10
138.68561
 20
-16.003618
 11
122.018943
 21
-16.003618
  0
LINE
  8
別途部材
  6
CONTINUOUS
 62
    15
 10
136.878025
 20
-17.004813
 11
121.431287
 21
-17.004813
  0
LINE
  8
別途部材
  6
CONTINUOUS
 62
    15
 10
138.68561
 20
-16.003618
 11
142.685602
 21
-26.003618
  0
LINE
  8
別途部材
  6
CONTINUOUS
 62
    15
 10
138.42734
 20
-18.053745
 11
141.607287
 21
-26.003618
  0
LINE
  8
曲げ物
  6
CONTINUOUS
 10
-96.574028
 20
-23.004813
 11
-96.574028
 21
-18.538145
  0
ARC
  8
曲げ物
  6
CONTINUOUS
 10
-97.10736
 20
-18.538145
 40
0.533333
 50
0.0
 51
90.0
  0
ARC
  8
曲げ物
  6
CONTINUOUS
 10
-97.740693
 20
-22.471478
 40
0.533333
 50
-90.0
 51
0.0
  0
LINE
  8
曲げ物
  6
CONTINUOUS
 10
-96.574028
 20
-23.004813
 11
-97.10736
 21
-23.004813
  0
LINE
  8
曲げ物
  6
CONTINUOUS
 10
-97.740693
 20
-22.47148
 11
-97.740693
 21
-18.538145
  0
LINE
  8
曲げ物
  6
CONTINUOUS
 10
-97.20736
 20
-22.47148
 11
-97.20736
 21
-18.538145
  0
LINE
  8
曲げ物
  6
CONTINUOUS
 10
-97.10736
 20
-23.004813
 11
-97.10736
 21
-18.538145
  0
CIRCLE
  8
曲げ物
  6
CONTINUOUS
 10
-100.740705
 20
-21.812355
 40
0.666665
  0
LINE
  8
曲げ物
  6
CONTINUOUS
 10
-101.40737
 20
-19.812355
 11
-101.40737
 21
-21.14569
  0
CIRCLE
  8
曲げ物
  6
CONTINUOUS
 10
-67.407373
 20
-21.812355
 40
0.666665
  0
CIRCLE
  8
曲げ物
  6
CONTINUOUS
 10
-34.07404
 20
-21.812355
 40
0.666665
  0
CIRCLE
  8
曲げ物
  6
CONTINUOUS
 10
-0.740708
 20
-21.812355
 40
0.666665
  0
ARC
  8
曲げ物
  6
CONTINUOUS
 10
-108.740694
 20
-22.471478
 40
0.533333
 50
180.0
 51
270.0
  0
LINE
  8
曲げ物
  6
CONTINUOUS
 10
-109.90736
 20
-23.004813
 11
-109.90736
 21
-18.538145
  0
ARC
  8
曲げ物
  6
CONTINUOUS
 10
-109.374027
 20
-18.538145
 40
0.533333
 50
90.0
 51
180.0
  0
LINE
  8
曲げ物
  6
CONTINUOUS
 10
-109.274028
 20
-22.47148
 11
-109.274028
 21
-18.538145
  0
LINE
  8
曲げ物
  6
CONTINUOUS
 10
-108.740695
 20
-18.538145
 11
-108.740695
 21
-22.47148
  0
LINE
  8
曲げ物
  6
CONTINUOUS
 10
-109.374028
 20
-18.538145
 11
-109.374028
 21
-23.004813
  0
LINE
  8
曲げ物
  6
CONTINUOUS
 10
-109.90736
 20
-23.004813
 11
-109.374028
 21
-23.004813
  0
LINE
  8
曲げ物
  6
CONTINUOUS
 10
-97.740693
 20
-22.47148
 11
-108.740695
 21
-22.47148
  0
LINE
  8
曲げ物
  6
CONTINUOUS
 10
-97.740693
 20
-23.004813
 11
-108.740695
 21
-23.004813
  0
LINE
  8
曲げ物
  6
CONTINUOUS
 10
-97.10736
 20
-18.538145
 11
-109.374028
 21
-18.538145
  0
LINE
  8
曲げ物
  6
CONTINUOUS
 10
-97.10736
 20
-18.004813
 11
-109.374028
 21
-18.004813
  0
LINE
  8
曲げ物
  6
CONTINUOUS
 10
-101.40737
 20
-19.812355
 11
12.722458
 21
-19.812355
  0
LINE
  8
曲げ物
  6
CONTINUOUS
 10
-101.40737
 20
-21.14569
 11
12.722458
 21
-21.14569
  0
LINE
  8
曲げ物
  6
CONTINUOUS
 10
122.018943
 20
-23.004813
 11
122.018943
 21
-18.538145
  0
ARC
  8
曲げ物
  6
CONTINUOUS
 10
122.552275
 20
-18.538145
 40
0.533333
 50
90.0
 51
180.0
  0
ARC
  8
曲げ物
  6
CONTINUOUS
 10
123.185608
 20
-22.471478
 40
0.533333
 50
180.0
 51
270.0
  0
LINE
  8
曲げ物
  6
CONTINUOUS
 10
122.018943
 20
-23.004813
 11
122.552275
 21
-23.004813
  0
LINE
  8
曲げ物
  6
CONTINUOUS
 10
123.185607
 20
-22.47148
 11
123.185607
 21
-18.538145
  0
LINE
  8
曲げ物
  6
CONTINUOUS
 10
122.652275
 20
-22.47148
 11
122.652275
 21
-18.538145
  0
LINE
  8
曲げ物
  6
CONTINUOUS
 10
122.552275
 20
-23.004813
 11
122.552275
 21
-18.538145
  0
CIRCLE
  8
曲げ物
  6
CONTINUOUS
 10
126.18562
 20
-21.812355
 40
0.666665
  0
LINE
  8
曲げ物
  6
CONTINUOUS
 10
126.852285
 20
-19.812355
 11
126.852285
 21
-21.14569
  0
CIRCLE
  8
曲げ物
  6
CONTINUOUS
 10
92.852288
 20
-21.812355
 40
0.666665
  0
CIRCLE
  8
曲げ物
  6
CONTINUOUS
 10
59.518955
 20
-21.812355
 40
0.666665
  0
CIRCLE
  8
曲げ物
  6
CONTINUOUS
 10
26.185622
 20
-21.812355
 40
0.666665
  0
ARC
  8
曲げ物
  6
CONTINUOUS
 10
134.185609
 20
-22.471478
 40
0.533333
 50
270.0
 51
360.0
  0
LINE
  8
曲げ物
  6
CONTINUOUS
 10
135.352275
 20
-23.004813
 11
135.352275
 21
-18.538145
  0
ARC
  8
曲げ物
  6
CONTINUOUS
 10
134.818942
 20
-18.538145
 40
0.533333
 50
0.0
 51
90.0
  0
LINE
  8
曲げ物
  6
CONTINUOUS
 10
134.718943
 20
-22.47148
 11
134.718943
 21
-18.538145
  0
LINE
  8
曲げ物
  6
CONTINUOUS
 10
134.18561
 20
-18.538145
 11
134.18561
 21
-22.47148
  0
LINE
  8
曲げ物
  6
CONTINUOUS
 10
134.818943
 20
-18.538145
 11
134.818943
 21
-23.004813
  0
LINE
  8
曲げ物
  6
CONTINUOUS
 10
135.352275
 20
-23.004813
 11
134.818943
 21
-23.004813
  0
LINE
  8
曲げ物
  6
CONTINUOUS
 10
123.185607
 20
-22.47148
 11
134.18561
 21
-22.47148
  0
LINE
  8
曲げ物
  6
CONTINUOUS
 10
123.185607
 20
-23.004813
 11
134.18561
 21
-23.004813
  0
LINE
  8
曲げ物
  6
CONTINUOUS
 10
122.552275
 20
-18.538145
 11
134.818943
 21
-18.538145
  0
LINE
  8
曲げ物
  6
CONTINUOUS
 10
122.552275
 20
-18.004813
 11
134.818943
 21
-18.004813
  0
LINE
  8
曲げ物
  6
CONTINUOUS
 10
126.852285
 20
-19.812355
 11
12.722458
 21
-19.812355
  0
LINE
  8
曲げ物
  6
CONTINUOUS
 10
126.852285
 20
-21.14569
 11
12.722458
 21
-21.14569
  0
LINE
  8
St
  6
CONTINUOUS
 62
    47
 10
-118.142155
 20
-52.836475
 11
-122.642155
 21
-52.836475
  0
LINE
  8
St
  6
CONTINUOUS
 62
    47
 10
143.58707
 20
-52.836475
 11
148.08707
 21
-52.836475
  0
POLYLINE
  8
St
  6
CONTINUOUS
 66
     1
  0
VERTEX
  8
St
 10
-122.142155
 20
-52.336475
  0
VERTEX
  8
St
 10
-122.142155
 20
-48.204535
  0
VERTEX
  8
St
 10
-96.574028
 20
-40.248373
  0
SEQEND
  0
LINE
  8
St
  6
CONTINUOUS
 10
-96.574028
 20
-41.0513
 11
-122.142155
 21
-49.007463
  0
ARC
  8
St
  6
CONTINUOUS
 10
-117.642155
 20
-52.336475
 40
0.275881
 50
270.0
 51
360.0
  0
ARC
  8
St
  6
CONTINUOUS
 10
-117.642155
 20
-52.336475
 40
0.5
 50
270.0
 51
360.0
  0
LINE
  8
St
  6
CONTINUOUS
 10
-96.574028
 20
-40.248373
 11
-96.574028
 21
-52.336475
  0
LINE
  8
St
  6
CONTINUOUS
 10
-122.142155
 20
-52.336475
 11
-96.574028
 21
-52.336475
  0
POLYLINE
  8
St
  6
CONTINUOUS
 66
     1
 70
     4
  0
VERTEX
  8
St
 10
-116.125
 20
-61.425
 70
     8
  0
VERTEX
  8
St
 10
-116.125
 20
-61.425
 70
     8
  0
VERTEX
  8
St
 10
-116.1
 20
-61.4
 70
     8
  0
VERTEX
  8
St
 10
-116.1
 20
-61.4
 70
     8
  0
VERTEX
  8
St
 10
-116.075
 20
-61.4
 70
     8
  0
VERTEX
  8
St
 10
-116.075
 20
-61.4
 70
     8
  0
VERTEX
  8
St
 10
-116.075
 20
-61.375
 70
     8
  0
VERTEX
  8
St
 10
-116.05
 20
-61.375
 70
     8
  0
VERTEX
  8
St
 10
-116.05
 20
-61.375
 70
     8
  0
VERTEX
  8
St
 10
-116.05
 20
-61.35
 70
     8
  0
VERTEX
  8
St
 10
-116.025
 20
-61.35
 70
     8
  0
VERTEX
  8
St
 10
-116.025
 20
-61.35
 70
     8
  0
VERTEX
  8
St
 10
-116.0
 20
-61.35
 70
     8
  0
VERTEX
  8
St
 10
-116.0
 20
-61.325
 70
     8
  0
VERTEX
  8
St
 10
-116.0
 20
-61.325
 70
     8
  0
VERTEX
  8
St
 10
-115.975
 20
-61.325
 70
     8
  0
VERTEX
  8
St
 10
-115.975
 20
-61.3
 70
     8
  0
VERTEX
  8
St
 10
-115.975
 20
-61.3
 70
     8
  0
VERTEX
  8
St
 10
-115.95
 20
-61.3
 70
     8
  0
VERTEX
  8
St
 10
-115.95
 20
-61.3
 70
     8
  0
VERTEX
  8
St
 10
-115.925
 20
-61.275
 70
     8
  0
VERTEX
  8
St
 10
-115.925
 20
-61.275
 70
     8
  0
VERTEX
  8
St
 10
-115.925
 20
-61.275
 70
     8
  0
VERTEX
  8
St
 10
-115.9
 20
-61.275
 70
     8
  0
VERTEX
  8
St
 10
-115.9
 20
-61.25
 70
     8
  0
VERTEX
  8
St
 10
-115.9
 20
-61.25
 70
     8
  0
VERTEX
  8
St
 10
-115.875
 20
-61.25
 70
     8
  0
VERTEX
  8
St
 10
-115.875
 20
-61.25
 70
     8
  0
VERTEX
  8
St
 10
-115.85
 20
-61.225
 70
     8
  0
VERTEX
  8
St
 10
-115.85
 20
-61.225
 70
     8
  0
VERTEX
  8
St
 10
-115.85
 20
-61.225
 70
     8
  0
VERTEX
  8
St
 10
-115.825
 20
-61.225
 70
     8
  0
VERTEX
  8
St
 10
-115.825
 20
-61.2
 70
     8
  0
VERTEX
  8
St
 10
-115.825
 20
-61.2
 70
     8
  0
VERTEX
  8
St
 10
-115.8
 20
-61.2
 70
     8
  0
VERTEX
  8
St
 10
-115.8
 20
-61.2
 70
     8
  0
VERTEX
  8
St
 10
-115.775
 20
-61.175
 70
     8
  0
VERTEX
  8
St
 10
-115.775
 20
-61.175
 70
     8
  0
VERTEX
  8
St
 10
-115.775
 20
-61.175
 70
     8
  0
VERTEX
  8
St
 10
-115.75
 20
-61.175
 70
     8
  0
VERTEX
  8
St
 10
-115.75
 20
-61.15
 70
     8
  0
VERTEX
  8
St
 10
-115.75
 20
-61.15
 70
     8
  0
VERTEX
  8
St
 10
-115.725
 20
-61.15
 70
     8
  0
VERTEX
  8
St
 10
-115.725
 20
-61.15
 70
     8
  0
VERTEX
  8
St
 10
-115.7
 20
-61.125
 70
     8
  0
VERTEX
  8
St
 10
-115.7
 20
-61.125
 70
     8
  0
VERTEX
  8
St
 10
-115.7
 20
-61.125
 70
     8
  0
VERTEX
  8
St
 10
-115.675
 20
-61.125
 70
     8
  0
VERTEX
  8
St
 10
-115.675
 20
-61.125
 70
     8
  0
VERTEX
  8
St
 10
-115.675
 20
-61.1
 70
     8
  0
VERTEX
  8
St
 10
-115.65
 20
-61.1
 70
     8
  0
VERTEX
  8
St
 10
-115.65
 20
-61.1
 70
     8
  0
VERTEX
  8
St
 10
-115.65
 20
-61.1
 70
     8
  0
VERTEX
  8
St
 10
-115.625
 20
-61.1
 70
     8
  0
VERTEX
  8
St
 10
-115.625
 20
-61.1
 70
     8
  0
VERTEX
  8
St
 10
-115.6
 20
-61.075
 70
     8
  0
VERTEX
  8
St
 10
-115.6
 20
-61.075
 70
     8
  0
VERTEX
  8
St
 10
-115.6
 20
-61.075
 70
     8
  0
VERTEX
  8
St
 10
-115.575
 20
-61.075
 70
     8
  0
VERTEX
  8
St
 10
-115.575
 20
-61.075
 70
     8
  0
VERTEX
  8
St
 10
-115.575
 20
-61.075
 70
     8
  0
VERTEX
  8
St
 10
-115.55
 20
-61.05
 70
     8
  0
VERTEX
  8
St
 10
-115.55
 20
-61.05
 70
     8
  0
VERTEX
  8
St
 10
-115.55
 20
-61.05
 70
     8
  0
VERTEX
  8
St
 10
-115.525
 20
-61.05
 70
     8
  0
VERTEX
  8
St
 10
-115.525
 20
-61.05
 70
     8
  0
VERTEX
  8
St
 10
-115.525
 20
-61.05
 70
     8
  0
VERTEX
  8
St
 10
-115.5
 20
-61.05
 70
     8
  0
VERTEX
  8
St
 10
-115.5
 20
-61.05
 70
     8
  0
VERTEX
  8
St
 10
-115.5
 20
-61.025
 70
     8
  0
VERTEX
  8
St
 10
-115.475
 20
-61.025
 70
     8
  0
VERTEX
  8
St
 10
-115.475
 20
-61.025
 70
     8
  0
VERTEX
  8
St
 10
-115.45
 20
-61.025
 70
     8
  0
VERTEX
  8
St
 10
-115.45
 20
-61.025
 70
     8
  0
VERTEX
  8
St
 10
-115.45
 20
-61.025
 70
     8
  0
VERTEX
  8
St
 10
-115.425
 20
-61.025
 70
     8
  0
VERTEX
  8
St
 10
-115.425
 20
-61.025
 70
     8
  0
VERTEX
  8
St
 10
-115.425
 20
-61.025
 70
     8
  0
VERTEX
  8
St
 10
-115.4
 20
-61.025
 70
     8
  0
VERTEX
  8
St
 10
-115.4
 20
-61.025
 70
     8
  0
VERTEX
  8
St
 10
-115.4
 20
-61.025
 70
     8
  0
VERTEX
  8
St
 10
-115.375
 20
-61.025
 70
     8
  0
VERTEX
  8
St
 10
-115.375
 20
-61.025
 70
     8
  0
VERTEX
  8
St
 10
-115.375
 20
-61.025
 70
     8
  0
VERTEX
  8
St
 10
-115.35
 20
-61.0
 70
     8
  0
VERTEX
  8
St
 10
-115.35
 20
-61.0
 70
     8
  0
VERTEX
  8
St
 10
-115.35
 20
-61.0
 70
     8
  0
VERTEX
  8
St
 10
-115.325
 20
-61.0
 70
     8
  0
VERTEX
  8
St
 10
-115.325
 20
-61.0
 70
     8
  0
VERTEX
  8
St
 10
-115.325
 20
-61.025
 70
     8
  0
VERTEX
  8
St
 10
-115.3
 20
-61.025
 70
     8
  0
VERTEX
  8
St
 10
-115.3
 20
-61.025
 70
     8
  0
VERTEX
  8
St
 10
-115.3
 20
-61.025
 70
     8
  0
VERTEX
  8
St
 10
-115.275
 20
-61.025
 70
     8
  0
VERTEX
  8
St
 10
-115.275
 20
-61.025
 70
     8
  0
VERTEX
  8
St
 10
-115.275
 20
-61.025
 70
     8
  0
VERTEX
  8
St
 10
-115.25
 20
-61.025
 70
     8
  0
VERTEX
  8
St
 10
-115.25
 20
-61.025
 70
     8
  0
VERTEX
  8
St
 10
-115.25
 20
-61.025
 70
     8
  0
VERTEX
  8
St
 10
-115.225
 20
-61.025
 70
     8
  0
VERTEX
  8
St
 10
-115.225
 20
-61.025
 70
     8
  0
VERTEX
  8
St
 10
-115.225
 20
-61.025
 70
     8
  0
VERTEX
  8
St
 10
-115.2
 20
-61.025
 70
     8
  0
VERTEX
  8
St
 10
-115.2
 20
-61.025
 70
     8
  0
VERTEX
  8
St
 10
-115.2
 20
-61.025
 70
     8
  0
VERTEX
  8
St
 10
-115.175
 20
-61.05
 70
     8
  0
VERTEX
  8
St
 10
-115.175
 20
-61.05
 70
     8
  0
VERTEX
  8
St
 10
-115.175
 20
-61.05
 70
     8
  0
VERTEX
  8
St
 10
-115.15
 20
-61.05
 70
     8
  0
VERTEX
  8
St
 10
-115.15
 20
-61.05
 70
     8
  0
VERTEX
  8
St
 10
-115.15
 20
-61.05
 70
     8
  0
VERTEX
  8
St
 10
-115.125
 20
-61.05
 70
     8
  0
VERTEX
  8
St
 10
-115.125
 20
-61.05
 70
     8
  0
VERTEX
  8
St
 10
-115.125
 20
-61.075
 70
     8
  0
VERTEX
  8
St
 10
-115.1
 20
-61.075
 70
     8
  0
VERTEX
  8
St
 10
-115.1
 20
-61.075
 70
     8
  0
VERTEX
  8
St
 10
-115.1
 20
-61.075
 70
     8
  0
VERTEX
  8
St
 10
-115.1
 20
-61.075
 70
     8
  0
VERTEX
  8
St
 10
-115.075
 20
-61.075
 70
     8
  0
VERTEX
  8
St
 10
-115.075
 20
-61.1
 70
     8
  0
VERTEX
  8
St
 10
-115.075
 20
-61.1
 70
     8
  0
VERTEX
  8
St
 10
-115.05
 20
-61.1
 70
     8
  0
VERTEX
  8
St
 10
-115.05
 20
-61.1
 70
     8
  0
VERTEX
  8
St
 10
-115.05
 20
-61.1
 70
     8
  0
VERTEX
  8
St
 10
-115.025
 20
-61.125
 70
     8
  0
VERTEX
  8
St
 10
-115.025
 20
-61.125
 70
     8
  0
VERTEX
  8
St
 10
-115.025
 20
-61.125
 70
     8
  0
VERTEX
  8
St
 10
-115.0
 20
-61.125
 70
     8
  0
VERTEX
  8
St
 10
-115.0
 20
-61.125
 70
     8
  0
VERTEX
  8
St
 10
-115.0
 20
-61.15
 70
     8
  0
VERTEX
  8
St
 10
-114.975
 20
-61.15
 70
     8
  0
VERTEX
  8
St
 10
-114.975
 20
-61.15
 70
     8
  0
VERTEX
  8
St
 10
-114.975
 20
-61.15
 70
     8
  0
VERTEX
  8
St
 10
-114.95
 20
-61.15
 70
     8
  0
VERTEX
  8
St
 10
-114.95
 20
-61.175
 70
     8
  0
VERTEX
  8
St
 10
-114.95
 20
-61.175
 70
     8
  0
VERTEX
  8
St
 10
-114.925
 20
-61.175
 70
     8
  0
VERTEX
  8
St
 10
-114.925
 20
-61.175
 70
     8
  0
VERTEX
  8
St
 10
-114.925
 20
-61.2
 70
     8
  0
VERTEX
  8
St
 10
-114.9
 20
-61.2
 70
     8
  0
VERTEX
  8
St
 10
-114.9
 20
-61.2
 70
     8
  0
VERTEX
  8
St
 10
-114.9
 20
-61.2
 70
     8
  0
VERTEX
  8
St
 10
-114.875
 20
-61.225
 70
     8
  0
VERTEX
  8
St
 10
-114.875
 20
-61.225
 70
     8
  0
VERTEX
  8
St
 10
-114.875
 20
-61.225
 70
     8
  0
VERTEX
  8
St
 10
-114.875
 20
-61.225
 70
     8
  0
VERTEX
  8
St
 10
-114.85
 20
-61.25
 70
     8
  0
VERTEX
  8
St
 10
-114.85
 20
-61.25
 70
     8
  0
VERTEX
  8
St
 10
-114.85
 20
-61.25
 70
     8
  0
VERTEX
  8
St
 10
-114.825
 20
-61.25
 70
     8
  0
VERTEX
  8
St
 10
-114.825
 20
-61.275
 70
     8
  0
VERTEX
  8
St
 10
-114.825
 20
-61.275
 70
     8
  0
VERTEX
  8
St
 10
-114.8
 20
-61.275
 70
     8
  0
VERTEX
  8
St
 10
-114.8
 20
-61.275
 70
     8
  0
VERTEX
  8
St
 10
-114.8
 20
-61.3
 70
     8
  0
VERTEX
  8
St
 10
-114.775
 20
-61.3
 70
     8
  0
VERTEX
  8
St
 10
-114.775
 20
-61.3
 70
     8
  0
VERTEX
  8
St
 10
-114.775
 20
-61.3
 70
     8
  0
VERTEX
  8
St
 10
-114.75
 20
-61.325
 70
     8
  0
VERTEX
  8
St
 10
-114.75
 20
-61.325
 70
     8
  0
VERTEX
  8
St
 10
-114.75
 20
-61.325
 70
     8
  0
VERTEX
  8
St
 10
-114.725
 20
-61.325
 70
     8
  0
VERTEX
  8
St
 10
-114.725
 20
-61.35
 70
     8
  0
VERTEX
  8
St
 10
-114.725
 20
-61.35
 70
     8
  0
VERTEX
  8
St
 10
-114.7
 20
-61.35
 70
     8
  0
VERTEX
  8
St
 10
-114.7
 20
-61.375
 70
     8
  0
VERTEX
  8
St
 10
-114.7
 20
-61.375
 70
     8
  0
VERTEX
  8
St
 10
-114.675
 20
-61.375
 70
     8
  0
VERTEX
  8
St
 10
-114.675
 20
-61.375
 70
     8
  0
VERTEX
  8
St
 10
-114.675
 20
-61.4
 70
     8
  0
VERTEX
  8
St
 10
-114.65
 20
-61.4
 70
     8
  0
VERTEX
  8
St
 10
-114.65
 20
-61.4
 70
     8
  0
VERTEX
  8
St
 10
-114.625
 20
-61.4
 70
     8
  0
VERTEX
  8
St
 10
-114.625
 20
-61.425
 70
     8
  0
VERTEX
  8
St
 10
-114.625
 20
-61.425
 70
     8
  0
VERTEX
  8
St
 10
-114.6
 20
-61.425
 70
     8
  0
VERTEX
  8
St
 10
-114.6
 20
-61.45
 70
     8
  0
VERTEX
  8
St
 10
-114.6
 20
-61.45
 70
     8
  0
VERTEX
  8
St
 10
-114.575
 20
-61.45
 70
     8
  0
VERTEX
  8
St
 10
-114.575
 20
-61.45
 70
     8
  0
VERTEX
  8
St
 10
-114.575
 20
-61.475
 70
     8
  0
VERTEX
  8
St
 10
-114.55
 20
-61.475
 70
     8
  0
VERTEX
  8
St
 10
-114.55
 20
-61.475
 70
     8
  0
VERTEX
  8
St
 10
-114.55
 20
-61.475
 70
     8
  0
VERTEX
  8
St
 10
-114.525
 20
-61.5
 70
     8
  0
VERTEX
  8
St
 10
-114.525
 20
-61.5
 70
     8
  0
VERTEX
  8
St
 10
-114.5
 20
-61.5
 70
     8
  0
VERTEX
  8
St
 10
-114.5
 20
-61.5
 70
     8
  0
VERTEX
  8
St
 10
-114.5
 20
-61.525
 70
     8
  0
VERTEX
  8
St
 10
-114.475
 20
-61.525
 70
     8
  0
VERTEX
  8
St
 10
-114.475
 20
-61.525
 70
     8
  0
VERTEX
  8
St
 10
-114.475
 20
-61.525
 70
     8
  0
VERTEX
  8
St
 10
-114.45
 20
-61.55
 70
     8
  0
VERTEX
  8
St
 10
-114.45
 20
-61.55
 70
     8
  0
VERTEX
  8
St
 10
-114.45
 20
-61.55
 70
     8
  0
VERTEX
  8
St
 10
-114.425
 20
-61.55
 70
     8
  0
VERTEX
  8
St
 10
-114.425
 20
-61.575
 70
     8
  0
VERTEX
  8
St
 10
-114.4
 20
-61.575
 70
     8
  0
VERTEX
  8
St
 10
-114.4
 20
-61.575
 70
     8
  0
VERTEX
  8
St
 10
-114.4
 20
-61.575
 70
     8
  0
VERTEX
  8
St
 10
-114.375
 20
-61.6
 70
     8
  0
VERTEX
  8
St
 10
-114.375
 20
-61.6
 70
     8
  0
VERTEX
  8
St
 10
-114.35
 20
-61.6
 70
     8
  0
VERTEX
  8
St
 10
-114.35
 20
-61.6
 70
     8
  0
VERTEX
  8
St
 10
-114.35
 20
-61.6
 70
     8
  0
VERTEX
  8
St
 10
-114.325
 20
-61.625
 70
     8
  0
VERTEX
  8
St
 10
-114.325
 20
-61.625
 70
     8
  0
VERTEX
  8
St
 10
-114.3
 20
-61.625
 70
     8
  0
VERTEX
  8
St
 10
-114.3
 20
-61.625
 70
     8
  0
VERTEX
  8
St
 10
-114.3
 20
-61.625
 70
     8
  0
VERTEX
  8
St
 10
-114.275
 20
-61.65
 70
     8
  0
VERTEX
  8
St
 10
-114.275
 20
-61.65
 70
     8
  0
VERTEX
  8
St
 10
-114.25
 20
-61.65
 70
     8
  0
VERTEX
  8
St
 10
-114.25
 20
-61.65
 70
     8
  0
VERTEX
  8
St
 10
-114.25
 20
-61.65
 70
     8
  0
VERTEX
  8
St
 10
-114.225
 20
-61.675
 70
     8
  0
VERTEX
  8
St
 10
-114.225
 20
-61.675
 70
     8
  0
VERTEX
  8
St
 10
-114.2
 20
-61.675
 70
     8
  0
VERTEX
  8
St
 10
-114.2
 20
-61.675
 70
     8
  0
VERTEX
  8
St
 10
-114.175
 20
-61.675
 70
     8
  0
VERTEX
  8
St
 10
-114.175
 20
-61.675
 70
     8
  0
VERTEX
  8
St
 10
-114.175
 20
-61.7
 70
     8
  0
VERTEX
  8
St
 10
-114.15
 20
-61.7
 70
     8
  0
VERTEX
  8
St
 10
-114.15
 20
-61.7
 70
     8
  0
VERTEX
  8
St
 10
-114.125
 20
-61.7
 70
     8
  0
VERTEX
  8
St
 10
-114.125
 20
-61.7
 70
     8
  0
VERTEX
  8
St
 10
-114.1
 20
-61.7
 70
     8
  0
VERTEX
  8
St
 10
-114.1
 20
-61.7
 70
     8
  0
VERTEX
  8
St
 10
-114.1
 20
-61.7
 70
     8
  0
VERTEX
  8
St
 10
-114.075
 20
-61.725
 70
     8
  0
VERTEX
  8
St
 10
-114.075
 20
-61.725
 70
     8
  0
VERTEX
  8
St
 10
-114.05
 20
-61.725
 70
     8
  0
VERTEX
  8
St
 10
-114.05
 20
-61.725
 70
     8
  0
VERTEX
  8
St
 10
-114.025
 20
-61.725
 70
     8
  0
VERTEX
  8
St
 10
-114.025
 20
-61.725
 70
     8
  0
VERTEX
  8
St
 10
-114.0
 20
-61.725
 70
     8
  0
VERTEX
  8
St
 10
-114.0
 20
-61.725
 70
     8
  0
VERTEX
  8
St
 10
-113.975
 20
-61.725
 70
     8
  0
VERTEX
  8
St
 10
-113.975
 20
-61.725
 70
     8
  0
VERTEX
  8
St
 10
-113.95
 20
-61.725
 70
     8
  0
VERTEX
  8
St
 10
-113.95
 20
-61.75
 70
     8
  0
VERTEX
  8
St
 10
-113.925
 20
-61.75
 70
     8
  0
VERTEX
  8
St
 10
-113.925
 20
-61.75
 70
     8
  0
VERTEX
  8
St
 10
-113.925
 20
-61.75
 70
     8
  0
VERTEX
  8
St
 10
-113.9
 20
-61.75
 70
     8
  0
VERTEX
  8
St
 10
-113.9
 20
-61.75
 70
     8
  0
VERTEX
  8
St
 10
-113.875
 20
-61.75
 70
     8
  0
VERTEX
  8
St
 10
-113.875
 20
-61.75
 70
     8
  0
VERTEX
  8
St
 10
-113.85
 20
-61.75
 70
     8
  0
VERTEX
  8
St
 10
-113.85
 20
-61.75
 70
     8
  0
VERTEX
  8
St
 10
-113.825
 20
-61.75
 70
     8
  0
VERTEX
  8
St
 10
-113.825
 20
-61.75
 70
     8
  0
VERTEX
  8
St
 10
-113.8
 20
-61.75
 70
     8
  0
VERTEX
  8
St
 10
-113.775
 20
-61.75
 70
     8
  0
VERTEX
  8
St
 10
-113.775
 20
-61.75
 70
     8
  0
VERTEX
  8
St
 10
-113.75
 20
-61.75
 70
     8
  0
VERTEX
  8
St
 10
-113.75
 20
-61.725
 70
     8
  0
VERTEX
  8
St
 10
-113.725
 20
-61.725
 70
     8
  0
VERTEX
  8
St
 10
-113.725
 20
-61.725
 70
     8
  0
VERTEX
  8
St
 10
-113.7
 20
-61.725
 70
     8
  0
VERTEX
  8
St
 10
-113.7
 20
-61.725
 70
     8
  0
VERTEX
  8
St
 10
-113.675
 20
-61.725
 70
     8
  0
VERTEX
  8
St
 10
-113.675
 20
-61.725
 70
     8
  0
VERTEX
  8
St
 10
-113.65
 20
-61.725
 70
     8
  0
VERTEX
  8
St
 10
-113.65
 20
-61.725
 70
     8
  0
VERTEX
  8
St
 10
-113.625
 20
-61.725
 70
     8
  0
VERTEX
  8
St
 10
-113.625
 20
-61.725
 70
     8
  0
VERTEX
  8
St
 10
-113.6
 20
-61.725
 70
     8
  0
VERTEX
  8
St
 10
-113.6
 20
-61.7
 70
     8
  0
VERTEX
  8
St
 10
-113.575
 20
-61.7
 70
     8
  0
VERTEX
  8
St
 10
-113.575
 20
-61.7
 70
     8
  0
VERTEX
  8
St
 10
-113.55
 20
-61.7
 70
     8
  0
VERTEX
  8
St
 10
-113.55
 20
-61.7
 70
     8
  0
VERTEX
  8
St
 10
-113.525
 20
-61.7
 70
     8
  0
VERTEX
  8
St
 10
-113.525
 20
-61.7
 70
     8
  0
VERTEX
  8
St
 10
-113.5
 20
-61.675
 70
     8
  0
VERTEX
  8
St
 10
-113.5
 20
-61.675
 70
     8
  0
VERTEX
  8
St
 10
-113.475
 20
-61.675
 70
     8
  0
VERTEX
  8
St
 10
-113.475
 20
-61.675
 70
     8
  0
VERTEX
  8
St
 10
-113.45
 20
-61.675
 70
     8
  0
VERTEX
  8
St
 10
-113.45
 20
-61.675
 70
     8
  0
VERTEX
  8
St
 10
-113.425
 20
-61.675
 70
     8
  0
VERTEX
  8
St
 10
-113.425
 20
-61.65
 70
     8
  0
VERTEX
  8
St
 10
-113.4
 20
-61.65
 70
     8
  0
VERTEX
  8
St
 10
-113.4
 20
-61.65
 70
     8
  0
VERTEX
  8
St
 10
-113.375
 20
-61.65
 70
     8
  0
VERTEX
  8
St
 10
-113.375
 20
-61.65
 70
     8
  0
VERTEX
  8
St
 10
-113.35
 20
-61.625
 70
     8
  0
VERTEX
  8
St
 10
-113.35
 20
-61.625
 70
     8
  0
VERTEX
  8
St
 10
-113.35
 20
-61.625
 70
     8
  0
VERTEX
  8
St
 10
-113.325
 20
-61.625
 70
     8
  0
VERTEX
  8
St
 10
-113.325
 20
-61.625
 70
     8
  0
VERTEX
  8
St
 10
-113.3
 20
-61.6
 70
     8
  0
VERTEX
  8
St
 10
-113.3
 20
-61.6
 70
     8
  0
VERTEX
  8
St
 10
-113.3
 20
-61.6
 70
     8
  0
VERTEX
  8
St
 10
-113.275
 20
-61.6
 70
     8
  0
VERTEX
  8
St
 10
-113.275
 20
-61.6
 70
     8
  0
VERTEX
  8
St
 10
-113.25
 20
-61.575
 70
     8
  0
VERTEX
  8
St
 10
-113.25
 20
-61.575
 70
     8
  0
VERTEX
  8
St
 10
-113.25
 20
-61.575
 70
     8
  0
VERTEX
  8
St
 10
-113.225
 20
-61.575
 70
     8
  0
VERTEX
  8
St
 10
-113.225
 20
-61.575
 70
     8
  0
VERTEX
  8
St
 10
-113.225
 20
-61.55
 70
     8
  0
VERTEX
  8
St
 10
-113.2
 20
-61.55
 70
     8
  0
VERTEX
  8
St
 10
-113.2
 20
-61.55
 70
     8
  0
VERTEX
  8
St
 10
-113.2
 20
-61.55
 70
     8
  0
VERTEX
  8
St
 10
-113.2
 20
-61.525
 70
     8
  0
VERTEX
  8
St
 10
-113.175
 20
-61.525
 70
     8
  0
VERTEX
  8
St
 10
-113.175
 20
-61.525
 70
     8
  0
VERTEX
  8
St
 10
-113.175
 20
-61.525
 70
     8
  0
VERTEX
  8
St
 10
-113.175
 20
-61.525
 70
     8
  0
VERTEX
  8
St
 10
-113.15
 20
-61.5
 70
     8
  0
VERTEX
  8
St
 10
-113.15
 20
-61.5
 70
     8
  0
VERTEX
  8
St
 10
-113.15
 20
-61.5
 70
     8
  0
VERTEX
  8
St
 10
-113.15
 20
-61.5
 70
     8
  0
VERTEX
  8
St
 10
-113.15
 20
-61.475
 70
     8
  0
VERTEX
  8
St
 10
-113.15
 20
-61.475
 70
     8
  0
VERTEX
  8
St
 10
-113.125
 20
-61.475
 70
     8
  0
VERTEX
  8
St
 10
-113.125
 20
-61.475
 70
     8
  0
VERTEX
  8
St
 10
-113.125
 20
-61.45
 70
     8
  0
VERTEX
  8
St
 10
-113.125
 20
-61.45
 70
     8
  0
VERTEX
  8
St
 10
-113.125
 20
-61.45
 70
     8
  0
VERTEX
  8
St
 10
-113.125
 20
-61.45
 70
     8
  0
VERTEX
  8
St
 10
-113.125
 20
-61.45
 70
     8
  0
VERTEX
  8
St
 10
-113.125
 20
-61.425
 70
     8
  0
VERTEX
  8
St
 10
-113.125
 20
-61.425
 70
     8
  0
VERTEX
  8
St
 10
-113.125
 20
-61.425
 70
     8
  0
VERTEX
  8
St
 10
-113.125
 20
-61.425
 70
     8
  0
VERTEX
  8
St
 10
-113.125
 20
-61.4
 70
     8
  0
VERTEX
  8
St
 10
-113.125
 20
-61.4
 70
     8
  0
VERTEX
  8
St
 10
-113.125
 20
-61.4
 70
     8
  0
VERTEX
  8
St
 10
-113.125
 20
-61.4
 70
     8
  0
VERTEX
  8
St
 10
-113.125
 20
-61.4
 70
     8
  0
VERTEX
  8
St
 10
-113.125
 20
-61.375
 70
     8
  0
VERTEX
  8
St
 10
-113.125
 20
-61.375
 70
     8
  0
VERTEX
  8
St
 10
-113.15
 20
-61.375
 70
     8
  0
VERTEX
  8
St
 10
-113.15
 20
-61.375
 70
     8
  0
VERTEX
  8
St
 10
-113.15
 20
-61.375
 70
     8
  0
VERTEX
  8
St
 10
-113.15
 20
-61.35
 70
     8
  0
VERTEX
  8
St
 10
-113.15
 20
-61.35
 70
     8
  0
VERTEX
  8
St
 10
-113.175
 20
-61.35
 70
     8
  0
VERTEX
  8
St
 10
-113.175
 20
-61.35
 70
     8
  0
VERTEX
  8
St
 10
-113.175
 20
-61.35
 70
     8
  0
VERTEX
  8
St
 10
-113.175
 20
-61.325
 70
     8
  0
VERTEX
  8
St
 10
-113.175
 20
-61.325
 70
     8
  0
VERTEX
  8
St
 10
-113.2
 20
-61.325
 70
     8
  0
VERTEX
  8
St
 10
-113.2
 20
-61.325
 70
     8
  0
VERTEX
  8
St
 10
-113.2
 20
-61.325
 70
     8
  0
VERTEX
  8
St
 10
-113.225
 20
-61.3
 70
     8
  0
VERTEX
  8
St
 10
-113.225
 20
-61.3
 70
     8
  0
VERTEX
  8
St
 10
-113.225
 20
-61.3
 70
     8
  0
VERTEX
  8
St
 10
-113.25
 20
-61.3
 70
     8
  0
VERTEX
  8
St
 10
-113.25
 20
-61.3
 70
     8
  0
VERTEX
  8
St
 10
-113.25
 20
-61.275
 70
     8
  0
VERTEX
  8
St
 10
-113.275
 20
-61.275
 70
     8
  0
VERTEX
  8
St
 10
-113.275
 20
-61.275
 70
     8
  0
VERTEX
  8
St
 10
-113.275
 20
-61.275
 70
     8
  0
VERTEX
  8
St
 10
-113.3
 20
-61.275
 70
     8
  0
VERTEX
  8
St
 10
-113.3
 20
-61.275
 70
     8
  0
VERTEX
  8
St
 10
-113.325
 20
-61.25
 70
     8
  0
VERTEX
  8
St
 10
-113.325
 20
-61.25
 70
     8
  0
VERTEX
  8
St
 10
-113.325
 20
-61.25
 70
     8
  0
VERTEX
  8
St
 10
-113.35
 20
-61.25
 70
     8
  0
VERTEX
  8
St
 10
-113.35
 20
-61.25
 70
     8
  0
VERTEX
  8
St
 10
-113.375
 20
-61.25
 70
     8
  0
VERTEX
  8
St
 10
-113.375
 20
-61.225
 70
     8
  0
VERTEX
  8
St
 10
-113.4
 20
-61.225
 70
     8
  0
VERTEX
  8
St
 10
-113.4
 20
-61.225
 70
     8
  0
VERTEX
  8
St
 10
-113.4
 20
-61.225
 70
     8
  0
VERTEX
  8
St
 10
-113.425
 20
-61.225
 70
     8
  0
VERTEX
  8
St
 10
-113.425
 20
-61.225
 70
     8
  0
VERTEX
  8
St
 10
-113.45
 20
-61.225
 70
     8
  0
VERTEX
  8
St
 10
-113.45
 20
-61.2
 70
     8
  0
VERTEX
  8
St
 10
-113.475
 20
-61.2
 70
     8
  0
VERTEX
  8
St
 10
-113.475
 20
-61.2
 70
     8
  0
VERTEX
  8
St
 10
-113.5
 20
-61.2
 70
     8
  0
VERTEX
  8
St
 10
-113.5
 20
-61.2
 70
     8
  0
VERTEX
  8
St
 10
-113.525
 20
-61.2
 70
     8
  0
VERTEX
  8
St
 10
-113.525
 20
-61.2
 70
     8
  0
VERTEX
  8
St
 10
-113.55
 20
-61.2
 70
     8
  0
VERTEX
  8
St
 10
-113.55
 20
-61.175
 70
     8
  0
VERTEX
  8
St
 10
-113.575
 20
-61.175
 70
     8
  0
VERTEX
  8
St
 10
-113.575
 20
-61.175
 70
     8
  0
VERTEX
  8
St
 10
-113.6
 20
-61.175
 70
     8
  0
VERTEX
  8
St
 10
-113.625
 20
-61.175
 70
     8
  0
VERTEX
  8
St
 10
-113.625
 20
-61.175
 70
     8
  0
VERTEX
  8
St
 10
-113.65
 20
-61.175
 70
     8
  0
VERTEX
  8
St
 10
-113.65
 20
-61.175
 70
     8
  0
VERTEX
  8
St
 10
-113.675
 20
-61.175
 70
     8
  0
VERTEX
  8
St
 10
-113.675
 20
-61.175
 70
     8
  0
VERTEX
  8
St
 10
-113.7
 20
-61.15
 70
     8
  0
VERTEX
  8
St
 10
-113.7
 20
-61.15
 70
     8
  0
VERTEX
  8
St
 10
-113.725
 20
-61.15
 70
     8
  0
VERTEX
  8
St
 10
-113.725
 20
-61.15
 70
     8
  0
VERTEX
  8
St
 10
-113.75
 20
-61.15
 70
     8
  0
VERTEX
  8
St
 10
-113.75
 20
-61.15
 70
     8
  0
VERTEX
  8
St
 10
-113.775
 20
-61.15
 70
     8
  0
VERTEX
  8
St
 10
-113.775
 20
-61.15
 70
     8
  0
VERTEX
  8
St
 10
-113.8
 20
-61.15
 70
     8
  0
VERTEX
  8
St
 10
-113.8
 20
-61.15
 70
     8
  0
VERTEX
  8
St
 10
-113.825
 20
-61.15
 70
     8
  0
VERTEX
  8
St
 10
-113.85
 20
-61.15
 70
     8
  0
VERTEX
  8
St
 10
-113.85
 20
-61.15
 70
     8
  0
VERTEX
  8
St
 10
-113.875
 20
-61.125
 70
     8
  0
VERTEX
  8
St
 10
-113.875
 20
-61.125
 70
     8
  0
VERTEX
  8
St
 10
-113.9
 20
-61.125
 70
     8
  0
VERTEX
  8
St
 10
-113.9
 20
-61.125
 70
     8
  0
VERTEX
  8
St
 10
-113.925
 20
-61.125
 70
     8
  0
VERTEX
  8
St
 10
-113.925
 20
-61.125
 70
     8
  0
VERTEX
  8
St
 10
-113.95
 20
-61.125
 70
     8
  0
VERTEX
  8
St
 10
-113.95
 20
-61.125
 70
     8
  0
VERTEX
  8
St
 10
-113.975
 20
-61.125
 70
     8
  0
VERTEX
  8
St
 10
-113.975
 20
-61.125
 70
     8
  0
VERTEX
  8
St
 10
-114.0
 20
-61.125
 70
     8
  0
VERTEX
  8
St
 10
-114.0
 20
-61.125
 70
     8
  0
VERTEX
  8
St
 10
-114.0
 20
-61.125
 70
     8
  0
VERTEX
  8
St
 10
-114.025
 20
-61.125
 70
     8
  0
VERTEX
  8
St
 10
-114.025
 20
-61.125
 70
     8
  0
VERTEX
  8
St
 10
-114.05
 20
-61.125
 70
     8
  0
VERTEX
  8
St
 10
-114.05
 20
-61.125
 70
     8
  0
VERTEX
  8
St
 10
-114.075
 20
-61.125
 70
     8
  0
VERTEX
  8
St
 10
-114.075
 20
-61.125
 70
     8
  0
VERTEX
  8
St
 10
-114.1
 20
-61.125
 70
     8
  0
VERTEX
  8
St
 10
-114.1
 20
-61.125
 70
     8
  0
VERTEX
  8
St
 10
-114.125
 20
-61.125
 70
     8
  0
VERTEX
  8
St
 10
-114.125
 20
-61.125
 70
     8
  0
VERTEX
  8
St
 10
-114.15
 20
-61.125
 70
     8
  0
VERTEX
  8
St
 10
-114.15
 20
-61.125
 70
     8
  0
VERTEX
  8
St
 10
-114.15
 20
-61.125
 70
     8
  0
VERTEX
  8
St
 10
-114.175
 20
-61.125
 70
     8
  0
VERTEX
  8
St
 10
-114.175
 20
-61.125
 70
     8
  0
VERTEX
  8
St
 10
-114.2
 20
-61.125
 70
     8
  0
VERTEX
  8
St
 10
-114.2
 20
-61.125
 70
     8
  0
VERTEX
  8
St
 10
-114.225
 20
-61.125
 70
     8
  0
VERTEX
  8
St
 10
-114.225
 20
-61.125
 70
     8
  0
VERTEX
  8
St
 10
-114.25
 20
-61.125
 70
     8
  0
VERTEX
  8
St
 10
-114.25
 20
-61.125
 70
     8
  0
VERTEX
  8
St
 10
-114.25
 20
-61.125
 70
     8
  0
VERTEX
  8
St
 10
-114.275
 20
-61.125
 70
     8
  0
VERTEX
  8
St
 10
-114.275
 20
-61.125
 70
     8
  0
VERTEX
  8
St
 10
-114.3
 20
-61.125
 70
     8
  0
VERTEX
  8
St
 10
-114.3
 20
-61.125
 70
     8
  0
VERTEX
  8
St
 10
-114.3
 20
-61.15
 70
     8
  0
VERTEX
  8
St
 10
-114.325
 20
-61.15
 70
     8
  0
VERTEX
  8
St
 10
-114.325
 20
-61.15
 70
     8
  0
VERTEX
  8
St
 10
-114.35
 20
-61.15
 70
     8
  0
VERTEX
  8
St
 10
-114.35
 20
-61.15
 70
     8
  0
VERTEX
  8
St
 10
-114.35
 20
-61.15
 70
     8
  0
VERTEX
  8
St
 10
-114.375
 20
-61.15
 70
     8
  0
VERTEX
  8
St
 10
-114.375
 20
-61.15
 70
     8
  0
VERTEX
  8
St
 10
-114.4
 20
-61.15
 70
     8
  0
VERTEX
  8
St
 10
-114.4
 20
-61.15
 70
     8
  0
VERTEX
  8
St
 10
-114.4
 20
-61.15
 70
     8
  0
VERTEX
  8
St
 10
-114.425
 20
-61.15
 70
     8
  0
VERTEX
  8
St
 10
-114.425
 20
-61.15
 70
     8
  0
VERTEX
  8
St
 10
-114.45
 20
-61.15
 70
     8
  0
VERTEX
  8
St
 10
-114.45
 20
-61.15
 70
     8
  0
VERTEX
  8
St
 10
-114.45
 20
-61.15
 70
     8
  0
VERTEX
  8
St
 10
-114.475
 20
-61.175
 70
     8
  0
VERTEX
  8
St
 10
-114.475
 20
-61.175
 70
     8
  0
VERTEX
  8
St
 10
-114.5
 20
-61.175
 70
     8
  0
VERTEX
  8
St
 10
-114.5
 20
-61.175
 70
     8
  0
VERTEX
  8
St
 10
-114.5
 20
-61.175
 70
     8
  0
VERTEX
  8
St
 10
-114.525
 20
-61.175
 70
     8
  0
VERTEX
  8
St
 10
-114.525
 20
-61.175
 70
     8
  0
VERTEX
  8
St
 10
-114.525
 20
-61.175
 70
     8
  0
VERTEX
  8
St
 10
-114.55
 20
-61.175
 70
     8
  0
VERTEX
  8
St
 10
-114.55
 20
-61.175
 70
     8
  0
VERTEX
  8
St
 10
-114.575
 20
-61.175
 70
     8
  0
VERTEX
  8
St
 10
-114.575
 20
-61.175
 70
     8
  0
VERTEX
  8
St
 10
-114.575
 20
-61.175
 70
     8
  0
VERTEX
  8
St
 10
-114.6
 20
-61.2
 70
     8
  0
VERTEX
  8
St
 10
-114.6
 20
-61.2
 70
     8
  0
VERTEX
  8
St
 10
-114.6
 20
-61.2
 70
     8
  0
VERTEX
  8
St
 10
-114.625
 20
-61.2
 70
     8
  0
VERTEX
  8
St
 10
-114.625
 20
-61.2
 70
     8
  0
VERTEX
  8
St
 10
-114.65
 20
-61.2
 70
     8
  0
VERTEX
  8
St
 10
-114.65
 20
-61.2
 70
     8
  0
VERTEX
  8
St
 10
-114.65
 20
-61.2
 70
     8
  0
VERTEX
  8
St
 10
-114.675
 20
-61.2
 70
     8
  0
VERTEX
  8
St
 10
-114.675
 20
-61.2
 70
     8
  0
VERTEX
  8
St
 10
-114.675
 20
-61.2
 70
     8
  0
VERTEX
  8
St
 10
-114.7
 20
-61.225
 70
     8
  0
VERTEX
  8
St
 10
-114.7
 20
-61.225
 70
     8
  0
VERTEX
  8
St
 10
-114.7
 20
-61.225
 70
     8
  0
VERTEX
  8
St
 10
-114.725
 20
-61.225
 70
     8
  0
VERTEX
  8
St
 10
-114.725
 20
-61.225
 70
     8
  0
VERTEX
  8
St
 10
-114.75
 20
-61.225
 70
     8
  0
VERTEX
  8
St
 10
-114.75
 20
-61.225
 70
     8
  0
VERTEX
  8
St
 10
-114.75
 20
-61.225
 70
     8
  0
VERTEX
  8
St
 10
-114.775
 20
-61.225
 70
     8
  0
VERTEX
  8
St
 10
-114.775
 20
-61.225
 70
     8
  0
VERTEX
  8
St
 10
-114.775
 20
-61.25
 70
     8
  0
VERTEX
  8
St
 10
-114.8
 20
-61.25
 70
     8
  0
VERTEX
  8
St
 10
-114.8
 20
-61.25
 70
     8
  0
VERTEX
  8
St
 10
-114.8
 20
-61.25
 70
     8
  0
VERTEX
  8
St
 10
-114.825
 20
-61.25
 70
     8
  0
VERTEX
  8
St
 10
-114.825
 20
-61.25
 70
     8
  0
VERTEX
  8
St
 10
-114.825
 20
-61.25
 70
     8
  0
VERTEX
  8
St
 10
-114.85
 20
-61.25
 70
     8
  0
VERTEX
  8
St
 10
-114.85
 20
-61.25
 70
     8
  0
SEQEND
  0
LINE
  8
St
  6
CONTINUOUS
 10
-113.109853
 20
-61.4136
 11
-113.109853
 21
-76.618648
  0
LINE
  8
St
  6
CONTINUOUS
 10
-116.109853
 20
-61.4136
 11
-116.109853
 21
-76.618648
  0
LINE
  8
St
  6
DASHDOT
 10
-114.609853
 20
-61.4136
 11
-114.609853
 21
-76.618648
  0
POLYLINE
  8
St
  6
CONTINUOUS
 66
     1
 70
     4
  0
VERTEX
  8
St
 10
-116.725
 20
-62.875
 70
     8
  0
VERTEX
  8
St
 10
-116.725
 20
-62.875
 70
     8
  0
VERTEX
  8
St
 10
-116.725
 20
-62.9
 70
     8
  0
VERTEX
  8
St
 10
-116.725
 20
-62.9
 70
     8
  0
VERTEX
  8
St
 10
-116.725
 20
-62.925
 70
     8
  0
VERTEX
  8
St
 10
-116.725
 20
-62.95
 70
     8
  0
VERTEX
  8
St
 10
-116.725
 20
-62.95
 70
     8
  0
VERTEX
  8
St
 10
-116.725
 20
-62.975
 70
     8
  0
VERTEX
  8
St
 10
-116.7
 20
-62.975
 70
     8
  0
VERTEX
  8
St
 10
-116.7
 20
-63.0
 70
     8
  0
VERTEX
  8
St
 10
-116.7
 20
-63.0
 70
     8
  0
VERTEX
  8
St
 10
-116.7
 20
-63.025
 70
     8
  0
VERTEX
  8
St
 10
-116.7
 20
-63.05
 70
     8
  0
VERTEX
  8
St
 10
-116.7
 20
-63.05
 70
     8
  0
VERTEX
  8
St
 10
-116.7
 20
-63.075
 70
     8
  0
VERTEX
  8
St
 10
-116.7
 20
-63.075
 70
     8
  0
VERTEX
  8
St
 10
-116.7
 20
-63.1
 70
     8
  0
VERTEX
  8
St
 10
-116.7
 20
-63.1
 70
     8
  0
VERTEX
  8
St
 10
-116.675
 20
-63.125
 70
     8
  0
VERTEX
  8
St
 10
-116.675
 20
-63.125
 70
     8
  0
VERTEX
  8
St
 10
-116.675
 20
-63.15
 70
     8
  0
VERTEX
  8
St
 10
-116.675
 20
-63.15
 70
     8
  0
VERTEX
  8
St
 10
-116.675
 20
-63.175
 70
     8
  0
VERTEX
  8
St
 10
-116.675
 20
-63.175
 70
     8
  0
VERTEX
  8
St
 10
-116.675
 20
-63.2
 70
     8
  0
VERTEX
  8
St
 10
-116.675
 20
-63.225
 70
     8
  0
VERTEX
  8
St
 10
-116.675
 20
-63.225
 70
     8
  0
VERTEX
  8
St
 10
-116.65
 20
-63.25
 70
     8
  0
VERTEX
  8
St
 10
-116.65
 20
-63.25
 70
     8
  0
VERTEX
  8
St
 10
-116.65
 20
-63.275
 70
     8
  0
VERTEX
  8
St
 10
-116.65
 20
-63.275
 70
     8
  0
VERTEX
  8
St
 10
-116.65
 20
-63.3
 70
     8
  0
VERTEX
  8
St
 10
-116.65
 20
-63.3
 70
     8
  0
VERTEX
  8
St
 10
-116.65
 20
-63.325
 70
     8
  0
VERTEX
  8
St
 10
-116.65
 20
-63.325
 70
     8
  0
VERTEX
  8
St
 10
-116.625
 20
-63.35
 70
     8
  0
VERTEX
  8
St
 10
-116.625
 20
-63.35
 70
     8
  0
VERTEX
  8
St
 10
-116.625
 20
-63.375
 70
     8
  0
VERTEX
  8
St
 10
-116.625
 20
-63.375
 70
     8
  0
VERTEX
  8
St
 10
-116.625
 20
-63.4
 70
     8
  0
VERTEX
  8
St
 10
-116.625
 20
-63.4
 70
     8
  0
VERTEX
  8
St
 10
-116.625
 20
-63.425
 70
     8
  0
VERTEX
  8
St
 10
-116.6
 20
-63.425
 70
     8
  0
VERTEX
  8
St
 10
-116.6
 20
-63.425
 70
     8
  0
VERTEX
  8
St
 10
-116.6
 20
-63.45
 70
     8
  0
VERTEX
  8
St
 10
-116.6
 20
-63.45
 70
     8
  0
VERTEX
  8
St
 10
-116.6
 20
-63.475
 70
     8
  0
VERTEX
  8
St
 10
-116.6
 20
-63.475
 70
     8
  0
VERTEX
  8
St
 10
-116.575
 20
-63.5
 70
     8
  0
VERTEX
  8
St
 10
-116.575
 20
-63.5
 70
     8
  0
VERTEX
  8
St
 10
-116.575
 20
-63.525
 70
     8
  0
VERTEX
  8
St
 10
-116.575
 20
-63.525
 70
     8
  0
VERTEX
  8
St
 10
-116.575
 20
-63.525
 70
     8
  0
VERTEX
  8
St
 10
-116.575
 20
-63.55
 70
     8
  0
VERTEX
  8
St
 10
-116.55
 20
-63.55
 70
     8
  0
VERTEX
  8
St
 10
-116.55
 20
-63.575
 70
     8
  0
VERTEX
  8
St
 10
-116.55
 20
-63.575
 70
     8
  0
VERTEX
  8
St
 10
-116.55
 20
-63.575
 70
     8
  0
VERTEX
  8
St
 10
-116.55
 20
-63.6
 70
     8
  0
VERTEX
  8
St
 10
-116.55
 20
-63.6
 70
     8
  0
VERTEX
  8
St
 10
-116.525
 20
-63.625
 70
     8
  0
VERTEX
  8
St
 10
-116.525
 20
-63.625
 70
     8
  0
VERTEX
  8
St
 10
-116.525
 20
-63.625
 70
     8
  0
VERTEX
  8
St
 10
-116.525
 20
-63.65
 70
     8
  0
VERTEX
  8
St
 10
-116.525
 20
-63.65
 70
     8
  0
VERTEX
  8
St
 10
-116.5
 20
-63.65
 70
     8
  0
VERTEX
  8
St
 10
-116.5
 20
-63.675
 70
     8
  0
VERTEX
  8
St
 10
-116.5
 20
-63.675
 70
     8
  0
VERTEX
  8
St
 10
-116.5
 20
-63.675
 70
     8
  0
VERTEX
  8
St
 10
-116.475
 20
-63.7
 70
     8
  0
VERTEX
  8
St
 10
-116.475
 20
-63.7
 70
     8
  0
VERTEX
  8
St
 10
-116.475
 20
-63.7
 70
     8
  0
VERTEX
  8
St
 10
-116.475
 20
-63.7
 70
     8
  0
VERTEX
  8
St
 10
-116.475
 20
-63.725
 70
     8
  0
VERTEX
  8
St
 10
-116.45
 20
-63.725
 70
     8
  0
VERTEX
  8
St
 10
-116.45
 20
-63.725
 70
     8
  0
VERTEX
  8
St
 10
-116.45
 20
-63.725
 70
     8
  0
VERTEX
  8
St
 10
-116.45
 20
-63.75
 70
     8
  0
VERTEX
  8
St
 10
-116.425
 20
-63.75
 70
     8
  0
VERTEX
  8
St
 10
-116.425
 20
-63.75
 70
     8
  0
VERTEX
  8
St
 10
-116.425
 20
-63.75
 70
     8
  0
VERTEX
  8
St
 10
-116.425
 20
-63.775
 70
     8
  0
VERTEX
  8
St
 10
-116.4
 20
-63.775
 70
     8
  0
VERTEX
  8
St
 10
-116.4
 20
-63.775
 70
     8
  0
VERTEX
  8
St
 10
-116.4
 20
-63.775
 70
     8
  0
VERTEX
  8
St
 10
-116.375
 20
-63.775
 70
     8
  0
VERTEX
  8
St
 10
-116.375
 20
-63.775
 70
     8
  0
VERTEX
  8
St
 10
-116.375
 20
-63.8
 70
     8
  0
VERTEX
  8
St
 10
-116.375
 20
-63.8
 70
     8
  0
VERTEX
  8
St
 10
-116.35
 20
-63.8
 70
     8
  0
VERTEX
  8
St
 10
-116.35
 20
-63.8
 70
     8
  0
VERTEX
  8
St
 10
-116.35
 20
-63.8
 70
     8
  0
VERTEX
  8
St
 10
-116.325
 20
-63.8
 70
     8
  0
VERTEX
  8
St
 10
-116.325
 20
-63.8
 70
     8
  0
VERTEX
  8
St
 10
-116.325
 20
-63.8
 70
     8
  0
VERTEX
  8
St
 10
-116.3
 20
-63.825
 70
     8
  0
VERTEX
  8
St
 10
-116.3
 20
-63.825
 70
     8
  0
VERTEX
  8
St
 10
-116.3
 20
-63.825
 70
     8
  0
VERTEX
  8
St
 10
-116.275
 20
-63.825
 70
     8
  0
VERTEX
  8
St
 10
-116.275
 20
-63.825
 70
     8
  0
VERTEX
  8
St
 10
-116.275
 20
-63.825
 70
     8
  0
VERTEX
  8
St
 10
-116.25
 20
-63.825
 70
     8
  0
VERTEX
  8
St
 10
-116.25
 20
-63.825
 70
     8
  0
VERTEX
  8
St
 10
-116.25
 20
-63.825
 70
     8
  0
VERTEX
  8
St
 10
-116.225
 20
-63.825
 70
     8
  0
VERTEX
  8
St
 10
-116.225
 20
-63.825
 70
     8
  0
VERTEX
  8
St
 10
-116.2
 20
-63.825
 70
     8
  0
VERTEX
  8
St
 10
-116.2
 20
-63.825
 70
     8
  0
VERTEX
  8
St
 10
-116.2
 20
-63.825
 70
     8
  0
VERTEX
  8
St
 10
-116.175
 20
-63.825
 70
     8
  0
VERTEX
  8
St
 10
-116.175
 20
-63.825
 70
     8
  0
VERTEX
  8
St
 10
-116.175
 20
-63.825
 70
     8
  0
VERTEX
  8
St
 10
-116.15
 20
-63.825
 70
     8
  0
VERTEX
  8
St
 10
-116.15
 20
-63.825
 70
     8
  0
VERTEX
  8
St
 10
-116.125
 20
-63.825
 70
     8
  0
VERTEX
  8
St
 10
-116.125
 20
-63.825
 70
     8
  0
VERTEX
  8
St
 10
-116.125
 20
-63.825
 70
     8
  0
VERTEX
  8
St
 10
-116.1
 20
-63.825
 70
     8
  0
VERTEX
  8
St
 10
-116.1
 20
-63.8
 70
     8
  0
VERTEX
  8
St
 10
-116.075
 20
-63.8
 70
     8
  0
VERTEX
  8
St
 10
-116.075
 20
-63.8
 70
     8
  0
VERTEX
  8
St
 10
-116.05
 20
-63.8
 70
     8
  0
VERTEX
  8
St
 10
-116.05
 20
-63.8
 70
     8
  0
VERTEX
  8
St
 10
-116.05
 20
-63.8
 70
     8
  0
VERTEX
  8
St
 10
-116.025
 20
-63.8
 70
     8
  0
VERTEX
  8
St
 10
-116.025
 20
-63.8
 70
     8
  0
VERTEX
  8
St
 10
-116.0
 20
-63.8
 70
     8
  0
VERTEX
  8
St
 10
-116.0
 20
-63.8
 70
     8
  0
VERTEX
  8
St
 10
-115.975
 20
-63.775
 70
     8
  0
VERTEX
  8
St
 10
-115.975
 20
-63.775
 70
     8
  0
VERTEX
  8
St
 10
-115.975
 20
-63.775
 70
     8
  0
VERTEX
  8
St
 10
-115.95
 20
-63.775
 70
     8
  0
VERTEX
  8
St
 10
-115.95
 20
-63.775
 70
     8
  0
VERTEX
  8
St
 10
-115.925
 20
-63.775
 70
     8
  0
VERTEX
  8
St
 10
-115.925
 20
-63.775
 70
     8
  0
VERTEX
  8
St
 10
-115.9
 20
-63.75
 70
     8
  0
VERTEX
  8
St
 10
-115.9
 20
-63.75
 70
     8
  0
VERTEX
  8
St
 10
-115.875
 20
-63.75
 70
     8
  0
VERTEX
  8
St
 10
-115.875
 20
-63.75
 70
     8
  0
VERTEX
  8
St
 10
-115.85
 20
-63.75
 70
     8
  0
VERTEX
  8
St
 10
-115.85
 20
-63.75
 70
     8
  0
VERTEX
  8
St
 10
-115.85
 20
-63.725
 70
     8
  0
VERTEX
  8
St
 10
-115.825
 20
-63.725
 70
     8
  0
VERTEX
  8
St
 10
-115.825
 20
-63.725
 70
     8
  0
VERTEX
  8
St
 10
-115.8
 20
-63.725
 70
     8
  0
VERTEX
  8
St
 10
-115.8
 20
-63.725
 70
     8
  0
VERTEX
  8
St
 10
-115.775
 20
-63.725
 70
     8
  0
VERTEX
  8
St
 10
-115.775
 20
-63.7
 70
     8
  0
VERTEX
  8
St
 10
-115.75
 20
-63.7
 70
     8
  0
VERTEX
  8
St
 10
-115.75
 20
-63.7
 70
     8
  0
VERTEX
  8
St
 10
-115.725
 20
-63.7
 70
     8
  0
VERTEX
  8
St
 10
-115.725
 20
-63.7
 70
     8
  0
VERTEX
  8
St
 10
-115.7
 20
-63.675
 70
     8
  0
VERTEX
  8
St
 10
-115.7
 20
-63.675
 70
     8
  0
VERTEX
  8
St
 10
-115.675
 20
-63.675
 70
     8
  0
VERTEX
  8
St
 10
-115.675
 20
-63.675
 70
     8
  0
VERTEX
  8
St
 10
-115.65
 20
-63.675
 70
     8
  0
VERTEX
  8
St
 10
-115.65
 20
-63.65
 70
     8
  0
VERTEX
  8
St
 10
-115.625
 20
-63.65
 70
     8
  0
VERTEX
  8
St
 10
-115.625
 20
-63.65
 70
     8
  0
VERTEX
  8
St
 10
-115.6
 20
-63.65
 70
     8
  0
VERTEX
  8
St
 10
-115.6
 20
-63.65
 70
     8
  0
VERTEX
  8
St
 10
-115.575
 20
-63.625
 70
     8
  0
VERTEX
  8
St
 10
-115.575
 20
-63.625
 70
     8
  0
VERTEX
  8
St
 10
-115.55
 20
-63.625
 70
     8
  0
VERTEX
  8
St
 10
-115.55
 20
-63.625
 70
     8
  0
VERTEX
  8
St
 10
-115.525
 20
-63.625
 70
     8
  0
VERTEX
  8
St
 10
-115.525
 20
-63.6
 70
     8
  0
VERTEX
  8
St
 10
-115.5
 20
-63.6
 70
     8
  0
VERTEX
  8
St
 10
-115.5
 20
-63.6
 70
     8
  0
VERTEX
  8
St
 10
-115.475
 20
-63.6
 70
     8
  0
VERTEX
  8
St
 10
-115.475
 20
-63.6
 70
     8
  0
VERTEX
  8
St
 10
-115.45
 20
-63.575
 70
     8
  0
VERTEX
  8
St
 10
-115.45
 20
-63.575
 70
     8
  0
VERTEX
  8
St
 10
-115.425
 20
-63.575
 70
     8
  0
VERTEX
  8
St
 10
-115.425
 20
-63.575
 70
     8
  0
VERTEX
  8
St
 10
-115.4
 20
-63.575
 70
     8
  0
VERTEX
  8
St
 10
-115.4
 20
-63.55
 70
     8
  0
VERTEX
  8
St
 10
-115.375
 20
-63.55
 70
     8
  0
VERTEX
  8
St
 10
-115.375
 20
-63.55
 70
     8
  0
VERTEX
  8
St
 10
-115.35
 20
-63.55
 70
     8
  0
VERTEX
  8
St
 10
-115.35
 20
-63.55
 70
     8
  0
VERTEX
  8
St
 10
-115.325
 20
-63.55
 70
     8
  0
VERTEX
  8
St
 10
-115.325
 20
-63.525
 70
     8
  0
VERTEX
  8
St
 10
-115.3
 20
-63.525
 70
     8
  0
VERTEX
  8
St
 10
-115.3
 20
-63.525
 70
     8
  0
VERTEX
  8
St
 10
-115.275
 20
-63.525
 70
     8
  0
VERTEX
  8
St
 10
-115.275
 20
-63.525
 70
     8
  0
VERTEX
  8
St
 10
-115.25
 20
-63.525
 70
     8
  0
VERTEX
  8
St
 10
-115.25
 20
-63.5
 70
     8
  0
VERTEX
  8
St
 10
-115.225
 20
-63.5
 70
     8
  0
VERTEX
  8
St
 10
-115.225
 20
-63.5
 70
     8
  0
VERTEX
  8
St
 10
-115.2
 20
-63.5
 70
     8
  0
VERTEX
  8
St
 10
-115.2
 20
-63.5
 70
     8
  0
VERTEX
  8
St
 10
-115.175
 20
-63.5
 70
     8
  0
VERTEX
  8
St
 10
-115.175
 20
-63.5
 70
     8
  0
VERTEX
  8
St
 10
-115.15
 20
-63.475
 70
     8
  0
VERTEX
  8
St
 10
-115.15
 20
-63.475
 70
     8
  0
VERTEX
  8
St
 10
-115.125
 20
-63.475
 70
     8
  0
VERTEX
  8
St
 10
-115.125
 20
-63.475
 70
     8
  0
VERTEX
  8
St
 10
-115.1
 20
-63.475
 70
     8
  0
VERTEX
  8
St
 10
-115.1
 20
-63.475
 70
     8
  0
VERTEX
  8
St
 10
-115.075
 20
-63.475
 70
     8
  0
VERTEX
  8
St
 10
-115.075
 20
-63.475
 70
     8
  0
VERTEX
  8
St
 10
-115.05
 20
-63.475
 70
     8
  0
VERTEX
  8
St
 10
-115.05
 20
-63.45
 70
     8
  0
VERTEX
  8
St
 10
-115.025
 20
-63.45
 70
     8
  0
VERTEX
  8
St
 10
-115.025
 20
-63.45
 70
     8
  0
VERTEX
  8
St
 10
-115.0
 20
-63.45
 70
     8
  0
VERTEX
  8
St
 10
-115.0
 20
-63.45
 70
     8
  0
VERTEX
  8
St
 10
-114.975
 20
-63.45
 70
     8
  0
VERTEX
  8
St
 10
-114.975
 20
-63.45
 70
     8
  0
VERTEX
  8
St
 10
-114.95
 20
-63.45
 70
     8
  0
VERTEX
  8
St
 10
-114.95
 20
-63.45
 70
     8
  0
VERTEX
  8
St
 10
-114.925
 20
-63.45
 70
     8
  0
VERTEX
  8
St
 10
-114.925
 20
-63.45
 70
     8
  0
VERTEX
  8
St
 10
-114.9
 20
-63.45
 70
     8
  0
VERTEX
  8
St
 10
-114.9
 20
-63.45
 70
     8
  0
VERTEX
  8
St
 10
-114.875
 20
-63.45
 70
     8
  0
VERTEX
  8
St
 10
-114.875
 20
-63.45
 70
     8
  0
VERTEX
  8
St
 10
-114.875
 20
-63.45
 70
     8
  0
VERTEX
  8
St
 10
-114.85
 20
-63.45
 70
     8
  0
VERTEX
  8
St
 10
-114.85
 20
-63.45
 70
     8
  0
VERTEX
  8
St
 10
-114.825
 20
-63.45
 70
     8
  0
VERTEX
  8
St
 10
-114.825
 20
-63.45
 70
     8
  0
VERTEX
  8
St
 10
-114.8
 20
-63.45
 70
     8
  0
VERTEX
  8
St
 10
-114.8
 20
-63.45
 70
     8
  0
VERTEX
  8
St
 10
-114.775
 20
-63.45
 70
     8
  0
VERTEX
  8
St
 10
-114.775
 20
-63.45
 70
     8
  0
VERTEX
  8
St
 10
-114.75
 20
-63.45
 70
     8
  0
VERTEX
  8
St
 10
-114.75
 20
-63.45
 70
     8
  0
VERTEX
  8
St
 10
-114.725
 20
-63.45
 70
     8
  0
VERTEX
  8
St
 10
-114.725
 20
-63.45
 70
     8
  0
VERTEX
  8
St
 10
-114.725
 20
-63.475
 70
     8
  0
VERTEX
  8
St
 10
-114.7
 20
-63.475
 70
     8
  0
VERTEX
  8
St
 10
-114.7
 20
-63.475
 70
     8
  0
VERTEX
  8
St
 10
-114.675
 20
-63.475
 70
     8
  0
VERTEX
  8
St
 10
-114.675
 20
-63.475
 70
     8
  0
VERTEX
  8
St
 10
-114.65
 20
-63.475
 70
     8
  0
VERTEX
  8
St
 10
-114.65
 20
-63.475
 70
     8
  0
VERTEX
  8
St
 10
-114.625
 20
-63.5
 70
     8
  0
VERTEX
  8
St
 10
-114.625
 20
-63.5
 70
     8
  0
VERTEX
  8
St
 10
-114.625
 20
-63.5
 70
     8
  0
VERTEX
  8
St
 10
-114.6
 20
-63.5
 70
     8
  0
VERTEX
  8
St
 10
-114.6
 20
-63.5
 70
     8
  0
VERTEX
  8
St
 10
-114.575
 20
-63.525
 70
     8
  0
VERTEX
  8
St
 10
-114.575
 20
-63.525
 70
     8
  0
VERTEX
  8
St
 10
-114.575
 20
-63.525
 70
     8
  0
VERTEX
  8
St
 10
-114.55
 20
-63.525
 70
     8
  0
VERTEX
  8
St
 10
-114.55
 20
-63.55
 70
     8
  0
VERTEX
  8
St
 10
-114.525
 20
-63.55
 70
     8
  0
VERTEX
  8
St
 10
-114.525
 20
-63.55
 70
     8
  0
VERTEX
  8
St
 10
-114.525
 20
-63.55
 70
     8
  0
VERTEX
  8
St
 10
-114.5
 20
-63.575
 70
     8
  0
VERTEX
  8
St
 10
-114.5
 20
-63.575
 70
     8
  0
VERTEX
  8
St
 10
-114.475
 20
-63.575
 70
     8
  0
VERTEX
  8
St
 10
-114.475
 20
-63.6
 70
     8
  0
VERTEX
  8
St
 10
-114.475
 20
-63.6
 70
     8
  0
VERTEX
  8
St
 10
-114.45
 20
-63.6
 70
     8
  0
VERTEX
  8
St
 10
-114.45
 20
-63.625
 70
     8
  0
VERTEX
  8
St
 10
-114.45
 20
-63.625
 70
     8
  0
VERTEX
  8
St
 10
-114.425
 20
-63.625
 70
     8
  0
VERTEX
  8
St
 10
-114.425
 20
-63.65
 70
     8
  0
VERTEX
  8
St
 10
-114.425
 20
-63.65
 70
     8
  0
VERTEX
  8
St
 10
-114.4
 20
-63.675
 70
     8
  0
VERTEX
  8
St
 10
-114.4
 20
-63.675
 70
     8
  0
VERTEX
  8
St
 10
-114.4
 20
-63.675
 70
     8
  0
VERTEX
  8
St
 10
-114.375
 20
-63.7
 70
     8
  0
VERTEX
  8
St
 10
-114.375
 20
-63.7
 70
     8
  0
VERTEX
  8
St
 10
-114.375
 20
-63.725
 70
     8
  0
VERTEX
  8
St
 10
-114.35
 20
-63.725
 70
     8
  0
VERTEX
  8
St
 10
-114.35
 20
-63.75
 70
     8
  0
VERTEX
  8
St
 10
-114.35
 20
-63.75
 70
     8
  0
VERTEX
  8
St
 10
-114.325
 20
-63.75
 70
     8
  0
VERTEX
  8
St
 10
-114.325
 20
-63.775
 70
     8
  0
VERTEX
  8
St
 10
-114.325
 20
-63.775
 70
     8
  0
VERTEX
  8
St
 10
-114.3
 20
-63.8
 70
     8
  0
VERTEX
  8
St
 10
-114.3
 20
-63.8
 70
     8
  0
VERTEX
  8
St
 10
-114.3
 20
-63.825
 70
     8
  0
VERTEX
  8
St
 10
-114.3
 20
-63.825
 70
     8
  0
VERTEX
  8
St
 10
-114.275
 20
-63.85
 70
     8
  0
VERTEX
  8
St
 10
-114.275
 20
-63.85
 70
     8
  0
VERTEX
  8
St
 10
-114.275
 20
-63.875
 70
     8
  0
VERTEX
  8
St
 10
-114.275
 20
-63.875
 70
     8
  0
VERTEX
  8
St
 10
-114.25
 20
-63.9
 70
     8
  0
VERTEX
  8
St
 10
-114.25
 20
-63.9
 70
     8
  0
VERTEX
  8
St
 10
-114.25
 20
-63.925
 70
     8
  0
VERTEX
  8
St
 10
-114.25
 20
-63.925
 70
     8
  0
VERTEX
  8
St
 10
-114.225
 20
-63.95
 70
     8
  0
VERTEX
  8
St
 10
-114.225
 20
-63.95
 70
     8
  0
VERTEX
  8
St
 10
-114.225
 20
-63.975
 70
     8
  0
VERTEX
  8
St
 10
-114.225
 20
-63.975
 70
     8
  0
VERTEX
  8
St
 10
-114.225
 20
-64.0
 70
     8
  0
VERTEX
  8
St
 10
-114.2
 20
-64.0
 70
     8
  0
VERTEX
  8
St
 10
-114.2
 20
-64.025
 70
     8
  0
VERTEX
  8
St
 10
-114.2
 20
-64.025
 70
     8
  0
VERTEX
  8
St
 10
-114.2
 20
-64.05
 70
     8
  0
VERTEX
  8
St
 10
-114.2
 20
-64.05
 70
     8
  0
VERTEX
  8
St
 10
-114.2
 20
-64.075
 70
     8
  0
VERTEX
  8
St
 10
-114.2
 20
-64.075
 70
     8
  0
VERTEX
  8
St
 10
-114.175
 20
-64.1
 70
     8
  0
VERTEX
  8
St
 10
-114.175
 20
-64.1
 70
     8
  0
VERTEX
  8
St
 10
-114.175
 20
-64.125
 70
     8
  0
VERTEX
  8
St
 10
-114.175
 20
-64.125
 70
     8
  0
VERTEX
  8
St
 10
-114.175
 20
-64.15
 70
     8
  0
VERTEX
  8
St
 10
-114.175
 20
-64.15
 70
     8
  0
VERTEX
  8
St
 10
-114.175
 20
-64.175
 70
     8
  0
VERTEX
  8
St
 10
-114.175
 20
-64.175
 70
     8
  0
VERTEX
  8
St
 10
-114.175
 20
-64.2
 70
     8
  0
VERTEX
  8
St
 10
-114.175
 20
-64.2
 70
     8
  0
VERTEX
  8
St
 10
-114.15
 20
-64.225
 70
     8
  0
VERTEX
  8
St
 10
-114.15
 20
-64.225
 70
     8
  0
VERTEX
  8
St
 10
-114.15
 20
-64.25
 70
     8
  0
VERTEX
  8
St
 10
-114.15
 20
-64.25
 70
     8
  0
VERTEX
  8
St
 10
-114.15
 20
-64.275
 70
     8
  0
VERTEX
  8
St
 10
-114.15
 20
-64.275
 70
     8
  0
VERTEX
  8
St
 10
-114.15
 20
-64.275
 70
     8
  0
VERTEX
  8
St
 10
-114.15
 20
-64.3
 70
     8
  0
VERTEX
  8
St
 10
-114.15
 20
-64.3
 70
     8
  0
VERTEX
  8
St
 10
-114.15
 20
-64.325
 70
     8
  0
VERTEX
  8
St
 10
-114.15
 20
-64.325
 70
     8
  0
VERTEX
  8
St
 10
-114.15
 20
-64.35
 70
     8
  0
VERTEX
  8
St
 10
-114.175
 20
-64.35
 70
     8
  0
VERTEX
  8
St
 10
-114.175
 20
-64.375
 70
     8
  0
VERTEX
  8
St
 10
-114.175
 20
-64.375
 70
     8
  0
VERTEX
  8
St
 10
-114.175
 20
-64.375
 70
     8
  0
VERTEX
  8
St
 10
-114.175
 20
-64.4
 70
     8
  0
VERTEX
  8
St
 10
-114.175
 20
-64.4
 70
     8
  0
VERTEX
  8
St
 10
-114.175
 20
-64.425
 70
     8
  0
VERTEX
  8
St
 10
-114.175
 20
-64.425
 70
     8
  0
VERTEX
  8
St
 10
-114.175
 20
-64.425
 70
     8
  0
VERTEX
  8
St
 10
-114.175
 20
-64.45
 70
     8
  0
VERTEX
  8
St
 10
-114.2
 20
-64.45
 70
     8
  0
VERTEX
  8
St
 10
-114.2
 20
-64.45
 70
     8
  0
VERTEX
  8
St
 10
-114.2
 20
-64.475
 70
     8
  0
VERTEX
  8
St
 10
-114.2
 20
-64.475
 70
     8
  0
VERTEX
  8
St
 10
-114.2
 20
-64.475
 70
     8
  0
VERTEX
  8
St
 10
-114.2
 20
-64.5
 70
     8
  0
VERTEX
  8
St
 10
-114.225
 20
-64.5
 70
     8
  0
VERTEX
  8
St
 10
-114.225
 20
-64.5
 70
     8
  0
VERTEX
  8
St
 10
-114.225
 20
-64.525
 70
     8
  0
VERTEX
  8
St
 10
-114.225
 20
-64.525
 70
     8
  0
VERTEX
  8
St
 10
-114.25
 20
-64.525
 70
     8
  0
VERTEX
  8
St
 10
-114.25
 20
-64.525
 70
     8
  0
VERTEX
  8
St
 10
-114.25
 20
-64.55
 70
     8
  0
VERTEX
  8
St
 10
-114.25
 20
-64.55
 70
     8
  0
VERTEX
  8
St
 10
-114.275
 20
-64.55
 70
     8
  0
VERTEX
  8
St
 10
-114.275
 20
-64.55
 70
     8
  0
VERTEX
  8
St
 10
-114.275
 20
-64.575
 70
     8
  0
VERTEX
  8
St
 10
-114.3
 20
-64.575
 70
     8
  0
VERTEX
  8
St
 10
-114.3
 20
-64.575
 70
     8
  0
VERTEX
  8
St
 10
-114.3
 20
-64.575
 70
     8
  0
VERTEX
  8
St
 10
-114.325
 20
-64.575
 70
     8
  0
VERTEX
  8
St
 10
-114.325
 20
-64.575
 70
     8
  0
VERTEX
  8
St
 10
-114.325
 20
-64.6
 70
     8
  0
VERTEX
  8
St
 10
-114.35
 20
-64.6
 70
     8
  0
VERTEX
  8
St
 10
-114.35
 20
-64.6
 70
     8
  0
VERTEX
  8
St
 10
-114.35
 20
-64.6
 70
     8
  0
VERTEX
  8
St
 10
-114.375
 20
-64.6
 70
     8
  0
VERTEX
  8
St
 10
-114.375
 20
-64.6
 70
     8
  0
VERTEX
  8
St
 10
-114.375
 20
-64.6
 70
     8
  0
VERTEX
  8
St
 10
-114.4
 20
-64.625
 70
     8
  0
VERTEX
  8
St
 10
-114.4
 20
-64.625
 70
     8
  0
VERTEX
  8
St
 10
-114.425
 20
-64.625
 70
     8
  0
VERTEX
  8
St
 10
-114.425
 20
-64.625
 70
     8
  0
VERTEX
  8
St
 10
-114.45
 20
-64.625
 70
     8
  0
VERTEX
  8
St
 10
-114.45
 20
-64.625
 70
     8
  0
VERTEX
  8
St
 10
-114.45
 20
-64.625
 70
     8
  0
VERTEX
  8
St
 10
-114.475
 20
-64.625
 70
     8
  0
VERTEX
  8
St
 10
-114.475
 20
-64.625
 70
     8
  0
VERTEX
  8
St
 10
-114.5
 20
-64.625
 70
     8
  0
VERTEX
  8
St
 10
-114.5
 20
-64.625
 70
     8
  0
VERTEX
  8
St
 10
-114.525
 20
-64.625
 70
     8
  0
VERTEX
  8
St
 10
-114.525
 20
-64.625
 70
     8
  0
VERTEX
  8
St
 10
-114.55
 20
-64.625
 70
     8
  0
VERTEX
  8
St
 10
-114.55
 20
-64.625
 70
     8
  0
VERTEX
  8
St
 10
-114.575
 20
-64.625
 70
     8
  0
VERTEX
  8
St
 10
-114.575
 20
-64.625
 70
     8
  0
VERTEX
  8
St
 10
-114.6
 20
-64.625
 70
     8
  0
VERTEX
  8
St
 10
-114.6
 20
-64.625
 70
     8
  0
VERTEX
  8
St
 10
-114.625
 20
-64.625
 70
     8
  0
VERTEX
  8
St
 10
-114.625
 20
-64.625
 70
     8
  0
VERTEX
  8
St
 10
-114.65
 20
-64.625
 70
     8
  0
VERTEX
  8
St
 10
-114.65
 20
-64.625
 70
     8
  0
VERTEX
  8
St
 10
-114.675
 20
-64.625
 70
     8
  0
VERTEX
  8
St
 10
-114.675
 20
-64.6
 70
     8
  0
VERTEX
  8
St
 10
-114.7
 20
-64.6
 70
     8
  0
VERTEX
  8
St
 10
-114.7
 20
-64.6
 70
     8
  0
VERTEX
  8
St
 10
-114.725
 20
-64.6
 70
     8
  0
VERTEX
  8
St
 10
-114.725
 20
-64.6
 70
     8
  0
VERTEX
  8
St
 10
-114.75
 20
-64.6
 70
     8
  0
VERTEX
  8
St
 10
-114.75
 20
-64.6
 70
     8
  0
VERTEX
  8
St
 10
-114.775
 20
-64.6
 70
     8
  0
VERTEX
  8
St
 10
-114.775
 20
-64.6
 70
     8
  0
VERTEX
  8
St
 10
-114.8
 20
-64.575
 70
     8
  0
VERTEX
  8
St
 10
-114.8
 20
-64.575
 70
     8
  0
VERTEX
  8
St
 10
-114.825
 20
-64.575
 70
     8
  0
VERTEX
  8
St
 10
-114.85
 20
-64.575
 70
     8
  0
VERTEX
  8
St
 10
-114.85
 20
-64.575
 70
     8
  0
VERTEX
  8
St
 10
-114.875
 20
-64.575
 70
     8
  0
VERTEX
  8
St
 10
-114.875
 20
-64.55
 70
     8
  0
VERTEX
  8
St
 10
-114.9
 20
-64.55
 70
     8
  0
VERTEX
  8
St
 10
-114.9
 20
-64.55
 70
     8
  0
VERTEX
  8
St
 10
-114.925
 20
-64.55
 70
     8
  0
VERTEX
  8
St
 10
-114.925
 20
-64.55
 70
     8
  0
VERTEX
  8
St
 10
-114.95
 20
-64.525
 70
     8
  0
VERTEX
  8
St
 10
-114.95
 20
-64.525
 70
     8
  0
VERTEX
  8
St
 10
-114.975
 20
-64.525
 70
     8
  0
VERTEX
  8
St
 10
-114.975
 20
-64.525
 70
     8
  0
VERTEX
  8
St
 10
-115.0
 20
-64.525
 70
     8
  0
VERTEX
  8
St
 10
-115.0
 20
-64.5
 70
     8
  0
VERTEX
  8
St
 10
-115.025
 20
-64.5
 70
     8
  0
VERTEX
  8
St
 10
-115.025
 20
-64.5
 70
     8
  0
VERTEX
  8
St
 10
-115.05
 20
-64.5
 70
     8
  0
VERTEX
  8
St
 10
-115.05
 20
-64.475
 70
     8
  0
VERTEX
  8
St
 10
-115.075
 20
-64.475
 70
     8
  0
VERTEX
  8
St
 10
-115.1
 20
-64.475
 70
     8
  0
VERTEX
  8
St
 10
-115.1
 20
-64.475
 70
     8
  0
VERTEX
  8
St
 10
-115.125
 20
-64.45
 70
     8
  0
VERTEX
  8
St
 10
-115.125
 20
-64.45
 70
     8
  0
VERTEX
  8
St
 10
-115.15
 20
-64.45
 70
     8
  0
VERTEX
  8
St
 10
-115.15
 20
-64.425
 70
     8
  0
VERTEX
  8
St
 10
-115.15
 20
-64.425
 70
     8
  0
VERTEX
  8
St
 10
-115.175
 20
-64.425
 70
     8
  0
VERTEX
  8
St
 10
-115.175
 20
-64.425
 70
     8
  0
VERTEX
  8
St
 10
-115.2
 20
-64.4
 70
     8
  0
VERTEX
  8
St
 10
-115.2
 20
-64.4
 70
     8
  0
VERTEX
  8
St
 10
-115.225
 20
-64.4
 70
     8
  0
VERTEX
  8
St
 10
-115.225
 20
-64.375
 70
     8
  0
VERTEX
  8
St
 10
-115.25
 20
-64.375
 70
     8
  0
VERTEX
  8
St
 10
-115.25
 20
-64.375
 70
     8
  0
VERTEX
  8
St
 10
-115.275
 20
-64.35
 70
     8
  0
VERTEX
  8
St
 10
-115.275
 20
-64.35
 70
     8
  0
VERTEX
  8
St
 10
-115.3
 20
-64.35
 70
     8
  0
VERTEX
  8
St
 10
-115.3
 20
-64.325
 70
     8
  0
VERTEX
  8
St
 10
-115.3
 20
-64.325
 70
     8
  0
VERTEX
  8
St
 10
-115.325
 20
-64.325
 70
     8
  0
VERTEX
  8
St
 10
-115.325
 20
-64.3
 70
     8
  0
VERTEX
  8
St
 10
-115.35
 20
-64.3
 70
     8
  0
VERTEX
  8
St
 10
-115.35
 20
-64.3
 70
     8
  0
VERTEX
  8
St
 10
-115.35
 20
-64.275
 70
     8
  0
VERTEX
  8
St
 10
-115.375
 20
-64.275
 70
     8
  0
VERTEX
  8
St
 10
-115.375
 20
-64.275
 70
     8
  0
VERTEX
  8
St
 10
-115.375
 20
-64.25
 70
     8
  0
VERTEX
  8
St
 10
-115.4
 20
-64.25
 70
     8
  0
VERTEX
  8
St
 10
-115.4
 20
-64.225
 70
     8
  0
VERTEX
  8
St
 10
-115.4
 20
-64.225
 70
     8
  0
VERTEX
  8
St
 10
-115.425
 20
-64.225
 70
     8
  0
VERTEX
  8
St
 10
-115.425
 20
-64.2
 70
     8
  0
VERTEX
  8
St
 10
-115.425
 20
-64.2
 70
     8
  0
VERTEX
  8
St
 10
-115.45
 20
-64.2
 70
     8
  0
VERTEX
  8
St
 10
-115.45
 20
-64.175
 70
     8
  0
VERTEX
  8
St
 10
-115.45
 20
-64.175
 70
     8
  0
VERTEX
  8
St
 10
-115.475
 20
-64.15
 70
     8
  0
VERTEX
  8
St
 10
-115.475
 20
-64.15
 70
     8
  0
VERTEX
  8
St
 10
-115.475
 20
-64.15
 70
     8
  0
VERTEX
  8
St
 10
-115.475
 20
-64.125
 70
     8
  0
VERTEX
  8
St
 10
-115.5
 20
-64.125
 70
     8
  0
VERTEX
  8
St
 10
-115.5
 20
-64.1
 70
     8
  0
VERTEX
  8
St
 10
-115.5
 20
-64.1
 70
     8
  0
VERTEX
  8
St
 10
-115.5
 20
-64.1
 70
     8
  0
VERTEX
  8
St
 10
-115.525
 20
-64.075
 70
     8
  0
VERTEX
  8
St
 10
-115.525
 20
-64.075
 70
     8
  0
VERTEX
  8
St
 10
-115.525
 20
-64.05
 70
     8
  0
VERTEX
  8
St
 10
-115.525
 20
-64.05
 70
     8
  0
VERTEX
  8
St
 10
-115.525
 20
-64.05
 70
     8
  0
VERTEX
  8
St
 10
-115.55
 20
-64.025
 70
     8
  0
VERTEX
  8
St
 10
-115.55
 20
-64.025
 70
     8
  0
VERTEX
  8
St
 10
-115.55
 20
-64.0
 70
     8
  0
VERTEX
  8
St
 10
-115.55
 20
-64.0
 70
     8
  0
VERTEX
  8
St
 10
-115.55
 20
-63.975
 70
     8
  0
VERTEX
  8
St
 10
-115.55
 20
-63.975
 70
     8
  0
VERTEX
  8
St
 10
-115.575
 20
-63.975
 70
     8
  0
VERTEX
  8
St
 10
-115.575
 20
-63.95
 70
     8
  0
VERTEX
  8
St
 10
-115.575
 20
-63.95
 70
     8
  0
VERTEX
  8
St
 10
-115.575
 20
-63.925
 70
     8
  0
VERTEX
  8
St
 10
-115.575
 20
-63.925
 70
     8
  0
VERTEX
  8
St
 10
-115.575
 20
-63.9
 70
     8
  0
VERTEX
  8
St
 10
-115.575
 20
-63.9
 70
     8
  0
VERTEX
  8
St
 10
-115.6
 20
-63.9
 70
     8
  0
VERTEX
  8
St
 10
-115.6
 20
-63.875
 70
     8
  0
VERTEX
  8
St
 10
-115.6
 20
-63.875
 70
     8
  0
VERTEX
  8
St
 10
-115.6
 20
-63.85
 70
     8
  0
VERTEX
  8
St
 10
-115.6
 20
-63.85
 70
     8
  0
VERTEX
  8
St
 10
-115.6
 20
-63.825
 70
     8
  0
VERTEX
  8
St
 10
-115.6
 20
-63.825
 70
     8
  0
VERTEX
  8
St
 10
-115.6
 20
-63.8
 70
     8
  0
VERTEX
  8
St
 10
-115.6
 20
-63.8
 70
     8
  0
VERTEX
  8
St
 10
-115.625
 20
-63.8
 70
     8
  0
VERTEX
  8
St
 10
-115.625
 20
-63.775
 70
     8
  0
VERTEX
  8
St
 10
-115.625
 20
-63.775
 70
     8
  0
VERTEX
  8
St
 10
-115.625
 20
-63.75
 70
     8
  0
VERTEX
  8
St
 10
-115.625
 20
-63.75
 70
     8
  0
VERTEX
  8
St
 10
-115.625
 20
-63.725
 70
     8
  0
VERTEX
  8
St
 10
-115.625
 20
-63.725
 70
     8
  0
VERTEX
  8
St
 10
-115.625
 20
-63.7
 70
     8
  0
VERTEX
  8
St
 10
-115.625
 20
-63.7
 70
     8
  0
VERTEX
  8
St
 10
-115.625
 20
-63.7
 70
     8
  0
VERTEX
  8
St
 10
-115.625
 20
-63.675
 70
     8
  0
VERTEX
  8
St
 10
-115.65
 20
-63.675
 70
     8
  0
VERTEX
  8
St
 10
-115.65
 20
-63.65
 70
     8
  0
SEQEND
  0
POLYLINE
  8
St
  6
CONTINUOUS
 66
     1
 70
     4
  0
VERTEX
  8
St
 10
-106.6
 20
-47.3
 70
     8
  0
VERTEX
  8
St
 10
-106.6
 20
-47.3
 70
     8
  0
VERTEX
  8
St
 10
-106.575
 20
-47.275
 70
     8
  0
VERTEX
  8
St
 10
-106.575
 20
-47.275
 70
     8
  0
VERTEX
  8
St
 10
-106.55
 20
-47.275
 70
     8
  0
VERTEX
  8
St
 10
-106.55
 20
-47.275
 70
     8
  0
VERTEX
  8
St
 10
-106.525
 20
-47.275
 70
     8
  0
VERTEX
  8
St
 10
-106.525
 20
-47.275
 70
     8
  0
VERTEX
  8
St
 10
-106.5
 20
-47.275
 70
     8
  0
VERTEX
  8
St
 10
-106.5
 20
-47.275
 70
     8
  0
VERTEX
  8
St
 10
-106.475
 20
-47.25
 70
     8
  0
VERTEX
  8
St
 10
-106.475
 20
-47.25
 70
     8
  0
VERTEX
  8
St
 10
-106.45
 20
-47.25
 70
     8
  0
VERTEX
  8
St
 10
-106.45
 20
-47.25
 70
     8
  0
VERTEX
  8
St
 10
-106.425
 20
-47.25
 70
     8
  0
VERTEX
  8
St
 10
-106.425
 20
-47.25
 70
     8
  0
VERTEX
  8
St
 10
-106.4
 20
-47.25
 70
     8
  0
VERTEX
  8
St
 10
-106.4
 20
-47.25
 70
     8
  0
VERTEX
  8
St
 10
-106.375
 20
-47.225
 70
     8
  0
VERTEX
  8
St
 10
-106.35
 20
-47.225
 70
     8
  0
VERTEX
  8
St
 10
-106.35
 20
-47.225
 70
     8
  0
VERTEX
  8
St
 10
-106.325
 20
-47.225
 70
     8
  0
VERTEX
  8
St
 10
-106.325
 20
-47.225
 70
     8
  0
VERTEX
  8
St
 10
-106.3
 20
-47.225
 70
     8
  0
VERTEX
  8
St
 10
-106.3
 20
-47.225
 70
     8
  0
VERTEX
  8
St
 10
-106.275
 20
-47.225
 70
     8
  0
VERTEX
  8
St
 10
-106.275
 20
-47.2
 70
     8
  0
VERTEX
  8
St
 10
-106.25
 20
-47.2
 70
     8
  0
VERTEX
  8
St
 10
-106.25
 20
-47.2
 70
     8
  0
VERTEX
  8
St
 10
-106.225
 20
-47.2
 70
     8
  0
VERTEX
  8
St
 10
-106.225
 20
-47.2
 70
     8
  0
VERTEX
  8
St
 10
-106.2
 20
-47.2
 70
     8
  0
VERTEX
  8
St
 10
-106.2
 20
-47.2
 70
     8
  0
VERTEX
  8
St
 10
-106.175
 20
-47.2
 70
     8
  0
VERTEX
  8
St
 10
-106.175
 20
-47.2
 70
     8
  0
VERTEX
  8
St
 10
-106.175
 20
-47.2
 70
     8
  0
VERTEX
  8
St
 10
-106.15
 20
-47.2
 70
     8
  0
VERTEX
  8
St
 10
-106.15
 20
-47.175
 70
     8
  0
VERTEX
  8
St
 10
-106.125
 20
-47.175
 70
     8
  0
VERTEX
  8
St
 10
-106.125
 20
-47.175
 70
     8
  0
VERTEX
  8
St
 10
-106.1
 20
-47.175
 70
     8
  0
VERTEX
  8
St
 10
-106.1
 20
-47.175
 70
     8
  0
VERTEX
  8
St
 10
-106.075
 20
-47.175
 70
     8
  0
VERTEX
  8
St
 10
-106.075
 20
-47.175
 70
     8
  0
VERTEX
  8
St
 10
-106.05
 20
-47.175
 70
     8
  0
VERTEX
  8
St
 10
-106.05
 20
-47.175
 70
     8
  0
VERTEX
  8
St
 10
-106.025
 20
-47.175
 70
     8
  0
VERTEX
  8
St
 10
-106.025
 20
-47.175
 70
     8
  0
VERTEX
  8
St
 10
-106.0
 20
-47.175
 70
     8
  0
VERTEX
  8
St
 10
-106.0
 20
-47.175
 70
     8
  0
VERTEX
  8
St
 10
-106.0
 20
-47.175
 70
     8
  0
VERTEX
  8
St
 10
-105.975
 20
-47.175
 70
     8
  0
VERTEX
  8
St
 10
-105.975
 20
-47.175
 70
     8
  0
VERTEX
  8
St
 10
-105.95
 20
-47.175
 70
     8
  0
VERTEX
  8
St
 10
-105.95
 20
-47.175
 70
     8
  0
VERTEX
  8
St
 10
-105.925
 20
-47.175
 70
     8
  0
VERTEX
  8
St
 10
-105.925
 20
-47.175
 70
     8
  0
VERTEX
  8
St
 10
-105.925
 20
-47.175
 70
     8
  0
VERTEX
  8
St
 10
-105.9
 20
-47.175
 70
     8
  0
VERTEX
  8
St
 10
-105.9
 20
-47.175
 70
     8
  0
VERTEX
  8
St
 10
-105.875
 20
-47.175
 70
     8
  0
VERTEX
  8
St
 10
-105.875
 20
-47.175
 70
     8
  0
VERTEX
  8
St
 10
-105.875
 20
-47.175
 70
     8
  0
VERTEX
  8
St
 10
-105.85
 20
-47.175
 70
     8
  0
VERTEX
  8
St
 10
-105.85
 20
-47.175
 70
     8
  0
VERTEX
  8
St
 10
-105.825
 20
-47.175
 70
     8
  0
VERTEX
  8
St
 10
-105.825
 20
-47.175
 70
     8
  0
VERTEX
  8
St
 10
-105.825
 20
-47.175
 70
     8
  0
VERTEX
  8
St
 10
-105.8
 20
-47.175
 70
     8
  0
VERTEX
  8
St
 10
-105.8
 20
-47.175
 70
     8
  0
VERTEX
  8
St
 10
-105.8
 20
-47.175
 70
     8
  0
VERTEX
  8
St
 10
-105.775
 20
-47.175
 70
     8
  0
VERTEX
  8
St
 10
-105.775
 20
-47.175
 70
     8
  0
VERTEX
  8
St
 10
-105.775
 20
-47.2
 70
     8
  0
VERTEX
  8
St
 10
-105.75
 20
-47.2
 70
     8
  0
VERTEX
  8
St
 10
-105.75
 20
-47.2
 70
     8
  0
VERTEX
  8
St
 10
-105.75
 20
-47.2
 70
     8
  0
VERTEX
  8
St
 10
-105.725
 20
-47.2
 70
     8
  0
VERTEX
  8
St
 10
-105.725
 20
-47.2
 70
     8
  0
VERTEX
  8
St
 10
-105.725
 20
-47.2
 70
     8
  0
VERTEX
  8
St
 10
-105.7
 20
-47.2
 70
     8
  0
VERTEX
  8
St
 10
-105.7
 20
-47.225
 70
     8
  0
VERTEX
  8
St
 10
-105.7
 20
-47.225
 70
     8
  0
VERTEX
  8
St
 10
-105.7
 20
-47.225
 70
     8
  0
VERTEX
  8
St
 10
-105.675
 20
-47.225
 70
     8
  0
VERTEX
  8
St
 10
-105.675
 20
-47.225
 70
     8
  0
VERTEX
  8
St
 10
-105.675
 20
-47.225
 70
     8
  0
VERTEX
  8
St
 10
-105.65
 20
-47.25
 70
     8
  0
VERTEX
  8
St
 10
-105.65
 20
-47.25
 70
     8
  0
VERTEX
  8
St
 10
-105.65
 20
-47.25
 70
     8
  0
VERTEX
  8
St
 10
-105.65
 20
-47.25
 70
     8
  0
VERTEX
  8
St
 10
-105.625
 20
-47.25
 70
     8
  0
VERTEX
  8
St
 10
-105.625
 20
-47.275
 70
     8
  0
VERTEX
  8
St
 10
-105.625
 20
-47.275
 70
     8
  0
VERTEX
  8
St
 10
-105.625
 20
-47.275
 70
     8
  0
VERTEX
  8
St
 10
-105.625
 20
-47.275
 70
     8
  0
VERTEX
  8
St
 10
-105.6
 20
-47.3
 70
     8
  0
VERTEX
  8
St
 10
-105.6
 20
-47.3
 70
     8
  0
VERTEX
  8
St
 10
-105.6
 20
-47.3
 70
     8
  0
VERTEX
  8
St
 10
-105.6
 20
-47.3
 70
     8
  0
VERTEX
  8
St
 10
-105.6
 20
-47.325
 70
     8
  0
VERTEX
  8
St
 10
-105.575
 20
-47.325
 70
     8
  0
VERTEX
  8
St
 10
-105.575
 20
-47.325
 70
     8
  0
VERTEX
  8
St
 10
-105.575
 20
-47.35
 70
     8
  0
VERTEX
  8
St
 10
-105.575
 20
-47.35
 70
     8
  0
VERTEX
  8
St
 10
-105.575
 20
-47.35
 70
     8
  0
VERTEX
  8
St
 10
-105.55
 20
-47.375
 70
     8
  0
VERTEX
  8
St
 10
-105.55
 20
-47.375
 70
     8
  0
VERTEX
  8
St
 10
-105.55
 20
-47.375
 70
     8
  0
VERTEX
  8
St
 10
-105.55
 20
-47.4
 70
     8
  0
VERTEX
  8
St
 10
-105.55
 20
-47.4
 70
     8
  0
VERTEX
  8
St
 10
-105.55
 20
-47.4
 70
     8
  0
VERTEX
  8
St
 10
-105.55
 20
-47.425
 70
     8
  0
VERTEX
  8
St
 10
-105.525
 20
-47.425
 70
     8
  0
VERTEX
  8
St
 10
-105.525
 20
-47.425
 70
     8
  0
VERTEX
  8
St
 10
-105.525
 20
-47.45
 70
     8
  0
VERTEX
  8
St
 10
-105.525
 20
-47.45
 70
     8
  0
VERTEX
  8
St
 10
-105.525
 20
-47.45
 70
     8
  0
VERTEX
  8
St
 10
-105.525
 20
-47.475
 70
     8
  0
VERTEX
  8
St
 10
-105.525
 20
-47.475
 70
     8
  0
VERTEX
  8
St
 10
-105.525
 20
-47.5
 70
     8
  0
VERTEX
  8
St
 10
-105.5
 20
-47.5
 70
     8
  0
VERTEX
  8
St
 10
-105.5
 20
-47.5
 70
     8
  0
VERTEX
  8
St
 10
-105.5
 20
-47.525
 70
     8
  0
VERTEX
  8
St
 10
-105.5
 20
-47.525
 70
     8
  0
VERTEX
  8
St
 10
-105.5
 20
-47.55
 70
     8
  0
VERTEX
  8
St
 10
-105.5
 20
-47.55
 70
     8
  0
VERTEX
  8
St
 10
-105.5
 20
-47.55
 70
     8
  0
VERTEX
  8
St
 10
-105.5
 20
-47.575
 70
     8
  0
VERTEX
  8
St
 10
-105.5
 20
-47.575
 70
     8
  0
VERTEX
  8
St
 10
-105.475
 20
-47.6
 70
     8
  0
VERTEX
  8
St
 10
-105.475
 20
-47.6
 70
     8
  0
VERTEX
  8
St
 10
-105.475
 20
-47.6
 70
     8
  0
VERTEX
  8
St
 10
-105.475
 20
-47.625
 70
     8
  0
VERTEX
  8
St
 10
-105.475
 20
-47.625
 70
     8
  0
VERTEX
  8
St
 10
-105.475
 20
-47.65
 70
     8
  0
VERTEX
  8
St
 10
-105.475
 20
-47.65
 70
     8
  0
VERTEX
  8
St
 10
-105.475
 20
-47.675
 70
     8
  0
VERTEX
  8
St
 10
-105.475
 20
-47.675
 70
     8
  0
VERTEX
  8
St
 10
-105.475
 20
-47.7
 70
     8
  0
VERTEX
  8
St
 10
-105.475
 20
-47.7
 70
     8
  0
VERTEX
  8
St
 10
-105.475
 20
-47.725
 70
     8
  0
VERTEX
  8
St
 10
-105.45
 20
-47.725
 70
     8
  0
VERTEX
  8
St
 10
-105.45
 20
-47.725
 70
     8
  0
VERTEX
  8
St
 10
-105.45
 20
-47.75
 70
     8
  0
VERTEX
  8
St
 10
-105.45
 20
-47.75
 70
     8
  0
VERTEX
  8
St
 10
-105.45
 20
-47.775
 70
     8
  0
VERTEX
  8
St
 10
-105.45
 20
-47.775
 70
     8
  0
VERTEX
  8
St
 10
-105.45
 20
-47.8
 70
     8
  0
VERTEX
  8
St
 10
-105.45
 20
-47.8
 70
     8
  0
VERTEX
  8
St
 10
-105.45
 20
-47.825
 70
     8
  0
VERTEX
  8
St
 10
-105.45
 20
-47.825
 70
     8
  0
VERTEX
  8
St
 10
-105.45
 20
-47.85
 70
     8
  0
VERTEX
  8
St
 10
-105.45
 20
-47.85
 70
     8
  0
VERTEX
  8
St
 10
-105.45
 20
-47.875
 70
     8
  0
VERTEX
  8
St
 10
-105.45
 20
-47.875
 70
     8
  0
VERTEX
  8
St
 10
-105.45
 20
-47.9
 70
     8
  0
VERTEX
  8
St
 10
-105.425
 20
-47.9
 70
     8
  0
VERTEX
  8
St
 10
-105.425
 20
-47.925
 70
     8
  0
VERTEX
  8
St
 10
-105.425
 20
-47.925
 70
     8
  0
VERTEX
  8
St
 10
-105.425
 20
-47.95
 70
     8
  0
VERTEX
  8
St
 10
-105.425
 20
-47.95
 70
     8
  0
VERTEX
  8
St
 10
-105.425
 20
-47.975
 70
     8
  0
VERTEX
  8
St
 10
-105.425
 20
-47.975
 70
     8
  0
VERTEX
  8
St
 10
-105.425
 20
-48.0
 70
     8
  0
VERTEX
  8
St
 10
-105.425
 20
-48.0
 70
     8
  0
VERTEX
  8
St
 10
-105.425
 20
-48.025
 70
     8
  0
VERTEX
  8
St
 10
-105.425
 20
-48.025
 70
     8
  0
VERTEX
  8
St
 10
-105.425
 20
-48.05
 70
     8
  0
VERTEX
  8
St
 10
-105.425
 20
-48.05
 70
     8
  0
VERTEX
  8
St
 10
-105.425
 20
-48.075
 70
     8
  0
VERTEX
  8
St
 10
-105.4
 20
-48.075
 70
     8
  0
VERTEX
  8
St
 10
-105.4
 20
-48.1
 70
     8
  0
VERTEX
  8
St
 10
-105.4
 20
-48.1
 70
     8
  0
VERTEX
  8
St
 10
-105.4
 20
-48.125
 70
     8
  0
VERTEX
  8
St
 10
-105.4
 20
-48.125
 70
     8
  0
VERTEX
  8
St
 10
-105.4
 20
-48.15
 70
     8
  0
VERTEX
  8
St
 10
-105.4
 20
-48.15
 70
     8
  0
VERTEX
  8
St
 10
-105.4
 20
-48.175
 70
     8
  0
VERTEX
  8
St
 10
-105.4
 20
-48.175
 70
     8
  0
VERTEX
  8
St
 10
-105.4
 20
-48.2
 70
     8
  0
VERTEX
  8
St
 10
-105.4
 20
-48.2
 70
     8
  0
VERTEX
  8
St
 10
-105.375
 20
-48.225
 70
     8
  0
VERTEX
  8
St
 10
-105.375
 20
-48.225
 70
     8
  0
VERTEX
  8
St
 10
-105.375
 20
-48.25
 70
     8
  0
VERTEX
  8
St
 10
-105.375
 20
-48.25
 70
     8
  0
VERTEX
  8
St
 10
-105.375
 20
-48.275
 70
     8
  0
VERTEX
  8
St
 10
-105.375
 20
-48.275
 70
     8
  0
VERTEX
  8
St
 10
-105.375
 20
-48.3
 70
     8
  0
VERTEX
  8
St
 10
-105.375
 20
-48.3
 70
     8
  0
VERTEX
  8
St
 10
-105.375
 20
-48.325
 70
     8
  0
VERTEX
  8
St
 10
-105.375
 20
-48.325
 70
     8
  0
VERTEX
  8
St
 10
-105.35
 20
-48.35
 70
     8
  0
VERTEX
  8
St
 10
-105.35
 20
-48.35
 70
     8
  0
VERTEX
  8
St
 10
-105.35
 20
-48.375
 70
     8
  0
VERTEX
  8
St
 10
-105.35
 20
-48.375
 70
     8
  0
VERTEX
  8
St
 10
-105.35
 20
-48.4
 70
     8
  0
VERTEX
  8
St
 10
-105.35
 20
-48.4
 70
     8
  0
VERTEX
  8
St
 10
-105.35
 20
-48.425
 70
     8
  0
VERTEX
  8
St
 10
-105.325
 20
-48.425
 70
     8
  0
VERTEX
  8
St
 10
-105.325
 20
-48.45
 70
     8
  0
VERTEX
  8
St
 10
-105.325
 20
-48.45
 70
     8
  0
VERTEX
  8
St
 10
-105.325
 20
-48.475
 70
     8
  0
VERTEX
  8
St
 10
-105.325
 20
-48.475
 70
     8
  0
VERTEX
  8
St
 10
-105.325
 20
-48.5
 70
     8
  0
VERTEX
  8
St
 10
-105.3
 20
-48.5
 70
     8
  0
VERTEX
  8
St
 10
-105.3
 20
-48.5
 70
     8
  0
VERTEX
  8
St
 10
-105.3
 20
-48.525
 70
     8
  0
VERTEX
  8
St
 10
-105.3
 20
-48.525
 70
     8
  0
VERTEX
  8
St
 10
-105.3
 20
-48.55
 70
     8
  0
VERTEX
  8
St
 10
-105.3
 20
-48.55
 70
     8
  0
VERTEX
  8
St
 10
-105.275
 20
-48.575
 70
     8
  0
VERTEX
  8
St
 10
-105.275
 20
-48.575
 70
     8
  0
VERTEX
  8
St
 10
-105.275
 20
-48.6
 70
     8
  0
VERTEX
  8
St
 10
-105.275
 20
-48.6
 70
     8
  0
VERTEX
  8
St
 10
-105.25
 20
-48.625
 70
     8
  0
VERTEX
  8
St
 10
-105.25
 20
-48.625
 70
     8
  0
VERTEX
  8
St
 10
-105.25
 20
-48.625
 70
     8
  0
VERTEX
  8
St
 10
-105.25
 20
-48.65
 70
     8
  0
VERTEX
  8
St
 10
-105.25
 20
-48.65
 70
     8
  0
VERTEX
  8
St
 10
-105.225
 20
-48.675
 70
     8
  0
VERTEX
  8
St
 10
-105.225
 20
-48.675
 70
     8
  0
VERTEX
  8
St
 10
-105.225
 20
-48.675
 70
     8
  0
VERTEX
  8
St
 10
-105.225
 20
-48.7
 70
     8
  0
VERTEX
  8
St
 10
-105.2
 20
-48.7
 70
     8
  0
VERTEX
  8
St
 10
-105.2
 20
-48.725
 70
     8
  0
VERTEX
  8
St
 10
-105.2
 20
-48.725
 70
     8
  0
VERTEX
  8
St
 10
-105.175
 20
-48.725
 70
     8
  0
VERTEX
  8
St
 10
-105.175
 20
-48.75
 70
     8
  0
VERTEX
  8
St
 10
-105.175
 20
-48.75
 70
     8
  0
VERTEX
  8
St
 10
-105.175
 20
-48.775
 70
     8
  0
VERTEX
  8
St
 10
-105.15
 20
-48.775
 70
     8
  0
VERTEX
  8
St
 10
-105.15
 20
-48.775
 70
     8
  0
VERTEX
  8
St
 10
-105.15
 20
-48.8
 70
     8
  0
VERTEX
  8
St
 10
-105.125
 20
-48.8
 70
     8
  0
VERTEX
  8
St
 10
-105.125
 20
-48.8
 70
     8
  0
VERTEX
  8
St
 10
-105.125
 20
-48.825
 70
     8
  0
VERTEX
  8
St
 10
-105.1
 20
-48.825
 70
     8
  0
VERTEX
  8
St
 10
-105.1
 20
-48.825
 70
     8
  0
VERTEX
  8
St
 10
-105.1
 20
-48.85
 70
     8
  0
VERTEX
  8
St
 10
-105.075
 20
-48.85
 70
     8
  0
VERTEX
  8
St
 10
-105.075
 20
-48.85
 70
     8
  0
VERTEX
  8
St
 10
-105.05
 20
-48.875
 70
     8
  0
VERTEX
  8
St
 10
-105.05
 20
-48.875
 70
     8
  0
VERTEX
  8
St
 10
-105.05
 20
-48.875
 70
     8
  0
VERTEX
  8
St
 10
-105.025
 20
-48.9
 70
     8
  0
VERTEX
  8
St
 10
-105.025
 20
-48.9
 70
     8
  0
VERTEX
  8
St
 10
-105.0
 20
-48.9
 70
     8
  0
VERTEX
  8
St
 10
-105.0
 20
-48.9
 70
     8
  0
VERTEX
  8
St
 10
-105.0
 20
-48.925
 70
     8
  0
VERTEX
  8
St
 10
-104.975
 20
-48.925
 70
     8
  0
VERTEX
  8
St
 10
-104.975
 20
-48.925
 70
     8
  0
VERTEX
  8
St
 10
-104.95
 20
-48.95
 70
     8
  0
VERTEX
  8
St
 10
-104.95
 20
-48.95
 70
     8
  0
VERTEX
  8
St
 10
-104.925
 20
-48.95
 70
     8
  0
VERTEX
  8
St
 10
-104.925
 20
-48.95
 70
     8
  0
VERTEX
  8
St
 10
-104.9
 20
-48.95
 70
     8
  0
VERTEX
  8
St
 10
-104.9
 20
-48.975
 70
     8
  0
VERTEX
  8
St
 10
-104.875
 20
-48.975
 70
     8
  0
VERTEX
  8
St
 10
-104.875
 20
-48.975
 70
     8
  0
VERTEX
  8
St
 10
-104.85
 20
-48.975
 70
     8
  0
VERTEX
  8
St
 10
-104.85
 20
-49.0
 70
     8
  0
VERTEX
  8
St
 10
-104.825
 20
-49.0
 70
     8
  0
VERTEX
  8
St
 10
-104.825
 20
-49.0
 70
     8
  0
VERTEX
  8
St
 10
-104.8
 20
-49.0
 70
     8
  0
VERTEX
  8
St
 10
-104.8
 20
-49.0
 70
     8
  0
VERTEX
  8
St
 10
-104.775
 20
-49.0
 70
     8
  0
VERTEX
  8
St
 10
-104.775
 20
-49.025
 70
     8
  0
VERTEX
  8
St
 10
-104.75
 20
-49.025
 70
     8
  0
VERTEX
  8
St
 10
-104.75
 20
-49.025
 70
     8
  0
VERTEX
  8
St
 10
-104.725
 20
-49.025
 70
     8
  0
VERTEX
  8
St
 10
-104.725
 20
-49.025
 70
     8
  0
VERTEX
  8
St
 10
-104.7
 20
-49.025
 70
     8
  0
VERTEX
  8
St
 10
-104.7
 20
-49.025
 70
     8
  0
VERTEX
  8
St
 10
-104.675
 20
-49.05
 70
     8
  0
VERTEX
  8
St
 10
-104.675
 20
-49.05
 70
     8
  0
VERTEX
  8
St
 10
-104.65
 20
-49.05
 70
     8
  0
VERTEX
  8
St
 10
-104.65
 20
-49.05
 70
     8
  0
VERTEX
  8
St
 10
-104.625
 20
-49.05
 70
     8
  0
VERTEX
  8
St
 10
-104.625
 20
-49.05
 70
     8
  0
VERTEX
  8
St
 10
-104.6
 20
-49.05
 70
     8
  0
VERTEX
  8
St
 10
-104.6
 20
-49.05
 70
     8
  0
VERTEX
  8
St
 10
-104.575
 20
-49.05
 70
     8
  0
VERTEX
  8
St
 10
-104.575
 20
-49.05
 70
     8
  0
VERTEX
  8
St
 10
-104.55
 20
-49.05
 70
     8
  0
VERTEX
  8
St
 10
-104.55
 20
-49.05
 70
     8
  0
VERTEX
  8
St
 10
-104.525
 20
-49.05
 70
     8
  0
VERTEX
  8
St
 10
-104.525
 20
-49.075
 70
     8
  0
VERTEX
  8
St
 10
-104.5
 20
-49.075
 70
     8
  0
VERTEX
  8
St
 10
-104.475
 20
-49.075
 70
     8
  0
VERTEX
  8
St
 10
-104.475
 20
-49.075
 70
     8
  0
VERTEX
  8
St
 10
-104.45
 20
-49.075
 70
     8
  0
VERTEX
  8
St
 10
-104.45
 20
-49.075
 70
     8
  0
VERTEX
  8
St
 10
-104.425
 20
-49.075
 70
     8
  0
VERTEX
  8
St
 10
-104.425
 20
-49.075
 70
     8
  0
VERTEX
  8
St
 10
-104.425
 20
-49.075
 70
     8
  0
VERTEX
  8
St
 10
-104.4
 20
-49.05
 70
     8
  0
VERTEX
  8
St
 10
-104.4
 20
-49.05
 70
     8
  0
VERTEX
  8
St
 10
-104.375
 20
-49.05
 70
     8
  0
VERTEX
  8
St
 10
-104.375
 20
-49.05
 70
     8
  0
VERTEX
  8
St
 10
-104.35
 20
-49.05
 70
     8
  0
VERTEX
  8
St
 10
-104.35
 20
-49.05
 70
     8
  0
VERTEX
  8
St
 10
-104.325
 20
-49.05
 70
     8
  0
VERTEX
  8
St
 10
-104.325
 20
-49.05
 70
     8
  0
VERTEX
  8
St
 10
-104.3
 20
-49.05
 70
     8
  0
VERTEX
  8
St
 10
-104.3
 20
-49.05
 70
     8
  0
VERTEX
  8
St
 10
-104.275
 20
-49.05
 70
     8
  0
VERTEX
  8
St
 10
-104.275
 20
-49.05
 70
     8
  0
VERTEX
  8
St
 10
-104.275
 20
-49.05
 70
     8
  0
VERTEX
  8
St
 10
-104.25
 20
-49.025
 70
     8
  0
VERTEX
  8
St
 10
-104.25
 20
-49.025
 70
     8
  0
VERTEX
  8
St
 10
-104.225
 20
-49.025
 70
     8
  0
VERTEX
  8
St
 10
-104.225
 20
-49.025
 70
     8
  0
VERTEX
  8
St
 10
-104.225
 20
-49.025
 70
     8
  0
VERTEX
  8
St
 10
-104.2
 20
-49.025
 70
     8
  0
VERTEX
  8
St
 10
-104.2
 20
-49.0
 70
     8
  0
VERTEX
  8
St
 10
-104.2
 20
-49.0
 70
     8
  0
VERTEX
  8
St
 10
-104.175
 20
-49.0
 70
     8
  0
VERTEX
  8
St
 10
-104.175
 20
-49.0
 70
     8
  0
VERTEX
  8
St
 10
-104.175
 20
-49.0
 70
     8
  0
VERTEX
  8
St
 10
-104.15
 20
-49.0
 70
     8
  0
VERTEX
  8
St
 10
-104.15
 20
-48.975
 70
     8
  0
VERTEX
  8
St
 10
-104.15
 20
-48.975
 70
     8
  0
VERTEX
  8
St
 10
-104.125
 20
-48.975
 70
     8
  0
VERTEX
  8
St
 10
-104.125
 20
-48.975
 70
     8
  0
VERTEX
  8
St
 10
-104.125
 20
-48.95
 70
     8
  0
VERTEX
  8
St
 10
-104.125
 20
-48.95
 70
     8
  0
VERTEX
  8
St
 10
-104.1
 20
-48.95
 70
     8
  0
VERTEX
  8
St
 10
-104.1
 20
-48.95
 70
     8
  0
VERTEX
  8
St
 10
-104.1
 20
-48.925
 70
     8
  0
VERTEX
  8
St
 10
-104.1
 20
-48.925
 70
     8
  0
VERTEX
  8
St
 10
-104.075
 20
-48.925
 70
     8
  0
VERTEX
  8
St
 10
-104.075
 20
-48.9
 70
     8
  0
VERTEX
  8
St
 10
-104.075
 20
-48.9
 70
     8
  0
VERTEX
  8
St
 10
-104.075
 20
-48.9
 70
     8
  0
VERTEX
  8
St
 10
-104.075
 20
-48.875
 70
     8
  0
VERTEX
  8
St
 10
-104.075
 20
-48.875
 70
     8
  0
VERTEX
  8
St
 10
-104.075
 20
-48.875
 70
     8
  0
VERTEX
  8
St
 10
-104.05
 20
-48.85
 70
     8
  0
VERTEX
  8
St
 10
-104.05
 20
-48.85
 70
     8
  0
VERTEX
  8
St
 10
-104.05
 20
-48.85
 70
     8
  0
VERTEX
  8
St
 10
-104.05
 20
-48.825
 70
     8
  0
VERTEX
  8
St
 10
-104.05
 20
-48.825
 70
     8
  0
VERTEX
  8
St
 10
-104.05
 20
-48.825
 70
     8
  0
VERTEX
  8
St
 10
-104.05
 20
-48.8
 70
     8
  0
VERTEX
  8
St
 10
-104.05
 20
-48.8
 70
     8
  0
VERTEX
  8
St
 10
-104.05
 20
-48.775
 70
     8
  0
VERTEX
  8
St
 10
-104.05
 20
-48.775
 70
     8
  0
VERTEX
  8
St
 10
-104.05
 20
-48.775
 70
     8
  0
VERTEX
  8
St
 10
-104.05
 20
-48.75
 70
     8
  0
VERTEX
  8
St
 10
-104.05
 20
-48.75
 70
     8
  0
VERTEX
  8
St
 10
-104.05
 20
-48.725
 70
     8
  0
VERTEX
  8
St
 10
-104.05
 20
-48.725
 70
     8
  0
VERTEX
  8
St
 10
-104.05
 20
-48.725
 70
     8
  0
VERTEX
  8
St
 10
-104.05
 20
-48.7
 70
     8
  0
VERTEX
  8
St
 10
-104.05
 20
-48.7
 70
     8
  0
VERTEX
  8
St
 10
-104.05
 20
-48.675
 70
     8
  0
VERTEX
  8
St
 10
-104.05
 20
-48.675
 70
     8
  0
VERTEX
  8
St
 10
-104.05
 20
-48.65
 70
     8
  0
VERTEX
  8
St
 10
-104.05
 20
-48.65
 70
     8
  0
VERTEX
  8
St
 10
-104.075
 20
-48.65
 70
     8
  0
VERTEX
  8
St
 10
-104.075
 20
-48.625
 70
     8
  0
VERTEX
  8
St
 10
-104.075
 20
-48.625
 70
     8
  0
VERTEX
  8
St
 10
-104.075
 20
-48.6
 70
     8
  0
VERTEX
  8
St
 10
-104.075
 20
-48.6
 70
     8
  0
VERTEX
  8
St
 10
-104.075
 20
-48.575
 70
     8
  0
VERTEX
  8
St
 10
-104.075
 20
-48.575
 70
     8
  0
VERTEX
  8
St
 10
-104.075
 20
-48.55
 70
     8
  0
VERTEX
  8
St
 10
-104.1
 20
-48.55
 70
     8
  0
VERTEX
  8
St
 10
-104.1
 20
-48.525
 70
     8
  0
VERTEX
  8
St
 10
-104.1
 20
-48.525
 70
     8
  0
VERTEX
  8
St
 10
-104.1
 20
-48.525
 70
     8
  0
VERTEX
  8
St
 10
-104.1
 20
-48.5
 70
     8
  0
VERTEX
  8
St
 10
-104.125
 20
-48.5
 70
     8
  0
VERTEX
  8
St
 10
-104.125
 20
-48.475
 70
     8
  0
VERTEX
  8
St
 10
-104.125
 20
-48.475
 70
     8
  0
VERTEX
  8
St
 10
-104.125
 20
-48.45
 70
     8
  0
VERTEX
  8
St
 10
-104.15
 20
-48.45
 70
     8
  0
VERTEX
  8
St
 10
-104.15
 20
-48.425
 70
     8
  0
VERTEX
  8
St
 10
-104.15
 20
-48.425
 70
     8
  0
VERTEX
  8
St
 10
-104.15
 20
-48.4
 70
     8
  0
VERTEX
  8
St
 10
-104.175
 20
-48.4
 70
     8
  0
VERTEX
  8
St
 10
-104.175
 20
-48.375
 70
     8
  0
VERTEX
  8
St
 10
-104.175
 20
-48.375
 70
     8
  0
VERTEX
  8
St
 10
-104.175
 20
-48.375
 70
     8
  0
VERTEX
  8
St
 10
-104.2
 20
-48.35
 70
     8
  0
VERTEX
  8
St
 10
-104.2
 20
-48.35
 70
     8
  0
VERTEX
  8
St
 10
-104.2
 20
-48.325
 70
     8
  0
VERTEX
  8
St
 10
-104.2
 20
-48.325
 70
     8
  0
VERTEX
  8
St
 10
-104.225
 20
-48.3
 70
     8
  0
VERTEX
  8
St
 10
-104.225
 20
-48.3
 70
     8
  0
VERTEX
  8
St
 10
-104.225
 20
-48.275
 70
     8
  0
VERTEX
  8
St
 10
-104.25
 20
-48.275
 70
     8
  0
VERTEX
  8
St
 10
-104.25
 20
-48.25
 70
     8
  0
VERTEX
  8
St
 10
-104.25
 20
-48.25
 70
     8
  0
VERTEX
  8
St
 10
-104.275
 20
-48.25
 70
     8
  0
VERTEX
  8
St
 10
-104.275
 20
-48.225
 70
     8
  0
VERTEX
  8
St
 10
-104.275
 20
-48.225
 70
     8
  0
VERTEX
  8
St
 10
-104.3
 20
-48.2
 70
     8
  0
VERTEX
  8
St
 10
-104.3
 20
-48.2
 70
     8
  0
VERTEX
  8
St
 10
-104.3
 20
-48.175
 70
     8
  0
VERTEX
  8
St
 10
-104.325
 20
-48.175
 70
     8
  0
VERTEX
  8
St
 10
-104.325
 20
-48.175
 70
     8
  0
VERTEX
  8
St
 10
-104.35
 20
-48.15
 70
     8
  0
VERTEX
  8
St
 10
-104.35
 20
-48.15
 70
     8
  0
VERTEX
  8
St
 10
-104.35
 20
-48.125
 70
     8
  0
VERTEX
  8
St
 10
-104.375
 20
-48.125
 70
     8
  0
VERTEX
  8
St
 10
-104.375
 20
-48.125
 70
     8
  0
VERTEX
  8
St
 10
-104.375
 20
-48.1
 70
     8
  0
VERTEX
  8
St
 10
-104.4
 20
-48.1
 70
     8
  0
VERTEX
  8
St
 10
-104.4
 20
-48.1
 70
     8
  0
VERTEX
  8
St
 10
-104.425
 20
-48.075
 70
     8
  0
VERTEX
  8
St
 10
-104.425
 20
-48.075
 70
     8
  0
VERTEX
  8
St
 10
-104.425
 20
-48.075
 70
     8
  0
VERTEX
  8
St
 10
-104.45
 20
-48.05
 70
     8
  0
VERTEX
  8
St
 10
-104.45
 20
-48.05
 70
     8
  0
VERTEX
  8
St
 10
-104.475
 20
-48.05
 70
     8
  0
VERTEX
  8
St
 10
-104.475
 20
-48.025
 70
     8
  0
VERTEX
  8
St
 10
-104.475
 20
-48.025
 70
     8
  0
VERTEX
  8
St
 10
-104.5
 20
-48.025
 70
     8
  0
VERTEX
  8
St
 10
-104.5
 20
-48.0
 70
     8
  0
VERTEX
  8
St
 10
-104.525
 20
-48.0
 70
     8
  0
VERTEX
  8
St
 10
-104.525
 20
-48.0
 70
     8
  0
VERTEX
  8
St
 10
-104.525
 20
-48.0
 70
     8
  0
VERTEX
  8
St
 10
-104.55
 20
-47.975
 70
     8
  0
VERTEX
  8
St
 10
-104.55
 20
-47.975
 70
     8
  0
VERTEX
  8
St
 10
-104.575
 20
-47.975
 70
     8
  0
VERTEX
  8
St
 10
-104.575
 20
-47.975
 70
     8
  0
VERTEX
  8
St
 10
-104.6
 20
-47.95
 70
     8
  0
VERTEX
  8
St
 10
-104.6
 20
-47.95
 70
     8
  0
VERTEX
  8
St
 10
-104.6
 20
-47.95
 70
     8
  0
VERTEX
  8
St
 10
-104.625
 20
-47.95
 70
     8
  0
VERTEX
  8
St
 10
-104.625
 20
-47.95
 70
     8
  0
VERTEX
  8
St
 10
-104.65
 20
-47.925
 70
     8
  0
VERTEX
  8
St
 10
-104.65
 20
-47.925
 70
     8
  0
VERTEX
  8
St
 10
-104.675
 20
-47.925
 70
     8
  0
VERTEX
  8
St
 10
-104.675
 20
-47.925
 70
     8
  0
VERTEX
  8
St
 10
-104.675
 20
-47.925
 70
     8
  0
VERTEX
  8
St
 10
-104.7
 20
-47.925
 70
     8
  0
VERTEX
  8
St
 10
-104.7
 20
-47.9
 70
     8
  0
VERTEX
  8
St
 10
-104.725
 20
-47.9
 70
     8
  0
VERTEX
  8
St
 10
-104.725
 20
-47.9
 70
     8
  0
VERTEX
  8
St
 10
-104.75
 20
-47.9
 70
     8
  0
VERTEX
  8
St
 10
-104.75
 20
-47.9
 70
     8
  0
VERTEX
  8
St
 10
-104.75
 20
-47.9
 70
     8
  0
VERTEX
  8
St
 10
-104.775
 20
-47.9
 70
     8
  0
VERTEX
  8
St
 10
-104.775
 20
-47.9
 70
     8
  0
VERTEX
  8
St
 10
-104.8
 20
-47.9
 70
     8
  0
VERTEX
  8
St
 10
-104.8
 20
-47.875
 70
     8
  0
VERTEX
  8
St
 10
-104.825
 20
-47.875
 70
     8
  0
VERTEX
  8
St
 10
-104.825
 20
-47.875
 70
     8
  0
VERTEX
  8
St
 10
-104.85
 20
-47.875
 70
     8
  0
VERTEX
  8
St
 10
-104.85
 20
-47.875
 70
     8
  0
VERTEX
  8
St
 10
-104.85
 20
-47.875
 70
     8
  0
VERTEX
  8
St
 10
-104.875
 20
-47.875
 70
     8
  0
VERTEX
  8
St
 10
-104.875
 20
-47.875
 70
     8
  0
VERTEX
  8
St
 10
-104.9
 20
-47.875
 70
     8
  0
VERTEX
  8
St
 10
-104.9
 20
-47.875
 70
     8
  0
VERTEX
  8
St
 10
-104.925
 20
-47.875
 70
     8
  0
VERTEX
  8
St
 10
-104.925
 20
-47.875
 70
     8
  0
VERTEX
  8
St
 10
-104.925
 20
-47.875
 70
     8
  0
VERTEX
  8
St
 10
-104.95
 20
-47.875
 70
     8
  0
VERTEX
  8
St
 10
-104.95
 20
-47.875
 70
     8
  0
VERTEX
  8
St
 10
-104.975
 20
-47.875
 70
     8
  0
VERTEX
  8
St
 10
-104.975
 20
-47.875
 70
     8
  0
VERTEX
  8
St
 10
-105.0
 20
-47.875
 70
     8
  0
VERTEX
  8
St
 10
-105.0
 20
-47.875
 70
     8
  0
VERTEX
  8
St
 10
-105.025
 20
-47.875
 70
     8
  0
VERTEX
  8
St
 10
-105.025
 20
-47.875
 70
     8
  0
VERTEX
  8
St
 10
-105.05
 20
-47.875
 70
     8
  0
VERTEX
  8
St
 10
-105.05
 20
-47.875
 70
     8
  0
VERTEX
  8
St
 10
-105.05
 20
-47.875
 70
     8
  0
VERTEX
  8
St
 10
-105.075
 20
-47.875
 70
     8
  0
VERTEX
  8
St
 10
-105.075
 20
-47.875
 70
     8
  0
VERTEX
  8
St
 10
-105.1
 20
-47.875
 70
     8
  0
VERTEX
  8
St
 10
-105.1
 20
-47.875
 70
     8
  0
VERTEX
  8
St
 10
-105.125
 20
-47.875
 70
     8
  0
VERTEX
  8
St
 10
-105.125
 20
-47.9
 70
     8
  0
VERTEX
  8
St
 10
-105.15
 20
-47.9
 70
     8
  0
VERTEX
  8
St
 10
-105.15
 20
-47.9
 70
     8
  0
VERTEX
  8
St
 10
-105.15
 20
-47.9
 70
     8
  0
VERTEX
  8
St
 10
-105.175
 20
-47.9
 70
     8
  0
VERTEX
  8
St
 10
-105.175
 20
-47.9
 70
     8
  0
VERTEX
  8
St
 10
-105.2
 20
-47.9
 70
     8
  0
VERTEX
  8
St
 10
-105.2
 20
-47.9
 70
     8
  0
VERTEX
  8
St
 10
-105.225
 20
-47.9
 70
     8
  0
VERTEX
  8
St
 10
-105.225
 20
-47.9
 70
     8
  0
VERTEX
  8
St
 10
-105.25
 20
-47.9
 70
     8
  0
VERTEX
  8
St
 10
-105.25
 20
-47.9
 70
     8
  0
VERTEX
  8
St
 10
-105.275
 20
-47.9
 70
     8
  0
VERTEX
  8
St
 10
-105.275
 20
-47.9
 70
     8
  0
VERTEX
  8
St
 10
-105.275
 20
-47.925
 70
     8
  0
VERTEX
  8
St
 10
-105.3
 20
-47.925
 70
     8
  0
VERTEX
  8
St
 10
-105.3
 20
-47.925
 70
     8
  0
VERTEX
  8
St
 10
-105.325
 20
-47.925
 70
     8
  0
VERTEX
  8
St
 10
-105.325
 20
-47.925
 70
     8
  0
VERTEX
  8
St
 10
-105.35
 20
-47.925
 70
     8
  0
VERTEX
  8
St
 10
-105.35
 20
-47.925
 70
     8
  0
VERTEX
  8
St
 10
-105.375
 20
-47.925
 70
     8
  0
VERTEX
  8
St
 10
-105.375
 20
-47.925
 70
     8
  0
VERTEX
  8
St
 10
-105.4
 20
-47.925
 70
     8
  0
SEQEND
  0
LINE
  8
St
  6
CONTINUOUS
 10
-116.720535
 20
-62.858025
 11
-106.602008
 21
-47.28893
  0
LINE
  8
St
  6
CONTINUOUS
 10
-114.205102
 20
-64.49283
 11
-104.086575
 21
-48.92374
  0
INSERT
  2
*GRP_0028
  8
St
  6
CONTINUOUS
 10
0.0
 20
0.0
  0
INSERT
  2
*GRP_0068
  8
St
  6
CONTINUOUS
 10
0.0
 20
0.0
  0
INSERT
  2
*GRP_0069
  8
St
  6
CONTINUOUS
 62
   127
 10
0.0
 20
0.0
  0
INSERT
  2
*HAT_0009
  8
St
 10
0.0
 20
0.0
  0
INSERT
  2
*GRP_0070
  8
St
  6
CONTINUOUS
 10
0.0
 20
0.0
  0
INSERT
  2
*GRP_0071
  8
St
  6
CONTINUOUS
 62
   127
 10
0.0
 20
0.0
  0
INSERT
  2
*HAT_0010
  8
St
 10
0.0
 20
0.0
  0
INSERT
  2
*GRP_0092
  8
St
  6
DOT
 10
0.0
 20
0.0
  0
LINE
  8
その他部品等
  6
CONTINUOUS
 10
-96.574028
 20
-40.248373
 11
-94.45995
 21
-38.504813
  0
INSERT
  2
*HAT_0011
  8
その他部品等
 10
0.0
 20
0.0
  0
LINE
  8
その他部品等
  6
CONTINUOUS
 10
122.018943
 20
-40.248373
 11
119.904865
 21
-38.504813
  0
INSERT
  2
*HAT_0012
  8
その他部品等
 10
0.0
 20
0.0
  0
ENDSEC
  0
EOF
