  0
SECTION
  2
HEADER
  9
$EXTMIN
 10
-210.0
 20
-148.5
  9
$EXTMAX
 10
210.0
 20
148.5
  9
$PDMODE
 70
    32
  9
$PDSIZE
 40
1.5
  9
$LTSCALE
 40
10.0
  0
ENDSEC
  0
SECTION
  2
TABLES
  0
TABLE
  2
LTYPE
 70
    15
  0
LTYPE
  2
CONTINUOUS
 70
    64
  3
実線
 72
    65
 73
     0
 40
0.0
  0
LTYPE
  2
DASHED
 70
    64
  3
破線A
 72
    65
 73
     2
 40
0.6
 49
0.4
 49
-0.2
  0
LTYPE
  2
DASHEDX2
 70
    64
  3
破線B
 72
    65
 73
     2
 40
1.3
 49
0.9
 49
-0.4
  0
LTYPE
  2
DASHDOT
 70
    64
  3
１点鎖線A
 72
    65
 73
     4
 40
0.5375
 49
0.375
 49
-0.05
 49
0.0625
 49
-0.05
  0
LTYPE
  2
DASHDOTX2
 70
    64
  3
１点鎖線B
 72
    65
 73
     4
 40
1.075
 49
0.75
 49
-0.1
 49
0.125
 49
-0.1
  0
LTYPE
  2
DIVIDE2
 70
    64
  3
２点鎖線A
 72
    65
 73
     6
 40
0.5125
 49
0.3
 49
-0.0375
 49
0.05
 49
-0.0375
 49
0.05
 49
-0.0375
  0
LTYPE
  2
DIVIDE
 70
    64
  3
２点鎖線B
 72
    65
 73
     6
 40
1.05
 49
0.55
 49
-0.1
 49
0.1
 49
-0.1
 49
0.1
 49
-0.1
  0
LTYPE
  2
DOT
 70
    64
  3
点線A
 72
    65
 73
     2
 40
0.1125
 49
0.0625
 49
-0.05
  0
LTYPE
  2
DOTX2
 70
    64
  3
点線B
 72
    65
 73
     2
 40
0.275
 49
0.15
 49
-0.125
  0
LTYPE
  2
CONTINUOUS
 70
    64
  3
実線
 72
    65
 73
     0
 40
0.0
  0
LTYPE
  2
CONTINUOUS
 70
    64
  3
実線
 72
    65
 73
     0
 40
0.0
  0
LTYPE
  2
CONTINUOUS
 70
    64
  3
実線
 72
    65
 73
     0
 40
0.0
  0
LTYPE
  2
CONTINUOUS
 70
    64
  3
実線
 72
    65
 73
     0
 40
0.0
  0
LTYPE
  2
CONTINUOUS
 70
    64
  3
実線
 72
    65
 73
     0
 40
0.0
  0
LTYPE
  2
CONTINUOUS
 70
    64
  3
実線
 72
    65
 73
     0
 40
0.0
  0
ENDTAB
  0
TABLE
  2
LAYER
 70
    36
  0
LAYER
  2
通り芯
 70
     0
 62
    15
  6
CONTINUOUS
  0
LAYER
  2
補助線
 70
     0
 62
    16
  6
DOT
  0
LAYER
  2
躯体
 70
     0
 62
    31
  6
CONTINUOUS
  0
LAYER
  2
型材
 70
     0
 62
    32
  6
CONTINUOUS
  0
LAYER
  2
型材断面
 70
     0
 62
    47
  6
CONTINUOUS
  0
LAYER
  2
ガラス
 70
     0
 62
    48
  6
CONTINUOUS
  0
LAYER
  2
ゴム等
 70
     0
 62
    63
  6
CONTINUOUS
  0
LAYER
  2
ボルト／ビス
 70
     0
 62
    64
  6
CONTINUOUS
  0
LAYER
  2
文字
 70
     0
 62
    79
  6
CONTINUOUS
  0
LAYER
  2
寸法
 70
     0
 62
    80
  6
CONTINUOUS
  0
LAYER
  2
ﾊｯﾁﾝｸﾞ
 70
     0
 62
    95
  6
CONTINUOUS
  0
LAYER
  2
別途部材
 70
     0
 62
    96
  6
CONTINUOUS
  0
LAYER
  2
曲げ物
 70
     0
 62
   111
  6
CONTINUOUS
  0
LAYER
  2
鉄骨等
 70
     0
 62
   112
  6
CONTINUOUS
  0
LAYER
  2
St
 70
     0
 62
   127
  6
CONTINUOUS
  0
LAYER
  2
その他部品等
 70
     0
 62
   128
  6
CONTINUOUS
  0
LAYER
  2
ｶﾞｽｹｯﾄ
 70
     0
 62
   143
  6
CONTINUOUS
  0
LAYER
  2
ｽｹｯﾁ
 70
     0
 62
    14
  6
CONTINUOUS
  0
LAYER
  2
0
 70
     0
 62
    17
  6
CONTINUOUS
  0
LAYER
  2
1
 70
     0
 62
    30
  6
CONTINUOUS
  0
LAYER
  2
4
 70
     0
 62
    33
  6
CONTINUOUS
  0
LAYER
  2
ﾚｲﾔ3
 70
     0
 62
    46
  6
CONTINUOUS
  0
LAYER
  2
外形線
 70
     0
 62
    49
  6
CONTINUOUS
  0
LAYER
  2
部品
 70
     0
 62
    14
  6
CONTINUOUS
  0
LAYER
  2
サッシ芯
 70
     0
 62
    17
  6
DASHDOTX2
  0
LAYER
  2
寸法線
 70
     0
 62
    62
  6
CONTINUOUS
  0
LAYER
  2
姿図外形線
 70
     0
 62
    65
  6
CONTINUOUS
  0
LAYER
  2
姿補助線
 70
     0
 62
    30
  6
CONTINUOUS
  0
LAYER
  2
透視線
 70
     0
 62
    78
  6
DOT
  0
LAYER
  2
用紙
 70
     0
 62
    81
  6
CONTINUOUS
  0
LAYER
  2
実線図枠
 70
     0
 62
    94
  6
CONTINUOUS
  0
LAYER
  2
補助図枠
 70
     0
 62
    97
  6
CONTINUOUS
  0
LAYER
  2
建具記号
 70
     0
 62
   110
  6
CONTINUOUS
  0
LAYER
  2
補助文字
 70
     0
 62
   113
  6
CONTINUOUS
  0
LAYER
  2
LAYER010
 70
     0
 62
    11
  6
CONTINUOUS
  0
LAYER
  2
SUNPO
 70
     0
 62
     6
  6
CONTINUOUS
  0
ENDTAB
  0
TABLE
  2
STYLE
 70
    10
  0
STYLE
  2
STANDARD
 70
     0
 40
1.0
 41
1.0
 42
1.0
 50
0.0
 71
     0
  3
TXT
  4
BIGFONT
  0
STYLE
  2
TATE
 70
     4
 40
1.0
 41
1.0
 42
1.0
 50
0.0
 71
     0
  3
TXT
  4
BIGFONT
  0
STYLE
  2
TextStyle03
 70
     0
 40
1.0
 41
1.0
 42
1.0
 50
0.0
 71
     0
  3
MONOTXT
  4
BIGFONT
  0
STYLE
  2
TextStyle04
 70
     0
 40
1.0
 41
1.0
 42
1.0
 50
0.0
 71
     0
  3
MONOTXT
  4
BIGFONT
  0
STYLE
  2
TextStyle05
 70
     0
 40
1.0
 41
1.0
 42
1.0
 50
0.0
 71
     0
  3
MONOTXT
  4
BIGFONT
  0
STYLE
  2
TextStyle06
 70
     0
 40
1.0
 41
1.0
 42
1.0
 50
0.0
 71
     0
  3
MONOTXT
  4
BIGFONT
  0
STYLE
  2
TextStyle07
 70
     0
 40
1.0
 41
1.0
 42
1.0
 50
0.0
 71
     0
  3
MONOTXT
  4
BIGFONT
  0
STYLE
  2
TextStyle08
 70
     0
 40
1.0
 41
1.0
 42
1.0
 50
0.0
 71
     0
  3
MONOTXT
  4
BIGFONT
  0
STYLE
  2
TextStyle09
 70
     0
 40
1.0
 41
1.0
 42
1.0
 50
0.0
 71
     0
  3
MONOTXT
  4
BIGFONT
  0
STYLE
  2
TextStyle10
 70
     0
 40
1.0
 41
1.0
 42
1.0
 50
0.0
 71
     0
  3
MONOTXT
  4
BIGFONT
  0
ENDTAB
  0
ENDSEC
  0
SECTION
  2
BLOCKS
  0
BLOCK
  2
*HAT_0001
 70
    65
 10
0.0
 20
0.0
  0
LINE
  8
ﾊｯﾁﾝｸﾞ
 10
92.225
 20
-92.8
 11
92.275
 21
-92.75
  0
LINE
  8
ﾊｯﾁﾝｸﾞ
 10
90.825
 20
-92.8
 11
92.275
 21
-91.35
  0
LINE
  8
ﾊｯﾁﾝｸﾞ
 10
89.4
 20
-92.8
 11
92.275
 21
-89.925
  0
LINE
  8
ﾊｯﾁﾝｸﾞ
 10
88.625
 20
-92.15
 11
92.275
 21
-88.525
  0
LINE
  8
ﾊｯﾁﾝｸﾞ
 10
88.625
 20
-90.75
 11
92.275
 21
-87.1
  0
LINE
  8
ﾊｯﾁﾝｸﾞ
 10
88.625
 20
-89.325
 11
92.275
 21
-85.7
  0
LINE
  8
ﾊｯﾁﾝｸﾞ
 10
88.625
 20
-87.925
 11
92.275
 21
-84.275
  0
LINE
  8
ﾊｯﾁﾝｸﾞ
 10
88.625
 20
-86.5
 11
92.275
 21
-82.875
  0
LINE
  8
ﾊｯﾁﾝｸﾞ
 10
88.625
 20
-85.1
 11
91.4
 21
-82.325
  0
LINE
  8
ﾊｯﾁﾝｸﾞ
 10
88.625
 20
-83.7
 11
89.85
 21
-82.475
  0
LINE
  8
ﾊｯﾁﾝｸﾞ
 10
88.625
 20
-91.55
 11
89.85
 21
-92.8
  0
LINE
  8
ﾊｯﾁﾝｸﾞ
 10
88.625
 20
-90.15
 11
91.275
 21
-92.8
  0
LINE
  8
ﾊｯﾁﾝｸﾞ
 10
88.625
 20
-88.725
 11
92.275
 21
-92.375
  0
LINE
  8
ﾊｯﾁﾝｸﾞ
 10
88.625
 20
-87.325
 11
92.275
 21
-90.975
  0
LINE
  8
ﾊｯﾁﾝｸﾞ
 10
88.625
 20
-85.925
 11
92.275
 21
-89.55
  0
LINE
  8
ﾊｯﾁﾝｸﾞ
 10
88.625
 20
-84.5
 11
92.275
 21
-88.15
  0
LINE
  8
ﾊｯﾁﾝｸﾞ
 10
88.625
 20
-83.1
 11
92.275
 21
-86.725
  0
LINE
  8
ﾊｯﾁﾝｸﾞ
 10
89.45
 20
-82.5
 11
92.275
 21
-85.325
  0
LINE
  8
ﾊｯﾁﾝｸﾞ
 10
90.725
 20
-82.375
 11
92.275
 21
-83.9
  0
LINE
  8
ﾊｯﾁﾝｸﾞ
 10
92.025
 20
-82.25
 11
92.275
 21
-82.5
  0
ENDBLK
  0
BLOCK
  2
*HAT_0002
 70
    65
 10
0.0
 20
0.0
  0
LINE
  8
ﾊｯﾁﾝｸﾞ
 10
110.575
 20
-92.8
 11
110.625
 21
-92.75
  0
LINE
  8
ﾊｯﾁﾝｸﾞ
 10
109.175
 20
-92.8
 11
110.625
 21
-91.35
  0
LINE
  8
ﾊｯﾁﾝｸﾞ
 10
107.75
 20
-92.8
 11
110.625
 21
-89.925
  0
LINE
  8
ﾊｯﾁﾝｸﾞ
 10
106.975
 20
-92.15
 11
110.625
 21
-88.525
  0
LINE
  8
ﾊｯﾁﾝｸﾞ
 10
106.975
 20
-90.75
 11
110.625
 21
-87.1
  0
LINE
  8
ﾊｯﾁﾝｸﾞ
 10
106.975
 20
-89.35
 11
110.625
 21
-85.7
  0
LINE
  8
ﾊｯﾁﾝｸﾞ
 10
106.975
 20
-87.925
 11
110.625
 21
-84.275
  0
LINE
  8
ﾊｯﾁﾝｸﾞ
 10
106.975
 20
-86.525
 11
110.625
 21
-82.875
  0
LINE
  8
ﾊｯﾁﾝｸﾞ
 10
106.975
 20
-85.1
 11
109.6
 21
-82.5
  0
LINE
  8
ﾊｯﾁﾝｸﾞ
 10
106.975
 20
-83.7
 11
108.3
 21
-82.375
  0
LINE
  8
ﾊｯﾁﾝｸﾞ
 10
106.975
 20
-82.275
 11
107.025
 21
-82.25
  0
LINE
  8
ﾊｯﾁﾝｸﾞ
 10
106.975
 20
-91.55
 11
108.2
 21
-92.8
  0
LINE
  8
ﾊｯﾁﾝｸﾞ
 10
106.975
 20
-90.15
 11
109.625
 21
-92.8
  0
LINE
  8
ﾊｯﾁﾝｸﾞ
 10
106.975
 20
-88.725
 11
110.625
 21
-92.375
  0
LINE
  8
ﾊｯﾁﾝｸﾞ
 10
106.975
 20
-87.325
 11
110.625
 21
-90.975
  0
LINE
  8
ﾊｯﾁﾝｸﾞ
 10
106.975
 20
-85.925
 11
110.625
 21
-89.55
  0
LINE
  8
ﾊｯﾁﾝｸﾞ
 10
106.975
 20
-84.5
 11
110.625
 21
-88.15
  0
LINE
  8
ﾊｯﾁﾝｸﾞ
 10
106.975
 20
-83.075
 11
110.625
 21
-86.725
  0
LINE
  8
ﾊｯﾁﾝｸﾞ
 10
107.6
 20
-82.3
 11
110.625
 21
-85.325
  0
LINE
  8
ﾊｯﾁﾝｸﾞ
 10
109.15
 20
-82.45
 11
110.625
 21
-83.9
  0
ENDBLK
  0
BLOCK
  2
*HAT_0003
 70
    65
 10
0.0
 20
0.0
  0
LINE
  8
ﾊｯﾁﾝｸﾞ
 10
105.175
 20
-89.8
 11
106.975
 21
-88.0
  0
LINE
  8
ﾊｯﾁﾝｸﾞ
 10
102.35
 20
-89.8
 11
106.975
 21
-85.175
  0
LINE
  8
ﾊｯﾁﾝｸﾞ
 10
99.525
 20
-89.8
 11
106.975
 21
-82.325
  0
LINE
  8
ﾊｯﾁﾝｸﾞ
 10
96.7
 20
-89.8
 11
105.75
 21
-80.75
  0
LINE
  8
ﾊｯﾁﾝｸﾞ
 10
93.875
 20
-89.8
 11
102.925
 21
-80.75
  0
LINE
  8
ﾊｯﾁﾝｸﾞ
 10
92.275
 20
-88.55
 11
100.1
 21
-80.75
  0
LINE
  8
ﾊｯﾁﾝｸﾞ
 10
92.275
 20
-85.725
 11
97.275
 21
-80.75
  0
LINE
  8
ﾊｯﾁﾝｸﾞ
 10
92.275
 20
-82.9
 11
94.425
 21
-80.75
  0
LINE
  8
ﾊｯﾁﾝｸﾞ
 10
92.275
 20
-89.5
 11
92.55
 21
-89.8
  0
LINE
  8
ﾊｯﾁﾝｸﾞ
 10
92.275
 20
-86.675
 11
95.375
 21
-89.8
  0
LINE
  8
ﾊｯﾁﾝｸﾞ
 10
92.275
 20
-83.85
 11
98.2
 21
-89.8
  0
LINE
  8
ﾊｯﾁﾝｸﾞ
 10
92.125
 20
-80.9
 11
101.025
 21
-89.8
  0
LINE
  8
ﾊｯﾁﾝｸﾞ
 10
94.8
 20
-80.75
 11
103.875
 21
-89.8
  0
LINE
  8
ﾊｯﾁﾝｸﾞ
 10
97.625
 20
-80.75
 11
106.7
 21
-89.8
  0
LINE
  8
ﾊｯﾁﾝｸﾞ
 10
100.475
 20
-80.75
 11
106.975
 21
-87.25
  0
LINE
  8
ﾊｯﾁﾝｸﾞ
 10
103.3
 20
-80.75
 11
106.975
 21
-84.425
  0
LINE
  8
ﾊｯﾁﾝｸﾞ
 10
106.125
 20
-80.75
 11
107.025
 21
-81.65
  0
ENDBLK
  0
BLOCK
  2
*HAT_0004
 70
    65
 10
0.0
 20
0.0
  0
LINE
  8
ﾊｯﾁﾝｸﾞ
 10
90.8
 20
-30.65
 11
92.2
 21
-29.25
  0
LINE
  8
ﾊｯﾁﾝｸﾞ
 10
89.4
 20
-30.65
 11
92.2
 21
-27.85
  0
LINE
  8
ﾊｯﾁﾝｸﾞ
 10
88.7
 20
-29.925
 11
92.2
 21
-26.425
  0
LINE
  8
ﾊｯﾁﾝｸﾞ
 10
88.7
 20
-28.525
 11
92.2
 21
-25.025
  0
LINE
  8
ﾊｯﾁﾝｸﾞ
 10
88.7
 20
-27.1
 11
92.2
 21
-23.6
  0
LINE
  8
ﾊｯﾁﾝｸﾞ
 10
88.7
 20
-25.7
 11
92.2
 21
-22.2
  0
LINE
  8
ﾊｯﾁﾝｸﾞ
 10
88.7
 20
-24.275
 11
92.2
 21
-20.775
  0
LINE
  8
ﾊｯﾁﾝｸﾞ
 10
88.7
 20
-22.875
 11
92.2
 21
-19.375
  0
LINE
  8
ﾊｯﾁﾝｸﾞ
 10
88.7
 20
-21.475
 11
92.0
 21
-18.15
  0
LINE
  8
ﾊｯﾁﾝｸﾞ
 10
88.7
 20
-20.05
 11
90.6
 21
-18.15
  0
LINE
  8
ﾊｯﾁﾝｸﾞ
 10
88.7
 20
-18.65
 11
89.175
 21
-18.15
  0
LINE
  8
ﾊｯﾁﾝｸﾞ
 10
88.7
 20
-29.475
 11
89.85
 21
-30.65
  0
LINE
  8
ﾊｯﾁﾝｸﾞ
 10
88.7
 20
-28.075
 11
91.275
 21
-30.65
  0
LINE
  8
ﾊｯﾁﾝｸﾞ
 10
88.7
 20
-26.65
 11
92.2
 21
-30.15
  0
LINE
  8
ﾊｯﾁﾝｸﾞ
 10
88.7
 20
-25.25
 11
92.2
 21
-28.75
  0
LINE
  8
ﾊｯﾁﾝｸﾞ
 10
88.7
 20
-23.825
 11
92.2
 21
-27.325
  0
LINE
  8
ﾊｯﾁﾝｸﾞ
 10
88.7
 20
-22.425
 11
92.2
 21
-25.925
  0
LINE
  8
ﾊｯﾁﾝｸﾞ
 10
88.7
 20
-21.0
 11
92.2
 21
-24.5
  0
LINE
  8
ﾊｯﾁﾝｸﾞ
 10
88.7
 20
-19.6
 11
92.2
 21
-23.1
  0
LINE
  8
ﾊｯﾁﾝｸﾞ
 10
88.7
 20
-18.175
 11
92.2
 21
-21.675
  0
LINE
  8
ﾊｯﾁﾝｸﾞ
 10
90.075
 20
-18.15
 11
92.2
 21
-20.275
  0
LINE
  8
ﾊｯﾁﾝｸﾞ
 10
91.475
 20
-18.15
 11
92.2
 21
-18.85
  0
ENDBLK
  0
BLOCK
  2
*HAT_0005
 70
    65
 10
0.0
 20
0.0
  0
LINE
  8
ﾊｯﾁﾝｸﾞ
 10
108.625
 20
-30.65
 11
107.225
 21
-29.25
  0
LINE
  8
ﾊｯﾁﾝｸﾞ
 10
110.025
 20
-30.65
 11
107.225
 21
-27.85
  0
LINE
  8
ﾊｯﾁﾝｸﾞ
 10
110.725
 20
-29.925
 11
107.225
 21
-26.425
  0
LINE
  8
ﾊｯﾁﾝｸﾞ
 10
110.725
 20
-28.525
 11
107.225
 21
-25.025
  0
LINE
  8
ﾊｯﾁﾝｸﾞ
 10
110.725
 20
-27.1
 11
107.225
 21
-23.6
  0
LINE
  8
ﾊｯﾁﾝｸﾞ
 10
110.725
 20
-25.7
 11
107.225
 21
-22.2
  0
LINE
  8
ﾊｯﾁﾝｸﾞ
 10
110.725
 20
-24.275
 11
107.225
 21
-20.775
  0
LINE
  8
ﾊｯﾁﾝｸﾞ
 10
110.725
 20
-22.875
 11
107.225
 21
-19.375
  0
LINE
  8
ﾊｯﾁﾝｸﾞ
 10
110.725
 20
-21.475
 11
107.425
 21
-18.15
  0
LINE
  8
ﾊｯﾁﾝｸﾞ
 10
110.725
 20
-20.05
 11
108.825
 21
-18.15
  0
LINE
  8
ﾊｯﾁﾝｸﾞ
 10
110.725
 20
-18.65
 11
110.25
 21
-18.15
  0
LINE
  8
ﾊｯﾁﾝｸﾞ
 10
110.725
 20
-29.475
 11
109.575
 21
-30.65
  0
LINE
  8
ﾊｯﾁﾝｸﾞ
 10
110.725
 20
-28.075
 11
108.15
 21
-30.65
  0
LINE
  8
ﾊｯﾁﾝｸﾞ
 10
110.725
 20
-26.65
 11
107.225
 21
-30.15
  0
LINE
  8
ﾊｯﾁﾝｸﾞ
 10
110.725
 20
-25.25
 11
107.225
 21
-28.75
  0
LINE
  8
ﾊｯﾁﾝｸﾞ
 10
110.725
 20
-23.825
 11
107.225
 21
-27.325
  0
LINE
  8
ﾊｯﾁﾝｸﾞ
 10
110.725
 20
-22.425
 11
107.225
 21
-25.925
  0
LINE
  8
ﾊｯﾁﾝｸﾞ
 10
110.725
 20
-21.0
 11
107.225
 21
-24.5
  0
LINE
  8
ﾊｯﾁﾝｸﾞ
 10
110.725
 20
-19.6
 11
107.225
 21
-23.1
  0
LINE
  8
ﾊｯﾁﾝｸﾞ
 10
110.725
 20
-18.175
 11
107.225
 21
-21.675
  0
LINE
  8
ﾊｯﾁﾝｸﾞ
 10
109.35
 20
-18.15
 11
107.225
 21
-20.275
  0
LINE
  8
ﾊｯﾁﾝｸﾞ
 10
107.95
 20
-18.15
 11
107.225
 21
-18.85
  0
ENDBLK
  0
BLOCK
  2
*HAT_0006
 70
    65
 10
0.0
 20
0.0
  0
LINE
  8
ﾊｯﾁﾝｸﾞ
 10
105.1
 20
-27.65
 11
107.2
 21
-25.55
  0
LINE
  8
ﾊｯﾁﾝｸﾞ
 10
102.275
 20
-27.65
 11
107.2
 21
-22.725
  0
LINE
  8
ﾊｯﾁﾝｸﾞ
 10
99.45
 20
-27.65
 11
107.2
 21
-19.9
  0
LINE
  8
ﾊｯﾁﾝｸﾞ
 10
96.6
 20
-27.65
 11
107.2
 21
-17.075
  0
LINE
  8
ﾊｯﾁﾝｸﾞ
 10
93.775
 20
-27.65
 11
105.275
 21
-16.15
  0
LINE
  8
ﾊｯﾁﾝｸﾞ
 10
92.2
 20
-26.4
 11
102.45
 21
-16.15
  0
LINE
  8
ﾊｯﾁﾝｸﾞ
 10
92.2
 20
-23.575
 11
99.625
 21
-16.15
  0
LINE
  8
ﾊｯﾁﾝｸﾞ
 10
92.2
 20
-20.75
 11
96.8
 21
-16.15
  0
LINE
  8
ﾊｯﾁﾝｸﾞ
 10
92.2
 20
-17.925
 11
93.975
 21
-16.15
  0
LINE
  8
ﾊｯﾁﾝｸﾞ
 10
92.2
 20
-27.2
 11
92.625
 21
-27.65
  0
LINE
  8
ﾊｯﾁﾝｸﾞ
 10
92.2
 20
-24.375
 11
95.45
 21
-27.65
  0
LINE
  8
ﾊｯﾁﾝｸﾞ
 10
92.2
 20
-21.55
 11
98.3
 21
-27.65
  0
LINE
  8
ﾊｯﾁﾝｸﾞ
 10
92.2
 20
-18.725
 11
101.125
 21
-27.65
  0
LINE
  8
ﾊｯﾁﾝｸﾞ
 10
92.45
 20
-16.15
 11
103.95
 21
-27.65
  0
LINE
  8
ﾊｯﾁﾝｸﾞ
 10
95.275
 20
-16.15
 11
106.775
 21
-27.65
  0
LINE
  8
ﾊｯﾁﾝｸﾞ
 10
98.1
 20
-16.15
 11
107.2
 21
-25.25
  0
LINE
  8
ﾊｯﾁﾝｸﾞ
 10
100.925
 20
-16.15
 11
107.2
 21
-22.425
  0
LINE
  8
ﾊｯﾁﾝｸﾞ
 10
103.75
 20
-16.15
 11
107.2
 21
-19.575
  0
LINE
  8
ﾊｯﾁﾝｸﾞ
 10
106.575
 20
-16.15
 11
107.2
 21
-16.75
  0
ENDBLK
  0
BLOCK
  2
*GRP_0001
 70
    65
 10
0.0
 20
0.0
  0
LINE
  8
型材断面
  6
CONTINUOUS
 10
195.0
 20
133.5
 11
195.0
 21
-133.5
  0
LINE
  8
型材断面
  6
CONTINUOUS
 10
195.0
 20
-133.5
 11
-185.0
 21
-133.5
  0
LINE
  8
型材断面
  6
CONTINUOUS
 10
-185.0
 20
-133.5
 11
-185.0
 21
133.5
  0
LINE
  8
型材断面
  6
CONTINUOUS
 10
195.0
 20
133.5
 11
-185.0
 21
133.5
  0
LINE
  8
型材断面
  6
CONTINUOUS
 10
145.0
 20
-133.5
 11
145.0
 21
-118.5
  0
LINE
  8
型材断面
  6
CONTINUOUS
 10
195.0
 20
-118.5
 11
145.0
 21
-118.5
  0
ENDBLK
  0
BLOCK
  2
*GRP_0002
 70
    65
 10
0.0
 20
0.0
  0
POLYLINE
  8
寸法
  6
CONTINUOUS
 66
     1
  0
VERTEX
  8
寸法
 10
99.607772
 20
-80.737865
  0
VERTEX
  8
寸法
 10
114.156003
 20
-66.189635
  0
VERTEX
  8
寸法
 10
120.678507
 20
-66.189635
  0
SEQEND
  0
ENDBLK
  0
BLOCK
  2
*GRP_0003
 70
    65
 10
0.0
 20
0.0
  0
POLYLINE
  8
寸法
  6
CONTINUOUS
 66
     1
  0
VERTEX
  8
寸法
 10
101.118605
 20
-91.927362
  0
VERTEX
  8
寸法
 10
115.730625
 20
-106.539383
  0
VERTEX
  8
寸法
 10
120.907125
 20
-106.539383
  0
SEQEND
  0
ENDBLK
  0
BLOCK
  2
*GRP_0004
 70
    65
 10
0.0
 20
0.0
  0
POLYLINE
  8
寸法
  6
BYBLOCK
 62
     0
 66
     1
  0
VERTEX
  8
寸法
 10
94.975115
 20
-94.28335
  0
VERTEX
  8
寸法
 10
90.755235
 20
-98.50323
  0
VERTEX
  8
寸法
 10
77.750497
 20
-98.50323
  0
SEQEND
  0
ENDBLK
  0
BLOCK
  2
*DIM_0005
 70
    65
 10
0.0
 20
0.0
  0
LINE
  8
寸法
  6
CONTINUOUS
 10
130.732857
 20
-83.047215
 11
145.58055
 21
-84.503042
  0
LINE
  8
寸法
  6
CONTINUOUS
 10
113.103
 20
-94.380933
 11
144.311973
 21
-97.440997
  0
LINE
  8
寸法
  6
CONTINUOUS
 10
145.58055
 20
-84.503042
 11
144.311973
 21
-97.440997
  0
POINT
  8
寸法
 10
145.58055
 20
-84.503042
  0
POINT
  8
寸法
 10
144.311973
 20
-97.440997
  0
TEXT
  7
TextStyle03
  8
寸法
  6
CONTINUOUS
 10
144.38551
 20
-92.768161
  1
13
 40
3.5
 50
84.4
 72
     5
 11
144.747786
 21
-89.073379
  0
ENDBLK
  0
BLOCK
  2
*GRP_0006
 70
    65
 10
0.0
 20
0.0
  0
POLYLINE
  8
寸法
  6
CONTINUOUS
 66
     1
  0
VERTEX
  8
寸法
 10
109.039252
 20
-92.261948
  0
VERTEX
  8
寸法
 10
116.640543
 20
-99.86324
  0
VERTEX
  8
寸法
 10
121.03396
 20
-99.86324
  0
SEQEND
  0
ENDBLK
  0
BLOCK
  2
*GRP_0007
 70
    65
 10
0.0
 20
0.0
  0
POLYLINE
  8
寸法
  6
CONTINUOUS
 66
     1
  0
VERTEX
  8
寸法
 10
99.68096
 20
-16.160747
  0
VERTEX
  8
寸法
 10
114.22919
 20
-1.612518
  0
VERTEX
  8
寸法
 10
120.751695
 20
-1.612518
  0
SEQEND
  0
ENDBLK
  0
BLOCK
  2
*GRP_0008
 70
    65
 10
0.0
 20
0.0
  0
POLYLINE
  8
寸法
  6
CONTINUOUS
 66
     1
  0
VERTEX
  8
寸法
 10
101.118605
 20
-29.92175
  0
VERTEX
  8
寸法
 10
115.730625
 20
-44.53377
  0
VERTEX
  8
寸法
 10
120.907125
 20
-44.53377
  0
SEQEND
  0
ENDBLK
  0
BLOCK
  2
*GRP_0009
 70
    65
 10
0.0
 20
0.0
  0
POLYLINE
  8
寸法
  6
CONTINUOUS
 66
     1
  0
VERTEX
  8
寸法
 10
109.069997
 20
-24.36385
  0
VERTEX
  8
寸法
 10
116.671287
 20
-31.965143
  0
VERTEX
  8
寸法
 10
121.064705
 20
-31.965143
  0
SEQEND
  0
ENDBLK
  0
BLOCK
  2
*GRP_0010
 70
    65
 10
0.0
 20
0.0
  0
LINE
  8
型材断面
  6
CONTINUOUS
 62
    47
 10
-133.898927
 20
112.411732
 11
-133.898988
 21
82.411732
  0
LINE
  8
型材断面
  6
CONTINUOUS
 62
    47
 10
-133.898988
 20
82.411732
 11
-132.898988
 21
82.411732
  0
LINE
  8
型材断面
  6
CONTINUOUS
 10
-132.89898
 20
86.411732
 11
-132.898988
 21
82.411732
  0
LINE
  8
型材断面
  6
CONTINUOUS
 10
-132.898978
 20
87.161732
 11
-132.89893
 21
111.538575
  0
LINE
  8
型材断面
  6
CONTINUOUS
 10
-127.421503
 20
112.283802
 11
-132.89893
 21
111.538575
  0
LINE
  8
型材断面
  6
CONTINUOUS
 10
-97.438288
 20
116.363153
 11
-126.678345
 21
112.384913
  0
LINE
  8
型材断面
  6
CONTINUOUS
 10
-133.898927
 20
112.411732
 11
-49.898927
 21
123.840305
  0
LINE
  8
型材断面
  6
CONTINUOUS
 10
-96.695133
 20
116.464263
 11
-49.898927
 21
122.831092
  0
LINE
  8
型材断面
  6
CONTINUOUS
 10
-48.898927
 20
129.690305
 11
-49.898927
 21
129.690305
  0
LINE
  8
型材断面
  6
CONTINUOUS
 10
-49.898927
 20
129.690305
 11
-49.898927
 21
127.090305
  0
LINE
  8
型材断面
  6
CONTINUOUS
 10
-49.898927
 20
123.840305
 11
-49.898927
 21
126.790305
  0
LINE
  8
型材断面
  6
CONTINUOUS
 10
-49.898927
 20
127.090305
 11
-49.748927
 21
126.940305
  0
LINE
  8
型材断面
  6
CONTINUOUS
 10
-49.898927
 20
126.790305
 11
-49.748927
 21
126.940305
  0
LINE
  8
型材断面
  6
CONTINUOUS
 10
-126.551493
 20
111.49387
 11
-124.66883
 21
111.750015
  0
LINE
  8
型材断面
  6
CONTINUOUS
 10
-124.66883
 20
111.750015
 11
-124.56565
 21
111.00714
  0
LINE
  8
型材断面
  6
CONTINUOUS
 10
-124.56565
 20
111.00714
 11
-127.19147
 21
110.649885
  0
LINE
  8
型材断面
  6
CONTINUOUS
 10
-97.316957
 20
115.471368
 11
-99.19962
 21
115.215222
  0
LINE
  8
型材断面
  6
CONTINUOUS
 10
-99.19962
 20
115.215222
 11
-99.10058
 21
114.471785
  0
LINE
  8
型材断面
  6
CONTINUOUS
 10
-99.10058
 20
114.471785
 11
-96.47476
 21
114.82904
  0
LINE
  8
型材断面
  6
CONTINUOUS
 10
-51.636565
 20
121.686377
 11
-51.535455
 21
120.943223
  0
LINE
  8
型材断面
  6
CONTINUOUS
 10
-51.535455
 20
120.943223
 11
-48.929457
 21
121.29778
  0
LINE
  8
型材断面
  6
CONTINUOUS
 10
-51.636565
 20
121.686377
 11
-49.929457
 21
121.918637
  0
LINE
  8
型材断面
  6
CONTINUOUS
 10
-97.438288
 20
116.363153
 11
-97.31944
 21
115.47103
  0
LINE
  8
型材断面
  6
CONTINUOUS
 10
-96.69513
 20
116.464263
 11
-96.477243
 21
114.828702
  0
LINE
  8
型材断面
  6
CONTINUOUS
 10
-126.679173
 20
112.3848
 11
-126.555357
 21
111.493353
  0
LINE
  8
型材断面
  6
CONTINUOUS
 10
-127.42233
 20
112.28369
 11
-127.195333
 21
110.64936
  0
LINE
  8
型材断面
  6
CONTINUOUS
 10
-49.898927
 20
122.831092
 11
-49.898927
 21
121.922792
  0
LINE
  8
型材断面
  6
CONTINUOUS
 62
    47
 10
-48.898927
 20
129.690305
 11
-48.898927
 21
121.301932
  0
LINE
  8
型材断面
  6
CONTINUOUS
 10
-131.248978
 20
88.41173
 11
-131.998978
 21
88.41173
  0
LINE
  8
型材断面
  6
CONTINUOUS
 10
-131.998978
 20
87.16173
 11
-131.998978
 21
88.41173
  0
LINE
  8
型材断面
  6
CONTINUOUS
 10
-131.248978
 20
86.91173
 11
-131.248978
 21
88.41173
  0
ARC
  8
型材断面
  6
CONTINUOUS
 10
-131.748982
 20
86.911729
 40
0.5
 50
-90.0
 51
0.0
  0
LINE
  8
型材断面
  6
CONTINUOUS
 10
-131.99898
 20
87.16173
 11
-132.898978
 21
87.16173
  0
LINE
  8
型材断面
  6
CONTINUOUS
 10
-131.748982
 20
86.41173
 11
-132.89898
 21
86.41173
  0
ENDBLK
  0
BLOCK
  2
*GRP_0011
 70
    65
 10
0.0
 20
0.0
  0
LINE
  8
型材断面
  6
CONTINUOUS
 10
-49.648927
 20
74.669205
 11
-49.798927
 21
74.819205
  0
LINE
  8
型材断面
  6
CONTINUOUS
 10
-49.648927
 20
74.669205
 11
-49.798927
 21
74.519205
  0
LINE
  8
型材断面
  6
CONTINUOUS
 10
-48.898927
 20
77.419205
 11
-49.798927
 21
77.419205
  0
LINE
  8
型材断面
  6
CONTINUOUS
 62
    47
 10
-123.898988
 20
31.48757
 11
-122.998988
 21
31.48757
  0
LINE
  8
型材断面
  6
CONTINUOUS
 10
-122.99898
 20
35.48757
 11
-122.998988
 21
31.48757
  0
LINE
  8
型材断面
  6
CONTINUOUS
 10
-122.998978
 20
36.23757
 11
-122.99893
 21
60.701728
  0
LINE
  8
型材断面
  6
CONTINUOUS
 62
    47
 10
-123.898988
 20
31.48757
 11
-123.898927
 21
61.48757
  0
LINE
  8
型材断面
  6
CONTINUOUS
 10
-117.43526
 20
61.45869
 11
-122.99893
 21
60.701728
  0
LINE
  8
型材断面
  6
CONTINUOUS
 10
-49.798927
 20
71.569205
 11
-123.898927
 21
61.48757
  0
LINE
  8
型材断面
  6
CONTINUOUS
 10
-116.692102
 20
61.559802
 11
-87.452045
 21
65.53804
  0
LINE
  8
型材断面
  6
CONTINUOUS
 10
-49.648927
 20
70.68132
 11
-86.70889
 21
65.639148
  0
LINE
  8
型材断面
  6
CONTINUOUS
 10
-49.798927
 20
71.569205
 11
-49.798927
 21
74.519205
  0
LINE
  8
型材断面
  6
CONTINUOUS
 10
-49.798927
 20
74.819205
 11
-49.798927
 21
77.419205
  0
LINE
  8
型材断面
  6
CONTINUOUS
 10
-51.64043
 20
69.502075
 11
-51.53932
 21
68.75892
  0
LINE
  8
型材断面
  6
CONTINUOUS
 10
-116.569115
 20
60.66824
 11
-114.686453
 21
60.924385
  0
LINE
  8
型材断面
  6
CONTINUOUS
 10
-114.686453
 20
60.924385
 11
-114.583273
 21
60.18151
  0
LINE
  8
型材断面
  6
CONTINUOUS
 10
-114.583273
 20
60.18151
 11
-117.209093
 21
59.824255
  0
LINE
  8
型材断面
  6
CONTINUOUS
 10
-87.33458
 20
64.645737
 11
-89.217242
 21
64.389593
  0
LINE
  8
型材断面
  6
CONTINUOUS
 10
-89.217242
 20
64.389593
 11
-89.118203
 21
63.646155
  0
LINE
  8
型材断面
  6
CONTINUOUS
 10
-89.118203
 20
63.646155
 11
-86.492382
 21
64.00341
  0
LINE
  8
型材断面
  6
CONTINUOUS
 10
-116.569115
 20
60.66824
 11
-116.69293
 21
61.55969
  0
LINE
  8
型材断面
  6
CONTINUOUS
 10
-117.209093
 20
59.824255
 11
-117.436088
 21
61.45858
  0
LINE
  8
型材断面
  6
CONTINUOUS
 10
-87.33458
 20
64.645737
 11
-87.453425
 21
65.537853
  0
LINE
  8
型材断面
  6
CONTINUOUS
 10
-86.492382
 20
64.00341
 11
-86.710268
 21
65.638962
  0
LINE
  8
型材断面
  6
CONTINUOUS
 62
    47
 10
-48.898927
 20
77.419205
 11
-48.898927
 21
69.118158
  0
LINE
  8
型材断面
  6
CONTINUOUS
 10
-51.53932
 20
68.75892
 11
-48.898927
 21
69.118158
  0
LINE
  8
型材断面
  6
CONTINUOUS
 10
-51.64043
 20
69.502075
 11
-49.648927
 21
69.773027
  0
LINE
  8
型材断面
  6
CONTINUOUS
 10
-49.648927
 20
70.68132
 11
-49.648927
 21
69.773027
  0
LINE
  8
型材断面
  6
CONTINUOUS
 10
-121.348978
 20
37.487567
 11
-122.098978
 21
37.487567
  0
LINE
  8
型材断面
  6
CONTINUOUS
 10
-122.098978
 20
36.237567
 11
-122.098978
 21
37.487567
  0
LINE
  8
型材断面
  6
CONTINUOUS
 10
-121.348978
 20
35.987567
 11
-121.348978
 21
37.487567
  0
ARC
  8
型材断面
  6
CONTINUOUS
 10
-121.848983
 20
35.987567
 40
0.5
 50
-90.0
 51
0.0
  0
LINE
  8
型材断面
  6
CONTINUOUS
 10
-122.09898
 20
36.237567
 11
-122.998978
 21
36.237567
  0
LINE
  8
型材断面
  6
CONTINUOUS
 10
-121.84898
 20
35.487567
 11
-122.99898
 21
35.487567
  0
ENDBLK
  0
BLOCK
  2
*GRP_0012
 70
    65
 10
0.0
 20
0.0
  0
LINE
  8
型材断面
  6
CONTINUOUS
 10
-49.648927
 20
20.59281
 11
-49.798927
 21
20.74281
  0
LINE
  8
型材断面
  6
CONTINUOUS
 10
-49.648927
 20
20.59281
 11
-49.798927
 21
20.44281
  0
LINE
  8
型材断面
  6
CONTINUOUS
 62
    47
 10
-113.898988
 20
-21.22828
 11
-112.998988
 21
-21.22828
  0
LINE
  8
型材断面
  6
CONTINUOUS
 10
-112.99898
 20
-17.22828
 11
-112.998988
 21
-21.22828
  0
LINE
  8
型材断面
  6
CONTINUOUS
 10
-112.998978
 20
-16.47828
 11
-112.99893
 21
7.985878
  0
LINE
  8
型材断面
  6
CONTINUOUS
 62
    47
 10
-113.898988
 20
-21.22828
 11
-113.898927
 21
8.77172
  0
LINE
  8
型材断面
  6
CONTINUOUS
 10
-107.43526
 20
8.74284
 11
-112.99893
 21
7.985878
  0
LINE
  8
型材断面
  6
CONTINUOUS
 10
-77.452045
 20
12.822187
 11
-106.692102
 21
8.84395
  0
LINE
  8
型材断面
  6
CONTINUOUS
 10
-76.70889
 20
12.923298
 11
-49.648927
 21
16.604925
  0
LINE
  8
型材断面
  6
CONTINUOUS
 10
-113.898927
 20
8.77172
 11
-49.798927
 21
17.49281
  0
LINE
  8
型材断面
  6
CONTINUOUS
 10
-48.898927
 20
23.34281
 11
-49.798927
 21
23.34281
  0
LINE
  8
型材断面
  6
CONTINUOUS
 10
-49.798927
 20
17.49281
 11
-49.798927
 21
20.44281
  0
LINE
  8
型材断面
  6
CONTINUOUS
 10
-49.798927
 20
20.74281
 11
-49.798927
 21
23.34281
  0
LINE
  8
型材断面
  6
CONTINUOUS
 10
-106.568288
 20
7.952503
 11
-104.685625
 21
8.208648
  0
LINE
  8
型材断面
  6
CONTINUOUS
 10
-104.685625
 20
8.208648
 11
-104.582445
 21
7.465772
  0
LINE
  8
型材断面
  6
CONTINUOUS
 10
-104.582445
 20
7.465772
 11
-107.208265
 21
7.108518
  0
LINE
  8
型材断面
  6
CONTINUOUS
 10
-77.333752
 20
11.93
 11
-79.216415
 21
11.673855
  0
LINE
  8
型材断面
  6
CONTINUOUS
 10
-79.216415
 20
11.673855
 11
-79.117375
 21
10.930417
  0
LINE
  8
型材断面
  6
CONTINUOUS
 10
-79.117375
 20
10.930417
 11
-76.491555
 21
11.287673
  0
LINE
  8
型材断面
  6
CONTINUOUS
 10
-106.56746
 20
7.952615
 11
-106.691275
 21
8.844062
  0
LINE
  8
型材断面
  6
CONTINUOUS
 10
-107.207438
 20
7.10863
 11
-107.434433
 21
8.742952
  0
LINE
  8
型材断面
  6
CONTINUOUS
 10
-77.333752
 20
11.93
 11
-77.452597
 21
12.822113
  0
LINE
  8
型材断面
  6
CONTINUOUS
 10
-76.491555
 20
11.287673
 11
-76.709443
 21
12.923222
  0
LINE
  8
型材断面
  6
CONTINUOUS
 10
-51.53863
 20
14.682618
 11
-51.63974
 21
15.425772
  0
LINE
  8
型材断面
  6
CONTINUOUS
 62
    47
 10
-48.898927
 20
23.34281
 11
-48.898927
 21
15.04176
  0
LINE
  8
型材断面
  6
CONTINUOUS
 10
-51.53863
 20
14.682618
 11
-48.898927
 21
15.04176
  0
LINE
  8
型材断面
  6
CONTINUOUS
 10
-51.63974
 20
15.425772
 11
-49.648927
 21
15.69663
  0
LINE
  8
型材断面
  6
CONTINUOUS
 10
-49.648927
 20
16.604925
 11
-49.648927
 21
15.69663
  0
LINE
  8
型材断面
  6
CONTINUOUS
 10
-111.348975
 20
-15.22828
 11
-112.098975
 21
-15.22828
  0
LINE
  8
型材断面
  6
CONTINUOUS
 10
-112.098975
 20
-16.47828
 11
-112.098975
 21
-15.22828
  0
LINE
  8
型材断面
  6
CONTINUOUS
 10
-111.348975
 20
-16.72828
 11
-111.348975
 21
-15.22828
  0
ARC
  8
型材断面
  6
CONTINUOUS
 10
-111.848982
 20
-16.72828
 40
0.5
 50
-90.0
 51
0.0
  0
LINE
  8
型材断面
  6
CONTINUOUS
 10
-112.098975
 20
-16.47828
 11
-112.998978
 21
-16.47828
  0
LINE
  8
型材断面
  6
CONTINUOUS
 10
-111.848975
 20
-17.22828
 11
-112.99898
 21
-17.22828
  0
ENDBLK
  0
BLOCK
  2
*GRP_0013
 70
    65
 10
0.0
 20
0.0
  0
LINE
  8
型材断面
  6
CONTINUOUS
 10
-49.548927
 20
-34.45255
 11
-49.698927
 21
-34.30255
  0
LINE
  8
型材断面
  6
CONTINUOUS
 10
-49.548927
 20
-34.45255
 11
-49.698927
 21
-34.60255
  0
LINE
  8
型材断面
  6
CONTINUOUS
 62
    47
 10
-106.398927
 20
-45.266835
 11
-106.398988
 21
-75.266835
  0
LINE
  8
型材断面
  6
CONTINUOUS
 62
    47
 10
-106.398988
 20
-75.266835
 11
-105.598988
 21
-75.266835
  0
LINE
  8
型材断面
  6
CONTINUOUS
 10
-105.59893
 20
-45.965362
 11
-105.598978
 21
-70.516835
  0
LINE
  8
型材断面
  6
CONTINUOUS
 10
-105.59898
 20
-71.266835
 11
-105.598988
 21
-75.266835
  0
LINE
  8
型材断面
  6
CONTINUOUS
 10
-105.59893
 20
-45.965362
 11
-99.949292
 21
-45.196705
  0
LINE
  8
型材断面
  6
CONTINUOUS
 10
-99.206135
 20
-45.095595
 11
-69.96566
 21
-41.1173
  0
LINE
  8
型材断面
  6
CONTINUOUS
 10
-69.222502
 20
-41.01619
 11
-49.648927
 21
-38.353118
  0
LINE
  8
型材断面
  6
CONTINUOUS
 10
-49.698927
 20
-31.70255
 11
-48.898927
 21
-31.70255
  0
LINE
  8
型材断面
  6
CONTINUOUS
 10
-106.398927
 20
-45.266835
 11
-49.698927
 21
-37.55255
  0
LINE
  8
型材断面
  6
CONTINUOUS
 10
-49.698927
 20
-31.70255
 11
-49.698927
 21
-34.30255
  0
LINE
  8
型材断面
  6
CONTINUOUS
 10
-49.698927
 20
-34.60255
 11
-49.698927
 21
-37.55255
  0
LINE
  8
型材断面
  6
CONTINUOUS
 10
-99.08315
 20
-45.987155
 11
-97.200487
 21
-45.73101
  0
LINE
  8
型材断面
  6
CONTINUOUS
 10
-97.200487
 20
-45.73101
 11
-97.097307
 21
-46.473885
  0
LINE
  8
型材断面
  6
CONTINUOUS
 10
-97.097307
 20
-46.473885
 11
-99.723128
 21
-46.83114
  0
LINE
  8
型材断面
  6
CONTINUOUS
 10
-69.848195
 20
-42.009608
 11
-71.730857
 21
-42.265752
  0
LINE
  8
型材断面
  6
CONTINUOUS
 10
-71.730857
 20
-42.265752
 11
-71.631818
 21
-43.00919
  0
LINE
  8
型材断面
  6
CONTINUOUS
 10
-71.631818
 20
-43.00919
 11
-69.005998
 21
-42.651935
  0
LINE
  8
型材断面
  6
CONTINUOUS
 10
-51.741603
 20
-39.546125
 11
-51.638422
 21
-40.288998
  0
LINE
  8
型材断面
  6
CONTINUOUS
 10
-99.08315
 20
-45.987155
 11
-99.206967
 21
-45.095708
  0
LINE
  8
型材断面
  6
CONTINUOUS
 10
-99.723128
 20
-46.83114
 11
-99.950125
 21
-45.196817
  0
LINE
  8
型材断面
  6
CONTINUOUS
 10
-69.848195
 20
-42.009608
 11
-69.967043
 21
-41.117487
  0
LINE
  8
型材断面
  6
CONTINUOUS
 10
-69.005998
 20
-42.651935
 11
-69.223885
 21
-41.016377
  0
LINE
  8
型材断面
  6
CONTINUOUS
 10
-49.648927
 20
-38.353118
 11
-49.648927
 21
-39.261405
  0
LINE
  8
型材断面
  6
CONTINUOUS
 10
-51.741603
 20
-39.546125
 11
-49.648927
 21
-39.261405
  0
LINE
  8
型材断面
  6
CONTINUOUS
 10
-51.638422
 20
-40.288998
 11
-48.898927
 21
-39.916277
  0
LINE
  8
型材断面
  6
CONTINUOUS
 62
    47
 10
-48.898927
 20
-31.70255
 11
-48.898927
 21
-39.916277
  0
LINE
  8
型材断面
  6
CONTINUOUS
 10
-103.948978
 20
-69.266838
 11
-104.698978
 21
-69.266838
  0
LINE
  8
型材断面
  6
CONTINUOUS
 10
-104.698978
 20
-70.516838
 11
-104.698978
 21
-69.266838
  0
LINE
  8
型材断面
  6
CONTINUOUS
 10
-103.948978
 20
-70.766838
 11
-103.948978
 21
-69.266838
  0
ARC
  8
型材断面
  6
CONTINUOUS
 10
-104.448985
 20
-70.766836
 40
0.5
 50
-90.0
 51
0.0
  0
LINE
  8
型材断面
  6
CONTINUOUS
 10
-104.698978
 20
-70.516838
 11
-105.598978
 21
-70.516838
  0
LINE
  8
型材断面
  6
CONTINUOUS
 10
-104.448978
 20
-71.266838
 11
-105.59898
 21
-71.266838
  0
ENDBLK
  0
BLOCK
  2
*GRP_0014
 70
    65
 10
0.0
 20
0.0
  0
LINE
  8
型材断面
  6
CONTINUOUS
 62
    47
 10
-49.498927
 20
-86.844222
 11
-49.648927
 21
-86.694222
  0
LINE
  8
型材断面
  6
CONTINUOUS
 62
    47
 10
-49.498927
 20
-86.844222
 11
-49.648927
 21
-86.994222
  0
LINE
  8
型材断面
  6
CONTINUOUS
 62
    47
 10
-48.898927
 20
-84.094222
 11
-49.648927
 21
-84.094222
  0
LINE
  8
型材断面
  6
CONTINUOUS
 62
    47
 10
-49.648927
 20
-84.094222
 11
-49.648927
 21
-86.694222
  0
LINE
  8
型材断面
  6
CONTINUOUS
 62
    47
 10
-49.648927
 20
-86.994222
 11
-49.648927
 21
-89.944222
  0
LINE
  8
型材断面
  6
CONTINUOUS
 62
    47
 10
-51.740773
 20
-91.89403
 11
-51.637593
 21
-92.636902
  0
LINE
  8
型材断面
  6
CONTINUOUS
 62
    47
 10
-49.648927
 20
-90.701133
 11
-49.648927
 21
-91.609422
  0
LINE
  8
型材断面
  6
CONTINUOUS
 62
    47
 10
-51.740773
 20
-91.89403
 11
-49.648927
 21
-91.609422
  0
LINE
  8
型材断面
  6
CONTINUOUS
 62
    47
 10
-51.637593
 20
-92.636902
 11
-48.898927
 21
-92.264295
  0
LINE
  8
型材断面
  6
CONTINUOUS
 62
    47
 10
-48.898927
 20
-84.094222
 11
-48.898927
 21
-92.264295
  0
LINE
  8
型材断面
  6
CONTINUOUS
 62
    47
 10
-96.398927
 20
-96.304765
 11
-96.398988
 21
-126.304765
  0
LINE
  8
型材断面
  6
CONTINUOUS
 62
    47
 10
-96.398988
 20
-126.304765
 11
-95.648988
 21
-126.304765
  0
LINE
  8
型材断面
  6
CONTINUOUS
 62
    47
 10
-95.649038
 20
-126.304765
 11
-95.64903
 21
-122.304765
  0
LINE
  8
型材断面
  6
CONTINUOUS
 62
    47
 10
-95.648927
 20
-96.959633
 11
-95.648978
 21
-121.554765
  0
LINE
  8
型材断面
  6
CONTINUOUS
 62
    47
 10
-89.088922
 20
-96.975407
 11
-87.20626
 21
-96.719262
  0
LINE
  8
型材断面
  6
CONTINUOUS
 62
    47
 10
-87.20626
 20
-96.719262
 11
-87.10308
 21
-97.462137
  0
LINE
  8
型材断面
  6
CONTINUOUS
 62
    47
 10
-87.10308
 20
-97.462137
 11
-89.7289
 21
-97.819392
  0
LINE
  8
型材断面
  6
CONTINUOUS
 62
    47
 10
-89.088922
 20
-96.975407
 11
-89.212738
 21
-96.08396
  0
LINE
  8
型材断面
  6
CONTINUOUS
 62
    47
 10
-89.7289
 20
-97.819392
 11
-89.955895
 21
-96.18507
  0
LINE
  8
型材断面
  6
CONTINUOUS
 62
    47
 10
-93.998977
 20
-120.304765
 11
-94.748977
 21
-120.304765
  0
LINE
  8
型材断面
  6
CONTINUOUS
 62
    47
 10
-94.748977
 20
-121.554765
 11
-94.748977
 21
-120.304765
  0
LINE
  8
型材断面
  6
CONTINUOUS
 62
    47
 10
-93.998977
 20
-121.804765
 11
-93.998977
 21
-120.304765
  0
ARC
  8
型材断面
  6
CONTINUOUS
 62
    47
 10
-94.498982
 20
-121.804762
 40
0.5
 50
-90.0
 51
0.0
  0
LINE
  8
型材断面
  6
CONTINUOUS
 62
    47
 10
-94.748977
 20
-121.554765
 11
-95.648978
 21
-121.554765
  0
LINE
  8
型材断面
  6
CONTINUOUS
 62
    47
 10
-94.498977
 20
-122.304765
 11
-95.64898
 21
-122.304765
  0
LINE
  8
型材断面
  6
CONTINUOUS
 62
    47
 10
-59.853967
 20
-92.99786
 11
-61.73663
 21
-93.254005
  0
LINE
  8
型材断面
  6
CONTINUOUS
 62
    47
 10
-61.73663
 20
-93.254005
 11
-61.63759
 21
-93.997443
  0
LINE
  8
型材断面
  6
CONTINUOUS
 62
    47
 10
-61.63759
 20
-93.997443
 11
-59.01177
 21
-93.640187
  0
LINE
  8
型材断面
  6
CONTINUOUS
 62
    47
 10
-59.853967
 20
-92.99786
 11
-59.972815
 21
-92.10574
  0
LINE
  8
型材断面
  6
CONTINUOUS
 62
    47
 10
-59.01177
 20
-93.640187
 11
-59.229658
 21
-92.00463
  0
LINE
  8
型材断面
  6
CONTINUOUS
 62
    47
 10
-95.648927
 20
-96.959633
 11
-89.955895
 21
-96.18507
  0
LINE
  8
型材断面
  6
CONTINUOUS
 62
    47
 10
-89.212738
 20
-96.08396
 11
-59.972815
 21
-92.105738
  0
LINE
  8
型材断面
  6
CONTINUOUS
 62
    47
 10
-49.648927
 20
-89.944222
 11
-96.398927
 21
-96.304765
  0
LINE
  8
型材断面
  6
CONTINUOUS
 62
    47
 10
-49.648927
 20
-90.701133
 11
-59.229658
 21
-92.004633
  0
ENDBLK
  0
BLOCK
  2
*DIM_0015
 70
    65
 10
0.0
 20
0.0
  0
LINE
  8
寸法
  6
CONTINUOUS
 10
-48.898927
 20
118.93292
 11
-48.898927
 21
97.723942
  0
LINE
  8
寸法
  6
CONTINUOUS
 10
-133.898935
 20
103.509515
 11
-133.898935
 21
97.723942
  0
LINE
  8
寸法
  6
CONTINUOUS
 10
-48.898927
 20
97.723942
 11
-133.898935
 21
97.723942
  0
POINT
  8
寸法
 10
-48.898927
 20
97.723942
  0
POINT
  8
寸法
 10
-133.898935
 20
97.723942
  0
TEXT
  7
TextStyle03
  8
寸法
  6
CONTINUOUS
 10
-93.8625
 20
98.075
  1
170
 40
3.0
 72
     5
 11
-88.9875
 21
98.075
  0
ENDBLK
  0
BLOCK
  2
*DIM_0016
 70
    65
 10
0.0
 20
0.0
  0
LINE
  8
寸法
  6
CONTINUOUS
 10
-138.898988
 20
82.411732
 11
-151.6525
 21
82.411732
  0
LINE
  8
寸法
  6
CONTINUOUS
 10
-138.898927
 20
112.411732
 11
-151.6525
 21
112.411732
  0
LINE
  8
寸法
  6
CONTINUOUS
 10
-151.6525
 20
82.411732
 11
-151.6525
 21
112.411732
  0
POINT
  8
寸法
 10
-151.6525
 20
82.411732
  0
POINT
  8
寸法
 10
-151.6525
 20
112.411732
  0
TEXT
  7
TextStyle03
  8
寸法
  6
CONTINUOUS
 10
-152.05
 20
95.80625
  1
60
 40
3.0
 50
90.0
 72
     5
 11
-152.05
 21
98.99375
  0
ENDBLK
  0
BLOCK
  2
*DIM_0017
 70
    65
 10
0.0
 20
0.0
  0
LINE
  8
寸法
  6
CONTINUOUS
 10
-54.898927
 20
123.840305
 11
-151.6525
 21
123.840305
  0
LINE
  8
寸法
  6
CONTINUOUS
 10
-151.6525
 20
112.411732
 11
-151.6525
 21
123.840305
  0
POINT
  8
寸法
 10
-151.6525
 20
123.840305
  0
TEXT
  7
TextStyle03
  8
寸法
  6
CONTINUOUS
 10
-152.05
 20
114.84375
  1
22.9
 40
3.0
 50
90.0
 72
     5
 11
-152.05
 21
121.40625
  0
ENDBLK
  0
BLOCK
  2
*DIM_0018
 70
    65
 10
0.0
 20
0.0
  0
LINE
  8
寸法
  6
CONTINUOUS
 10
-54.898927
 20
129.690305
 11
-151.6525
 21
129.690305
  0
LINE
  8
寸法
  6
CONTINUOUS
 10
-151.6525
 20
123.840305
 11
-151.6525
 21
129.690305
  0
POINT
  8
寸法
 10
-151.6525
 20
129.690305
  0
TEXT
  7
TextStyle03
  8
寸法
  6
CONTINUOUS
 10
-152.05
 20
123.46875
  1
11.7
 40
3.0
 50
90.0
 72
     5
 11
-152.05
 21
130.03125
  0
ENDBLK
  0
BLOCK
  2
*DIM_0019
 70
    65
 10
0.0
 20
0.0
  0
LINE
  8
寸法
  6
CONTINUOUS
 10
-123.898957
 20
41.121275
 11
-123.898957
 21
44.457635
  0
LINE
  8
寸法
  6
CONTINUOUS
 10
-48.898927
 20
64.118158
 11
-48.898927
 21
44.457635
  0
LINE
  8
寸法
  6
CONTINUOUS
 10
-123.898957
 20
44.457635
 11
-48.898927
 21
44.457635
  0
POINT
  8
寸法
 10
-123.898957
 20
44.457635
  0
POINT
  8
寸法
 10
-48.898927
 20
44.457635
  0
TEXT
  7
TextStyle03
  8
寸法
  6
CONTINUOUS
 10
-88.8625
 20
44.825
  1
150
 40
3.0
 72
     5
 11
-83.9875
 21
44.825
  0
ENDBLK
  0
BLOCK
  2
*DIM_0020
 70
    65
 10
0.0
 20
0.0
  0
LINE
  8
寸法
  6
CONTINUOUS
 10
-128.898988
 20
31.48757
 11
-149.138475
 21
31.48757
  0
LINE
  8
寸法
  6
CONTINUOUS
 10
-128.898927
 20
61.48757
 11
-149.138475
 21
61.48757
  0
LINE
  8
寸法
  6
CONTINUOUS
 10
-149.138475
 20
31.48757
 11
-149.138475
 21
61.48757
  0
POINT
  8
寸法
 10
-149.138475
 20
31.48757
  0
POINT
  8
寸法
 10
-149.138475
 20
61.48757
  0
TEXT
  7
TextStyle03
  8
寸法
  6
CONTINUOUS
 10
-149.525
 20
44.88125
  1
60
 40
3.0
 50
90.0
 72
     5
 11
-149.525
 21
48.06875
  0
ENDBLK
  0
BLOCK
  2
*DIM_0021
 70
    65
 10
0.0
 20
0.0
  0
LINE
  8
寸法
  6
CONTINUOUS
 10
-54.798927
 20
71.569205
 11
-149.138475
 21
71.569205
  0
LINE
  8
寸法
  6
CONTINUOUS
 10
-149.138475
 20
61.48757
 11
-149.138475
 21
71.569205
  0
POINT
  8
寸法
 10
-149.138475
 20
71.569205
  0
TEXT
  7
TextStyle03
  8
寸法
  6
CONTINUOUS
 10
-149.525
 20
63.24375
  1
20.2
 40
3.0
 50
90.0
 72
     5
 11
-149.525
 21
69.80625
  0
ENDBLK
  0
BLOCK
  2
*DIM_0022
 70
    65
 10
0.0
 20
0.0
  0
LINE
  8
寸法
  6
CONTINUOUS
 10
-54.798927
 20
77.419205
 11
-149.138475
 21
77.419205
  0
LINE
  8
寸法
  6
CONTINUOUS
 10
-149.138475
 20
71.569205
 11
-149.138475
 21
77.419205
  0
POINT
  8
寸法
 10
-149.138475
 20
77.419205
  0
TEXT
  7
TextStyle03
  8
寸法
  6
CONTINUOUS
 10
-149.525
 20
71.19375
  1
11.7
 40
3.0
 50
90.0
 72
     5
 11
-149.525
 21
77.75625
  0
ENDBLK
  0
BLOCK
  2
*DIM_0023
 70
    65
 10
0.0
 20
0.0
  0
LINE
  8
寸法
  6
CONTINUOUS
 10
-48.898927
 20
10.26312
 11
-48.898927
 21
-10.2477
  0
LINE
  8
寸法
  6
CONTINUOUS
 10
-113.898952
 20
-8.205202
 11
-113.898952
 21
-10.2477
  0
LINE
  8
寸法
  6
CONTINUOUS
 10
-48.898927
 20
-10.2477
 11
-113.898952
 21
-10.2477
  0
POINT
  8
寸法
 10
-48.898927
 20
-10.2477
  0
POINT
  8
寸法
 10
-113.898952
 20
-10.2477
  0
TEXT
  7
TextStyle03
  8
寸法
  6
CONTINUOUS
 10
-83.8625
 20
-9.875
  1
130
 40
3.0
 72
     5
 11
-78.9875
 21
-9.875
  0
ENDBLK
  0
BLOCK
  2
*DIM_0024
 70
    65
 10
0.0
 20
0.0
  0
LINE
  8
寸法
  6
CONTINUOUS
 10
-118.898988
 20
-21.22828
 11
-145.370403
 21
-21.22828
  0
LINE
  8
寸法
  6
CONTINUOUS
 10
-118.898927
 20
8.77172
 11
-145.370403
 21
8.77172
  0
LINE
  8
寸法
  6
CONTINUOUS
 10
-145.370403
 20
-21.22828
 11
-145.370403
 21
8.77172
  0
POINT
  8
寸法
 10
-145.370403
 20
-21.22828
  0
POINT
  8
寸法
 10
-145.370403
 20
8.77172
  0
TEXT
  7
TextStyle03
  8
寸法
  6
CONTINUOUS
 10
-145.775
 20
-7.84375
  1
60
 40
3.0
 50
90.0
 72
     5
 11
-145.775
 21
-4.65625
  0
ENDBLK
  0
BLOCK
  2
*DIM_0025
 70
    65
 10
0.0
 20
0.0
  0
LINE
  8
寸法
  6
CONTINUOUS
 10
-54.798927
 20
17.49281
 11
-145.370403
 21
17.49281
  0
LINE
  8
寸法
  6
CONTINUOUS
 10
-145.370403
 20
8.77172
 11
-145.370403
 21
17.49281
  0
POINT
  8
寸法
 10
-145.370403
 20
17.49281
  0
TEXT
  7
TextStyle03
  8
寸法
  6
CONTINUOUS
 10
-145.775
 20
9.84375
  1
17.4
 40
3.0
 50
90.0
 72
     5
 11
-145.775
 21
16.40625
  0
ENDBLK
  0
BLOCK
  2
*DIM_0026
 70
    65
 10
0.0
 20
0.0
  0
LINE
  8
寸法
  6
CONTINUOUS
 10
-54.798927
 20
23.34281
 11
-145.370403
 21
23.34281
  0
LINE
  8
寸法
  6
CONTINUOUS
 10
-145.370403
 20
17.49281
 11
-145.370403
 21
23.34281
  0
POINT
  8
寸法
 10
-145.370403
 20
23.34281
  0
TEXT
  7
TextStyle03
  8
寸法
  6
CONTINUOUS
 10
-145.775
 20
17.11875
  1
11.7
 40
3.0
 50
90.0
 72
     5
 11
-145.775
 21
23.68125
  0
ENDBLK
  0
BLOCK
  2
*DIM_0027
 70
    65
 10
0.0
 20
0.0
  0
LINE
  8
寸法
  6
CONTINUOUS
 10
-48.898927
 20
-44.916277
 11
-48.898927
 21
-63.192535
  0
LINE
  8
寸法
  6
CONTINUOUS
 10
-106.398957
 20
-65.64604
 11
-106.398957
 21
-63.192535
  0
LINE
  8
寸法
  6
CONTINUOUS
 10
-48.898927
 20
-63.192535
 11
-106.398957
 21
-63.192535
  0
POINT
  8
寸法
 10
-48.898927
 20
-63.192535
  0
POINT
  8
寸法
 10
-106.398957
 20
-63.192535
  0
TEXT
  7
TextStyle03
  8
寸法
  6
CONTINUOUS
 10
-80.1125
 20
-62.825
  1
115
 40
3.0
 72
     5
 11
-75.2375
 21
-62.825
  0
ENDBLK
  0
BLOCK
  2
*DIM_0028
 70
    65
 10
0.0
 20
0.0
  0
LINE
  8
寸法
  6
CONTINUOUS
 10
-111.398988
 20
-75.266835
 11
-139.204767
 21
-75.266835
  0
LINE
  8
寸法
  6
CONTINUOUS
 10
-111.398927
 20
-45.266835
 11
-139.204767
 21
-45.266835
  0
LINE
  8
寸法
  6
CONTINUOUS
 10
-139.204767
 20
-75.266835
 11
-139.204767
 21
-45.266835
  0
POINT
  8
寸法
 10
-139.204767
 20
-75.266835
  0
POINT
  8
寸法
 10
-139.204767
 20
-45.266835
  0
TEXT
  7
TextStyle03
  8
寸法
  6
CONTINUOUS
 10
-139.6
 20
-61.86875
  1
60
 40
3.0
 50
90.0
 72
     5
 11
-139.6
 21
-58.68125
  0
ENDBLK
  0
BLOCK
  2
*DIM_0029
 70
    65
 10
0.0
 20
0.0
  0
LINE
  8
寸法
  6
CONTINUOUS
 10
-54.698927
 20
-37.55255
 11
-139.204767
 21
-37.55255
  0
LINE
  8
寸法
  6
CONTINUOUS
 10
-139.204767
 20
-45.266835
 11
-139.204767
 21
-37.55255
  0
POINT
  8
寸法
 10
-139.204767
 20
-37.55255
  0
TEXT
  7
TextStyle03
  8
寸法
  6
CONTINUOUS
 10
-139.6
 20
-44.70625
  1
15.4
 40
3.0
 50
90.0
 72
     5
 11
-139.6
 21
-38.14375
  0
ENDBLK
  0
BLOCK
  2
*DIM_0030
 70
    65
 10
0.0
 20
0.0
  0
LINE
  8
寸法
  6
CONTINUOUS
 10
-54.698927
 20
-31.70255
 11
-139.204767
 21
-31.70255
  0
LINE
  8
寸法
  6
CONTINUOUS
 10
-139.204767
 20
-37.55255
 11
-139.204767
 21
-31.70255
  0
POINT
  8
寸法
 10
-139.204767
 20
-31.70255
  0
TEXT
  7
TextStyle03
  8
寸法
  6
CONTINUOUS
 10
-139.6
 20
-37.93125
  1
11.7
 40
3.0
 50
90.0
 72
     5
 11
-139.6
 21
-31.36875
  0
ENDBLK
  0
BLOCK
  2
*DIM_0031
 70
    65
 10
0.0
 20
0.0
  0
LINE
  8
寸法
  6
CONTINUOUS
 10
-96.398965
 20
-110.556483
 11
-96.398965
 21
-114.402467
  0
LINE
  8
寸法
  6
CONTINUOUS
 10
-48.898927
 20
-96.62636
 11
-48.898927
 21
-114.402467
  0
LINE
  8
寸法
  6
CONTINUOUS
 10
-96.398965
 20
-114.402467
 11
-48.898927
 21
-114.402467
  0
POINT
  8
寸法
 10
-96.398965
 20
-114.402467
  0
POINT
  8
寸法
 10
-48.898927
 20
-114.402467
  0
TEXT
  7
TextStyle03
  8
寸法
  6
CONTINUOUS
 10
-74.26875
 20
-114.05
  1
95
 40
3.0
 72
     5
 11
-71.08125
 21
-114.05
  0
ENDBLK
  0
BLOCK
  2
*DIM_0032
 70
    65
 10
0.0
 20
0.0
  0
LINE
  8
寸法
  6
CONTINUOUS
 10
-101.398988
 20
-126.304765
 11
-130.91864
 21
-126.304765
  0
LINE
  8
寸法
  6
CONTINUOUS
 10
-101.398927
 20
-96.304765
 11
-130.91864
 21
-96.304765
  0
LINE
  8
寸法
  6
CONTINUOUS
 10
-130.91864
 20
-126.304765
 11
-130.91864
 21
-96.304765
  0
POINT
  8
寸法
 10
-130.91864
 20
-126.304765
  0
POINT
  8
寸法
 10
-130.91864
 20
-96.304765
  0
TEXT
  7
TextStyle03
  8
寸法
  6
CONTINUOUS
 10
-131.325
 20
-112.91875
  1
60
 40
3.0
 50
90.0
 72
     5
 11
-131.325
 21
-109.73125
  0
ENDBLK
  0
BLOCK
  2
*DIM_0033
 70
    65
 10
0.0
 20
0.0
  0
LINE
  8
寸法
  6
CONTINUOUS
 10
-54.648927
 20
-89.944222
 11
-130.91864
 21
-89.944222
  0
LINE
  8
寸法
  6
CONTINUOUS
 10
-130.91864
 20
-96.304765
 11
-130.91864
 21
-89.944222
  0
POINT
  8
寸法
 10
-130.91864
 20
-89.944222
  0
TEXT
  7
TextStyle03
  8
寸法
  6
CONTINUOUS
 10
-131.325
 20
-96.40625
  1
12.7
 40
3.0
 50
90.0
 72
     5
 11
-131.325
 21
-89.84375
  0
ENDBLK
  0
BLOCK
  2
*DIM_0034
 70
    65
 10
0.0
 20
0.0
  0
LINE
  8
寸法
  6
CONTINUOUS
 10
-54.648927
 20
-84.094222
 11
-130.91864
 21
-84.094222
  0
LINE
  8
寸法
  6
CONTINUOUS
 10
-130.91864
 20
-89.944222
 11
-130.91864
 21
-84.094222
  0
POINT
  8
寸法
 10
-130.91864
 20
-84.094222
  0
TEXT
  7
TextStyle03
  8
寸法
  6
CONTINUOUS
 10
-131.325
 20
-90.30625
  1
11.7
 40
3.0
 50
90.0
 72
     5
 11
-131.325
 21
-83.74375
  0
ENDBLK
  0
BLOCK
  2
*GRP_0035
 70
    65
 10
0.0
 20
0.0
  0
LINE
  8
型材断面
  6
CONTINUOUS
 10
107.932872
 20
120.654853
 11
107.782872
 21
120.804853
  0
LINE
  8
型材断面
  6
CONTINUOUS
 10
107.932872
 20
120.654853
 11
107.782872
 21
120.504853
  0
LINE
  8
型材断面
  6
CONTINUOUS
 10
108.532872
 20
123.404853
 11
107.782872
 21
123.404853
  0
LINE
  8
型材断面
  6
CONTINUOUS
 62
    47
 10
71.032872
 20
112.554853
 11
71.032813
 21
82.554853
  0
LINE
  8
型材断面
  6
CONTINUOUS
 62
    47
 10
71.032813
 20
82.554853
 11
71.782813
 21
82.554853
  0
LINE
  8
型材断面
  6
CONTINUOUS
 10
71.782762
 20
82.554853
 11
71.78277
 21
86.554853
  0
LINE
  8
型材断面
  6
CONTINUOUS
 10
71.782872
 20
111.899985
 11
71.782822
 21
87.304853
  0
LINE
  8
型材断面
  6
CONTINUOUS
 10
71.032872
 20
112.554853
 11
107.782872
 21
117.554853
  0
LINE
  8
型材断面
  6
CONTINUOUS
 10
107.782872
 20
123.404853
 11
107.782872
 21
120.804853
  0
LINE
  8
型材断面
  6
CONTINUOUS
 10
107.782872
 20
120.504853
 11
107.782872
 21
117.554853
  0
LINE
  8
型材断面
  6
CONTINUOUS
 10
107.782872
 20
116.797942
 11
78.219062
 21
112.775657
  0
LINE
  8
型材断面
  6
CONTINUOUS
 10
71.782872
 20
111.899985
 11
77.475905
 21
112.674547
  0
LINE
  8
型材断面
  6
CONTINUOUS
 10
105.691028
 20
115.605045
 11
105.794208
 21
114.862173
  0
LINE
  8
型材断面
  6
CONTINUOUS
 10
78.342878
 20
111.88421
 11
80.22554
 21
112.140355
  0
LINE
  8
型材断面
  6
CONTINUOUS
 10
80.22554
 20
112.140355
 11
80.32872
 21
111.39748
  0
LINE
  8
型材断面
  6
CONTINUOUS
 10
80.32872
 20
111.39748
 11
77.7029
 21
111.040225
  0
LINE
  8
型材断面
  6
CONTINUOUS
 10
78.342878
 20
111.88421
 11
78.219062
 21
112.775657
  0
LINE
  8
型材断面
  6
CONTINUOUS
 10
77.7029
 20
111.040225
 11
77.475905
 21
112.674547
  0
LINE
  8
型材断面
  6
CONTINUOUS
 10
107.782872
 20
116.797942
 11
107.782872
 21
115.889653
  0
LINE
  8
型材断面
  6
CONTINUOUS
 10
105.691028
 20
115.605045
 11
107.782872
 21
115.889653
  0
LINE
  8
型材断面
  6
CONTINUOUS
 10
105.794208
 20
114.862173
 11
108.532872
 21
115.23478
  0
LINE
  8
型材断面
  6
CONTINUOUS
 62
    47
 10
108.532872
 20
123.404853
 11
108.532872
 21
115.23478
  0
LINE
  8
型材断面
  6
CONTINUOUS
 10
73.432822
 20
88.554853
 11
72.682822
 21
88.554853
  0
LINE
  8
型材断面
  6
CONTINUOUS
 10
72.682822
 20
87.304853
 11
72.682822
 21
88.554853
  0
LINE
  8
型材断面
  6
CONTINUOUS
 10
73.432822
 20
87.054853
 11
73.432822
 21
88.554853
  0
ARC
  8
型材断面
  6
CONTINUOUS
 10
72.932817
 20
87.054855
 40
0.5
 50
-90.0
 51
0.0
  0
LINE
  8
型材断面
  6
CONTINUOUS
 10
72.682822
 20
87.304853
 11
71.782822
 21
87.304853
  0
LINE
  8
型材断面
  6
CONTINUOUS
 10
72.932822
 20
86.554853
 11
71.78282
 21
86.554853
  0
ENDBLK
  0
BLOCK
  2
*GRP_0036
 70
    65
 10
0.0
 20
0.0
  0
LINE
  8
型材断面
  6
CONTINUOUS
 10
107.932872
 20
67.98735
 11
107.782872
 21
68.13735
  0
LINE
  8
型材断面
  6
CONTINUOUS
 10
107.932872
 20
67.98735
 11
107.782872
 21
67.83735
  0
LINE
  8
型材断面
  6
CONTINUOUS
 10
108.532872
 20
70.73735
 11
107.782872
 21
70.73735
  0
LINE
  8
型材断面
  6
CONTINUOUS
 10
107.782872
 20
70.73735
 11
107.782872
 21
68.13735
  0
LINE
  8
型材断面
  6
CONTINUOUS
 10
107.782872
 20
67.83735
 11
107.782872
 21
64.88735
  0
LINE
  8
型材断面
  6
CONTINUOUS
 10
107.782872
 20
64.13044
 11
107.782872
 21
63.22215
  0
LINE
  8
型材断面
  6
CONTINUOUS
 10
108.532872
 20
70.73735
 11
108.532872
 21
62.567277
  0
LINE
  8
型材断面
  6
CONTINUOUS
 10
81.032872
 20
61.247895
 11
81.032813
 21
31.247895
  0
LINE
  8
型材断面
  6
CONTINUOUS
 10
81.032813
 20
31.247895
 11
81.782813
 21
31.247895
  0
LINE
  8
型材断面
  6
CONTINUOUS
 10
81.782762
 20
31.247895
 11
81.78277
 21
35.247895
  0
LINE
  8
型材断面
  6
CONTINUOUS
 10
81.782872
 20
60.593028
 11
81.782822
 21
35.997895
  0
LINE
  8
型材断面
  6
CONTINUOUS
 10
81.782872
 20
60.593028
 11
87.475905
 21
61.36759
  0
LINE
  8
型材断面
  6
CONTINUOUS
 10
88.342878
 20
60.577253
 11
90.22554
 21
60.833397
  0
LINE
  8
型材断面
  6
CONTINUOUS
 10
90.22554
 20
60.833397
 11
90.32872
 21
60.090523
  0
LINE
  8
型材断面
  6
CONTINUOUS
 10
90.32872
 20
60.090523
 11
87.7029
 21
59.733267
  0
LINE
  8
型材断面
  6
CONTINUOUS
 10
88.342878
 20
60.577253
 11
88.219062
 21
61.4687
  0
LINE
  8
型材断面
  6
CONTINUOUS
 10
87.7029
 20
59.733267
 11
87.475905
 21
61.36759
  0
LINE
  8
型材断面
  6
CONTINUOUS
 10
83.432822
 20
37.247895
 11
82.682822
 21
37.247895
  0
LINE
  8
型材断面
  6
CONTINUOUS
 10
82.682822
 20
35.997895
 11
82.682822
 21
37.247895
  0
LINE
  8
型材断面
  6
CONTINUOUS
 10
83.432822
 20
35.747895
 11
83.432822
 21
37.247895
  0
ARC
  8
型材断面
  6
CONTINUOUS
 10
82.932814
 20
35.747898
 40
0.5
 50
-90.0
 51
0.0
  0
LINE
  8
型材断面
  6
CONTINUOUS
 10
82.682822
 20
35.997895
 11
81.782822
 21
35.997895
  0
LINE
  8
型材断面
  6
CONTINUOUS
 10
82.932822
 20
35.247895
 11
81.78282
 21
35.247895
  0
LINE
  8
型材断面
  6
CONTINUOUS
 10
107.782872
 20
64.13044
 11
88.219062
 21
61.4687
  0
LINE
  8
型材断面
  6
CONTINUOUS
 10
107.782872
 20
64.88735
 11
81.032872
 21
61.247895
  0
LINE
  8
型材断面
  6
CONTINUOUS
 10
107.782872
 20
63.22215
 11
105.692002
 21
62.937675
  0
LINE
  8
型材断面
  6
CONTINUOUS
 10
105.692002
 20
62.937675
 11
105.793112
 21
62.19452
  0
LINE
  8
型材断面
  6
CONTINUOUS
 10
108.532872
 20
62.567277
 11
105.793112
 21
62.19452
  0
ENDBLK
  0
BLOCK
  2
*DIM_0037
 70
    65
 10
0.0
 20
0.0
  0
LINE
  8
寸法
  6
CONTINUOUS
 10
108.532872
 20
110.71359
 11
108.532872
 21
94.121107
  0
LINE
  8
寸法
  6
CONTINUOUS
 10
71.032837
 20
90.48156
 11
71.032837
 21
94.121107
  0
LINE
  8
寸法
  6
CONTINUOUS
 10
108.532872
 20
94.121107
 11
71.032837
 21
94.121107
  0
POINT
  8
寸法
 10
108.532872
 20
94.121107
  0
POINT
  8
寸法
 10
71.032837
 20
94.121107
  0
TEXT
  7
TextStyle03
  8
寸法
  6
CONTINUOUS
 10
88.18125
 20
94.475
  1
75
 40
3.0
 72
     5
 11
91.36875
 21
94.475
  0
ENDBLK
  0
BLOCK
  2
*DIM_0038
 70
    65
 10
0.0
 20
0.0
  0
LINE
  8
寸法
  6
CONTINUOUS
 10
66.032813
 20
82.554853
 11
41.329983
 21
82.554853
  0
LINE
  8
寸法
  6
CONTINUOUS
 10
66.032872
 20
112.554853
 11
41.329983
 21
112.554853
  0
LINE
  8
寸法
  6
CONTINUOUS
 10
41.329983
 20
82.554853
 11
41.329983
 21
112.554853
  0
POINT
  8
寸法
 10
41.329983
 20
82.554853
  0
POINT
  8
寸法
 10
41.329983
 20
112.554853
  0
TEXT
  7
TextStyle03
  8
寸法
  6
CONTINUOUS
 10
40.95
 20
95.95625
  1
60
 40
3.0
 50
90.0
 72
     5
 11
40.95
 21
99.14375
  0
ENDBLK
  0
BLOCK
  2
*DIM_0039
 70
    65
 10
0.0
 20
0.0
  0
LINE
  8
寸法
  6
CONTINUOUS
 10
102.782872
 20
117.554853
 11
41.329983
 21
117.554853
  0
LINE
  8
寸法
  6
CONTINUOUS
 10
41.329983
 20
112.554853
 11
41.329983
 21
117.554853
  0
POINT
  8
寸法
 10
41.329983
 20
117.554853
  0
TEXT
  7
TextStyle03
  8
寸法
  6
CONTINUOUS
 10
40.95
 20
113.45625
  1
10
 40
3.0
 50
90.0
 72
     5
 11
40.95
 21
116.64375
  0
ENDBLK
  0
BLOCK
  2
*DIM_0040
 70
    65
 10
0.0
 20
0.0
  0
LINE
  8
寸法
  6
CONTINUOUS
 10
102.782872
 20
123.404853
 11
41.329983
 21
123.404853
  0
LINE
  8
寸法
  6
CONTINUOUS
 10
41.329983
 20
117.554853
 11
41.329983
 21
123.404853
  0
POINT
  8
寸法
 10
41.329983
 20
123.404853
  0
TEXT
  7
TextStyle03
  8
寸法
  6
CONTINUOUS
 10
40.95
 20
117.19375
  1
11.7
 40
3.0
 50
90.0
 72
     5
 11
40.95
 21
123.75625
  0
ENDBLK
  0
BLOCK
  2
*DIM_0041
 70
    65
 10
0.0
 20
0.0
  0
LINE
  8
寸法
  6
CONTINUOUS
 10
108.532872
 20
57.567277
 11
108.532872
 21
41.41792
  0
LINE
  8
寸法
  6
CONTINUOUS
 10
81.032837
 20
39.265252
 11
81.032837
 21
41.41792
  0
LINE
  8
寸法
  6
CONTINUOUS
 10
108.532872
 20
41.41792
 11
81.032837
 21
41.41792
  0
POINT
  8
寸法
 10
108.532872
 20
41.41792
  0
POINT
  8
寸法
 10
81.032837
 20
41.41792
  0
TEXT
  7
TextStyle03
  8
寸法
  6
CONTINUOUS
 10
93.18125
 20
41.775
  1
55
 40
3.0
 72
     5
 11
96.36875
 21
41.775
  0
ENDBLK
  0
BLOCK
  2
*DIM_0042
 70
    65
 10
0.0
 20
0.0
  0
LINE
  8
寸法
  6
CONTINUOUS
 10
76.032813
 20
31.247895
 11
47.788472
 21
31.247895
  0
LINE
  8
寸法
  6
CONTINUOUS
 10
76.032872
 20
61.247895
 11
47.788472
 21
61.247895
  0
LINE
  8
寸法
  6
CONTINUOUS
 10
47.788472
 20
31.247895
 11
47.788472
 21
61.247895
  0
POINT
  8
寸法
 10
47.788472
 20
31.247895
  0
POINT
  8
寸法
 10
47.788472
 20
61.247895
  0
TEXT
  7
TextStyle03
  8
寸法
  6
CONTINUOUS
 10
47.4
 20
44.63125
  1
60
 40
3.0
 50
90.0
 72
     5
 11
47.4
 21
47.81875
  0
ENDBLK
  0
BLOCK
  2
*DIM_0043
 70
    65
 10
0.0
 20
0.0
  0
LINE
  8
寸法
  6
CONTINUOUS
 10
102.782872
 20
64.88735
 11
47.788472
 21
64.88735
  0
LINE
  8
寸法
  6
CONTINUOUS
 10
47.788472
 20
61.247895
 11
47.788472
 21
64.88735
  0
POINT
  8
寸法
 10
47.788472
 20
64.88735
  0
TEXT
  7
TextStyle03
  8
寸法
  6
CONTINUOUS
 10
47.4
 20
60.6125
  1
7.3
 40
3.0
 50
90.0
 72
     5
 11
47.4
 21
65.4875
  0
ENDBLK
  0
BLOCK
  2
*DIM_0044
 70
    65
 10
0.0
 20
0.0
  0
LINE
  8
寸法
  6
CONTINUOUS
 10
102.782872
 20
70.73735
 11
47.788472
 21
70.73735
  0
LINE
  8
寸法
  6
CONTINUOUS
 10
47.788472
 20
64.88735
 11
47.788472
 21
70.73735
  0
POINT
  8
寸法
 10
47.788472
 20
70.73735
  0
TEXT
  7
TextStyle03
  8
寸法
  6
CONTINUOUS
 10
49.35
 20
71.71875
  1
11.7
 40
3.0
 50
90.0
 72
     5
 11
49.35
 21
78.28125
  0
ENDBLK
  0
BLOCK
  2
*DIM_0045
 70
    65
 10
0.0
 20
0.0
  0
LINE
  8
寸法
  6
CONTINUOUS
 10
107.18096
 20
-11.160747
 11
107.18096
 21
9.386325
  0
LINE
  8
寸法
  6
CONTINUOUS
 10
92.18096
 20
-11.160747
 11
92.18096
 21
9.386325
  0
LINE
  8
寸法
  6
CONTINUOUS
 10
107.18096
 20
9.386325
 11
92.18096
 21
9.386325
  0
POINT
  8
寸法
 10
107.18096
 20
9.386325
  0
POINT
  8
寸法
 10
92.18096
 20
9.386325
  0
TEXT
  7
TextStyle03
  8
寸法
  6
CONTINUOUS
 10
98.08125
 20
9.75
  1
15
 40
3.0
 72
     5
 11
101.26875
 21
9.75
  0
ENDBLK
  0
BLOCK
  2
*GRP_0046
 70
    65
 10
0.0
 20
0.0
  0
POLYLINE
  8
寸法
  6
BYBLOCK
 62
     0
 66
     1
  0
VERTEX
  8
寸法
 10
96.286145
 20
-32.196177
  0
VERTEX
  8
寸法
 10
92.066265
 20
-36.416057
  0
VERTEX
  8
寸法
 10
79.061528
 20
-36.416057
  0
SEQEND
  0
ENDBLK
  0
BLOCK
  2
*DIM_0047
 70
    65
 10
0.0
 20
0.0
  0
LINE
  8
寸法
  6
CONTINUOUS
 10
107.18096
 20
-11.160747
 11
107.18096
 21
9.386325
  0
LINE
  8
寸法
  6
CONTINUOUS
 10
112.18096
 20
-13.160747
 11
112.18096
 21
9.386325
  0
LINE
  8
寸法
  6
CONTINUOUS
 10
107.18096
 20
9.386325
 11
112.18096
 21
9.386325
  0
POINT
  8
寸法
 10
107.18096
 20
9.386325
  0
POINT
  8
寸法
 10
112.18096
 20
9.386325
  0
TEXT
  7
TextStyle03
  8
寸法
  6
CONTINUOUS
 10
108.925
 20
9.75
  1
5
 40
3.0
 72
     5
 11
110.425
 21
9.75
  0
ENDBLK
  0
BLOCK
  2
*DIM_0048
 70
    65
 10
0.0
 20
0.0
  0
LINE
  8
寸法
  6
CONTINUOUS
 10
92.18096
 20
-11.160747
 11
92.18096
 21
9.386325
  0
LINE
  8
寸法
  6
CONTINUOUS
 10
87.18096
 20
-13.160747
 11
87.18096
 21
9.386325
  0
LINE
  8
寸法
  6
CONTINUOUS
 10
92.18096
 20
9.386325
 11
87.18096
 21
9.386325
  0
POINT
  8
寸法
 10
92.18096
 20
9.386325
  0
POINT
  8
寸法
 10
87.18096
 20
9.386325
  0
TEXT
  7
TextStyle03
  8
寸法
  6
CONTINUOUS
 10
88.925
 20
9.75
  1
5
 40
3.0
 72
     5
 11
90.425
 21
9.75
  0
ENDBLK
  0
BLOCK
  2
*DIM_0049
 70
    65
 10
0.0
 20
0.0
  0
LINE
  8
寸法
  6
CONTINUOUS
 10
112.18096
 20
-33.940017
 11
112.18096
 21
-44.65
  0
LINE
  8
寸法
  6
CONTINUOUS
 10
87.18096
 20
-33.940017
 11
87.18096
 21
-44.65
  0
LINE
  8
寸法
  6
CONTINUOUS
 10
112.18096
 20
-44.65
 11
87.18096
 21
-44.65
  0
POINT
  8
寸法
 10
112.18096
 20
-44.65
  0
POINT
  8
寸法
 10
87.18096
 20
-44.65
  0
TEXT
  7
TextStyle03
  8
寸法
  6
CONTINUOUS
 10
98.08125
 20
-44.3
  1
25
 40
3.0
 72
     5
 11
101.26875
 21
-44.3
  0
ENDBLK
  0
BLOCK
  2
*GRP_0050
 70
    65
 10
0.0
 20
0.0
  0
LINE
  8
曲げ物
  6
CONTINUOUS
 10
73.68096
 20
-20.660747
 11
87.18096
 21
-20.660747
  0
ARC
  8
曲げ物
  6
CONTINUOUS
 10
88.680958
 20
-30.660752
 40
1.5
 50
180.0
 51
270.0
  0
LINE
  8
曲げ物
  6
CONTINUOUS
 10
88.68096
 20
-30.660747
 11
88.68096
 21
-20.660747
  0
LINE
  8
曲げ物
  6
CONTINUOUS
 10
73.68096
 20
-19.160747
 11
87.18096
 21
-19.160747
  0
ARC
  8
曲げ物
  6
CONTINUOUS
 10
87.180958
 20
-20.660752
 40
1.5
 50
0.0
 51
90.0
  0
LINE
  8
曲げ物
  6
CONTINUOUS
 10
125.68096
 20
-20.660747
 11
112.18096
 21
-20.660747
  0
ARC
  8
曲げ物
  6
CONTINUOUS
 10
110.680958
 20
-30.660752
 40
1.5
 50
270.0
 51
360.0
  0
LINE
  8
曲げ物
  6
CONTINUOUS
 10
110.68096
 20
-30.660747
 11
110.68096
 21
-20.660747
  0
LINE
  8
曲げ物
  6
CONTINUOUS
 10
125.68096
 20
-19.160747
 11
112.18096
 21
-19.160747
  0
ARC
  8
曲げ物
  6
CONTINUOUS
 10
112.180958
 20
-20.660752
 40
1.5
 50
90.0
 51
180.0
  0
LINE
  8
曲げ物
  6
CONTINUOUS
 10
88.68096
 20
-30.660747
 11
110.68096
 21
-30.660747
  0
LINE
  8
曲げ物
  6
CONTINUOUS
 10
125.68096
 20
-20.660747
 11
125.68096
 21
-19.160747
  0
LINE
  8
曲げ物
  6
CONTINUOUS
 10
73.68096
 20
-20.660747
 11
73.68096
 21
-19.160747
  0
LINE
  8
曲げ物
  6
CONTINUOUS
 10
112.18096
 20
-20.660747
 11
112.18096
 21
-30.660747
  0
LINE
  8
曲げ物
  6
CONTINUOUS
 10
110.68096
 20
-32.160747
 11
88.68096
 21
-32.160747
  0
LINE
  8
曲げ物
  6
CONTINUOUS
 10
87.18096
 20
-20.660747
 11
87.18096
 21
-30.660747
  0
ENDBLK
  0
BLOCK
  2
*DIM_0051
 70
    65
 10
0.0
 20
0.0
  0
LINE
  8
寸法
  6
CONTINUOUS
 10
87.107772
 20
-99.28335
 11
87.107772
 21
-108.626565
  0
LINE
  8
寸法
  6
CONTINUOUS
 10
112.107772
 20
-99.28335
 11
112.107772
 21
-108.626565
  0
LINE
  8
寸法
  6
CONTINUOUS
 10
87.107772
 20
-108.626565
 11
112.107772
 21
-108.626565
  0
POINT
  8
寸法
 10
87.107772
 20
-108.626565
  0
POINT
  8
寸法
 10
112.107772
 20
-108.626565
  0
TEXT
  7
TextStyle03
  8
寸法
  6
CONTINUOUS
 10
98.00625
 20
-108.275
  1
25
 40
3.0
 50
360.0
 72
     5
 11
101.19375
 21
-108.275
  0
ENDBLK
  0
BLOCK
  2
*DIM_0052
 70
    65
 10
0.0
 20
0.0
  0
LINE
  8
寸法
  6
CONTINUOUS
 10
113.43484
 20
-77.834345
 11
114.734787
 21
-64.576435
  0
LINE
  8
寸法
  6
CONTINUOUS
 10
107.74206
 20
-75.768973
 11
108.895635
 21
-64.003903
  0
LINE
  8
寸法
  6
CONTINUOUS
 10
114.734787
 20
-64.576435
 11
108.895635
 21
-64.003903
  0
POINT
  8
寸法
 10
114.734787
 20
-64.576435
  0
POINT
  8
寸法
 10
108.895635
 20
-64.003903
  0
TEXT
  7
TextStyle03
  8
寸法
  6
CONTINUOUS
 10
109.402759
 20
-63.679983
  1
5.9
 40
3.0
 50
354.4
 72
     5
 11
114.254492
 21
-64.155699
  0
ENDBLK
  0
BLOCK
  2
*DIM_0053
 70
    65
 10
0.0
 20
0.0
  0
LINE
  8
寸法
  6
CONTINUOUS
 10
85.780705
 20
-77.834345
 11
84.480758
 21
-64.576435
  0
LINE
  8
寸法
  6
CONTINUOUS
 10
91.473485
 20
-75.768973
 11
90.31991
 21
-64.003903
  0
LINE
  8
寸法
  6
CONTINUOUS
 10
84.480758
 20
-64.576435
 11
90.31991
 21
-64.003903
  0
POINT
  8
寸法
 10
84.480758
 20
-64.576435
  0
POINT
  8
寸法
 10
90.31991
 20
-64.003903
  0
TEXT
  7
TextStyle03
  8
寸法
  6
CONTINUOUS
 10
84.920508
 20
-64.155699
  1
5.9
 40
3.0
 50
5.6
 72
     5
 11
89.772241
 21
-63.679983
  0
ENDBLK
  0
BLOCK
  2
*DIM_0054
 70
    65
 10
0.0
 20
0.0
  0
LINE
  8
寸法
  6
CONTINUOUS
 10
92.107772
 20
-75.737865
 11
92.107772
 21
-60.10515
  0
LINE
  8
寸法
  6
CONTINUOUS
 10
107.107772
 20
-75.737865
 11
107.107772
 21
-60.10515
  0
LINE
  8
寸法
  6
CONTINUOUS
 10
92.107772
 20
-60.10515
 11
107.107772
 21
-60.10515
  0
POINT
  8
寸法
 10
92.107772
 20
-60.10515
  0
POINT
  8
寸法
 10
107.107772
 20
-60.10515
  0
TEXT
  7
TextStyle03
  8
寸法
  6
CONTINUOUS
 10
98.00625
 20
-59.75
  1
15
 40
3.0
 72
     5
 11
101.19375
 21
-59.75
  0
ENDBLK
  0
ENDSEC
  0
SECTION
  2
ENTITIES
  0
POLYLINE
  8
通り芯
  6
CONTINUOUS
 66
     1
 70
     1
  0
VERTEX
  8
通り芯
 10
-210.0
 20
-148.5
  0
VERTEX
  8
通り芯
 10
210.0
 20
-148.5
  0
VERTEX
  8
通り芯
 10
210.0
 20
148.5
  0
VERTEX
  8
通り芯
 10
-210.0
 20
148.5
  0
SEQEND
  0
POLYLINE
  8
躯体
  6
CONTINUOUS
 66
     1
 70
     1
  0
VERTEX
  8
躯体
 10
75.629287
 20
-65.651012
  0
VERTEX
  8
躯体
 10
48.832155
 20
-65.651012
  0
VERTEX
  8
躯体
 10
48.832155
 20
-73.175708
  0
VERTEX
  8
躯体
 10
75.629287
 20
-73.175708
  0
SEQEND
  0
POLYLINE
  8
躯体
  6
CONTINUOUS
 66
     1
 70
     1
  0
VERTEX
  8
躯体
 10
75.629287
 20
0.936475
  0
VERTEX
  8
躯体
 10
48.832155
 20
0.936475
  0
VERTEX
  8
躯体
 10
48.832155
 20
-6.58822
  0
VERTEX
  8
躯体
 10
75.629287
 20
-6.58822
  0
SEQEND
  0
INSERT
  2
*GRP_0001
  8
型材断面
  6
CONTINUOUS
 10
0.0
 20
0.0
  0
LINE
  8
型材断面
  6
CONTINUOUS
 10
5.0
 20
133.5
 11
5.0
 21
-133.5
  0
LINE
  8
型材断面
  6
CONTINUOUS
 10
195.0
 20
80.1
 11
-185.0
 21
80.1
  0
LINE
  8
型材断面
  6
CONTINUOUS
 10
195.0
 20
26.7
 11
-185.0
 21
26.7
  0
LINE
  8
型材断面
  6
CONTINUOUS
 10
86.61016
 20
-86.300882
 11
86.463785
 21
-84.808043
  0
LINE
  8
型材断面
  6
DOT
 10
86.463785
 20
-84.808043
 11
86.31741
 21
-83.315205
  0
LINE
  8
型材断面
  6
CONTINUOUS
 10
86.31741
 20
-83.315205
 11
86.268618
 21
-82.81759
  0
LINE
  8
型材断面
  6
CONTINUOUS
 10
88.607772
 20
-86.48192
 11
88.607772
 21
-82.588232
  0
LINE
  8
型材断面
  6
CONTINUOUS
 10
92.107772
 20
-80.737865
 11
92.25415
 21
-82.230705
  0
LINE
  8
型材断面
  6
CONTINUOUS
 10
112.605385
 20
-86.300882
 11
112.75176
 21
-84.808043
  0
LINE
  8
型材断面
  6
DOT
 10
112.75176
 20
-84.808043
 11
112.898135
 21
-83.315205
  0
LINE
  8
型材断面
  6
CONTINUOUS
 10
112.898135
 20
-83.315205
 11
112.946927
 21
-82.81759
  0
LINE
  8
型材断面
  6
CONTINUOUS
 10
110.607772
 20
-86.48192
 11
110.607772
 21
-82.588232
  0
LINE
  8
型材断面
  6
CONTINUOUS
 10
107.107772
 20
-80.737865
 11
106.961395
 21
-82.230705
  0
LINE
  8
型材断面
  6
CONTINUOUS
 10
86.61016
 20
-86.300882
 11
68.42919
 21
-88.083545
  0
LINE
  8
型材断面
  6
CONTINUOUS
 10
86.463785
 20
-84.808043
 11
68.282815
 21
-86.590705
  0
LINE
  8
型材断面
  6
CONTINUOUS
 10
92.25415
 20
-82.230705
 11
68.08765
 21
-84.600252
  0
LINE
  8
型材断面
  6
CONTINUOUS
 10
92.107772
 20
-80.737865
 11
67.941275
 21
-83.10741
  0
LINE
  8
型材断面
  6
CONTINUOUS
 10
112.605385
 20
-86.300882
 11
130.054845
 21
-88.011817
  0
LINE
  8
型材断面
  6
CONTINUOUS
 10
112.75176
 20
-84.808043
 11
130.201217
 21
-86.518977
  0
LINE
  8
型材断面
  6
CONTINUOUS
 10
106.961395
 20
-82.230705
 11
130.396383
 21
-84.528525
  0
LINE
  8
型材断面
  6
CONTINUOUS
 10
107.107772
 20
-80.737865
 11
130.542757
 21
-83.035685
  0
LINE
  8
型材断面
  6
CONTINUOUS
 10
-185.0
 20
-80.1
 11
5.0
 21
-80.1
  0
LINE
  8
型材断面
  6
CONTINUOUS
 10
-185.0
 20
-26.7
 11
5.0
 21
-26.7
  0
LINE
  8
型材断面
  6
CONTINUOUS
 10
107.18096
 20
-16.160747
 11
107.18096
 21
-18.160747
  0
LINE
  8
型材断面
  6
CONTINUOUS
 10
92.18096
 20
-16.160747
 11
92.18096
 21
-18.160747
  0
LINE
  8
型材断面
  6
CONTINUOUS
 10
107.18096
 20
-16.160747
 11
169.029413
 21
-16.160747
  0
LINE
  8
型材断面
  6
CONTINUOUS
 10
107.18096
 20
-18.160747
 11
169.029413
 21
-18.160747
  0
LINE
  8
型材断面
  6
CONTINUOUS
 10
112.18096
 20
-20.660747
 11
169.029413
 21
-20.660747
  0
LINE
  8
型材断面
  6
CONTINUOUS
 10
112.18096
 20
-22.160747
 11
169.029413
 21
-22.160747
  0
LINE
  8
型材断面
  6
CONTINUOUS
 10
92.18096
 20
-16.160747
 11
30.332508
 21
-16.160747
  0
LINE
  8
型材断面
  6
CONTINUOUS
 10
87.18096
 20
-20.660747
 11
30.332508
 21
-20.660747
  0
LINE
  8
型材断面
  6
CONTINUOUS
 10
92.18096
 20
-18.160747
 11
30.332508
 21
-18.160747
  0
LINE
  8
型材断面
  6
CONTINUOUS
 10
87.18096
 20
-22.160747
 11
30.332508
 21
-22.160747
  0
LINE
  8
型材断面
  6
CONTINUOUS
 10
87.18096
 20
-19.160747
 11
87.18096
 21
-18.160747
  0
LINE
  8
型材断面
  6
CONTINUOUS
 10
112.18096
 20
-19.160747
 11
112.18096
 21
-18.160747
  0
INSERT
  2
*GRP_0010
  8
型材断面
  6
CONTINUOUS
 10
0.0
 20
0.0
  0
INSERT
  2
*GRP_0011
  8
型材断面
  6
CONTINUOUS
 10
0.0
 20
0.0
  0
INSERT
  2
*GRP_0012
  8
型材断面
  6
CONTINUOUS
 10
0.0
 20
0.0
  0
INSERT
  2
*GRP_0013
  8
型材断面
  6
CONTINUOUS
 10
0.0
 20
0.0
  0
INSERT
  2
*GRP_0014
  8
型材断面
  6
CONTINUOUS
 10
0.0
 20
0.0
  0
INSERT
  2
*GRP_0035
  8
型材断面
  6
CONTINUOUS
 10
0.0
 20
0.0
  0
INSERT
  2
*GRP_0036
  8
型材断面
  6
CONTINUOUS
 10
0.0
 20
0.0
  0
TEXT
  7
TextStyle03
  8
文字
  6
CONTINUOUS
 10
123.125
 20
-67.975
  1
現場後打ちシール
 40
4.0
 72
     5
 11
158.625
 21
-67.975
  0
TEXT
  7
TextStyle03
  8
文字
  6
CONTINUOUS
 10
123.175
 20
-108.625
  1
バッカー
 40
4.0
 72
     5
 11
140.675
 21
-108.625
  0
TEXT
  7
TextStyle03
  8
文字
  6
CONTINUOUS
 10
51.3
 20
-71.15
  1
コーナー部
 40
4.0
 72
     5
 11
73.3
 21
-71.15
  0
TEXT
  7
TextStyle03
  8
文字
  6
CONTINUOUS
 10
40.35
 20
-100.1
  1
シール受け　AL-1.5t
 40
3.5
 72
     5
 11
77.65
 21
-100.1
  0
TEXT
  7
TextStyle03
  8
文字
  6
CONTINUOUS
 10
123.15
 20
-101.725
  1
現場先行シール
 40
4.0
 72
     5
 11
154.15
 21
-101.725
  0
TEXT
  7
TextStyle03
  8
文字
  6
CONTINUOUS
 10
125.575
 20
125.075
  1
図面名　：規格水切一覧
 40
5.0
 72
     5
 11
186.825
 21
125.075
  0
TEXT
  7
TextStyle03
  8
文字
  6
CONTINUOUS
 10
-65.325
 20
84.775
  1
ＴＫＭ－０００１　１７０巾
 40
4.0
 72
     5
 11
-7.325
 21
84.775
  0
TEXT
  7
TextStyle03
  8
文字
  6
CONTINUOUS
 10
-60.5
 20
29.8
  1
ＴＫＭ－０００２　１５０巾
 40
4.0
 72
     5
 11
-2.5
 21
29.8
  0
TEXT
  7
TextStyle03
  8
文字
  6
CONTINUOUS
 10
98.475
 20
82.45
  1
ＴＫＭ－０００５　７５巾
 40
4.0
 72
     5
 11
151.975
 21
82.45
  0
TEXT
  7
TextStyle03
  8
文字
  6
CONTINUOUS
 10
96.975
 20
28.1
  1
ＴＫＭ－０００６　５５巾
 40
4.0
 72
     5
 11
150.475
 21
28.1
  0
TEXT
  7
TextStyle03
  8
文字
  6
CONTINUOUS
 10
-62.1
 20
-24.8
  1
ＴＫＭ－０００３　１３０巾
 40
4.0
 72
     5
 11
-4.1
 21
-24.8
  0
TEXT
  7
TextStyle03
  8
文字
  6
CONTINUOUS
 10
-63.6
 20
-78.6
  1
ＴＫＭ－０００４　１１５巾
 40
4.0
 72
     5
 11
-5.6
 21
-78.6
  0
TEXT
  7
TextStyle03
  8
文字
  6
CONTINUOUS
 10
-61.825
 20
-132.075
  1
ＴＫＭ－０００４Ａ　９５巾
 40
4.0
 72
     5
 11
-3.825
 21
-132.075
  0
TEXT
  7
TextStyle03
  8
文字
  6
CONTINUOUS
 10
168.55
 20
119.275
  1
スケール1:2
 40
3.0
 72
     5
 11
186.925
 21
119.275
  0
TEXT
  7
TextStyle03
  8
文字
  6
CONTINUOUS
 10
123.175
 20
-3.4
  1
現場後打ちシール
 40
4.0
 72
     5
 11
158.675
 21
-3.4
  0
TEXT
  7
TextStyle03
  8
文字
  6
CONTINUOUS
 10
123.175
 20
-46.6
  1
バッカー
 40
4.0
 72
     5
 11
140.675
 21
-46.6
  0
TEXT
  7
TextStyle03
  8
文字
  6
CONTINUOUS
 10
55.325
 20
-4.55
  1
直線部
 40
4.0
 72
     5
 11
68.325
 21
-4.55
  0
TEXT
  7
TextStyle03
  8
文字
  6
CONTINUOUS
 10
123.175
 20
-33.85
  1
現場先行シール
 40
4.0
 72
     5
 11
154.175
 21
-33.85
  0
TEXT
  7
TextStyle03
  8
文字
  6
CONTINUOUS
 10
15.825
 20
13.075
  1
水切ジョイント断面
 40
5.0
 72
     5
 11
65.825
 21
13.075
  0
TEXT
  7
TextStyle03
  8
文字
  6
CONTINUOUS
 10
17.025
 20
6.775
  1
スケール1:1
 40
3.0
 72
     5
 11
35.4
 21
6.775
  0
TEXT
  7
TextStyle03
  8
文字
  6
CONTINUOUS
 10
41.65
 20
-38.05
  1
シール受け　AL-1.5t
 40
3.5
 72
     5
 11
78.95
 21
-38.05
  0
INSERT
  2
*GRP_0002
  8
寸法
  6
CONTINUOUS
 10
0.0
 20
0.0
  0
INSERT
  2
*GRP_0003
  8
寸法
  6
CONTINUOUS
 10
0.0
 20
0.0
  0
INSERT
  2
*GRP_0004
  8
寸法
  6
CONTINUOUS
 10
0.0
 20
0.0
  0
INSERT
  2
*DIM_0005
  8
寸法
  6
CONTINUOUS
 10
0.0
 20
0.0
  0
INSERT
  2
*GRP_0006
  8
寸法
  6
CONTINUOUS
 10
0.0
 20
0.0
  0
INSERT
  2
*GRP_0007
  8
寸法
  6
CONTINUOUS
 10
0.0
 20
0.0
  0
INSERT
  2
*GRP_0008
  8
寸法
  6
CONTINUOUS
 10
0.0
 20
0.0
  0
INSERT
  2
*GRP_0009
  8
寸法
  6
CONTINUOUS
 10
0.0
 20
0.0
  0
LINE
  8
寸法
  6
CONTINUOUS
 10
13.944675
 20
11.439178
 11
67.693835
 21
11.439178
  0
INSERT
  2
*DIM_0015
  8
寸法
  6
CONTINUOUS
 10
0.0
 20
0.0
  0
INSERT
  2
*DIM_0016
  8
寸法
  6
CONTINUOUS
 10
0.0
 20
0.0
  0
INSERT
  2
*DIM_0017
  8
寸法
  6
CONTINUOUS
 10
0.0
 20
0.0
  0
INSERT
  2
*DIM_0018
  8
寸法
  6
CONTINUOUS
 10
0.0
 20
0.0
  0
INSERT
  2
*DIM_0019
  8
寸法
  6
CONTINUOUS
 10
0.0
 20
0.0
  0
INSERT
  2
*DIM_0020
  8
寸法
  6
CONTINUOUS
 10
0.0
 20
0.0
  0
INSERT
  2
*DIM_0021
  8
寸法
  6
CONTINUOUS
 10
0.0
 20
0.0
  0
INSERT
  2
*DIM_0022
  8
寸法
  6
CONTINUOUS
 10
0.0
 20
0.0
  0
INSERT
  2
*DIM_0023
  8
寸法
  6
CONTINUOUS
 10
0.0
 20
0.0
  0
INSERT
  2
*DIM_0024
  8
寸法
  6
CONTINUOUS
 10
0.0
 20
0.0
  0
INSERT
  2
*DIM_0025
  8
寸法
  6
CONTINUOUS
 10
0.0
 20
0.0
  0
INSERT
  2
*DIM_0026
  8
寸法
  6
CONTINUOUS
 10
0.0
 20
0.0
  0
INSERT
  2
*DIM_0027
  8
寸法
  6
CONTINUOUS
 10
0.0
 20
0.0
  0
INSERT
  2
*DIM_0028
  8
寸法
  6
CONTINUOUS
 10
0.0
 20
0.0
  0
INSERT
  2
*DIM_0029
  8
寸法
  6
CONTINUOUS
 10
0.0
 20
0.0
  0
INSERT
  2
*DIM_0030
  8
寸法
  6
CONTINUOUS
 10
0.0
 20
0.0
  0
INSERT
  2
*DIM_0031
  8
寸法
  6
CONTINUOUS
 10
0.0
 20
0.0
  0
INSERT
  2
*DIM_0032
  8
寸法
  6
CONTINUOUS
 10
0.0
 20
0.0
  0
INSERT
  2
*DIM_0033
  8
寸法
  6
CONTINUOUS
 10
0.0
 20
0.0
  0
INSERT
  2
*DIM_0034
  8
寸法
  6
CONTINUOUS
 10
0.0
 20
0.0
  0
INSERT
  2
*DIM_0037
  8
寸法
  6
CONTINUOUS
 10
0.0
 20
0.0
  0
INSERT
  2
*DIM_0038
  8
寸法
  6
CONTINUOUS
 10
0.0
 20
0.0
  0
INSERT
  2
*DIM_0039
  8
寸法
  6
CONTINUOUS
 10
0.0
 20
0.0
  0
INSERT
  2
*DIM_0040
  8
寸法
  6
CONTINUOUS
 10
0.0
 20
0.0
  0
INSERT
  2
*DIM_0041
  8
寸法
  6
CONTINUOUS
 10
0.0
 20
0.0
  0
INSERT
  2
*DIM_0042
  8
寸法
  6
CONTINUOUS
 10
0.0
 20
0.0
  0
INSERT
  2
*DIM_0043
  8
寸法
  6
CONTINUOUS
 10
0.0
 20
0.0
  0
INSERT
  2
*DIM_0044
  8
寸法
  6
CONTINUOUS
 10
0.0
 20
0.0
  0
INSERT
  2
*DIM_0045
  8
寸法
  6
CONTINUOUS
 10
0.0
 20
0.0
  0
INSERT
  2
*GRP_0046
  8
寸法
  6
CONTINUOUS
 10
0.0
 20
0.0
  0
INSERT
  2
*DIM_0047
  8
寸法
  6
CONTINUOUS
 10
0.0
 20
0.0
  0
INSERT
  2
*DIM_0048
  8
寸法
  6
CONTINUOUS
 10
0.0
 20
0.0
  0
INSERT
  2
*DIM_0049
  8
寸法
  6
CONTINUOUS
 10
0.0
 20
0.0
  0
INSERT
  2
*DIM_0051
  8
寸法
  6
CONTINUOUS
 10
0.0
 20
0.0
  0
INSERT
  2
*DIM_0052
  8
寸法
  6
CONTINUOUS
 10
0.0
 20
0.0
  0
INSERT
  2
*DIM_0053
  8
寸法
  6
CONTINUOUS
 10
0.0
 20
0.0
  0
INSERT
  2
*DIM_0054
  8
寸法
  6
CONTINUOUS
 10
0.0
 20
0.0
  0
INSERT
  2
*HAT_0001
  8
ﾊｯﾁﾝｸﾞ
 10
0.0
 20
0.0
  0
INSERT
  2
*HAT_0002
  8
ﾊｯﾁﾝｸﾞ
 10
0.0
 20
0.0
  0
INSERT
  2
*HAT_0003
  8
ﾊｯﾁﾝｸﾞ
 10
0.0
 20
0.0
  0
INSERT
  2
*HAT_0004
  8
ﾊｯﾁﾝｸﾞ
 10
0.0
 20
0.0
  0
INSERT
  2
*HAT_0005
  8
ﾊｯﾁﾝｸﾞ
 10
0.0
 20
0.0
  0
INSERT
  2
*HAT_0006
  8
ﾊｯﾁﾝｸﾞ
 10
0.0
 20
0.0
  0
INSERT
  2
*GRP_0050
  8
曲げ物
  6
CONTINUOUS
 10
0.0
 20
0.0
  0
LINE
  8
曲げ物
  6
CONTINUOUS
 62
   111
 10
76.825737
 20
-85.753063
 11
76.679363
 21
-84.26022
  0
ARC
  8
曲げ物
  6
CONTINUOUS
 62
   111
 10
87.107769
 20
-84.7449
 40
1.5
 50
360.0
 51
455.599997
  0
LINE
  8
曲げ物
  6
CONTINUOUS
 62
   111
 10
76.825737
 20
-85.753063
 11
87.107772
 21
-84.744898
  0
ARC
  8
曲げ物
  6
CONTINUOUS
 62
   111
 10
88.607769
 20
-92.790458
 40
1.5
 50
180.0
 51
270.0
  0
LINE
  8
曲げ物
  6
CONTINUOUS
 62
   111
 10
122.389807
 20
-85.753063
 11
122.536183
 21
-84.26022
  0
ARC
  8
曲げ物
  6
CONTINUOUS
 62
   111
 10
112.107772
 20
-84.7449
 40
1.5
 50
84.400003
 51
180.0
  0
LINE
  8
曲げ物
  6
CONTINUOUS
 62
   111
 10
122.389807
 20
-85.753063
 11
112.107772
 21
-84.744898
  0
ARC
  8
曲げ物
  6
CONTINUOUS
 62
   111
 10
110.607773
 20
-92.790458
 40
1.5
 50
-90.0
 51
0.0
  0
LINE
  8
曲げ物
  6
CONTINUOUS
 62
   111
 10
88.607772
 20
-92.790457
 11
110.607772
 21
-92.790457
  0
LINE
  8
曲げ物
  6
CONTINUOUS
 62
   111
 10
122.536183
 20
-84.26022
 11
112.107772
 21
-83.237708
  0
LINE
  8
曲げ物
  6
CONTINUOUS
 62
   111
 10
110.607772
 20
-92.790457
 11
110.607772
 21
-84.59782
  0
LINE
  8
曲げ物
  6
CONTINUOUS
 62
   111
 10
112.107772
 20
-84.744898
 11
112.107772
 21
-92.790457
  0
LINE
  8
曲げ物
  6
CONTINUOUS
 62
   111
 10
110.607772
 20
-94.290457
 11
88.607772
 21
-94.290457
  0
LINE
  8
曲げ物
  6
CONTINUOUS
 62
   111
 10
87.107772
 20
-84.744898
 11
87.107772
 21
-92.790457
  0
LINE
  8
曲げ物
  6
CONTINUOUS
 62
   111
 10
88.607772
 20
-92.790457
 11
88.607772
 21
-84.59782
  0
LINE
  8
曲げ物
  6
CONTINUOUS
 62
   111
 10
76.679363
 20
-84.26022
 11
87.107772
 21
-83.237708
  0
LINE
  8
その他部品等
  6
CONTINUOUS
 10
92.107772
 20
-80.737865
 11
107.107772
 21
-80.737865
  0
LINE
  8
その他部品等
  6
CONTINUOUS
 10
92.25415
 20
-82.230705
 11
92.25415
 21
-92.790457
  0
LINE
  8
その他部品等
  6
CONTINUOUS
 10
106.961395
 20
-82.230705
 11
106.961395
 21
-92.790457
  0
LINE
  8
その他部品等
  6
CONTINUOUS
 10
106.961395
 20
-89.790457
 11
92.25415
 21
-89.790457
  0
LINE
  8
その他部品等
  6
CONTINUOUS
 10
92.25415
 20
-92.790457
 11
106.961395
 21
-89.790457
  0
LINE
  8
その他部品等
  6
CONTINUOUS
 10
92.18096
 20
-18.160747
 11
92.18096
 21
-30.660747
  0
LINE
  8
その他部品等
  6
CONTINUOUS
 10
88.68096
 20
-18.160747
 11
88.68096
 21
-30.660747
  0
LINE
  8
その他部品等
  6
CONTINUOUS
 10
107.18096
 20
-18.160747
 11
107.18096
 21
-30.660747
  0
LINE
  8
その他部品等
  6
CONTINUOUS
 10
92.18096
 20
-16.160747
 11
107.18096
 21
-16.160747
  0
LINE
  8
その他部品等
  6
CONTINUOUS
 10
107.18096
 20
-27.660747
 11
92.18096
 21
-27.660747
  0
LINE
  8
その他部品等
  6
CONTINUOUS
 10
107.18096
 20
-18.160747
 11
107.18096
 21
-30.660747
  0
LINE
  8
その他部品等
  6
CONTINUOUS
 10
110.68096
 20
-18.160747
 11
110.68096
 21
-30.660747
  0
LINE
  8
その他部品等
  6
CONTINUOUS
 10
92.18096
 20
-30.660747
 11
107.18096
 21
-27.660747
  0
ENDSEC
  0
EOF
