  0
SECTION
  2
HEADER
  9
$EXTMIN
 10
-420.5
 20
-297.0
  9
$EXTMAX
 10
420.5
 20
297.0
  9
$PDMODE
 70
    32
  9
$PDSIZE
 40
1.5
  9
$LTSCALE
 40
10.0
  0
ENDSEC
  0
SECTION
  2
TABLES
  0
TABLE
  2
LTYPE
 70
    15
  0
LTYPE
  2
CONTINUOUS
 70
    64
  3
実線
 72
    65
 73
     0
 40
0.0
  0
LTYPE
  2
DASHED
 70
    64
  3
破線A
 72
    65
 73
     2
 40
0.6
 49
0.4
 49
-0.2
  0
LTYPE
  2
DASHEDX2
 70
    64
  3
破線B
 72
    65
 73
     2
 40
1.3
 49
0.9
 49
-0.4
  0
LTYPE
  2
DASHDOT
 70
    64
  3
１点鎖線A
 72
    65
 73
     4
 40
0.5375
 49
0.375
 49
-0.05
 49
0.0625
 49
-0.05
  0
LTYPE
  2
DASHDOTX2
 70
    64
  3
１点鎖線B
 72
    65
 73
     4
 40
1.075
 49
0.75
 49
-0.1
 49
0.125
 49
-0.1
  0
LTYPE
  2
DIVIDE2
 70
    64
  3
２点鎖線A
 72
    65
 73
     6
 40
0.5125
 49
0.3
 49
-0.0375
 49
0.05
 49
-0.0375
 49
0.05
 49
-0.0375
  0
LTYPE
  2
DIVIDE
 70
    64
  3
２点鎖線B
 72
    65
 73
     6
 40
1.05
 49
0.55
 49
-0.1
 49
0.1
 49
-0.1
 49
0.1
 49
-0.1
  0
LTYPE
  2
DOT
 70
    64
  3
点線A
 72
    65
 73
     2
 40
0.1125
 49
0.0625
 49
-0.05
  0
LTYPE
  2
DOTX2
 70
    64
  3
点線B
 72
    65
 73
     2
 40
0.275
 49
0.15
 49
-0.125
  0
LTYPE
  2
CONTINUOUS
 70
    64
  3
実線
 72
    65
 73
     0
 40
0.0
  0
LTYPE
  2
CONTINUOUS
 70
    64
  3
実線
 72
    65
 73
     0
 40
0.0
  0
LTYPE
  2
CONTINUOUS
 70
    64
  3
実線
 72
    65
 73
     0
 40
0.0
  0
LTYPE
  2
CONTINUOUS
 70
    64
  3
実線
 72
    65
 73
     0
 40
0.0
  0
LTYPE
  2
CONTINUOUS
 70
    64
  3
実線
 72
    65
 73
     0
 40
0.0
  0
LTYPE
  2
CONTINUOUS
 70
    64
  3
実線
 72
    65
 73
     0
 40
0.0
  0
ENDTAB
  0
TABLE
  2
LAYER
 70
    34
  0
LAYER
  2
通り芯
 70
     0
 62
    15
  6
CONTINUOUS
  0
LAYER
  2
補助線
 70
     0
 62
    16
  6
CONTINUOUS
  0
LAYER
  2
躯体
 70
     0
 62
    31
  6
CONTINUOUS
  0
LAYER
  2
型材
 70
     0
 62
    32
  6
CONTINUOUS
  0
LAYER
  2
型材断面
 70
     0
 62
    47
  6
CONTINUOUS
  0
LAYER
  2
ガラス
 70
     0
 62
    48
  6
CONTINUOUS
  0
LAYER
  2
ゴム等
 70
     0
 62
    63
  6
CONTINUOUS
  0
LAYER
  2
ボルト／ビス
 70
     0
 62
    64
  6
CONTINUOUS
  0
LAYER
  2
文字
 70
     0
 62
    14
  6
CONTINUOUS
  0
LAYER
  2
寸法
 70
     0
 62
    29
  6
CONTINUOUS
  0
LAYER
  2
ﾊｯﾁﾝｸﾞ
 70
     0
 62
    95
  6
CONTINUOUS
  0
LAYER
  2
別途部材
 70
     0
 62
    96
  6
CONTINUOUS
  0
LAYER
  2
曲げ物
 70
     0
 62
   111
  6
CONTINUOUS
  0
LAYER
  2
鉄骨等
 70
     0
 62
   112
  6
CONTINUOUS
  0
LAYER
  2
St
 70
     0
 62
   127
  6
CONTINUOUS
  0
LAYER
  2
その他部品等
 70
     0
 62
   128
  6
CONTINUOUS
  0
LAYER
  2
ｶﾞｽｹｯﾄ
 70
     0
 62
   143
  6
CONTINUOUS
  0
LAYER
  2
細線01
 70
     0
 62
   144
  6
CONTINUOUS
  0
LAYER
  2
細線02
 70
     0
 62
   159
  6
CONTINUOUS
  0
LAYER
  2
ｽｹｯﾁ
 70
     0
 62
    19
  6
CONTINUOUS
  0
LAYER
  2
4
 70
     0
 62
     6
  6
CONTINUOUS
  0
LAYER
  2
ﾚｲﾔ3
 70
     0
 62
    15
  6
CONTINUOUS
  0
LAYER
  2
外形線
 70
     0
 62
     7
  6
CONTINUOUS
  0
LAYER
  2
部品
 70
     0
 62
    14
  6
CONTINUOUS
  0
LAYER
  2
サッシ芯
 70
     0
 62
    17
  6
DASHDOTX2
  0
LAYER
  2
寸法線
 70
     0
 62
    28
  6
CONTINUOUS
  0
LAYER
  2
姿図外形線
 70
     0
 62
   249
  6
CONTINUOUS
  0
LAYER
  2
姿補助線
 70
     0
 62
    30
  6
CONTINUOUS
  0
LAYER
  2
透視線
 70
     0
 62
     3
  6
DOT
  0
LAYER
  2
用紙
 70
     0
 62
     7
  6
CONTINUOUS
  0
LAYER
  2
実線図枠
 70
     0
 62
     3
  6
CONTINUOUS
  0
LAYER
  2
補助図枠
 70
     0
 62
     4
  6
CONTINUOUS
  0
LAYER
  2
建具記号
 70
     0
 62
     5
  6
CONTINUOUS
  0
LAYER
  2
補助文字
 70
     0
 62
    10
  6
CONTINUOUS
  0
ENDTAB
  0
TABLE
  2
STYLE
 70
    10
  0
STYLE
  2
STANDARD
 70
     0
 40
1.0
 41
1.0
 42
1.0
 50
0.0
 71
     0
  3
TXT
  4
BIGFONT
  0
STYLE
  2
TATE
 70
     4
 40
1.0
 41
1.0
 42
1.0
 50
0.0
 71
     0
  3
TXT
  4
BIGFONT
  0
STYLE
  2
TextStyle03
 70
     0
 40
1.0
 41
1.0
 42
1.0
 50
0.0
 71
     0
  3
MONOTXT
  4
BIGFONT
  0
STYLE
  2
TextStyle04
 70
     0
 40
1.0
 41
1.0
 42
1.0
 50
0.0
 71
     0
  3
MONOTXT
  4
BIGFONT
  0
STYLE
  2
TextStyle05
 70
     0
 40
1.0
 41
1.0
 42
1.0
 50
0.0
 71
     0
  3
MONOTXT
  4
BIGFONT
  0
STYLE
  2
TextStyle06
 70
     0
 40
1.0
 41
1.0
 42
1.0
 50
0.0
 71
     0
  3
MONOTXT
  4
BIGFONT
  0
STYLE
  2
TextStyle07
 70
     0
 40
1.0
 41
1.0
 42
1.0
 50
0.0
 71
     0
  3
MONOTXT
  4
BIGFONT
  0
STYLE
  2
TextStyle08
 70
     0
 40
1.0
 41
1.0
 42
1.0
 50
0.0
 71
     0
  3
MONOTXT
  4
BIGFONT
  0
STYLE
  2
TextStyle09
 70
     0
 40
1.0
 41
1.0
 42
1.0
 50
0.0
 71
     0
  3
MONOTXT
  4
BIGFONT
  0
STYLE
  2
TextStyle10
 70
     0
 40
1.0
 41
1.0
 42
1.0
 50
0.0
 71
     0
  3
MONOTXT
  4
BIGFONT
  0
ENDTAB
  0
ENDSEC
  0
SECTION
  2
BLOCKS
  0
BLOCK
  2
*GRP_0001
 70
    65
 10
0.0
 20
0.0
  0
LINE
  8
躯体
  6
CONTINUOUS
 62
    31
 10
374.500033
 20
-251.999995
 11
374.500033
 21
-281.999988
  0
LINE
  8
躯体
  6
CONTINUOUS
 62
    31
 10
254.50002
 20
-251.999995
 11
254.50002
 21
-281.999988
  0
LINE
  8
躯体
  6
CONTINUOUS
 62
    31
 10
154.50005
 20
-251.999995
 11
154.50005
 21
-281.999988
  0
LINE
  8
躯体
  6
CONTINUOUS
 62
    31
 10
63.500072
 20
-251.999995
 11
63.500072
 21
-281.999988
  0
LINE
  8
躯体
  6
CONTINUOUS
 62
    31
 10
23.500082
 20
-251.999995
 11
23.500082
 21
-281.999988
  0
LINE
  8
躯体
  6
CONTINUOUS
 62
    31
 10
-66.49994
 20
-251.999995
 11
-66.49994
 21
-281.999988
  0
LINE
  8
躯体
  6
CONTINUOUS
 62
    31
 10
234.500025
 20
-251.999995
 11
234.500025
 21
-281.999988
  0
LINE
  8
躯体
  6
CONTINUOUS
 62
    31
 10
214.50003
 20
-251.999995
 11
214.50003
 21
-281.999988
  0
LINE
  8
躯体
  6
CONTINUOUS
 62
    31
 10
194.500037
 20
-251.999995
 11
194.500037
 21
-281.999988
  0
LINE
  8
躯体
  6
CONTINUOUS
 62
    31
 10
174.500043
 20
-251.999995
 11
174.500043
 21
-281.999988
  0
LINE
  8
躯体
  6
CONTINUOUS
 62
    31
 10
154.50005
 20
-259.0
 11
254.50002
 21
-259.0
  0
LINE
  8
躯体
  6
CONTINUOUS
 62
    31
 10
-66.49994
 20
-267.000005
 11
63.500072
 21
-267.000005
  0
LINE
  8
躯体
  6
CONTINUOUS
 62
    31
 10
-375.499978
 20
-251.999995
 11
-375.499978
 21
-282.0
  0
LINE
  8
躯体
  6
CONTINUOUS
 62
    31
 10
-360.49997
 20
-251.999995
 11
-360.49997
 21
-282.0
  0
LINE
  8
躯体
  6
CONTINUOUS
 62
    31
 10
-239.50005
 20
-251.999995
 11
-239.50005
 21
-282.0
  0
LINE
  8
躯体
  6
CONTINUOUS
 62
    31
 10
-382.999975
 20
-257.231555
 11
-377.999978
 21
-257.231555
  0
LINE
  8
躯体
  6
CONTINUOUS
 62
    31
 10
-377.999978
 20
-257.231555
 11
-380.499975
 21
-252.901428
  0
LINE
  8
躯体
  6
CONTINUOUS
 62
    31
 10
-380.499975
 20
-252.901428
 11
-382.999975
 21
-257.231555
  0
LINE
  8
躯体
  6
CONTINUOUS
 62
    31
 10
-382.999988
 20
-263.231555
 11
-377.99999
 21
-263.231555
  0
LINE
  8
躯体
  6
CONTINUOUS
 62
    31
 10
-377.99999
 20
-263.231555
 11
-380.499988
 21
-258.901428
  0
LINE
  8
躯体
  6
CONTINUOUS
 62
    31
 10
-380.499988
 20
-258.901428
 11
-382.999988
 21
-263.231555
  0
LINE
  8
躯体
  6
CONTINUOUS
 62
    31
 10
-383.0
 20
-269.231555
 11
-378.000003
 21
-269.231555
  0
LINE
  8
躯体
  6
CONTINUOUS
 62
    31
 10
-378.000003
 20
-269.231555
 11
-380.499988
 21
-264.901428
  0
LINE
  8
躯体
  6
CONTINUOUS
 62
    31
 10
-380.499988
 20
-264.901428
 11
-383.0
 21
-269.231555
  0
LINE
  8
躯体
  6
CONTINUOUS
 62
    31
 10
-383.0
 20
-275.231555
 11
-378.000003
 21
-275.231555
  0
LINE
  8
躯体
  6
CONTINUOUS
 62
    31
 10
-378.000003
 20
-275.231555
 11
-380.5
 21
-270.901428
  0
LINE
  8
躯体
  6
CONTINUOUS
 62
    31
 10
-380.5
 20
-270.901428
 11
-383.0
 21
-275.231555
  0
LINE
  8
躯体
  6
CONTINUOUS
 62
    31
 10
-383.000012
 20
-281.231555
 11
-378.000015
 21
-281.231555
  0
LINE
  8
躯体
  6
CONTINUOUS
 62
    31
 10
-378.000015
 20
-281.231555
 11
-380.500012
 21
-276.901428
  0
LINE
  8
躯体
  6
CONTINUOUS
 62
    31
 10
-380.500012
 20
-276.901428
 11
-383.000012
 21
-281.231555
  0
LINE
  8
躯体
  6
CONTINUOUS
 62
    31
 10
-385.499988
 20
-251.999995
 11
-385.499988
 21
-282.0
  0
LINE
  8
躯体
  6
CONTINUOUS
 62
    31
 10
-229.500053
 20
-251.999995
 11
-229.500053
 21
-282.0
  0
LINE
  8
躯体
  6
CONTINUOUS
 62
    31
 10
-395.499985
 20
282.000017
 11
-395.499985
 21
-281.99998
  0
LINE
  8
躯体
  6
CONTINUOUS
 62
    31
 10
404.500023
 20
282.000017
 11
404.500023
 21
-282.0
  0
LINE
  8
躯体
  6
CONTINUOUS
 62
    31
 10
404.500023
 20
282.000017
 11
-395.499985
 21
282.000017
  0
LINE
  8
躯体
  6
CONTINUOUS
 62
    31
 10
404.500023
 20
-282.0
 11
-395.499985
 21
-282.0
  0
LINE
  8
躯体
  6
CONTINUOUS
 62
    31
 10
404.500023
 20
-251.999995
 11
-395.499985
 21
-251.999995
  0
LINE
  8
躯体
  6
CONTINUOUS
 62
    31
 10
254.50002
 20
-272.0
 11
374.500033
 21
-272.0
  0
LINE
  8
躯体
  6
CONTINUOUS
 62
    31
 10
63.500072
 20
-262.0
 11
154.50005
 21
-262.0
  0
LINE
  8
躯体
  6
CONTINUOUS
 62
    31
 10
63.500072
 20
-272.0
 11
154.50005
 21
-272.0
  0
LINE
  8
躯体
  6
CONTINUOUS
 62
    31
 10
-385.499988
 20
-258.0
 11
-239.50005
 21
-258.0
  0
LINE
  8
躯体
  6
CONTINUOUS
 62
    31
 10
-385.499988
 20
-264.0
 11
-239.50005
 21
-264.0
  0
LINE
  8
躯体
  6
CONTINUOUS
 62
    31
 10
-385.499988
 20
-270.0
 11
-239.50005
 21
-270.0
  0
LINE
  8
躯体
  6
CONTINUOUS
 62
    31
 10
-385.499988
 20
-276.0
 11
-239.50005
 21
-276.0
  0
LINE
  8
躯体
  6
CONTINUOUS
 62
    31
 10
-229.500053
 20
-276.0
 11
-66.49994
 21
-276.0
  0
LINE
  8
躯体
  6
CONTINUOUS
 62
    31
 10
-229.500053
 20
-270.0
 11
-66.49994
 21
-270.0
  0
LINE
  8
躯体
  6
CONTINUOUS
 62
    31
 10
-229.500053
 20
-264.0
 11
-66.49994
 21
-264.0
  0
LINE
  8
躯体
  6
CONTINUOUS
 62
    31
 10
-229.500053
 20
-258.0
 11
-66.49994
 21
-258.0
  0
LINE
  8
躯体
  6
CONTINUOUS
 62
    31
 10
-395.499985
 20
282.000017
 11
-395.499985
 21
-281.99998
  0
LINE
  8
躯体
  6
CONTINUOUS
 62
    31
 10
-395.499985
 20
-281.99998
 11
404.500023
 21
-281.99998
  0
LINE
  8
躯体
  6
CONTINUOUS
 62
    31
 10
404.500023
 20
-281.99998
 11
404.500023
 21
282.000017
  0
LINE
  8
躯体
  6
CONTINUOUS
 62
    31
 10
404.500023
 20
282.000017
 11
-395.499985
 21
282.000017
  0
LINE
  8
躯体
  6
CONTINUOUS
 62
    31
 10
404.500023
 20
-251.999995
 11
-395.499985
 21
-251.999995
  0
LINE
  8
躯体
  6
CONTINUOUS
 62
    31
 10
-385.499988
 20
-251.999995
 11
-385.499988
 21
-282.0
  0
LINE
  8
躯体
  6
CONTINUOUS
 62
    31
 10
-375.49994
 20
-251.999995
 11
-375.49994
 21
-282.0
  0
LINE
  8
躯体
  6
CONTINUOUS
 62
    31
 10
-360.49997
 20
-251.999995
 11
-360.49997
 21
-282.0
  0
LINE
  8
躯体
  6
CONTINUOUS
 62
    31
 10
-239.50005
 20
-251.999995
 11
-239.50005
 21
-281.99998
  0
LINE
  8
躯体
  6
CONTINUOUS
 62
    31
 10
-229.500053
 20
-251.999995
 11
-229.500053
 21
-282.0
  0
LINE
  8
躯体
  6
CONTINUOUS
 62
    31
 10
-66.49994
 20
-251.999995
 11
-66.49994
 21
-282.0
  0
LINE
  8
躯体
  6
CONTINUOUS
 62
    31
 10
23.500082
 20
-251.999995
 11
23.500082
 21
-282.0
  0
LINE
  8
躯体
  6
CONTINUOUS
 62
    31
 10
63.500072
 20
-251.999995
 11
63.500072
 21
-281.99998
  0
LINE
  8
躯体
  6
CONTINUOUS
 62
    31
 10
154.50005
 20
-251.999995
 11
154.50005
 21
-281.999988
  0
LINE
  8
躯体
  6
CONTINUOUS
 62
    31
 10
174.500043
 20
-251.999995
 11
174.500043
 21
-282.0
  0
LINE
  8
躯体
  6
CONTINUOUS
 62
    31
 10
194.500037
 20
-251.999995
 11
194.500037
 21
-281.99998
  0
LINE
  8
躯体
  6
CONTINUOUS
 62
    31
 10
214.50003
 20
-251.999995
 11
214.50003
 21
-281.99998
  0
LINE
  8
躯体
  6
CONTINUOUS
 62
    31
 10
234.500025
 20
-251.999995
 11
234.500025
 21
-281.99998
  0
LINE
  8
躯体
  6
CONTINUOUS
 62
    31
 10
254.50002
 20
-251.999995
 11
254.50002
 21
-281.999988
  0
LINE
  8
躯体
  6
CONTINUOUS
 62
    31
 10
374.500033
 20
-251.999995
 11
374.500033
 21
-282.0
  0
LINE
  8
躯体
  6
CONTINUOUS
 62
    31
 10
-385.499988
 20
-258.0
 11
-239.50005
 21
-258.0
  0
LINE
  8
躯体
  6
CONTINUOUS
 62
    31
 10
-239.50005
 20
-264.0
 11
-385.499988
 21
-264.0
  0
LINE
  8
躯体
  6
CONTINUOUS
 62
    31
 10
-385.499988
 20
-270.0
 11
-239.50005
 21
-270.0
  0
LINE
  8
躯体
  6
CONTINUOUS
 62
    31
 10
-239.50005
 20
-276.0
 11
-385.499988
 21
-276.0
  0
LINE
  8
躯体
  6
CONTINUOUS
 62
    31
 10
-229.500053
 20
-258.0
 11
-66.49994
 21
-258.0
  0
LINE
  8
躯体
  6
CONTINUOUS
 62
    31
 10
-66.49994
 20
-264.0
 11
-229.500053
 21
-264.0
  0
LINE
  8
躯体
  6
CONTINUOUS
 62
    31
 10
-229.500053
 20
-270.0
 11
-66.49994
 21
-270.0
  0
LINE
  8
躯体
  6
CONTINUOUS
 62
    31
 10
-66.49994
 20
-276.0
 11
-229.500053
 21
-276.0
  0
LINE
  8
躯体
  6
CONTINUOUS
 62
    31
 10
-66.49994
 20
-267.000005
 11
63.500072
 21
-267.000005
  0
LINE
  8
躯体
  6
CONTINUOUS
 62
    31
 10
63.500072
 20
-262.0
 11
154.50005
 21
-262.0
  0
LINE
  8
躯体
  6
CONTINUOUS
 62
    31
 10
154.50005
 20
-272.0
 11
63.500072
 21
-272.0
  0
LINE
  8
躯体
  6
CONTINUOUS
 62
    31
 10
154.50005
 20
-259.0
 11
254.50002
 21
-259.0
  0
LINE
  8
躯体
  6
CONTINUOUS
 62
    31
 10
254.50002
 20
-272.0
 11
374.500033
 21
-272.0
  0
LINE
  8
躯体
  6
CONTINUOUS
 62
    31
 10
389.770925
 20
-177.427528
 11
401.770882
 21
-177.427528
  0
LINE
  8
躯体
  6
CONTINUOUS
 62
    31
 10
389.770925
 20
-192.266918
 11
401.770882
 21
-192.266918
  0
LINE
  8
躯体
  6
CONTINUOUS
 62
    31
 10
389.770925
 20
-207.106308
 11
401.770882
 21
-207.106308
  0
LINE
  8
躯体
  6
CONTINUOUS
 62
    31
 10
389.770925
 20
-221.945695
 11
401.770882
 21
-221.945695
  0
CIRCLE
  8
躯体
  6
CONTINUOUS
 62
    31
 10
395.770905
 20
-177.427528
 40
6.0
  0
CIRCLE
  8
躯体
  6
CONTINUOUS
 62
    31
 10
395.770905
 20
-192.266918
 40
6.0
  0
CIRCLE
  8
躯体
  6
CONTINUOUS
 62
    31
 10
395.770905
 20
-207.106308
 40
6.0
  0
CIRCLE
  8
躯体
  6
CONTINUOUS
 62
    31
 10
395.770905
 20
-221.945695
 40
6.0
  0
TEXT
  7
TextStyle03
  8
躯体
  6
CONTINUOUS
 62
    31
 10
-381.25
 20
-257.125
  1
5
 40
3.0
 72
     5
 11
-379.75
 21
-257.125
  0
TEXT
  7
TextStyle03
  8
躯体
  6
CONTINUOUS
 62
    31
 10
-381.25
 20
-263.125
  1
4
 40
3.0
 72
     5
 11
-379.75
 21
-263.125
  0
TEXT
  7
TextStyle03
  8
躯体
  6
CONTINUOUS
 62
    31
 10
-381.25
 20
-269.125
  1
3
 40
3.0
 72
     5
 11
-379.75
 21
-269.125
  0
TEXT
  7
TextStyle03
  8
躯体
  6
CONTINUOUS
 62
    31
 10
-381.25
 20
-275.125
  1
2
 40
3.0
 72
     5
 11
-379.75
 21
-275.125
  0
TEXT
  7
TextStyle03
  8
躯体
  6
CONTINUOUS
 62
    31
 10
-381.25
 20
-281.125
  1
1
 40
3.0
 72
     5
 11
-379.75
 21
-281.125
  0
TEXT
  7
TextStyle03
  8
躯体
  6
CONTINUOUS
 62
    31
 10
-375.0
 20
-257.5
  1
   ,  ,  
 40
3.0
 72
     5
 11
-361.5
 21
-257.5
  0
TEXT
  7
TextStyle03
  8
躯体
  6
CONTINUOUS
 62
    31
 10
-375.0
 20
-263.5
  1
   ,  ,  
 40
3.0
 72
     5
 11
-361.5
 21
-263.5
  0
TEXT
  7
TextStyle03
  8
躯体
  6
CONTINUOUS
 62
    31
 10
-375.0
 20
-269.5
  1
   ,  ,  
 40
3.0
 72
     5
 11
-361.5
 21
-269.5
  0
TEXT
  7
TextStyle03
  8
躯体
  6
CONTINUOUS
 62
    31
 10
-375.0
 20
-275.5
  1
   ,  ,  
 40
3.0
 72
     5
 11
-361.5
 21
-275.5
  0
TEXT
  7
TextStyle03
  8
躯体
  6
CONTINUOUS
 62
    31
 10
-375.0
 20
-281.5
  1
   ,  ,  
 40
3.0
 72
     5
 11
-361.5
 21
-281.5
  0
TEXT
  7
TextStyle03
  8
躯体
  6
CONTINUOUS
 62
    31
 10
-65.45
 20
-256.45
  1
設計監理
 40
3.5
 72
     5
 11
-51.45
 21
-256.45
  0
TEXT
  7
TextStyle03
  8
躯体
  6
CONTINUOUS
 62
    31
 10
-65.45
 20
-271.625
  1
施　　工
 40
3.5
 72
     5
 11
-51.45
 21
-271.625
  0
TEXT
  7
TextStyle03
  8
躯体
  6
CONTINUOUS
 62
    31
 10
16.3
 20
-264.025
  1
殿
 40
5.0
 72
     5
 11
21.3
 21
-264.025
  0
TEXT
  7
TextStyle03
  8
躯体
  6
CONTINUOUS
 62
    31
 10
16.3
 20
-279.025
  1
殿
 40
5.0
 72
     5
 11
21.3
 21
-279.025
  0
TEXT
  7
TextStyle03
  8
躯体
  6
CONTINUOUS
 62
    31
 10
45.5
 20
-266.525
  1
月　　日
 40
4.0
 72
     5
 11
63.0
 21
-266.525
  0
TEXT
  7
TextStyle03
  8
躯体
  6
CONTINUOUS
 62
    31
 10
45.5
 20
-281.5
  1
月　　日
 40
4.0
 72
     5
 11
63.0
 21
-281.5
  0
TEXT
  7
TextStyle03
  8
躯体
  6
CONTINUOUS
 62
    31
 10
159.925
 20
-281.125
  1
　月　日
 40
3.5
 72
     5
 11
173.925
 21
-281.125
  0
TEXT
  7
TextStyle03
  8
躯体
  6
CONTINUOUS
 62
    31
 10
179.925
 20
-281.125
  1
　月　日
 40
3.5
 72
     5
 11
193.925
 21
-281.125
  0
TEXT
  7
TextStyle03
  8
躯体
  6
CONTINUOUS
 62
    31
 10
199.925
 20
-281.125
  1
　月　日
 40
3.5
 72
     5
 11
213.925
 21
-281.125
  0
TEXT
  7
TextStyle03
  8
躯体
  6
CONTINUOUS
 62
    31
 10
219.925
 20
-281.125
  1
　月　日
 40
3.5
 72
     5
 11
233.925
 21
-281.125
  0
TEXT
  7
TextStyle03
  8
躯体
  6
CONTINUOUS
 62
    31
 10
197.35
 20
-257.4
  1
照　査
 40
4.0
 72
     5
 11
210.35
 21
-257.4
  0
TEXT
  7
TextStyle03
  8
躯体
  6
CONTINUOUS
 62
    31
 10
216.6
 20
-257.2
  1
担　当
 40
4.0
 72
     5
 11
229.6
 21
-257.2
  0
TEXT
  7
TextStyle03
  8
躯体
  6
CONTINUOUS
 62
    31
 10
236.225
 20
-257.0
  1
縮　尺
 40
4.0
 72
     5
 11
249.225
 21
-257.0
  0
TEXT
  7
TextStyle03
  8
躯体
  6
CONTINUOUS
 62
    31
 10
236.625
 20
-266.225
  1
１：１
 40
4.0
 72
     5
 11
249.625
 21
-266.225
  0
TEXT
  7
TextStyle03
  8
躯体
  6
CONTINUOUS
 62
    31
 10
236.425
 20
-272.65
  1
　：　
 40
4.0
 72
     5
 11
249.425
 21
-272.65
  0
TEXT
  7
TextStyle03
  8
躯体
  6
CONTINUOUS
 62
    31
 10
236.425
 20
-279.25
  1
　：　
 40
4.0
 72
     5
 11
249.425
 21
-279.25
  0
TEXT
  7
TextStyle03
  8
躯体
  6
CONTINUOUS
 62
    31
 10
256.875
 20
-258.05
  1
工事名
 40
4.0
 72
     5
 11
269.875
 21
-258.05
  0
TEXT
  7
TextStyle03
  8
躯体
  6
CONTINUOUS
 62
    31
 10
256.6
 20
-278.025
  1
図面名
 40
4.0
 72
     5
 11
269.6
 21
-278.025
  0
TEXT
  7
TextStyle03
  8
躯体
  6
CONTINUOUS
 62
    31
 10
375.675
 20
-257.25
  1
図番
 40
4.0
 72
     5
 11
384.175
 21
-257.25
  0
TEXT
  7
TextStyle03
  8
躯体
  6
CONTINUOUS
 62
    31
 10
393.025
 20
-281.175
  1
枚の内
 40
3.5
 72
     5
 11
403.525
 21
-281.175
  0
TEXT
  7
TextStyle04
  8
躯体
  6
CONTINUOUS
 62
    31
 10
76.15
 20
-259.85
  1
特殊技研金属株式会社
 40
6.0
 72
     5
 11
145.15
 21
-259.85
  0
TEXT
  7
TATE
  8
躯体
  6
CONTINUOUS
 62
    31
 10
-234.7
 20
-254.525
  1
特　記　事　項
 40
3.5
 72
     5
 11
-234.7
 21
-279.025
  0
TEXT
  7
TATE
  8
躯体
  6
CONTINUOUS
 62
    31
 10
-390.4
 20
-259.525
  1
訂　　正
 40
3.5
 72
     5
 11
-390.4
 21
-273.525
  0
ENDBLK
  0
BLOCK
  2
*GRP_0085
 70
    65
 10
0.0
 20
0.0
  0
LINE
  8
補助線
  6
DOT
 10
-121.293195
 20
70.75295
 11
-126.293195
 21
70.75295
  0
LINE
  8
補助線
  6
DOT
 10
-123.793195
 20
73.25295
 11
-123.793195
 21
68.25295
  0
ENDBLK
  0
BLOCK
  2
*GRP_0086
 70
    65
 10
0.0
 20
0.0
  0
LINE
  8
補助線
  6
CONTINUOUS
 10
-172.943198
 20
77.60295
 11
-177.943198
 21
77.60295
  0
LINE
  8
補助線
  6
CONTINUOUS
 10
-175.443198
 20
80.10295
 11
-175.443198
 21
75.10295
  0
ENDBLK
  0
BLOCK
  2
*GRP_0087
 70
    65
 10
0.0
 20
0.0
  0
LINE
  8
補助線
  6
CONTINUOUS
 10
57.056803
 20
77.60295
 11
52.056803
 21
77.60295
  0
LINE
  8
補助線
  6
CONTINUOUS
 10
54.556803
 20
80.10295
 11
54.556803
 21
75.10295
  0
ENDBLK
  0
BLOCK
  2
*GRP_0088
 70
    65
 10
0.0
 20
0.0
  0
LINE
  8
補助線
  6
CONTINUOUS
 10
-172.943198
 20
82.60295
 11
-177.943198
 21
82.60295
  0
LINE
  8
補助線
  6
CONTINUOUS
 10
-175.443198
 20
85.10295
 11
-175.443198
 21
80.10295
  0
ENDBLK
  0
BLOCK
  2
*GRP_0089
 70
    65
 10
0.0
 20
0.0
  0
LINE
  8
補助線
  6
CONTINUOUS
 10
-172.943198
 20
7.60295
 11
-177.943198
 21
7.60295
  0
LINE
  8
補助線
  6
CONTINUOUS
 10
-175.443198
 20
10.10295
 11
-175.443198
 21
5.10295
  0
ENDBLK
  0
BLOCK
  2
*GRP_0090
 70
    65
 10
0.0
 20
0.0
  0
LINE
  8
補助線
  6
CONTINUOUS
 10
57.056803
 20
7.60295
 11
52.056803
 21
7.60295
  0
LINE
  8
補助線
  6
CONTINUOUS
 10
54.556803
 20
10.10295
 11
54.556803
 21
5.10295
  0
ENDBLK
  0
BLOCK
  2
*GRP_0091
 70
    65
 10
0.0
 20
0.0
  0
LINE
  8
補助線
  6
CONTINUOUS
 62
    32
 10
-329.528905
 20
77.55295
 11
-334.528905
 21
77.55295
  0
LINE
  8
補助線
  6
CONTINUOUS
 62
    32
 10
-332.028905
 20
80.05295
 11
-332.028905
 21
75.05295
  0
ENDBLK
  0
BLOCK
  2
*GRP_0092
 70
    65
 10
0.0
 20
0.0
  0
LINE
  8
補助線
  6
DASHDOT
 62
    32
 10
-177.9432
 20
42.60295
 11
-180.4432
 21
42.60295
  0
LINE
  8
補助線
  6
DASHDOT
 62
    32
 10
-179.1932
 20
43.85295
 11
-179.1932
 21
41.35295
  0
ENDBLK
  0
BLOCK
  2
*GRP_0093
 70
    65
 10
0.0
 20
0.0
  0
LINE
  8
補助線
  6
CONTINUOUS
 62
    32
 10
-177.9432
 20
42.60295
 11
-180.4432
 21
42.60295
  0
LINE
  8
補助線
  6
CONTINUOUS
 62
    32
 10
-179.1932
 20
43.85295
 11
-179.1932
 21
41.35295
  0
ENDBLK
  0
BLOCK
  2
*GRP_0094
 70
    65
 10
0.0
 20
0.0
  0
LINE
  8
補助線
  6
BYBLOCK
 62
    32
 10
61.649657
 20
42.60295
 11
54.963942
 21
42.60295
  0
LINE
  8
補助線
  6
BYBLOCK
 62
    32
 10
58.3068
 20
45.945808
 11
58.3068
 21
39.260093
  0
ENDBLK
  0
BLOCK
  2
*GRP_0095
 70
    65
 10
0.0
 20
0.0
  0
LINE
  8
補助線
  6
BYBLOCK
 62
    32
 10
-175.850342
 20
42.60295
 11
-182.536057
 21
42.60295
  0
LINE
  8
補助線
  6
BYBLOCK
 62
    32
 10
-179.1932
 20
45.945808
 11
-179.1932
 21
39.260093
  0
ENDBLK
  0
BLOCK
  2
*GRP_0096
 70
    65
 10
0.0
 20
0.0
  0
LINE
  8
補助線
  6
CONTINUOUS
 62
    32
 10
213.642505
 20
7.65295
 11
208.642505
 21
7.65295
  0
LINE
  8
補助線
  6
CONTINUOUS
 62
    32
 10
211.142505
 20
10.15295
 11
211.142505
 21
5.15295
  0
ENDBLK
  0
BLOCK
  2
*GRP_0097
 70
    65
 10
0.0
 20
0.0
  0
POLYLINE
  8
寸法
  6
CONTINUOUS
 66
     1
  0
VERTEX
  8
寸法
 10
-67.602088
 20
208.702485
  0
VERTEX
  8
寸法
 10
-60.811272
 20
201.91167
  0
VERTEX
  8
寸法
 10
-47.95923
 20
201.91167
  0
SEQEND
  0
ENDBLK
  0
BLOCK
  2
*GRP_0098
 70
    65
 10
0.0
 20
0.0
  0
POLYLINE
  8
寸法
  6
CONTINUOUS
 66
     1
  0
VERTEX
  8
寸法
 10
-121.20549
 20
68.644663
  0
VERTEX
  8
寸法
 10
-108.36076
 20
55.799935
  0
VERTEX
  8
寸法
 10
-102.61025
 20
55.799935
  0
SEQEND
  0
ENDBLK
  0
BLOCK
  2
*DIM_0099
 70
    65
 10
0.0
 20
0.0
  0
LINE
  8
寸法
  6
CONTINUOUS
 10
-189.1932
 20
103.72795
 11
-189.1932
 21
127.03256
  0
LINE
  8
寸法
  6
CONTINUOUS
 10
68.3068
 20
103.72795
 11
68.3068
 21
127.03256
  0
LINE
  8
寸法
  6
CONTINUOUS
 10
-189.1932
 20
127.03256
 11
68.3068
 21
127.03256
  0
POINT
  8
寸法
 10
-189.1932
 20
127.03256
  0
POINT
  8
寸法
 10
68.3068
 20
127.03256
  0
TEXT
  7
TextStyle03
  8
寸法
  6
CONTINUOUS
 10
-65.3125
 20
127.375
  1
515
 40
6.0
 72
     5
 11
-55.5875
 21
127.375
  0
ENDBLK
  0
BLOCK
  2
*DIM_0100
 70
    65
 10
0.0
 20
0.0
  0
LINE
  8
寸法
  6
CONTINUOUS
 10
-189.1932
 20
108.72795
 11
-189.1932
 21
119.264452
  0
LINE
  8
寸法
  6
CONTINUOUS
 10
-175.443198
 20
87.55295
 11
-175.443198
 21
119.264452
  0
LINE
  8
寸法
  6
CONTINUOUS
 10
-189.1932
 20
119.264452
 11
-175.443198
 21
119.264452
  0
POINT
  8
寸法
 10
-189.1932
 20
119.264452
  0
POINT
  8
寸法
 10
-175.443198
 20
119.264452
  0
TEXT
  7
TextStyle03
  8
寸法
  6
CONTINUOUS
 10
-188.86875
 20
119.6
  1
27.5
 40
6.0
 72
     5
 11
-175.78125
 21
119.6
  0
ENDBLK
  0
BLOCK
  2
*DIM_0101
 70
    65
 10
0.0
 20
0.0
  0
LINE
  8
寸法
  6
CONTINUOUS
 10
68.3068
 20
108.72795
 11
68.3068
 21
119.264452
  0
LINE
  8
寸法
  6
CONTINUOUS
 10
54.556803
 20
119.264452
 11
68.3068
 21
119.264452
  0
POINT
  8
寸法
 10
68.3068
 20
119.264452
  0
TEXT
  7
TextStyle03
  8
寸法
  6
CONTINUOUS
 10
54.88125
 20
119.6
  1
27.5
 40
6.0
 72
     5
 11
67.96875
 21
119.6
  0
ENDBLK
  0
BLOCK
  2
*DIM_0102
 70
    65
 10
0.0
 20
0.0
  0
LINE
  8
寸法
  6
CONTINUOUS
 10
-189.1932
 20
240.458648
 11
-189.1932
 21
272.556567
  0
LINE
  8
寸法
  6
CONTINUOUS
 10
68.3068
 20
240.458648
 11
68.3068
 21
272.556567
  0
LINE
  8
寸法
  6
CONTINUOUS
 10
-189.1932
 20
272.556567
 11
68.3068
 21
272.556567
  0
POINT
  8
寸法
 10
-189.1932
 20
272.556567
  0
POINT
  8
寸法
 10
68.3068
 20
272.556567
  0
TEXT
  7
TextStyle03
  8
寸法
  6
CONTINUOUS
 10
-65.3125
 20
272.9
  1
515
 40
6.0
 72
     5
 11
-55.5875
 21
272.9
  0
ENDBLK
  0
BLOCK
  2
*DIM_0103
 70
    65
 10
0.0
 20
0.0
  0
LINE
  8
寸法
  6
CONTINUOUS
 10
-187.943198
 20
164.458645
 11
-187.943198
 21
140.557078
  0
LINE
  8
寸法
  6
CONTINUOUS
 10
-169.1932
 20
171.15865
 11
-169.1932
 21
140.557078
  0
LINE
  8
寸法
  6
CONTINUOUS
 10
-187.943198
 20
140.557078
 11
-169.1932
 21
140.557078
  0
POINT
  8
寸法
 10
-187.943198
 20
140.557078
  0
POINT
  8
寸法
 10
-169.1932
 20
140.557078
  0
TEXT
  7
TextStyle03
  8
寸法
  6
CONTINUOUS
 10
-185.11875
 20
140.9
  1
37.5
 40
6.0
 72
     5
 11
-172.03125
 21
140.9
  0
ENDBLK
  0
BLOCK
  2
*DIM_0104
 70
    65
 10
0.0
 20
0.0
  0
LINE
  8
寸法
  6
CONTINUOUS
 10
-57.9432
 20
171.15865
 11
-57.9432
 21
140.557078
  0
LINE
  8
寸法
  6
CONTINUOUS
 10
-169.1932
 20
140.557078
 11
-57.9432
 21
140.557078
  0
POINT
  8
寸法
 10
-57.9432
 20
140.557078
  0
TEXT
  7
TextStyle03
  8
寸法
  6
CONTINUOUS
 10
-121.8
 20
140.9
  1
222.5
 40
6.0
 72
     5
 11
-105.35
 21
140.9
  0
ENDBLK
  0
BLOCK
  2
*DIM_0105
 70
    65
 10
0.0
 20
0.0
  0
LINE
  8
寸法
  6
CONTINUOUS
 10
67.056803
 20
164.458645
 11
67.056803
 21
140.557078
  0
LINE
  8
寸法
  6
CONTINUOUS
 10
-57.9432
 20
140.557078
 11
67.056803
 21
140.557078
  0
POINT
  8
寸法
 10
67.056803
 20
140.557078
  0
TEXT
  7
TextStyle03
  8
寸法
  6
CONTINUOUS
 10
-0.3125
 20
140.9
  1
250
 40
6.0
 72
     5
 11
9.4125
 21
140.9
  0
ENDBLK
  0
BLOCK
  2
*DIM_0106
 70
    65
 10
0.0
 20
0.0
  0
LINE
  8
寸法
  6
CONTINUOUS
 10
-192.98508
 20
236.25865
 11
-224.478107
 21
236.25865
  0
LINE
  8
寸法
  6
CONTINUOUS
 10
-192.143198
 20
168.658645
 11
-224.478107
 21
168.658645
  0
LINE
  8
寸法
  6
CONTINUOUS
 10
-224.478107
 20
236.25865
 11
-224.478107
 21
168.658645
  0
POINT
  8
寸法
 10
-224.478107
 20
236.25865
  0
POINT
  8
寸法
 10
-224.478107
 20
168.658645
  0
TEXT
  7
TextStyle03
  8
寸法
  6
CONTINUOUS
 10
-224.85
 20
194.2
  1
135.2
 40
6.0
 50
90.0
 72
     5
 11
-224.85
 21
210.65
  0
ENDBLK
  0
BLOCK
  2
*DIM_0107
 70
    65
 10
0.0
 20
0.0
  0
LINE
  8
寸法
  6
CONTINUOUS
 10
-194.1932
 20
223.75865
 11
-217.604127
 21
223.75865
  0
LINE
  8
寸法
  6
CONTINUOUS
 10
-217.604127
 20
236.25865
 11
-217.604127
 21
223.75865
  0
POINT
  8
寸法
 10
-217.604127
 20
236.25865
  0
POINT
  8
寸法
 10
-217.604127
 20
223.75865
  0
TEXT
  7
TextStyle03
  8
寸法
  6
CONTINUOUS
 10
-217.975
 20
226.79375
  1
25
 40
6.0
 50
90.0
 72
     5
 11
-217.975
 21
233.15625
  0
ENDBLK
  0
BLOCK
  2
*DIM_0108
 70
    65
 10
0.0
 20
0.0
  0
LINE
  8
寸法
  6
CONTINUOUS
 10
-217.604127
 20
223.75865
 11
-217.604127
 21
168.658645
  0
POINT
  8
寸法
 10
-217.604127
 20
223.75865
  0
POINT
  8
寸法
 10
-217.604127
 20
168.658645
  0
TEXT
  7
TextStyle03
  8
寸法
  6
CONTINUOUS
 10
-217.975
 20
187.95
  1
110.2
 40
6.0
 50
90.0
 72
     5
 11
-217.975
 21
204.4
  0
ENDBLK
  0
BLOCK
  2
*DIM_0109
 70
    65
 10
0.0
 20
0.0
  0
LINE
  8
寸法
  6
CONTINUOUS
 10
-54.9098
 20
171.15865
 11
-25.064095
 21
171.15865
  0
LINE
  8
寸法
  6
CONTINUOUS
 10
-25.064095
 20
168.65865
 11
-25.064095
 21
171.15865
  0
POINT
  8
寸法
 10
-25.064095
 20
168.65865
  0
POINT
  8
寸法
 10
-25.064095
 20
171.15865
  0
TEXT
  7
TextStyle03
  8
寸法
  6
CONTINUOUS
 10
-25.45
 20
168.375
  1
5
 40
6.0
 50
90.0
 72
     5
 11
-25.45
 21
171.375
  0
ENDBLK
  0
BLOCK
  2
*DIM_0110
 70
    65
 10
0.0
 20
0.0
  0
LINE
  8
寸法
  6
CONTINUOUS
 10
71.256803
 20
168.658645
 11
101.661967
 21
168.658645
  0
LINE
  8
寸法
  6
CONTINUOUS
 10
76.573642
 20
182.45865
 11
101.661967
 21
182.45865
  0
LINE
  8
寸法
  6
CONTINUOUS
 10
101.661967
 20
168.658645
 11
101.661967
 21
182.45865
  0
POINT
  8
寸法
 10
101.661967
 20
168.658645
  0
POINT
  8
寸法
 10
101.661967
 20
182.45865
  0
TEXT
  7
TextStyle03
  8
寸法
  6
CONTINUOUS
 10
101.275
 20
168.98125
  1
27.6
 40
6.0
 50
90.0
 72
     5
 11
101.275
 21
182.06875
  0
ENDBLK
  0
BLOCK
  2
*DIM_0111
 70
    65
 10
0.0
 20
0.0
  0
LINE
  8
寸法
  6
CONTINUOUS
 10
72.5068
 20
236.258648
 11
101.661967
 21
236.258648
  0
LINE
  8
寸法
  6
CONTINUOUS
 10
101.661967
 20
182.45865
 11
101.661967
 21
236.258648
  0
POINT
  8
寸法
 10
101.661967
 20
182.45865
  0
POINT
  8
寸法
 10
101.661967
 20
236.258648
  0
TEXT
  7
TextStyle03
  8
寸法
  6
CONTINUOUS
 10
101.275
 20
201.1
  1
107.6
 40
6.0
 50
90.0
 72
     5
 11
101.275
 21
217.55
  0
ENDBLK
  0
BLOCK
  2
*DIM_0112
 70
    65
 10
0.0
 20
0.0
  0
LINE
  8
寸法
  6
CONTINUOUS
 10
157.342507
 20
102.927947
 11
157.342507
 21
127.03256
  0
LINE
  8
寸法
  6
CONTINUOUS
 10
224.942507
 20
101.802947
 11
224.942507
 21
127.03256
  0
LINE
  8
寸法
  6
CONTINUOUS
 10
157.342507
 20
127.03256
 11
224.942507
 21
127.03256
  0
POINT
  8
寸法
 10
157.342507
 20
127.03256
  0
POINT
  8
寸法
 10
224.942507
 20
127.03256
  0
TEXT
  7
TextStyle03
  8
寸法
  6
CONTINUOUS
 10
182.925
 20
127.375
  1
135.2
 40
6.0
 72
     5
 11
199.375
 21
127.375
  0
ENDBLK
  0
BLOCK
  2
*DIM_0113
 70
    65
 10
0.0
 20
0.0
  0
LINE
  8
寸法
  6
CONTINUOUS
 10
-345.828907
 20
101.802952
 11
-345.828907
 21
127.03256
  0
LINE
  8
寸法
  6
CONTINUOUS
 10
-332.028905
 20
90.05295
 11
-332.028905
 21
127.03256
  0
LINE
  8
寸法
  6
CONTINUOUS
 10
-345.828907
 20
127.03256
 11
-332.028905
 21
127.03256
  0
POINT
  8
寸法
 10
-345.828907
 20
127.03256
  0
POINT
  8
寸法
 10
-332.028905
 20
127.03256
  0
TEXT
  7
TextStyle03
  8
寸法
  6
CONTINUOUS
 10
-345.46875
 20
127.375
  1
27.6
 40
6.0
 72
     5
 11
-332.38125
 21
127.375
  0
ENDBLK
  0
BLOCK
  2
*DIM_0114
 70
    65
 10
0.0
 20
0.0
  0
LINE
  8
寸法
  6
CONTINUOUS
 10
-189.1932
 20
-130.35275
 11
-189.1932
 21
-162.93731
  0
LINE
  8
寸法
  6
CONTINUOUS
 10
68.3068
 20
-130.35275
 11
68.3068
 21
-162.93731
  0
LINE
  8
寸法
  6
CONTINUOUS
 10
-189.1932
 20
-162.93731
 11
68.3068
 21
-162.93731
  0
POINT
  8
寸法
 10
-189.1932
 20
-162.93731
  0
POINT
  8
寸法
 10
68.3068
 20
-162.93731
  0
TEXT
  7
TextStyle03
  8
寸法
  6
CONTINUOUS
 10
-65.3125
 20
-162.6
  1
515
 40
6.0
 72
     5
 11
-55.5875
 21
-162.6
  0
ENDBLK
  0
BLOCK
  2
*DIM_0115
 70
    65
 10
0.0
 20
0.0
  0
LINE
  8
寸法
  6
CONTINUOUS
 10
71.256803
 20
-58.552747
 11
101.661967
 21
-58.552747
  0
LINE
  8
寸法
  6
CONTINUOUS
 10
72.5068
 20
-126.15275
 11
101.661967
 21
-126.15275
  0
LINE
  8
寸法
  6
CONTINUOUS
 10
101.661967
 20
-58.552747
 11
101.661967
 21
-126.15275
  0
POINT
  8
寸法
 10
101.661967
 20
-58.552747
  0
POINT
  8
寸法
 10
101.661967
 20
-126.15275
  0
TEXT
  7
TextStyle03
  8
寸法
  6
CONTINUOUS
 10
101.275
 20
-100.6
  1
135.2
 40
6.0
 50
90.0
 72
     5
 11
101.275
 21
-84.15
  0
ENDBLK
  0
BLOCK
  2
*DIM_0116
 70
    65
 10
0.0
 20
0.0
  0
LINE
  8
寸法
  6
CONTINUOUS
 10
-189.1932
 20
108.72795
 11
-189.1932
 21
111.254525
  0
LINE
  8
寸法
  6
CONTINUOUS
 10
-123.793192
 20
77.77795
 11
-123.793192
 21
111.254525
  0
LINE
  8
寸法
  6
CONTINUOUS
 10
-189.1932
 20
111.254525
 11
-123.793192
 21
111.254525
  0
POINT
  8
寸法
 10
-189.1932
 20
111.254525
  0
POINT
  8
寸法
 10
-123.793192
 20
111.254525
  0
TEXT
  7
TextStyle03
  8
寸法
  6
CONTINUOUS
 10
-164.725
 20
111.6
  1
130.8
 40
6.0
 72
     5
 11
-148.275
 21
111.6
  0
ENDBLK
  0
BLOCK
  2
*DIM_0117
 70
    65
 10
0.0
 20
0.0
  0
LINE
  8
寸法
  6
CONTINUOUS
 10
-116.454925
 20
70.75295
 11
-108.812803
 21
70.75295
  0
LINE
  8
寸法
  6
CONTINUOUS
 10
-108.812803
 20
98.72795
 11
-108.812803
 21
70.75295
  0
POINT
  8
寸法
 10
-108.812803
 20
98.72795
  0
POINT
  8
寸法
 10
-108.812803
 20
70.75295
  0
TEXT
  7
TextStyle03
  8
寸法
  6
CONTINUOUS
 10
-109.2
 20
81.51875
  1
56
 40
6.0
 50
90.0
 72
     5
 11
-109.2
 21
87.88125
  0
ENDBLK
  0
BLOCK
  2
*DIM_0118
 70
    65
 10
0.0
 20
0.0
  0
LINE
  8
寸法
  6
CONTINUOUS
 10
54.556803
 20
87.55295
 11
54.556803
 21
119.264452
  0
LINE
  8
寸法
  6
CONTINUOUS
 10
-175.443198
 20
119.264452
 11
54.556803
 21
119.264452
  0
POINT
  8
寸法
 10
54.556803
 20
119.264452
  0
TEXT
  7
TextStyle03
  8
寸法
  6
CONTINUOUS
 10
-109.025
 20
119.6
  1
ボックス取付け用穴ピッチ＝460
 40
6.0
 72
     5
 11
-11.875
 21
119.6
  0
ENDBLK
  0
BLOCK
  2
*DIM_0119
 70
    65
 10
0.0
 20
0.0
  0
LINE
  8
寸法
  6
CONTINUOUS
 10
-349.397427
 20
97.60295
 11
-372.69713
 21
97.60295
  0
LINE
  8
寸法
  6
CONTINUOUS
 10
-339.528905
 20
77.55295
 11
-372.69713
 21
77.55295
  0
LINE
  8
寸法
  6
CONTINUOUS
 10
-372.69713
 20
97.60295
 11
-372.69713
 21
77.55295
  0
POINT
  8
寸法
 10
-372.69713
 20
97.60295
  0
POINT
  8
寸法
 10
-372.69713
 20
77.55295
  0
TEXT
  7
TextStyle03
  8
寸法
  6
CONTINUOUS
 10
-373.075
 20
81.00625
  1
40.1
 40
6.0
 50
90.0
 72
     5
 11
-373.075
 21
94.09375
  0
ENDBLK
  0
BLOCK
  2
*DIM_0120
 70
    65
 10
0.0
 20
0.0
  0
LINE
  8
寸法
  6
CONTINUOUS
 10
73.3068
 20
98.72795
 11
102.185923
 21
98.72795
  0
LINE
  8
寸法
  6
CONTINUOUS
 10
73.3068
 20
-13.52205
 11
102.185923
 21
-13.52205
  0
LINE
  8
寸法
  6
CONTINUOUS
 10
102.185923
 20
98.72795
 11
102.185923
 21
-13.52205
  0
POINT
  8
寸法
 10
102.185923
 20
98.72795
  0
POINT
  8
寸法
 10
102.185923
 20
-13.52205
  0
TEXT
  7
TextStyle03
  8
寸法
  6
CONTINUOUS
 10
101.8
 20
34.35
  1
224.5
 40
6.0
 50
90.0
 72
     5
 11
101.8
 21
50.8
  0
ENDBLK
  0
BLOCK
  2
*DIM_0121
 70
    65
 10
0.0
 20
0.0
  0
LINE
  8
寸法
  6
CONTINUOUS
 10
-274.028905
 20
98.72795
 11
-258.342575
 21
98.72795
  0
LINE
  8
寸法
  6
CONTINUOUS
 10
-274.028905
 20
-13.52205
 11
-258.342575
 21
-13.52205
  0
LINE
  8
寸法
  6
CONTINUOUS
 10
-258.342575
 20
98.72795
 11
-258.342575
 21
-13.52205
  0
POINT
  8
寸法
 10
-258.342575
 20
98.72795
  0
POINT
  8
寸法
 10
-258.342575
 20
-13.52205
  0
TEXT
  7
TextStyle03
  8
寸法
  6
CONTINUOUS
 10
-258.725
 20
34.35
  1
224.5
 40
6.0
 50
90.0
 72
     5
 11
-258.725
 21
50.8
  0
ENDBLK
  0
BLOCK
  2
*DIM_0122
 70
    65
 10
0.0
 20
0.0
  0
LINE
  8
寸法
  6
CONTINUOUS
 10
-278.228907
 20
-18.643655
 11
-278.228907
 21
-42.748268
  0
LINE
  8
寸法
  6
CONTINUOUS
 10
-345.828907
 20
-17.518655
 11
-345.828907
 21
-42.748268
  0
LINE
  8
寸法
  6
CONTINUOUS
 10
-278.228907
 20
-42.748268
 11
-345.828907
 21
-42.748268
  0
POINT
  8
寸法
 10
-278.228907
 20
-42.748268
  0
POINT
  8
寸法
 10
-345.828907
 20
-42.748268
  0
TEXT
  7
TextStyle03
  8
寸法
  6
CONTINUOUS
 10
-320.275
 20
-42.4
  1
135.2
 40
6.0
 72
     5
 11
-303.825
 21
-42.4
  0
ENDBLK
  0
BLOCK
  2
*DIM_0123
 70
    65
 10
0.0
 20
0.0
  0
LINE
  8
寸法
  6
CONTINUOUS
 10
153.142505
 20
98.72795
 11
138.960572
 21
98.72795
  0
LINE
  8
寸法
  6
CONTINUOUS
 10
153.142505
 20
-13.52205
 11
138.960572
 21
-13.52205
  0
LINE
  8
寸法
  6
CONTINUOUS
 10
138.960572
 20
98.72795
 11
138.960572
 21
-13.52205
  0
POINT
  8
寸法
 10
138.960572
 20
98.72795
  0
POINT
  8
寸法
 10
138.960572
 20
-13.52205
  0
TEXT
  7
TextStyle03
  8
寸法
  6
CONTINUOUS
 10
138.575
 20
34.35
  1
224.5
 40
6.0
 50
90.0
 72
     5
 11
138.575
 21
50.8
  0
ENDBLK
  0
BLOCK
  2
*GRP_0124
 70
    65
 10
0.0
 20
0.0
  0
POLYLINE
  8
寸法
  6
CONTINUOUS
 66
     1
  0
VERTEX
  8
寸法
 10
-179.1932
 20
42.60295
  0
VERTEX
  8
寸法
 10
-166.910632
 20
54.885518
  0
VERTEX
  8
寸法
 10
-162.820455
 20
54.885518
  0
SEQEND
  0
ENDBLK
  0
BLOCK
  2
*DIM_0125
 70
    65
 10
0.0
 20
0.0
  0
LINE
  8
寸法
  6
CONTINUOUS
 10
229.942505
 20
7.65295
 11
248.755605
 21
7.65295
  0
LINE
  8
寸法
  6
CONTINUOUS
 10
229.142507
 20
-12.397052
 11
248.755605
 21
-12.397052
  0
LINE
  8
寸法
  6
CONTINUOUS
 10
248.755605
 20
7.65295
 11
248.755605
 21
-12.397052
  0
POINT
  8
寸法
 10
248.755605
 20
7.65295
  0
POINT
  8
寸法
 10
248.755605
 20
-12.397052
  0
TEXT
  7
TextStyle03
  8
寸法
  6
CONTINUOUS
 10
248.375
 20
-8.94375
  1
40.1
 40
6.0
 50
90.0
 72
     5
 11
248.375
 21
4.14375
  0
ENDBLK
  0
BLOCK
  2
*DIM_0126
 70
    65
 10
0.0
 20
0.0
  0
LINE
  8
寸法
  6
CONTINUOUS
 10
224.942507
 20
-16.563562
 11
224.942507
 21
-41.79317
  0
LINE
  8
寸法
  6
CONTINUOUS
 10
211.142505
 20
-2.59705
 11
211.142505
 21
-41.79317
  0
LINE
  8
寸法
  6
CONTINUOUS
 10
224.942507
 20
-41.79317
 11
211.142505
 21
-41.79317
  0
POINT
  8
寸法
 10
224.942507
 20
-41.79317
  0
POINT
  8
寸法
 10
211.142505
 20
-41.79317
  0
TEXT
  7
TextStyle03
  8
寸法
  6
CONTINUOUS
 10
211.48125
 20
-41.45
  1
27.6
 40
6.0
 72
     5
 11
224.56875
 21
-41.45
  0
ENDBLK
  0
BLOCK
  2
*GRP_0127
 70
    65
 10
0.0
 20
0.0
  0
POLYLINE
  8
寸法
  6
CONTINUOUS
 66
     1
  0
VERTEX
  8
寸法
 10
-174.510337
 20
6.592802
  0
VERTEX
  8
寸法
 10
-167.601317
 20
-0.316218
  0
VERTEX
  8
寸法
 10
-162.773812
 20
-0.316218
  0
SEQEND
  0
ENDBLK
  0
BLOCK
  2
*DIM_0128
 70
    65
 10
0.0
 20
0.0
  0
LINE
  8
寸法
  6
CONTINUOUS
 10
68.3068
 20
98.72795
 11
93.36533
 21
98.72795
  0
LINE
  8
寸法
  6
CONTINUOUS
 10
57.056803
 20
77.60295
 11
93.36533
 21
77.60295
  0
LINE
  8
寸法
  6
CONTINUOUS
 10
93.36533
 20
98.72795
 11
93.36533
 21
77.60295
  0
POINT
  8
寸法
 10
93.36533
 20
98.72795
  0
POINT
  8
寸法
 10
93.36533
 20
77.60295
  0
TEXT
  7
TextStyle03
  8
寸法
  6
CONTINUOUS
 10
92.975
 20
79.9
  1
42.25
 40
6.0
 50
90.0
 72
     5
 11
92.975
 21
96.35
  0
ENDBLK
  0
BLOCK
  2
*DIM_0129
 70
    65
 10
0.0
 20
0.0
  0
LINE
  8
寸法
  6
CONTINUOUS
 10
57.056803
 20
7.60295
 11
93.36533
 21
7.60295
  0
LINE
  8
寸法
  6
CONTINUOUS
 10
93.36533
 20
77.60295
 11
93.36533
 21
7.60295
  0
POINT
  8
寸法
 10
93.36533
 20
7.60295
  0
TEXT
  7
TextStyle03
  8
寸法
  6
CONTINUOUS
 10
92.975
 20
37.7125
  1
140
 40
6.0
 50
90.0
 72
     5
 11
92.975
 21
47.4375
  0
ENDBLK
  0
BLOCK
  2
*DIM_0130
 70
    65
 10
0.0
 20
0.0
  0
LINE
  8
寸法
  6
CONTINUOUS
 10
68.3068
 20
-13.52205
 11
93.36533
 21
-13.52205
  0
LINE
  8
寸法
  6
CONTINUOUS
 10
93.36533
 20
7.60295
 11
93.36533
 21
-13.52205
  0
POINT
  8
寸法
 10
93.36533
 20
-13.52205
  0
TEXT
  7
TextStyle03
  8
寸法
  6
CONTINUOUS
 10
92.975
 20
-11.225
  1
42.25
 40
6.0
 50
90.0
 72
     5
 11
92.975
 21
5.225
  0
ENDBLK
  0
ENDSEC
  0
SECTION
  2
ENTITIES
  0
POLYLINE
  8
通り芯
  6
CONTINUOUS
 66
     1
 70
     1
  0
VERTEX
  8
通り芯
 10
-420.5
 20
-297.0
  0
VERTEX
  8
通り芯
 10
420.5
 20
-297.0
  0
VERTEX
  8
通り芯
 10
420.5
 20
297.0
  0
VERTEX
  8
通り芯
 10
-420.5
 20
297.0
  0
SEQEND
  0
INSERT
  2
*GRP_0085
  8
補助線
  6
DOT
 10
0.0
 20
0.0
  0
INSERT
  2
*GRP_0086
  8
補助線
  6
CONTINUOUS
 10
0.0
 20
0.0
  0
INSERT
  2
*GRP_0087
  8
補助線
  6
CONTINUOUS
 10
0.0
 20
0.0
  0
INSERT
  2
*GRP_0088
  8
補助線
  6
CONTINUOUS
 10
0.0
 20
0.0
  0
INSERT
  2
*GRP_0089
  8
補助線
  6
CONTINUOUS
 10
0.0
 20
0.0
  0
INSERT
  2
*GRP_0090
  8
補助線
  6
CONTINUOUS
 10
0.0
 20
0.0
  0
POINT
  8
型材
 62
    32
 10
381.363945
 20
247.609707
  0
POINT
  8
型材
 62
    32
 10
275.763945
 20
247.609707
  0
LINE
  8
型材
  6
CONTINUOUS
 62
    32
 10
320.763945
 20
239.809707
 11
320.763945
 21
259.009707
  0
LINE
  8
型材
  6
CONTINUOUS
 62
    32
 10
267.963945
 20
239.809707
 11
267.963945
 21
259.009707
  0
LINE
  8
型材
  6
CONTINUOUS
 62
    32
 10
270.363945
 20
239.809707
 11
270.363945
 21
259.009707
  0
LINE
  8
型材
  6
CONTINUOUS
 62
    32
 10
386.763945
 20
259.009707
 11
257.163945
 21
259.009707
  0
LINE
  8
型材
  6
CONTINUOUS
 62
    32
 10
373.563945
 20
239.809707
 11
373.563945
 21
259.009707
  0
LINE
  8
型材
  6
CONTINUOUS
 62
    32
 10
323.163945
 20
239.809707
 11
323.163945
 21
259.009707
  0
LINE
  8
型材
  6
CONTINUOUS
 62
    32
 10
294.363945
 20
239.809707
 11
294.363945
 21
259.009707
  0
LINE
  8
型材
  6
CONTINUOUS
 62
    32
 10
296.763945
 20
239.809707
 11
296.763945
 21
259.009707
  0
LINE
  8
型材
  6
CONTINUOUS
 62
    32
 10
333.963945
 20
239.809707
 11
333.963945
 21
259.009707
  0
LINE
  8
型材
  6
CONTINUOUS
 62
    32
 10
336.363945
 20
239.809707
 11
336.363945
 21
259.009707
  0
LINE
  8
型材
  6
CONTINUOUS
 62
    32
 10
375.963945
 20
239.809707
 11
375.963945
 21
259.009707
  0
LINE
  8
型材
  6
CONTINUOUS
 62
    32
 10
347.163945
 20
239.809707
 11
347.163945
 21
259.009707
  0
LINE
  8
型材
  6
CONTINUOUS
 62
    32
 10
349.563945
 20
239.809707
 11
349.563945
 21
259.009707
  0
LINE
  8
型材
  6
CONTINUOUS
 62
    32
 10
362.763945
 20
239.809707
 11
362.763945
 21
259.009707
  0
LINE
  8
型材
  6
CONTINUOUS
 62
    32
 10
360.363945
 20
239.809707
 11
360.363945
 21
259.009707
  0
LINE
  8
型材
  6
CONTINUOUS
 62
    32
 10
386.763945
 20
259.009707
 11
386.763945
 21
239.809707
  0
LINE
  8
型材
  6
DASHDOTX2
 62
    32
 10
381.363945
 20
253.609707
 11
381.363945
 21
241.609707
  0
LINE
  8
型材
  6
DASHDOTX2
 62
    32
 10
368.163945
 20
253.609707
 11
368.163945
 21
241.609707
  0
LINE
  8
型材
  6
DASHDOTX2
 62
    32
 10
354.963945
 20
253.609707
 11
354.963945
 21
241.609707
  0
LINE
  8
型材
  6
DASHDOTX2
 62
    32
 10
341.763945
 20
253.609707
 11
341.763945
 21
241.609707
  0
LINE
  8
型材
  6
DASHDOTX2
 62
    32
 10
328.563945
 20
253.609707
 11
328.563945
 21
241.609707
  0
LINE
  8
型材
  6
CONTINUOUS
 62
    32
 10
309.963945
 20
239.809707
 11
309.963945
 21
259.009707
  0
LINE
  8
型材
  6
CONTINUOUS
 62
    32
 10
307.563945
 20
239.809707
 11
307.563945
 21
259.009707
  0
LINE
  8
型材
  6
CONTINUOUS
 62
    32
 10
257.163945
 20
259.009707
 11
257.163945
 21
239.809707
  0
LINE
  8
型材
  6
DASHDOTX2
 62
    32
 10
315.363945
 20
253.609707
 11
315.363945
 21
241.609707
  0
LINE
  8
型材
  6
DASHDOTX2
 62
    32
 10
302.163945
 20
253.609707
 11
302.163945
 21
241.609707
  0
LINE
  8
型材
  6
DASHDOTX2
 62
    32
 10
288.963945
 20
253.609707
 11
288.963945
 21
241.609707
  0
LINE
  8
型材
  6
CONTINUOUS
 62
    32
 10
382.561132
 20
247.30979
 11
383.463938
 21
247.30979
  0
LINE
  8
型材
  6
CONTINUOUS
 62
    32
 10
381.663862
 20
245.50972
 11
381.663862
 21
246.412525
  0
LINE
  8
型材
  6
CONTINUOUS
 62
    32
 10
381.06403
 20
245.50972
 11
381.663862
 21
245.50972
  0
LINE
  8
型材
  6
CONTINUOUS
 62
    32
 10
381.06403
 20
245.50972
 11
381.06403
 21
246.412525
  0
LINE
  8
型材
  6
CONTINUOUS
 62
    32
 10
381.06403
 20
249.709698
 11
381.06403
 21
248.806892
  0
LINE
  8
型材
  6
CONTINUOUS
 62
    32
 10
381.663862
 20
249.709698
 11
381.663862
 21
248.806892
  0
LINE
  8
型材
  6
DASHDOTX2
 62
    32
 10
262.563945
 20
253.609707
 11
262.563945
 21
241.609707
  0
LINE
  8
型材
  6
CONTINUOUS
 62
    32
 10
263.761135
 20
247.30979
 11
264.663938
 21
247.30979
  0
LINE
  8
型材
  6
CONTINUOUS
 62
    32
 10
262.863862
 20
245.50972
 11
262.863862
 21
246.412525
  0
LINE
  8
型材
  6
CONTINUOUS
 62
    32
 10
262.264028
 20
245.50972
 11
262.863862
 21
245.50972
  0
LINE
  8
型材
  6
CONTINUOUS
 62
    32
 10
262.264028
 20
245.50972
 11
262.264028
 21
246.412525
  0
LINE
  8
型材
  6
CONTINUOUS
 62
    32
 10
262.264028
 20
249.709698
 11
262.264028
 21
248.806892
  0
LINE
  8
型材
  6
CONTINUOUS
 62
    32
 10
262.863862
 20
249.709698
 11
262.863862
 21
248.806892
  0
LINE
  8
型材
  6
CONTINUOUS
 62
    32
 10
261.366757
 20
247.30979
 11
260.463955
 21
247.30979
  0
LINE
  8
型材
  6
CONTINUOUS
 62
    32
 10
261.366757
 20
247.909622
 11
260.463955
 21
247.909622
  0
LINE
  8
型材
  6
CONTINUOUS
 62
    32
 10
263.761135
 20
247.909622
 11
264.663938
 21
247.909622
  0
LINE
  8
型材
  6
CONTINUOUS
 62
    32
 10
262.264028
 20
249.709698
 11
262.863862
 21
249.709698
  0
LINE
  8
型材
  6
CONTINUOUS
 62
    32
 10
260.463955
 20
247.30979
 11
260.463955
 21
247.909625
  0
LINE
  8
型材
  6
CONTINUOUS
 62
    32
 10
264.663938
 20
247.30979
 11
264.663938
 21
247.909625
  0
LINE
  8
型材
  6
CONTINUOUS
 62
    32
 10
380.16676
 20
247.30979
 11
379.263955
 21
247.30979
  0
LINE
  8
型材
  6
CONTINUOUS
 62
    32
 10
380.16676
 20
247.909622
 11
379.263955
 21
247.909622
  0
LINE
  8
型材
  6
CONTINUOUS
 62
    32
 10
382.561127
 20
247.909622
 11
383.463938
 21
247.909622
  0
LINE
  8
型材
  6
CONTINUOUS
 62
    32
 10
381.06403
 20
249.709698
 11
381.663862
 21
249.709698
  0
LINE
  8
型材
  6
CONTINUOUS
 62
    32
 10
379.263955
 20
247.30979
 11
379.263955
 21
247.909625
  0
LINE
  8
型材
  6
CONTINUOUS
 62
    32
 10
383.463938
 20
247.30979
 11
383.463938
 21
247.909625
  0
LINE
  8
型材
  6
CONTINUOUS
 62
    32
 10
329.761127
 20
247.30979
 11
330.663938
 21
247.30979
  0
LINE
  8
型材
  6
CONTINUOUS
 62
    32
 10
328.863862
 20
245.50972
 11
328.863862
 21
246.412525
  0
LINE
  8
型材
  6
CONTINUOUS
 62
    32
 10
328.264028
 20
245.50972
 11
328.863862
 21
245.50972
  0
LINE
  8
型材
  6
CONTINUOUS
 62
    32
 10
328.264028
 20
245.50972
 11
328.264028
 21
246.412525
  0
LINE
  8
型材
  6
CONTINUOUS
 62
    32
 10
328.264028
 20
249.709698
 11
328.264028
 21
248.806892
  0
LINE
  8
型材
  6
CONTINUOUS
 62
    32
 10
328.863862
 20
249.709698
 11
328.863862
 21
248.806892
  0
LINE
  8
型材
  6
CONTINUOUS
 62
    32
 10
290.161135
 20
247.30979
 11
291.063938
 21
247.30979
  0
LINE
  8
型材
  6
CONTINUOUS
 62
    32
 10
289.263862
 20
245.50972
 11
289.263862
 21
246.412525
  0
LINE
  8
型材
  6
CONTINUOUS
 62
    32
 10
288.664027
 20
245.50972
 11
289.263862
 21
245.50972
  0
LINE
  8
型材
  6
CONTINUOUS
 62
    32
 10
288.664027
 20
245.50972
 11
288.664027
 21
246.412525
  0
LINE
  8
型材
  6
CONTINUOUS
 62
    32
 10
288.664027
 20
249.709698
 11
288.664027
 21
248.806892
  0
LINE
  8
型材
  6
CONTINUOUS
 62
    32
 10
289.263862
 20
249.709698
 11
289.263862
 21
248.806892
  0
LINE
  8
型材
  6
CONTINUOUS
 62
    32
 10
287.766757
 20
247.30979
 11
286.863955
 21
247.30979
  0
LINE
  8
型材
  6
CONTINUOUS
 62
    32
 10
287.766757
 20
247.909622
 11
286.863955
 21
247.909622
  0
LINE
  8
型材
  6
CONTINUOUS
 62
    32
 10
290.161135
 20
247.909622
 11
291.063938
 21
247.909622
  0
LINE
  8
型材
  6
CONTINUOUS
 62
    32
 10
288.664027
 20
249.709698
 11
289.263862
 21
249.709698
  0
LINE
  8
型材
  6
CONTINUOUS
 62
    32
 10
286.863955
 20
247.30979
 11
286.863955
 21
247.909625
  0
LINE
  8
型材
  6
CONTINUOUS
 62
    32
 10
291.063938
 20
247.30979
 11
291.063938
 21
247.909625
  0
LINE
  8
型材
  6
CONTINUOUS
 62
    32
 10
303.361135
 20
247.30979
 11
304.263938
 21
247.30979
  0
LINE
  8
型材
  6
CONTINUOUS
 62
    32
 10
302.463862
 20
245.50972
 11
302.463862
 21
246.412525
  0
LINE
  8
型材
  6
CONTINUOUS
 62
    32
 10
301.864027
 20
245.50972
 11
302.463862
 21
245.50972
  0
LINE
  8
型材
  6
CONTINUOUS
 62
    32
 10
301.864027
 20
245.50972
 11
301.864027
 21
246.412525
  0
LINE
  8
型材
  6
CONTINUOUS
 62
    32
 10
301.864027
 20
249.709698
 11
301.864027
 21
248.806892
  0
LINE
  8
型材
  6
CONTINUOUS
 62
    32
 10
302.463862
 20
249.709698
 11
302.463862
 21
248.806892
  0
LINE
  8
型材
  6
CONTINUOUS
 62
    32
 10
300.966757
 20
247.30979
 11
300.063955
 21
247.30979
  0
LINE
  8
型材
  6
CONTINUOUS
 62
    32
 10
300.966757
 20
247.909622
 11
300.063955
 21
247.909622
  0
LINE
  8
型材
  6
CONTINUOUS
 62
    32
 10
303.361135
 20
247.909622
 11
304.263938
 21
247.909622
  0
LINE
  8
型材
  6
CONTINUOUS
 62
    32
 10
301.864027
 20
249.709698
 11
302.463862
 21
249.709698
  0
LINE
  8
型材
  6
CONTINUOUS
 62
    32
 10
300.063955
 20
247.30979
 11
300.063955
 21
247.909625
  0
LINE
  8
型材
  6
CONTINUOUS
 62
    32
 10
304.263938
 20
247.30979
 11
304.263938
 21
247.909625
  0
LINE
  8
型材
  6
CONTINUOUS
 62
    32
 10
327.36676
 20
247.30979
 11
326.463955
 21
247.30979
  0
LINE
  8
型材
  6
CONTINUOUS
 62
    32
 10
327.36676
 20
247.909622
 11
326.463955
 21
247.909622
  0
LINE
  8
型材
  6
CONTINUOUS
 62
    32
 10
329.761127
 20
247.909622
 11
330.663938
 21
247.909622
  0
LINE
  8
型材
  6
CONTINUOUS
 62
    32
 10
328.264028
 20
249.709698
 11
328.863862
 21
249.709698
  0
LINE
  8
型材
  6
CONTINUOUS
 62
    32
 10
326.463955
 20
247.30979
 11
326.463955
 21
247.909625
  0
LINE
  8
型材
  6
CONTINUOUS
 62
    32
 10
330.663938
 20
247.30979
 11
330.663938
 21
247.909625
  0
LINE
  8
型材
  6
CONTINUOUS
 62
    32
 10
342.961127
 20
247.30979
 11
343.863938
 21
247.30979
  0
LINE
  8
型材
  6
CONTINUOUS
 62
    32
 10
342.063862
 20
245.50972
 11
342.063862
 21
246.412525
  0
LINE
  8
型材
  6
CONTINUOUS
 62
    32
 10
341.46403
 20
245.50972
 11
342.063862
 21
245.50972
  0
LINE
  8
型材
  6
CONTINUOUS
 62
    32
 10
341.464027
 20
245.50972
 11
341.464027
 21
246.412525
  0
LINE
  8
型材
  6
CONTINUOUS
 62
    32
 10
341.464027
 20
249.709698
 11
341.464027
 21
248.806892
  0
LINE
  8
型材
  6
CONTINUOUS
 62
    32
 10
342.063862
 20
249.709698
 11
342.063862
 21
248.806892
  0
LINE
  8
型材
  6
CONTINUOUS
 62
    32
 10
340.56676
 20
247.30979
 11
339.663955
 21
247.30979
  0
LINE
  8
型材
  6
CONTINUOUS
 62
    32
 10
340.56676
 20
247.909622
 11
339.663955
 21
247.909622
  0
LINE
  8
型材
  6
CONTINUOUS
 62
    32
 10
342.961127
 20
247.909622
 11
343.863938
 21
247.909622
  0
LINE
  8
型材
  6
CONTINUOUS
 62
    32
 10
341.464027
 20
249.709698
 11
342.063862
 21
249.709698
  0
LINE
  8
型材
  6
CONTINUOUS
 62
    32
 10
339.663955
 20
247.30979
 11
339.663955
 21
247.909625
  0
LINE
  8
型材
  6
CONTINUOUS
 62
    32
 10
343.863938
 20
247.30979
 11
343.863938
 21
247.909625
  0
LINE
  8
型材
  6
CONTINUOUS
 62
    32
 10
356.161127
 20
247.30979
 11
357.063938
 21
247.30979
  0
LINE
  8
型材
  6
CONTINUOUS
 62
    32
 10
355.263862
 20
245.50972
 11
355.263862
 21
246.412525
  0
LINE
  8
型材
  6
CONTINUOUS
 62
    32
 10
354.66403
 20
245.50972
 11
355.263862
 21
245.50972
  0
LINE
  8
型材
  6
CONTINUOUS
 62
    32
 10
354.664027
 20
245.50972
 11
354.664027
 21
246.412525
  0
LINE
  8
型材
  6
CONTINUOUS
 62
    32
 10
354.664027
 20
249.709698
 11
354.664027
 21
248.806892
  0
LINE
  8
型材
  6
CONTINUOUS
 62
    32
 10
355.263862
 20
249.709698
 11
355.263862
 21
248.806892
  0
LINE
  8
型材
  6
CONTINUOUS
 62
    32
 10
353.76676
 20
247.30979
 11
352.863955
 21
247.30979
  0
LINE
  8
型材
  6
CONTINUOUS
 62
    32
 10
353.76676
 20
247.909622
 11
352.863955
 21
247.909622
  0
LINE
  8
型材
  6
CONTINUOUS
 62
    32
 10
356.161127
 20
247.909622
 11
357.063938
 21
247.909622
  0
LINE
  8
型材
  6
CONTINUOUS
 62
    32
 10
354.664027
 20
249.709698
 11
355.263862
 21
249.709698
  0
LINE
  8
型材
  6
CONTINUOUS
 62
    32
 10
352.863955
 20
247.30979
 11
352.863955
 21
247.909625
  0
LINE
  8
型材
  6
CONTINUOUS
 62
    32
 10
357.063938
 20
247.30979
 11
357.063938
 21
247.909625
  0
LINE
  8
型材
  6
CONTINUOUS
 62
    32
 10
369.361127
 20
247.30979
 11
370.263933
 21
247.30979
  0
LINE
  8
型材
  6
CONTINUOUS
 62
    32
 10
368.463862
 20
245.50972
 11
368.463862
 21
246.412525
  0
LINE
  8
型材
  6
CONTINUOUS
 62
    32
 10
367.86403
 20
245.50972
 11
368.463862
 21
245.50972
  0
LINE
  8
型材
  6
CONTINUOUS
 62
    32
 10
367.86403
 20
245.50972
 11
367.86403
 21
246.412525
  0
LINE
  8
型材
  6
CONTINUOUS
 62
    32
 10
367.86403
 20
249.709698
 11
367.86403
 21
248.806892
  0
LINE
  8
型材
  6
CONTINUOUS
 62
    32
 10
368.463862
 20
249.709698
 11
368.463862
 21
248.806892
  0
LINE
  8
型材
  6
CONTINUOUS
 62
    32
 10
366.96676
 20
247.30979
 11
366.063955
 21
247.30979
  0
LINE
  8
型材
  6
CONTINUOUS
 62
    32
 10
366.96676
 20
247.909622
 11
366.063955
 21
247.909622
  0
LINE
  8
型材
  6
CONTINUOUS
 62
    32
 10
369.361127
 20
247.909622
 11
370.263933
 21
247.909622
  0
LINE
  8
型材
  6
CONTINUOUS
 62
    32
 10
367.86403
 20
249.709698
 11
368.463862
 21
249.709698
  0
LINE
  8
型材
  6
CONTINUOUS
 62
    32
 10
366.063955
 20
247.30979
 11
366.063955
 21
247.909625
  0
LINE
  8
型材
  6
CONTINUOUS
 62
    32
 10
370.263933
 20
247.30979
 11
370.263933
 21
247.909625
  0
LINE
  8
型材
  6
DASHDOTX2
 62
    32
 10
257.763945
 20
247.609707
 11
386.763945
 21
247.609707
  0
LINE
  8
型材
  6
CONTINUOUS
 62
    32
 10
386.763945
 20
239.809707
 11
257.163945
 21
239.809707
  0
LINE
  8
型材
  6
CONTINUOUS
 62
    32
 10
316.561135
 20
247.30979
 11
317.463938
 21
247.30979
  0
LINE
  8
型材
  6
CONTINUOUS
 62
    32
 10
315.663862
 20
245.50972
 11
315.663862
 21
246.412525
  0
LINE
  8
型材
  6
CONTINUOUS
 62
    32
 10
315.064027
 20
245.50972
 11
315.663862
 21
245.50972
  0
LINE
  8
型材
  6
CONTINUOUS
 62
    32
 10
315.064027
 20
245.50972
 11
315.064027
 21
246.412525
  0
LINE
  8
型材
  6
CONTINUOUS
 62
    32
 10
315.064027
 20
249.709698
 11
315.064027
 21
248.806892
  0
LINE
  8
型材
  6
CONTINUOUS
 62
    32
 10
315.663862
 20
249.709698
 11
315.663862
 21
248.806892
  0
LINE
  8
型材
  6
CONTINUOUS
 62
    32
 10
314.166757
 20
247.30979
 11
313.263955
 21
247.30979
  0
LINE
  8
型材
  6
CONTINUOUS
 62
    32
 10
314.166757
 20
247.909622
 11
313.263955
 21
247.909622
  0
LINE
  8
型材
  6
CONTINUOUS
 62
    32
 10
316.561135
 20
247.909622
 11
317.463938
 21
247.909622
  0
LINE
  8
型材
  6
CONTINUOUS
 62
    32
 10
315.064027
 20
249.709698
 11
315.663862
 21
249.709698
  0
LINE
  8
型材
  6
CONTINUOUS
 62
    32
 10
313.263955
 20
247.30979
 11
313.263955
 21
247.909625
  0
LINE
  8
型材
  6
CONTINUOUS
 62
    32
 10
317.463938
 20
247.30979
 11
317.463938
 21
247.909625
  0
LINE
  8
型材
  6
CONTINUOUS
 62
    32
 10
277.863938
 20
247.30979
 11
277.863938
 21
247.909625
  0
LINE
  8
型材
  6
CONTINUOUS
 62
    32
 10
273.663955
 20
247.30979
 11
273.663955
 21
247.909625
  0
LINE
  8
型材
  6
CONTINUOUS
 62
    32
 10
275.464027
 20
249.709698
 11
276.063862
 21
249.709698
  0
LINE
  8
型材
  6
CONTINUOUS
 62
    32
 10
276.961135
 20
247.909622
 11
277.863938
 21
247.909622
  0
LINE
  8
型材
  6
CONTINUOUS
 62
    32
 10
274.566757
 20
247.909622
 11
273.663955
 21
247.909622
  0
LINE
  8
型材
  6
CONTINUOUS
 62
    32
 10
274.566757
 20
247.30979
 11
273.663955
 21
247.30979
  0
LINE
  8
型材
  6
CONTINUOUS
 62
    32
 10
276.063862
 20
249.709698
 11
276.063862
 21
248.806892
  0
LINE
  8
型材
  6
CONTINUOUS
 62
    32
 10
275.464027
 20
249.709698
 11
275.464027
 21
248.806892
  0
LINE
  8
型材
  6
CONTINUOUS
 62
    32
 10
275.464027
 20
245.50972
 11
275.464027
 21
246.412525
  0
LINE
  8
型材
  6
CONTINUOUS
 62
    32
 10
275.464027
 20
245.50972
 11
276.063862
 21
245.50972
  0
LINE
  8
型材
  6
CONTINUOUS
 62
    32
 10
276.063862
 20
245.50972
 11
276.063862
 21
246.412525
  0
LINE
  8
型材
  6
CONTINUOUS
 62
    32
 10
276.961135
 20
247.30979
 11
277.863938
 21
247.30979
  0
LINE
  8
型材
  6
DASHDOTX2
 62
    32
 10
275.763945
 20
253.609707
 11
275.763945
 21
241.609707
  0
LINE
  8
型材
  6
CONTINUOUS
 62
    32
 10
283.563945
 20
239.809707
 11
283.563945
 21
259.009707
  0
LINE
  8
型材
  6
CONTINUOUS
 62
    32
 10
281.163945
 20
239.809707
 11
281.163945
 21
259.009707
  0
ARC
  8
型材
  6
CONTINUOUS
 62
    32
 10
366.96676
 20
248.806895
 40
0.897268
 50
269.999934
 51
359.999978
  0
ARC
  8
型材
  6
CONTINUOUS
 62
    32
 10
369.361131
 20
248.806896
 40
0.897268
 50
179.999954
 51
269.999989
  0
CIRCLE
  8
型材
  6
CONTINUOUS
 62
    32
 10
368.163945
 20
247.609707
 40
4.14
  0
ARC
  8
型材
  6
CONTINUOUS
 62
    32
 10
314.166757
 20
248.806895
 40
0.897268
 50
269.999934
 51
359.999978
  0
ARC
  8
型材
  6
CONTINUOUS
 62
    32
 10
316.561136
 20
248.806896
 40
0.897268
 50
179.999954
 51
269.999989
  0
CIRCLE
  8
型材
  6
CONTINUOUS
 62
    32
 10
315.363945
 20
247.609707
 40
4.14
  0
ARC
  8
型材
  6
CONTINUOUS
 62
    32
 10
382.561132
 20
246.412526
 40
0.897268
 50
89.99997
 51
180.000022
  0
ARC
  8
型材
  6
CONTINUOUS
 62
    32
 10
380.166761
 20
246.412526
 40
0.897268
 50
359.999995
 51
450.000038
  0
ARC
  8
型材
  6
CONTINUOUS
 62
    32
 10
380.166761
 20
248.806895
 40
0.897268
 50
269.999934
 51
359.999978
  0
ARC
  8
型材
  6
CONTINUOUS
 62
    32
 10
382.561131
 20
248.806896
 40
0.897268
 50
179.999954
 51
269.999989
  0
CIRCLE
  8
型材
  6
CONTINUOUS
 62
    32
 10
381.363945
 20
247.609707
 40
4.14
  0
ARC
  8
型材
  6
CONTINUOUS
 62
    32
 10
263.761136
 20
246.412526
 40
0.897268
 50
89.99997
 51
180.000022
  0
ARC
  8
型材
  6
CONTINUOUS
 62
    32
 10
261.366757
 20
246.412526
 40
0.897268
 50
359.999995
 51
450.000038
  0
ARC
  8
型材
  6
CONTINUOUS
 62
    32
 10
261.366757
 20
248.806895
 40
0.897268
 50
269.999934
 51
359.999978
  0
ARC
  8
型材
  6
CONTINUOUS
 62
    32
 10
263.761136
 20
248.806896
 40
0.897268
 50
179.999954
 51
269.999989
  0
CIRCLE
  8
型材
  6
CONTINUOUS
 62
    32
 10
262.563945
 20
247.609707
 40
4.14
  0
ARC
  8
型材
  6
CONTINUOUS
 62
    32
 10
329.761131
 20
246.412526
 40
0.897268
 50
89.99997
 51
180.000022
  0
ARC
  8
型材
  6
CONTINUOUS
 62
    32
 10
327.366762
 20
246.412526
 40
0.897268
 50
359.999995
 51
450.000038
  0
ARC
  8
型材
  6
CONTINUOUS
 62
    32
 10
327.366762
 20
248.806895
 40
0.897268
 50
269.999934
 51
359.999978
  0
ARC
  8
型材
  6
CONTINUOUS
 62
    32
 10
329.761131
 20
248.806896
 40
0.897268
 50
179.999954
 51
269.999989
  0
CIRCLE
  8
型材
  6
CONTINUOUS
 62
    32
 10
328.563945
 20
247.609707
 40
4.14
  0
ARC
  8
型材
  6
CONTINUOUS
 62
    32
 10
290.161136
 20
246.412526
 40
0.897268
 50
89.99997
 51
180.000022
  0
ARC
  8
型材
  6
CONTINUOUS
 62
    32
 10
287.766757
 20
246.412526
 40
0.897268
 50
359.999995
 51
450.000038
  0
ARC
  8
型材
  6
CONTINUOUS
 62
    32
 10
287.766757
 20
248.806895
 40
0.897268
 50
269.999934
 51
359.999978
  0
ARC
  8
型材
  6
CONTINUOUS
 62
    32
 10
290.161136
 20
248.806896
 40
0.897268
 50
179.999954
 51
269.999989
  0
CIRCLE
  8
型材
  6
CONTINUOUS
 62
    32
 10
288.963945
 20
247.609707
 40
4.14
  0
ARC
  8
型材
  6
CONTINUOUS
 62
    32
 10
303.361136
 20
246.412526
 40
0.897268
 50
89.99997
 51
180.000022
  0
ARC
  8
型材
  6
CONTINUOUS
 62
    32
 10
300.966757
 20
246.412526
 40
0.897268
 50
359.999995
 51
450.000038
  0
ARC
  8
型材
  6
CONTINUOUS
 62
    32
 10
300.966757
 20
248.806895
 40
0.897268
 50
269.999934
 51
359.999978
  0
ARC
  8
型材
  6
CONTINUOUS
 62
    32
 10
303.361136
 20
248.806896
 40
0.897268
 50
179.999954
 51
269.999989
  0
CIRCLE
  8
型材
  6
CONTINUOUS
 62
    32
 10
302.163945
 20
247.609707
 40
4.14
  0
ARC
  8
型材
  6
CONTINUOUS
 62
    32
 10
342.961131
 20
246.412526
 40
0.897268
 50
89.99997
 51
180.000022
  0
ARC
  8
型材
  6
CONTINUOUS
 62
    32
 10
340.566762
 20
246.412526
 40
0.897268
 50
359.999995
 51
450.000038
  0
ARC
  8
型材
  6
CONTINUOUS
 62
    32
 10
340.566762
 20
248.806895
 40
0.897268
 50
269.999934
 51
359.999978
  0
ARC
  8
型材
  6
CONTINUOUS
 62
    32
 10
342.961131
 20
248.806896
 40
0.897268
 50
179.999954
 51
269.999989
  0
CIRCLE
  8
型材
  6
CONTINUOUS
 62
    32
 10
341.763945
 20
247.609707
 40
4.14
  0
ARC
  8
型材
  6
CONTINUOUS
 62
    32
 10
356.161131
 20
246.412526
 40
0.897268
 50
89.99997
 51
180.000022
  0
ARC
  8
型材
  6
CONTINUOUS
 62
    32
 10
353.766762
 20
246.412526
 40
0.897268
 50
359.999995
 51
450.000038
  0
ARC
  8
型材
  6
CONTINUOUS
 62
    32
 10
353.766762
 20
248.806895
 40
0.897268
 50
269.999934
 51
359.999978
  0
ARC
  8
型材
  6
CONTINUOUS
 62
    32
 10
356.161131
 20
248.806896
 40
0.897268
 50
179.999954
 51
269.999989
  0
CIRCLE
  8
型材
  6
CONTINUOUS
 62
    32
 10
354.963945
 20
247.609707
 40
4.14
  0
ARC
  8
型材
  6
CONTINUOUS
 62
    32
 10
369.361131
 20
246.412526
 40
0.897268
 50
89.99997
 51
180.000022
  0
ARC
  8
型材
  6
CONTINUOUS
 62
    32
 10
366.966762
 20
246.412526
 40
0.897268
 50
359.999995
 51
450.000038
  0
ARC
  8
型材
  6
CONTINUOUS
 62
    32
 10
316.561136
 20
246.412526
 40
0.897268
 50
89.99997
 51
180.000022
  0
ARC
  8
型材
  6
CONTINUOUS
 62
    32
 10
314.166757
 20
246.412526
 40
0.897268
 50
359.999995
 51
450.000038
  0
CIRCLE
  8
型材
  6
CONTINUOUS
 62
    32
 10
275.763945
 20
247.609707
 40
4.14
  0
ARC
  8
型材
  6
CONTINUOUS
 62
    32
 10
276.961136
 20
248.806896
 40
0.897268
 50
179.999954
 51
269.999989
  0
ARC
  8
型材
  6
CONTINUOUS
 62
    32
 10
274.566757
 20
248.806895
 40
0.897268
 50
269.999934
 51
359.999978
  0
ARC
  8
型材
  6
CONTINUOUS
 62
    32
 10
274.566757
 20
246.412526
 40
0.897268
 50
359.999995
 51
450.000038
  0
ARC
  8
型材
  6
CONTINUOUS
 62
    32
 10
276.961136
 20
246.412526
 40
0.897268
 50
89.99997
 51
180.000022
  0
POINT
  8
型材
 62
    32
 10
267.964018
 20
239.8097
  0
LINE
  8
型材
  6
CONTINUOUS
 62
    32
 10
375.964018
 20
239.8097
 11
267.964018
 21
239.8097
  0
POINT
  8
型材
 62
    32
 10
162.051873
 20
239.809707
  0
LINE
  8
型材
  6
CONTINUOUS
 62
    32
 10
162.051873
 20
239.809707
 11
230.451872
 21
239.809707
  0
POINT
  8
型材
 62
    32
 10
156.651873
 20
247.609707
  0
POINT
  8
型材
 62
    32
 10
162.051873
 20
247.609707
  0
POINT
  8
型材
 62
    32
 10
230.451872
 20
247.609707
  0
POINT
  8
型材
 62
    32
 10
151.251872
 20
239.809707
  0
POINT
  8
型材
 62
    32
 10
156.651873
 20
247.609707
  0
POINT
  8
型材
 62
    32
 10
235.851872
 20
247.609707
  0
POINT
  8
型材
 62
    32
 10
235.851872
 20
247.609707
  0
POINT
  8
型材
 62
    32
 10
241.251872
 20
239.809707
  0
LINE
  8
型材
  6
CONTINUOUS
 62
    32
 10
230.451872
 20
239.809707
 11
230.451872
 21
259.009707
  0
LINE
  8
型材
  6
CONTINUOUS
 62
    32
 10
228.051873
 20
239.809707
 11
228.051873
 21
259.009707
  0
LINE
  8
型材
  6
CONTINUOUS
 62
    32
 10
241.251872
 20
259.009707
 11
241.251872
 21
239.809707
  0
LINE
  8
型材
  6
DASHDOTX2
 62
    32
 10
235.851872
 20
253.609707
 11
235.851872
 21
241.609707
  0
LINE
  8
型材
  6
CONTINUOUS
 62
    32
 10
234.654685
 20
247.30979
 11
233.751882
 21
247.30979
  0
LINE
  8
型材
  6
CONTINUOUS
 62
    32
 10
235.551958
 20
245.50972
 11
235.551958
 21
246.412525
  0
LINE
  8
型材
  6
CONTINUOUS
 62
    32
 10
236.151793
 20
245.50972
 11
235.551958
 21
245.50972
  0
LINE
  8
型材
  6
CONTINUOUS
 62
    32
 10
236.151793
 20
245.50972
 11
236.151793
 21
246.412525
  0
LINE
  8
型材
  6
CONTINUOUS
 62
    32
 10
236.151793
 20
249.709698
 11
236.151793
 21
248.806892
  0
LINE
  8
型材
  6
CONTINUOUS
 62
    32
 10
235.551958
 20
249.709698
 11
235.551958
 21
248.806892
  0
LINE
  8
型材
  6
CONTINUOUS
 62
    32
 10
237.049063
 20
247.30979
 11
237.951865
 21
247.30979
  0
LINE
  8
型材
  6
CONTINUOUS
 62
    32
 10
237.049063
 20
247.909622
 11
237.951865
 21
247.909622
  0
LINE
  8
型材
  6
CONTINUOUS
 62
    32
 10
234.654685
 20
247.909622
 11
233.751882
 21
247.909622
  0
LINE
  8
型材
  6
CONTINUOUS
 62
    32
 10
236.151793
 20
249.709698
 11
235.551958
 21
249.709698
  0
LINE
  8
型材
  6
CONTINUOUS
 62
    32
 10
237.951865
 20
247.30979
 11
237.951865
 21
247.909625
  0
LINE
  8
型材
  6
CONTINUOUS
 62
    32
 10
233.751882
 20
247.30979
 11
233.751882
 21
247.909625
  0
LINE
  8
型材
  6
CONTINUOUS
 62
    32
 10
162.051873
 20
239.809707
 11
162.051873
 21
259.009707
  0
LINE
  8
型材
  6
CONTINUOUS
 62
    32
 10
151.251872
 20
259.009707
 11
241.251872
 21
259.009707
  0
LINE
  8
型材
  6
CONTINUOUS
 62
    32
 10
164.451872
 20
239.809707
 11
164.451872
 21
259.009707
  0
LINE
  8
型材
  6
CONTINUOUS
 62
    32
 10
204.051873
 20
239.809707
 11
204.051873
 21
259.009707
  0
LINE
  8
型材
  6
CONTINUOUS
 62
    32
 10
201.651873
 20
239.809707
 11
201.651873
 21
259.009707
  0
LINE
  8
型材
  6
CONTINUOUS
 62
    32
 10
190.851872
 20
239.809707
 11
190.851872
 21
259.009707
  0
LINE
  8
型材
  6
CONTINUOUS
 62
    32
 10
188.451872
 20
239.809707
 11
188.451872
 21
259.009707
  0
LINE
  8
型材
  6
CONTINUOUS
 62
    32
 10
175.251872
 20
239.809707
 11
175.251872
 21
259.009707
  0
LINE
  8
型材
  6
CONTINUOUS
 62
    32
 10
177.651873
 20
239.809707
 11
177.651873
 21
259.009707
  0
LINE
  8
型材
  6
CONTINUOUS
 62
    32
 10
151.251872
 20
259.009707
 11
151.251872
 21
239.809707
  0
LINE
  8
型材
  6
DASHDOTX2
 62
    32
 10
156.651873
 20
253.609707
 11
156.651873
 21
241.609707
  0
LINE
  8
型材
  6
DASHDOTX2
 62
    32
 10
169.851872
 20
253.609707
 11
169.851872
 21
241.609707
  0
LINE
  8
型材
  6
DASHDOTX2
 62
    32
 10
183.051873
 20
253.609707
 11
183.051873
 21
241.609707
  0
LINE
  8
型材
  6
DASHDOTX2
 62
    32
 10
196.251872
 20
253.609707
 11
196.251872
 21
241.609707
  0
LINE
  8
型材
  6
DASHDOTX2
 62
    32
 10
209.451872
 20
253.609707
 11
209.451872
 21
241.609707
  0
LINE
  8
型材
  6
CONTINUOUS
 62
    32
 10
155.454688
 20
247.30979
 11
154.551882
 21
247.30979
  0
LINE
  8
型材
  6
CONTINUOUS
 62
    32
 10
156.351958
 20
245.50972
 11
156.351958
 21
246.412525
  0
LINE
  8
型材
  6
CONTINUOUS
 62
    32
 10
156.95179
 20
245.50972
 11
156.351958
 21
245.50972
  0
LINE
  8
型材
  6
CONTINUOUS
 62
    32
 10
156.95179
 20
245.50972
 11
156.95179
 21
246.412525
  0
LINE
  8
型材
  6
CONTINUOUS
 62
    32
 10
156.95179
 20
249.709698
 11
156.95179
 21
248.806892
  0
LINE
  8
型材
  6
CONTINUOUS
 62
    32
 10
156.351958
 20
249.709698
 11
156.351958
 21
248.806892
  0
LINE
  8
型材
  6
CONTINUOUS
 62
    32
 10
157.84906
 20
247.30979
 11
158.751865
 21
247.30979
  0
LINE
  8
型材
  6
CONTINUOUS
 62
    32
 10
157.84906
 20
247.909622
 11
158.751865
 21
247.909622
  0
LINE
  8
型材
  6
CONTINUOUS
 62
    32
 10
155.45469
 20
247.909622
 11
154.551882
 21
247.909622
  0
LINE
  8
型材
  6
CONTINUOUS
 62
    32
 10
156.95179
 20
249.709698
 11
156.351958
 21
249.709698
  0
LINE
  8
型材
  6
CONTINUOUS
 62
    32
 10
158.751865
 20
247.30979
 11
158.751865
 21
247.909625
  0
LINE
  8
型材
  6
CONTINUOUS
 62
    32
 10
154.551882
 20
247.30979
 11
154.551882
 21
247.909625
  0
LINE
  8
型材
  6
CONTINUOUS
 62
    32
 10
208.25469
 20
247.30979
 11
207.351882
 21
247.30979
  0
LINE
  8
型材
  6
CONTINUOUS
 62
    32
 10
209.151958
 20
245.50972
 11
209.151958
 21
246.412525
  0
LINE
  8
型材
  6
CONTINUOUS
 62
    32
 10
209.751793
 20
245.50972
 11
209.151958
 21
245.50972
  0
LINE
  8
型材
  6
CONTINUOUS
 62
    32
 10
209.751793
 20
245.50972
 11
209.751793
 21
246.412525
  0
LINE
  8
型材
  6
CONTINUOUS
 62
    32
 10
209.751793
 20
249.709698
 11
209.751793
 21
248.806892
  0
LINE
  8
型材
  6
CONTINUOUS
 62
    32
 10
209.151958
 20
249.709698
 11
209.151958
 21
248.806892
  0
LINE
  8
型材
  6
CONTINUOUS
 62
    32
 10
210.64906
 20
247.30979
 11
211.551865
 21
247.30979
  0
LINE
  8
型材
  6
CONTINUOUS
 62
    32
 10
210.64906
 20
247.909622
 11
211.551865
 21
247.909622
  0
LINE
  8
型材
  6
CONTINUOUS
 62
    32
 10
208.25469
 20
247.909622
 11
207.351882
 21
247.909622
  0
LINE
  8
型材
  6
CONTINUOUS
 62
    32
 10
209.751793
 20
249.709698
 11
209.151958
 21
249.709698
  0
LINE
  8
型材
  6
CONTINUOUS
 62
    32
 10
211.551865
 20
247.30979
 11
211.551865
 21
247.909625
  0
LINE
  8
型材
  6
CONTINUOUS
 62
    32
 10
207.351882
 20
247.30979
 11
207.351882
 21
247.909625
  0
LINE
  8
型材
  6
CONTINUOUS
 62
    32
 10
195.05469
 20
247.30979
 11
194.151882
 21
247.30979
  0
LINE
  8
型材
  6
CONTINUOUS
 62
    32
 10
195.951958
 20
245.50972
 11
195.951958
 21
246.412525
  0
LINE
  8
型材
  6
CONTINUOUS
 62
    32
 10
196.55179
 20
245.50972
 11
195.951958
 21
245.50972
  0
LINE
  8
型材
  6
CONTINUOUS
 62
    32
 10
196.551793
 20
245.50972
 11
196.551793
 21
246.412525
  0
LINE
  8
型材
  6
CONTINUOUS
 62
    32
 10
196.551793
 20
249.709698
 11
196.551793
 21
248.806892
  0
LINE
  8
型材
  6
CONTINUOUS
 62
    32
 10
195.951958
 20
249.709698
 11
195.951958
 21
248.806892
  0
LINE
  8
型材
  6
CONTINUOUS
 62
    32
 10
197.44906
 20
247.30979
 11
198.351865
 21
247.30979
  0
LINE
  8
型材
  6
CONTINUOUS
 62
    32
 10
197.44906
 20
247.909622
 11
198.351865
 21
247.909622
  0
LINE
  8
型材
  6
CONTINUOUS
 62
    32
 10
195.05469
 20
247.909622
 11
194.151882
 21
247.909622
  0
LINE
  8
型材
  6
CONTINUOUS
 62
    32
 10
196.551793
 20
249.709698
 11
195.951958
 21
249.709698
  0
LINE
  8
型材
  6
CONTINUOUS
 62
    32
 10
198.351865
 20
247.30979
 11
198.351865
 21
247.909625
  0
LINE
  8
型材
  6
CONTINUOUS
 62
    32
 10
194.151882
 20
247.30979
 11
194.151882
 21
247.909625
  0
LINE
  8
型材
  6
CONTINUOUS
 62
    32
 10
181.85469
 20
247.30979
 11
180.951882
 21
247.30979
  0
LINE
  8
型材
  6
CONTINUOUS
 62
    32
 10
182.751958
 20
245.50972
 11
182.751958
 21
246.412525
  0
LINE
  8
型材
  6
CONTINUOUS
 62
    32
 10
183.35179
 20
245.50972
 11
182.751958
 21
245.50972
  0
LINE
  8
型材
  6
CONTINUOUS
 62
    32
 10
183.351793
 20
245.50972
 11
183.351793
 21
246.412525
  0
LINE
  8
型材
  6
CONTINUOUS
 62
    32
 10
183.351793
 20
249.709698
 11
183.351793
 21
248.806892
  0
LINE
  8
型材
  6
CONTINUOUS
 62
    32
 10
182.751958
 20
249.709698
 11
182.751958
 21
248.806892
  0
LINE
  8
型材
  6
CONTINUOUS
 62
    32
 10
184.24906
 20
247.30979
 11
185.151865
 21
247.30979
  0
LINE
  8
型材
  6
CONTINUOUS
 62
    32
 10
184.24906
 20
247.909622
 11
185.151865
 21
247.909622
  0
LINE
  8
型材
  6
CONTINUOUS
 62
    32
 10
181.85469
 20
247.909622
 11
180.951882
 21
247.909622
  0
LINE
  8
型材
  6
CONTINUOUS
 62
    32
 10
183.351793
 20
249.709698
 11
182.751958
 21
249.709698
  0
LINE
  8
型材
  6
CONTINUOUS
 62
    32
 10
185.151865
 20
247.30979
 11
185.151865
 21
247.909625
  0
LINE
  8
型材
  6
CONTINUOUS
 62
    32
 10
180.951882
 20
247.30979
 11
180.951882
 21
247.909625
  0
LINE
  8
型材
  6
CONTINUOUS
 62
    32
 10
168.65469
 20
247.30979
 11
167.751885
 21
247.30979
  0
LINE
  8
型材
  6
CONTINUOUS
 62
    32
 10
169.551958
 20
245.50972
 11
169.551958
 21
246.412525
  0
LINE
  8
型材
  6
CONTINUOUS
 62
    32
 10
170.15179
 20
245.50972
 11
169.551958
 21
245.50972
  0
LINE
  8
型材
  6
CONTINUOUS
 62
    32
 10
170.15179
 20
245.50972
 11
170.15179
 21
246.412525
  0
LINE
  8
型材
  6
CONTINUOUS
 62
    32
 10
170.15179
 20
249.709698
 11
170.15179
 21
248.806892
  0
LINE
  8
型材
  6
CONTINUOUS
 62
    32
 10
169.551958
 20
249.709698
 11
169.551958
 21
248.806892
  0
LINE
  8
型材
  6
CONTINUOUS
 62
    32
 10
171.04906
 20
247.30979
 11
171.951865
 21
247.30979
  0
LINE
  8
型材
  6
CONTINUOUS
 62
    32
 10
171.04906
 20
247.909622
 11
171.951865
 21
247.909622
  0
LINE
  8
型材
  6
CONTINUOUS
 62
    32
 10
168.65469
 20
247.909622
 11
167.751885
 21
247.909622
  0
LINE
  8
型材
  6
CONTINUOUS
 62
    32
 10
170.15179
 20
249.709698
 11
169.551958
 21
249.709698
  0
LINE
  8
型材
  6
CONTINUOUS
 62
    32
 10
171.951865
 20
247.30979
 11
171.951865
 21
247.909625
  0
LINE
  8
型材
  6
CONTINUOUS
 62
    32
 10
167.751885
 20
247.30979
 11
167.751885
 21
247.909625
  0
LINE
  8
型材
  6
DASHDOTX2
 62
    32
 10
240.651873
 20
247.609707
 11
151.251872
 21
247.609707
  0
LINE
  8
型材
  6
CONTINUOUS
 62
    32
 10
151.251872
 20
239.809707
 11
241.251872
 21
239.809707
  0
LINE
  8
型材
  6
CONTINUOUS
 62
    32
 10
217.251872
 20
239.809707
 11
217.251872
 21
259.009707
  0
LINE
  8
型材
  6
CONTINUOUS
 62
    32
 10
214.851872
 20
239.809707
 11
214.851872
 21
259.009707
  0
LINE
  8
型材
  6
DASHDOTX2
 62
    32
 10
222.651873
 20
253.609707
 11
222.651873
 21
241.609707
  0
LINE
  8
型材
  6
CONTINUOUS
 62
    32
 10
221.45469
 20
247.30979
 11
220.551882
 21
247.30979
  0
LINE
  8
型材
  6
CONTINUOUS
 62
    32
 10
222.351958
 20
245.50972
 11
222.351958
 21
246.412525
  0
LINE
  8
型材
  6
CONTINUOUS
 62
    32
 10
222.951793
 20
245.50972
 11
222.351958
 21
245.50972
  0
LINE
  8
型材
  6
CONTINUOUS
 62
    32
 10
222.951793
 20
245.50972
 11
222.951793
 21
246.412525
  0
LINE
  8
型材
  6
CONTINUOUS
 62
    32
 10
222.951793
 20
249.709698
 11
222.951793
 21
248.806892
  0
LINE
  8
型材
  6
CONTINUOUS
 62
    32
 10
222.351958
 20
249.709698
 11
222.351958
 21
248.806892
  0
LINE
  8
型材
  6
CONTINUOUS
 62
    32
 10
223.84906
 20
247.30979
 11
224.751865
 21
247.30979
  0
LINE
  8
型材
  6
CONTINUOUS
 62
    32
 10
223.84906
 20
247.909622
 11
224.751865
 21
247.909622
  0
LINE
  8
型材
  6
CONTINUOUS
 62
    32
 10
221.45469
 20
247.909622
 11
220.551882
 21
247.909622
  0
LINE
  8
型材
  6
CONTINUOUS
 62
    32
 10
222.951793
 20
249.709698
 11
222.351958
 21
249.709698
  0
LINE
  8
型材
  6
CONTINUOUS
 62
    32
 10
224.751865
 20
247.30979
 11
224.751865
 21
247.909625
  0
LINE
  8
型材
  6
CONTINUOUS
 62
    32
 10
220.551882
 20
247.30979
 11
220.551882
 21
247.909625
  0
ARC
  8
型材
  6
CONTINUOUS
 62
    32
 10
234.654689
 20
246.412526
 40
0.897268
 50
359.999978
 51
450.00003
  0
ARC
  8
型材
  6
CONTINUOUS
 62
    32
 10
237.049067
 20
246.412526
 40
0.897268
 50
89.999962
 51
180.000005
  0
ARC
  8
型材
  6
CONTINUOUS
 62
    32
 10
237.049067
 20
248.806895
 40
0.897268
 50
180.000022
 51
270.000066
  0
ARC
  8
型材
  6
CONTINUOUS
 62
    32
 10
234.654689
 20
248.806896
 40
0.897268
 50
270.000011
 51
360.000046
  0
CIRCLE
  8
型材
  6
CONTINUOUS
 62
    32
 10
235.851872
 20
247.609707
 40
4.14
  0
ARC
  8
型材
  6
CONTINUOUS
 62
    32
 10
171.049064
 20
248.806895
 40
0.897268
 50
180.000022
 51
270.000066
  0
ARC
  8
型材
  6
CONTINUOUS
 62
    32
 10
168.654693
 20
248.806896
 40
0.897268
 50
270.000011
 51
360.000046
  0
CIRCLE
  8
型材
  6
CONTINUOUS
 62
    32
 10
169.851872
 20
247.609707
 40
4.14
  0
ARC
  8
型材
  6
CONTINUOUS
 62
    32
 10
155.454693
 20
246.412526
 40
0.897268
 50
359.999978
 51
450.00003
  0
ARC
  8
型材
  6
CONTINUOUS
 62
    32
 10
157.849063
 20
246.412526
 40
0.897268
 50
89.999962
 51
180.000005
  0
ARC
  8
型材
  6
CONTINUOUS
 62
    32
 10
157.849064
 20
248.806895
 40
0.897268
 50
180.000022
 51
270.000066
  0
ARC
  8
型材
  6
CONTINUOUS
 62
    32
 10
155.454693
 20
248.806896
 40
0.897268
 50
270.000011
 51
360.000046
  0
CIRCLE
  8
型材
  6
CONTINUOUS
 62
    32
 10
156.651873
 20
247.609707
 40
4.14
  0
ARC
  8
型材
  6
CONTINUOUS
 62
    32
 10
208.254693
 20
246.412526
 40
0.897268
 50
359.999978
 51
450.00003
  0
ARC
  8
型材
  6
CONTINUOUS
 62
    32
 10
210.649063
 20
246.412526
 40
0.897268
 50
89.999962
 51
180.000005
  0
ARC
  8
型材
  6
CONTINUOUS
 62
    32
 10
210.649063
 20
248.806895
 40
0.897268
 50
180.000022
 51
270.000066
  0
ARC
  8
型材
  6
CONTINUOUS
 62
    32
 10
208.254693
 20
248.806896
 40
0.897268
 50
270.000011
 51
360.000046
  0
CIRCLE
  8
型材
  6
CONTINUOUS
 62
    32
 10
209.451872
 20
247.609707
 40
4.14
  0
ARC
  8
型材
  6
CONTINUOUS
 62
    32
 10
195.054693
 20
246.412526
 40
0.897268
 50
359.999978
 51
450.00003
  0
ARC
  8
型材
  6
CONTINUOUS
 62
    32
 10
197.449063
 20
246.412526
 40
0.897268
 50
89.999962
 51
180.000005
  0
ARC
  8
型材
  6
CONTINUOUS
 62
    32
 10
197.449063
 20
248.806895
 40
0.897268
 50
180.000022
 51
270.000066
  0
ARC
  8
型材
  6
CONTINUOUS
 62
    32
 10
195.054693
 20
248.806896
 40
0.897268
 50
270.000011
 51
360.000046
  0
CIRCLE
  8
型材
  6
CONTINUOUS
 62
    32
 10
196.251872
 20
247.609707
 40
4.14
  0
ARC
  8
型材
  6
CONTINUOUS
 62
    32
 10
181.854693
 20
246.412526
 40
0.897268
 50
359.999978
 51
450.00003
  0
ARC
  8
型材
  6
CONTINUOUS
 62
    32
 10
184.249063
 20
246.412526
 40
0.897268
 50
89.999962
 51
180.000005
  0
ARC
  8
型材
  6
CONTINUOUS
 62
    32
 10
184.249063
 20
248.806895
 40
0.897268
 50
180.000022
 51
270.000066
  0
ARC
  8
型材
  6
CONTINUOUS
 62
    32
 10
181.854693
 20
248.806896
 40
0.897268
 50
270.000011
 51
360.000046
  0
CIRCLE
  8
型材
  6
CONTINUOUS
 62
    32
 10
183.051873
 20
247.609707
 40
4.14
  0
ARC
  8
型材
  6
CONTINUOUS
 62
    32
 10
168.654693
 20
246.412526
 40
0.897268
 50
359.999978
 51
450.00003
  0
ARC
  8
型材
  6
CONTINUOUS
 62
    32
 10
171.049063
 20
246.412526
 40
0.897268
 50
89.999962
 51
180.000005
  0
ARC
  8
型材
  6
CONTINUOUS
 62
    32
 10
221.454693
 20
246.412526
 40
0.897268
 50
359.999978
 51
450.00003
  0
ARC
  8
型材
  6
CONTINUOUS
 62
    32
 10
223.849063
 20
246.412526
 40
0.897268
 50
89.999962
 51
180.000005
  0
ARC
  8
型材
  6
CONTINUOUS
 62
    32
 10
223.849063
 20
248.806895
 40
0.897268
 50
180.000022
 51
270.000066
  0
ARC
  8
型材
  6
CONTINUOUS
 62
    32
 10
221.454693
 20
248.806896
 40
0.897268
 50
270.000011
 51
360.000046
  0
CIRCLE
  8
型材
  6
CONTINUOUS
 62
    32
 10
222.651873
 20
247.609707
 40
4.14
  0
LINE
  8
型材
  6
CONTINUOUS
 62
    32
 10
267.964018
 20
239.8097
 11
267.964018
 21
207.734193
  0
LINE
  8
型材
  6
CONTINUOUS
 62
    32
 10
267.964018
 20
207.734193
 11
375.964018
 21
207.734193
  0
LINE
  8
型材
  6
CONTINUOUS
 62
    32
 10
375.964018
 20
239.8097
 11
375.964018
 21
207.734193
  0
LINE
  8
型材
  6
CONTINUOUS
 62
    32
 10
230.451872
 20
239.809707
 11
230.451872
 21
207.734197
  0
LINE
  8
型材
  6
CONTINUOUS
 62
    32
 10
230.451872
 20
207.734197
 11
162.051873
 21
207.734197
  0
LINE
  8
型材
  6
CONTINUOUS
 62
    32
 10
162.051873
 20
239.809707
 11
162.051873
 21
207.734197
  0
LINE
  8
型材
  6
CONTINUOUS
 62
    32
 10
-189.1932
 20
98.72795
 11
68.3068
 21
98.72795
  0
LINE
  8
型材
  6
DOT
 10
-187.9432
 20
97.60295
 11
67.0568
 21
97.60295
  0
LINE
  8
型材
  6
DASHDOT
 10
71.573642
 20
27.55295
 11
63.87018
 21
27.55295
  0
LINE
  8
型材
  6
DASHDOT
 10
-192.460042
 20
82.55295
 11
-184.75658
 21
82.55295
  0
LINE
  8
型材
  6
CONTINUOUS
 62
    32
 10
69.5568
 20
175.70865
 11
69.5568
 21
189.20865
  0
ARC
  8
型材
  6
CONTINUOUS
 62
    32
 10
67.056801
 20
189.208646
 40
2.5
 50
0.0
 51
90.0
  0
ARC
  8
型材
  6
CONTINUOUS
 62
    32
 10
67.056801
 20
175.708646
 40
2.5
 50
270.0
 51
360.0
  0
LINE
  8
型材
  6
CONTINUOUS
 62
    32
 10
67.0568
 20
191.70865
 11
67.0568
 21
173.20865
  0
LINE
  8
型材
  6
CONTINUOUS
 62
    32
 10
-190.4432
 20
175.70865
 11
-190.4432
 21
189.20865
  0
ARC
  8
型材
  6
CONTINUOUS
 62
    32
 10
-187.943198
 20
189.208646
 40
2.5
 50
90.0
 51
180.0
  0
ARC
  8
型材
  6
CONTINUOUS
 62
    32
 10
-187.943198
 20
175.708646
 40
2.5
 50
180.0
 51
270.0
  0
LINE
  8
型材
  6
CONTINUOUS
 62
    32
 10
-187.9432
 20
191.70865
 11
-187.9432
 21
173.20865
  0
LINE
  8
型材
  6
CONTINUOUS
 62
    32
 10
60.5568
 20
236.25865
 11
60.492308
 21
236.995808
  0
ARC
  8
型材
  6
CONTINUOUS
 62
    32
 10
59.496115
 20
236.908648
 40
1.0
 50
5.000003
 51
90.0
  0
LINE
  8
型材
  6
CONTINUOUS
 62
    32
 10
56.0568
 20
236.25865
 11
56.121292
 21
236.995808
  0
ARC
  8
型材
  6
CONTINUOUS
 62
    32
 10
57.11749
 20
236.908648
 40
1.0
 50
90.0
 51
174.999997
  0
LINE
  8
型材
  6
CONTINUOUS
 62
    32
 10
60.5568
 20
236.25865
 11
56.0568
 21
236.25865
  0
LINE
  8
型材
  6
CONTINUOUS
 62
    32
 10
57.9468
 20
236.891592
 11
58.6668
 21
236.891592
  0
LINE
  8
型材
  6
CONTINUOUS
 62
    32
 10
58.6668
 20
237.90865
 11
58.6668
 21
236.891592
  0
LINE
  8
型材
  6
CONTINUOUS
 62
    32
 10
57.9468
 20
237.90865
 11
57.9468
 21
236.891592
  0
LINE
  8
型材
  6
CONTINUOUS
 62
    32
 10
59.496112
 20
237.90865
 11
58.6668
 21
237.90865
  0
LINE
  8
型材
  6
CONTINUOUS
 62
    32
 10
57.9468
 20
237.90865
 11
57.117488
 21
237.90865
  0
LINE
  8
型材
  6
CONTINUOUS
 62
    32
 10
-176.9432
 20
236.25865
 11
-177.007693
 21
236.995808
  0
ARC
  8
型材
  6
CONTINUOUS
 62
    32
 10
-178.003885
 20
236.908648
 40
1.0
 50
5.000003
 51
90.0
  0
LINE
  8
型材
  6
CONTINUOUS
 62
    32
 10
-181.4432
 20
236.25865
 11
-181.378708
 21
236.995808
  0
ARC
  8
型材
  6
CONTINUOUS
 62
    32
 10
-180.38251
 20
236.908648
 40
1.0
 50
90.0
 51
174.999997
  0
LINE
  8
型材
  6
CONTINUOUS
 62
    32
 10
-176.9432
 20
236.25865
 11
-181.4432
 21
236.25865
  0
LINE
  8
型材
  6
CONTINUOUS
 62
    32
 10
-179.5532
 20
236.891592
 11
-178.8332
 21
236.891592
  0
LINE
  8
型材
  6
CONTINUOUS
 62
    32
 10
-178.8332
 20
237.90865
 11
-178.8332
 21
236.891592
  0
LINE
  8
型材
  6
CONTINUOUS
 62
    32
 10
-179.5532
 20
237.90865
 11
-179.5532
 21
236.891592
  0
LINE
  8
型材
  6
CONTINUOUS
 62
    32
 10
-178.003888
 20
237.90865
 11
-178.8332
 21
237.90865
  0
LINE
  8
型材
  6
CONTINUOUS
 62
    32
 10
-179.5532
 20
237.90865
 11
-180.382513
 21
237.90865
  0
LINE
  8
型材
  6
CONTINUOUS
 62
    32
 10
-169.1932
 20
176.15865
 11
-164.1932
 21
171.15865
  0
LINE
  8
型材
  6
CONTINUOUS
 62
    32
 10
-164.1932
 20
171.15865
 11
-62.9432
 21
171.15865
  0
LINE
  8
型材
  6
CONTINUOUS
 62
    32
 10
-57.9432
 20
176.15865
 11
-62.9432
 21
171.15865
  0
LINE
  8
型材
  6
CONTINUOUS
 62
    32
 10
-169.1932
 20
176.15865
 11
-169.1932
 21
223.75865
  0
LINE
  8
型材
  6
CONTINUOUS
 62
    32
 10
-57.9432
 20
176.15865
 11
-57.9432
 21
223.75865
  0
ARC
  8
型材
  6
CONTINUOUS
 62
    32
 10
67.506801
 20
235.458648
 40
0.8
 50
0.0
 51
90.0
  0
LINE
  8
型材
  6
CONTINUOUS
 62
    32
 10
68.3068
 20
235.45865
 11
68.3068
 21
223.75865
  0
ARC
  8
型材
  6
CONTINUOUS
 62
    32
 10
-188.393199
 20
235.458648
 40
0.8
 50
90.0
 51
180.0
  0
LINE
  8
型材
  6
CONTINUOUS
 62
    32
 10
-189.1932
 20
235.45865
 11
-189.1932
 21
223.75865
  0
LINE
  8
型材
  6
CONTINUOUS
 62
    32
 10
-57.9432
 20
223.75865
 11
68.3068
 21
223.75865
  0
LINE
  8
型材
  6
CONTINUOUS
 62
    32
 10
67.5068
 20
236.25865
 11
-188.3932
 21
236.25865
  0
LINE
  8
型材
  6
CONTINUOUS
 62
    32
 10
-169.1932
 20
223.75865
 11
-189.1932
 21
223.75865
  0
ARC
  8
型材
  6
CONTINUOUS
 62
    32
 10
-187.143198
 20
169.458645
 40
0.8
 50
180.0
 51
270.0
  0
ARC
  8
型材
  6
CONTINUOUS
 62
    32
 10
66.256802
 20
169.458645
 40
0.8
 50
270.0
 51
360.0
  0
LINE
  8
型材
  6
CONTINUOUS
 62
    32
 10
-187.1432
 20
168.65865
 11
66.2568
 21
168.65865
  0
LINE
  8
型材
  6
CONTINUOUS
 62
    32
 10
-187.9432
 20
169.45865
 11
-187.9432
 21
223.75865
  0
LINE
  8
型材
  6
DOT
 62
    32
 10
-187.9432
 20
223.75865
 11
-187.9432
 21
232.95865
  0
LINE
  8
型材
  6
DOT
 62
    32
 10
-65.4432
 20
178.65865
 11
-161.6932
 21
178.65865
  0
LINE
  8
型材
  6
DOT
 62
    32
 10
-164.1932
 20
232.95865
 11
-161.6932
 21
230.45865
  0
LINE
  8
型材
  6
DOT
 62
    32
 10
-62.9432
 20
232.95865
 11
-65.4432
 21
230.45865
  0
LINE
  8
型材
  6
DOT
 62
    32
 10
-65.4432
 20
178.65865
 11
-65.4432
 21
230.45865
  0
LINE
  8
型材
  6
DOT
 62
    32
 10
-161.6932
 20
178.65865
 11
-161.6932
 21
230.45865
  0
LINE
  8
型材
  6
DOT
 62
    32
 10
-164.1932
 20
232.95865
 11
-187.9432
 21
232.95865
  0
LINE
  8
型材
  6
CONTINUOUS
 62
    32
 10
67.0568
 20
169.45865
 11
67.0568
 21
223.75865
  0
LINE
  8
型材
  6
DOT
 62
    32
 10
-62.9432
 20
232.95865
 11
67.0568
 21
232.95865
  0
LINE
  8
型材
  6
DOT
 62
    32
 10
67.0568
 20
223.75865
 11
67.0568
 21
232.95865
  0
LINE
  8
型材
  6
DASHDOT
 10
-192.460042
 20
182.45865
 11
-184.75658
 21
182.45865
  0
LINE
  8
型材
  6
DASHDOT
 10
71.573642
 20
182.45865
 11
63.87018
 21
182.45865
  0
LINE
  8
型材
  6
CONTINUOUS
 62
    32
 10
69.5568
 20
-65.60275
 11
69.5568
 21
-79.10275
  0
ARC
  8
型材
  6
CONTINUOUS
 62
    32
 10
67.056801
 20
-79.102749
 40
2.5
 50
270.0
 51
360.0
  0
ARC
  8
型材
  6
CONTINUOUS
 62
    32
 10
67.056801
 20
-65.602749
 40
2.5
 50
360.0
 51
450.0
  0
LINE
  8
型材
  6
CONTINUOUS
 62
    32
 10
67.0568
 20
-81.60275
 11
67.0568
 21
-63.10275
  0
LINE
  8
型材
  6
CONTINUOUS
 62
    32
 10
-190.4432
 20
-65.60275
 11
-190.4432
 21
-79.10275
  0
ARC
  8
型材
  6
CONTINUOUS
 62
    32
 10
-187.943198
 20
-79.102749
 40
2.5
 50
180.0
 51
270.0
  0
ARC
  8
型材
  6
CONTINUOUS
 62
    32
 10
-187.943198
 20
-65.602749
 40
2.5
 50
90.0
 51
180.0
  0
LINE
  8
型材
  6
CONTINUOUS
 62
    32
 10
-187.9432
 20
-81.60275
 11
-187.9432
 21
-63.10275
  0
LINE
  8
型材
  6
CONTINUOUS
 62
    32
 10
60.5568
 20
-126.15275
 11
60.492308
 21
-126.889908
  0
ARC
  8
型材
  6
CONTINUOUS
 62
    32
 10
59.496115
 20
-126.80275
 40
1.0
 50
270.0
 51
354.999997
  0
LINE
  8
型材
  6
CONTINUOUS
 62
    32
 10
56.0568
 20
-126.15275
 11
56.121292
 21
-126.889908
  0
ARC
  8
型材
  6
CONTINUOUS
 62
    32
 10
57.11749
 20
-126.80275
 40
1.0
 50
185.000003
 51
270.0
  0
LINE
  8
型材
  6
CONTINUOUS
 62
    32
 10
60.5568
 20
-126.15275
 11
56.0568
 21
-126.15275
  0
LINE
  8
型材
  6
CONTINUOUS
 62
    32
 10
57.9468
 20
-126.785693
 11
58.6668
 21
-126.785693
  0
LINE
  8
型材
  6
CONTINUOUS
 62
    32
 10
58.6668
 20
-127.80275
 11
58.6668
 21
-126.785693
  0
LINE
  8
型材
  6
CONTINUOUS
 62
    32
 10
57.9468
 20
-127.80275
 11
57.9468
 21
-126.785693
  0
LINE
  8
型材
  6
CONTINUOUS
 62
    32
 10
59.496112
 20
-127.80275
 11
58.6668
 21
-127.80275
  0
LINE
  8
型材
  6
CONTINUOUS
 62
    32
 10
57.9468
 20
-127.80275
 11
57.117488
 21
-127.80275
  0
LINE
  8
型材
  6
CONTINUOUS
 62
    32
 10
-176.9432
 20
-126.15275
 11
-177.007693
 21
-126.889908
  0
ARC
  8
型材
  6
CONTINUOUS
 62
    32
 10
-178.003885
 20
-126.80275
 40
1.0
 50
270.0
 51
354.999997
  0
LINE
  8
型材
  6
CONTINUOUS
 62
    32
 10
-181.4432
 20
-126.15275
 11
-181.378708
 21
-126.889908
  0
ARC
  8
型材
  6
CONTINUOUS
 62
    32
 10
-180.38251
 20
-126.80275
 40
1.0
 50
185.000003
 51
270.0
  0
LINE
  8
型材
  6
CONTINUOUS
 62
    32
 10
-176.9432
 20
-126.15275
 11
-181.4432
 21
-126.15275
  0
LINE
  8
型材
  6
CONTINUOUS
 62
    32
 10
-179.5532
 20
-126.785693
 11
-178.8332
 21
-126.785693
  0
LINE
  8
型材
  6
CONTINUOUS
 62
    32
 10
-178.8332
 20
-127.80275
 11
-178.8332
 21
-126.785693
  0
LINE
  8
型材
  6
CONTINUOUS
 62
    32
 10
-179.5532
 20
-127.80275
 11
-179.5532
 21
-126.785693
  0
LINE
  8
型材
  6
CONTINUOUS
 62
    32
 10
-178.003888
 20
-127.80275
 11
-178.8332
 21
-127.80275
  0
LINE
  8
型材
  6
CONTINUOUS
 62
    32
 10
-179.5532
 20
-127.80275
 11
-180.382513
 21
-127.80275
  0
ARC
  8
型材
  6
CONTINUOUS
 62
    32
 10
67.506801
 20
-125.35275
 40
0.8
 50
270.0
 51
360.0
  0
LINE
  8
型材
  6
CONTINUOUS
 62
    32
 10
68.3068
 20
-125.35275
 11
68.3068
 21
-113.65275
  0
ARC
  8
型材
  6
CONTINUOUS
 62
    32
 10
-188.393199
 20
-125.35275
 40
0.8
 50
180.0
 51
270.0
  0
LINE
  8
型材
  6
CONTINUOUS
 62
    32
 10
-189.1932
 20
-125.35275
 11
-189.1932
 21
-113.65275
  0
LINE
  8
型材
  6
CONTINUOUS
 62
    32
 10
67.5068
 20
-126.15275
 11
-188.3932
 21
-126.15275
  0
LINE
  8
型材
  6
CONTINUOUS
 62
    32
 10
68.3068
 20
-113.65275
 11
-189.1932
 21
-113.65275
  0
ARC
  8
型材
  6
CONTINUOUS
 62
    32
 10
-187.143198
 20
-59.352748
 40
0.8
 50
90.0
 51
180.0
  0
ARC
  8
型材
  6
CONTINUOUS
 62
    32
 10
66.256802
 20
-59.352748
 40
0.8
 50
0.0
 51
90.0
  0
LINE
  8
型材
  6
CONTINUOUS
 62
    32
 10
-187.1432
 20
-58.55275
 11
66.2568
 21
-58.55275
  0
LINE
  8
型材
  6
CONTINUOUS
 62
    32
 10
-187.9432
 20
-59.35275
 11
-187.9432
 21
-113.65275
  0
LINE
  8
型材
  6
CONTINUOUS
 62
    32
 10
67.0568
 20
-59.35275
 11
67.0568
 21
-113.65275
  0
LINE
  8
型材
  6
DASHDOT
 10
-192.460042
 20
-72.35275
 11
-184.75658
 21
-72.35275
  0
LINE
  8
型材
  6
DASHDOT
 10
71.573642
 20
-72.35275
 11
63.87018
 21
-72.35275
  0
LINE
  8
型材
  6
CONTINUOUS
 62
    32
 10
222.442505
 20
98.72795
 11
222.442505
 21
97.92795
  0
LINE
  8
型材
  6
CONTINUOUS
 62
    32
 10
222.442505
 20
98.72795
 11
158.142505
 21
98.72795
  0
ARC
  8
型材
  6
CONTINUOUS
 62
    32
 10
158.142507
 20
97.927948
 40
0.8
 50
90.0
 51
180.0
  0
LINE
  8
型材
  6
CONTINUOUS
 62
    32
 10
222.442505
 20
97.92795
 11
169.842505
 21
97.92795
  0
ARC
  8
型材
  6
CONTINUOUS
 62
    32
 10
224.142507
 20
96.802948
 40
0.8
 50
0.0
 51
90.0
  0
LINE
  8
型材
  6
CONTINUOUS
 62
    32
 10
224.142505
 20
97.60295
 11
169.842505
 21
97.60295
  0
LINE
  8
型材
  6
CONTINUOUS
 62
    32
 10
-343.328905
 20
98.72795
 11
-343.328905
 21
97.92795
  0
LINE
  8
型材
  6
CONTINUOUS
 62
    32
 10
-343.328905
 20
98.72795
 11
-279.028905
 21
98.72795
  0
ARC
  8
型材
  6
CONTINUOUS
 62
    32
 10
-279.028905
 20
97.927948
 40
0.8
 50
0.0
 51
90.0
  0
LINE
  8
型材
  6
CONTINUOUS
 62
    32
 10
-343.328905
 20
97.92795
 11
-290.728905
 21
97.92795
  0
ARC
  8
型材
  6
CONTINUOUS
 62
    32
 10
-345.028905
 20
96.802951
 40
0.8
 50
90.0
 51
180.0
  0
LINE
  8
型材
  6
CONTINUOUS
 62
    32
 10
-345.028905
 20
97.60295
 11
-290.728905
 21
97.60295
  0
LINE
  8
型材
  6
DASHDOT
 10
-175.443198
 20
173.174807
 11
-175.443198
 21
164.16232
  0
LINE
  8
型材
  6
DASHDOT
 10
54.556803
 20
173.174807
 11
54.556803
 21
164.16232
  0
LINE
  8
型材
  6
DASHDOT
 10
-175.443198
 20
-63.068908
 11
-175.443198
 21
-54.05642
  0
LINE
  8
型材
  6
DASHDOT
 10
54.556803
 20
-63.068908
 11
54.556803
 21
-54.05642
  0
POLYLINE
  8
型材
  6
CONTINUOUS
 66
     1
  0
VERTEX
  8
型材
 10
-200.87841
 20
182.45865
  0
VERTEX
  8
型材
 10
-210.313822
 20
187.074935
  0
VERTEX
  8
型材
 10
-210.313822
 20
184.717793
  0
SEQEND
  0
LINE
  8
型材
  6
CONTINUOUS
 10
-200.87841
 20
182.45865
 11
-245.019945
 21
182.45865
  0
LINE
  8
型材
  6
CONTINUOUS
 10
-245.019945
 20
182.45865
 11
-245.019945
 21
184.717793
  0
LINE
  8
型材
  6
CONTINUOUS
 10
-210.313822
 20
184.717793
 11
-245.019945
 21
184.717793
  0
POLYLINE
  8
型材
  6
CONTINUOUS
 66
     1
  0
VERTEX
  8
型材
 10
79.86956
 20
185.489263
  0
VERTEX
  8
型材
 10
89.304973
 20
190.105547
  0
VERTEX
  8
型材
 10
89.304973
 20
187.748405
  0
SEQEND
  0
LINE
  8
型材
  6
DOT
 10
-171.367742
 20
96.80295
 11
-56.628233
 21
96.80295
  0
LINE
  8
型材
  6
DOT
 10
-161.6932
 20
97.60295
 11
-161.6932
 21
96.80295
  0
LINE
  8
型材
  6
DOT
 10
-65.4432
 20
97.60295
 11
-65.4432
 21
96.80295
  0
LINE
  8
型材
  6
DOT
 10
-161.6932
 20
96.80295
 11
-160.8932
 21
97.60295
  0
LINE
  8
型材
  6
DOT
 10
-160.6932
 20
96.80295
 11
-159.8932
 21
97.60295
  0
LINE
  8
型材
  6
DOT
 10
-159.6932
 20
96.80295
 11
-158.8932
 21
97.60295
  0
LINE
  8
型材
  6
DOT
 10
-158.6932
 20
96.80295
 11
-157.8932
 21
97.60295
  0
LINE
  8
型材
  6
DOT
 10
-157.6932
 20
96.80295
 11
-156.8932
 21
97.60295
  0
LINE
  8
型材
  6
DOT
 10
-156.6932
 20
96.80295
 11
-155.8932
 21
97.60295
  0
LINE
  8
型材
  6
DOT
 10
-155.6932
 20
96.80295
 11
-154.8932
 21
97.60295
  0
LINE
  8
型材
  6
DOT
 10
-154.6932
 20
96.80295
 11
-153.8932
 21
97.60295
  0
LINE
  8
型材
  6
DOT
 10
-153.6932
 20
96.80295
 11
-152.8932
 21
97.60295
  0
LINE
  8
型材
  6
DOT
 10
-152.6932
 20
96.80295
 11
-151.8932
 21
97.60295
  0
LINE
  8
型材
  6
DOT
 10
-151.6932
 20
96.80295
 11
-150.8932
 21
97.60295
  0
LINE
  8
型材
  6
DOT
 10
-150.6932
 20
96.80295
 11
-149.8932
 21
97.60295
  0
LINE
  8
型材
  6
DOT
 10
-149.6932
 20
96.80295
 11
-148.8932
 21
97.60295
  0
LINE
  8
型材
  6
DOT
 10
-148.6932
 20
96.80295
 11
-147.8932
 21
97.60295
  0
LINE
  8
型材
  6
DOT
 10
-147.6932
 20
96.80295
 11
-146.8932
 21
97.60295
  0
LINE
  8
型材
  6
DOT
 10
-146.6932
 20
96.80295
 11
-145.8932
 21
97.60295
  0
LINE
  8
型材
  6
DOT
 10
-145.6932
 20
96.80295
 11
-144.8932
 21
97.60295
  0
LINE
  8
型材
  6
DOT
 10
-144.6932
 20
96.80295
 11
-143.8932
 21
97.60295
  0
LINE
  8
型材
  6
DOT
 10
-143.6932
 20
96.80295
 11
-142.8932
 21
97.60295
  0
LINE
  8
型材
  6
DOT
 10
-142.6932
 20
96.80295
 11
-141.8932
 21
97.60295
  0
LINE
  8
型材
  6
DOT
 10
-141.6932
 20
96.80295
 11
-140.8932
 21
97.60295
  0
LINE
  8
型材
  6
DOT
 10
-140.6932
 20
96.80295
 11
-139.8932
 21
97.60295
  0
LINE
  8
型材
  6
DOT
 10
-139.6932
 20
96.80295
 11
-138.8932
 21
97.60295
  0
LINE
  8
型材
  6
DOT
 10
-138.6932
 20
96.80295
 11
-137.8932
 21
97.60295
  0
LINE
  8
型材
  6
DOT
 10
-137.6932
 20
96.80295
 11
-136.8932
 21
97.60295
  0
LINE
  8
型材
  6
DOT
 10
-136.6932
 20
96.80295
 11
-135.8932
 21
97.60295
  0
LINE
  8
型材
  6
DOT
 10
-135.6932
 20
96.80295
 11
-134.8932
 21
97.60295
  0
LINE
  8
型材
  6
DOT
 10
-134.6932
 20
96.80295
 11
-133.8932
 21
97.60295
  0
LINE
  8
型材
  6
DOT
 10
-133.6932
 20
96.80295
 11
-132.8932
 21
97.60295
  0
LINE
  8
型材
  6
DOT
 10
-132.6932
 20
96.80295
 11
-131.8932
 21
97.60295
  0
LINE
  8
型材
  6
DOT
 10
-131.6932
 20
96.80295
 11
-130.8932
 21
97.60295
  0
LINE
  8
型材
  6
DOT
 10
-130.6932
 20
96.80295
 11
-129.8932
 21
97.60295
  0
LINE
  8
型材
  6
DOT
 10
-129.6932
 20
96.80295
 11
-128.8932
 21
97.60295
  0
LINE
  8
型材
  6
DOT
 10
-128.6932
 20
96.80295
 11
-127.8932
 21
97.60295
  0
LINE
  8
型材
  6
DOT
 10
-127.6932
 20
96.80295
 11
-126.8932
 21
97.60295
  0
LINE
  8
型材
  6
DOT
 10
-126.6932
 20
96.80295
 11
-125.8932
 21
97.60295
  0
LINE
  8
型材
  6
DOT
 10
-125.6932
 20
96.80295
 11
-124.8932
 21
97.60295
  0
LINE
  8
型材
  6
DOT
 10
-124.6932
 20
96.80295
 11
-123.8932
 21
97.60295
  0
LINE
  8
型材
  6
DOT
 10
-123.6932
 20
96.80295
 11
-122.8932
 21
97.60295
  0
LINE
  8
型材
  6
DOT
 10
-122.6932
 20
96.80295
 11
-121.8932
 21
97.60295
  0
LINE
  8
型材
  6
DOT
 10
-121.6932
 20
96.80295
 11
-120.8932
 21
97.60295
  0
LINE
  8
型材
  6
DOT
 10
-120.6932
 20
96.80295
 11
-119.8932
 21
97.60295
  0
LINE
  8
型材
  6
DOT
 10
-119.6932
 20
96.80295
 11
-118.8932
 21
97.60295
  0
LINE
  8
型材
  6
DOT
 10
-118.6932
 20
96.80295
 11
-117.8932
 21
97.60295
  0
LINE
  8
型材
  6
DOT
 10
-117.6932
 20
96.80295
 11
-116.8932
 21
97.60295
  0
LINE
  8
型材
  6
DOT
 10
-116.6932
 20
96.80295
 11
-115.8932
 21
97.60295
  0
LINE
  8
型材
  6
DOT
 10
-115.6932
 20
96.80295
 11
-114.8932
 21
97.60295
  0
LINE
  8
型材
  6
DOT
 10
-114.6932
 20
96.80295
 11
-113.8932
 21
97.60295
  0
LINE
  8
型材
  6
DOT
 10
-113.6932
 20
96.80295
 11
-112.8932
 21
97.60295
  0
LINE
  8
型材
  6
DOT
 10
-112.6932
 20
96.80295
 11
-111.8932
 21
97.60295
  0
LINE
  8
型材
  6
DOT
 10
-111.6932
 20
96.80295
 11
-110.8932
 21
97.60295
  0
LINE
  8
型材
  6
DOT
 10
-110.6932
 20
96.80295
 11
-109.8932
 21
97.60295
  0
LINE
  8
型材
  6
DOT
 10
-109.6932
 20
96.80295
 11
-108.8932
 21
97.60295
  0
LINE
  8
型材
  6
DOT
 10
-108.6932
 20
96.80295
 11
-107.8932
 21
97.60295
  0
LINE
  8
型材
  6
DOT
 10
-107.6932
 20
96.80295
 11
-106.8932
 21
97.60295
  0
LINE
  8
型材
  6
DOT
 10
-106.6932
 20
96.80295
 11
-105.8932
 21
97.60295
  0
LINE
  8
型材
  6
DOT
 10
-105.6932
 20
96.80295
 11
-104.8932
 21
97.60295
  0
LINE
  8
型材
  6
DOT
 10
-104.6932
 20
96.80295
 11
-103.8932
 21
97.60295
  0
LINE
  8
型材
  6
DOT
 10
-103.6932
 20
96.80295
 11
-102.8932
 21
97.60295
  0
LINE
  8
型材
  6
DOT
 10
-102.6932
 20
96.80295
 11
-101.8932
 21
97.60295
  0
LINE
  8
型材
  6
DOT
 10
-101.6932
 20
96.80295
 11
-100.8932
 21
97.60295
  0
LINE
  8
型材
  6
DOT
 10
-100.6932
 20
96.80295
 11
-99.8932
 21
97.60295
  0
LINE
  8
型材
  6
DOT
 10
-99.6932
 20
96.80295
 11
-98.8932
 21
97.60295
  0
LINE
  8
型材
  6
DOT
 10
-98.6932
 20
96.80295
 11
-97.8932
 21
97.60295
  0
LINE
  8
型材
  6
DOT
 10
-97.6932
 20
96.80295
 11
-96.8932
 21
97.60295
  0
LINE
  8
型材
  6
DOT
 10
-96.6932
 20
96.80295
 11
-95.8932
 21
97.60295
  0
LINE
  8
型材
  6
DOT
 10
-95.6932
 20
96.80295
 11
-94.8932
 21
97.60295
  0
LINE
  8
型材
  6
DOT
 10
-94.6932
 20
96.80295
 11
-93.8932
 21
97.60295
  0
LINE
  8
型材
  6
DOT
 10
-93.6932
 20
96.80295
 11
-92.8932
 21
97.60295
  0
LINE
  8
型材
  6
DOT
 10
-92.6932
 20
96.80295
 11
-91.8932
 21
97.60295
  0
LINE
  8
型材
  6
DOT
 10
-91.6932
 20
96.80295
 11
-90.8932
 21
97.60295
  0
LINE
  8
型材
  6
DOT
 10
-90.6932
 20
96.80295
 11
-89.8932
 21
97.60295
  0
LINE
  8
型材
  6
DOT
 10
-89.6932
 20
96.80295
 11
-88.8932
 21
97.60295
  0
LINE
  8
型材
  6
DOT
 10
-88.6932
 20
96.80295
 11
-87.8932
 21
97.60295
  0
LINE
  8
型材
  6
DOT
 10
-87.6932
 20
96.80295
 11
-86.8932
 21
97.60295
  0
LINE
  8
型材
  6
DOT
 10
-86.6932
 20
96.80295
 11
-85.8932
 21
97.60295
  0
LINE
  8
型材
  6
DOT
 10
-85.6932
 20
96.80295
 11
-84.8932
 21
97.60295
  0
LINE
  8
型材
  6
DOT
 10
-84.6932
 20
96.80295
 11
-83.8932
 21
97.60295
  0
LINE
  8
型材
  6
DOT
 10
-83.6932
 20
96.80295
 11
-82.8932
 21
97.60295
  0
LINE
  8
型材
  6
DOT
 10
-82.6932
 20
96.80295
 11
-81.8932
 21
97.60295
  0
LINE
  8
型材
  6
DOT
 10
-81.6932
 20
96.80295
 11
-80.8932
 21
97.60295
  0
LINE
  8
型材
  6
DOT
 10
-80.6932
 20
96.80295
 11
-79.8932
 21
97.60295
  0
LINE
  8
型材
  6
DOT
 10
-79.6932
 20
96.80295
 11
-78.8932
 21
97.60295
  0
LINE
  8
型材
  6
DOT
 10
-78.6932
 20
96.80295
 11
-77.8932
 21
97.60295
  0
LINE
  8
型材
  6
DOT
 10
-77.6932
 20
96.80295
 11
-76.8932
 21
97.60295
  0
LINE
  8
型材
  6
DOT
 10
-76.6932
 20
96.80295
 11
-75.8932
 21
97.60295
  0
LINE
  8
型材
  6
DOT
 10
-75.6932
 20
96.80295
 11
-74.8932
 21
97.60295
  0
LINE
  8
型材
  6
DOT
 10
-74.6932
 20
96.80295
 11
-73.8932
 21
97.60295
  0
LINE
  8
型材
  6
DOT
 10
-73.6932
 20
96.80295
 11
-72.8932
 21
97.60295
  0
LINE
  8
型材
  6
DOT
 10
-72.6932
 20
96.80295
 11
-71.8932
 21
97.60295
  0
LINE
  8
型材
  6
DOT
 10
-71.6932
 20
96.80295
 11
-70.8932
 21
97.60295
  0
LINE
  8
型材
  6
DOT
 10
-70.6932
 20
96.80295
 11
-69.8932
 21
97.60295
  0
LINE
  8
型材
  6
DOT
 10
-69.6932
 20
96.80295
 11
-68.8932
 21
97.60295
  0
LINE
  8
型材
  6
DOT
 10
-68.6932
 20
96.80295
 11
-67.8932
 21
97.60295
  0
LINE
  8
型材
  6
DOT
 10
-67.6932
 20
96.80295
 11
-66.8932
 21
97.60295
  0
LINE
  8
型材
  6
DOT
 10
-66.6932
 20
96.80295
 11
-65.8932
 21
97.60295
  0
LINE
  8
型材
  6
DOT
 10
-65.6932
 20
96.80295
 11
-65.4432
 21
97.05295
  0
CIRCLE
  8
型材
  6
DOT
 10
-123.793195
 20
70.75295
 40
3.0
  0
POLYLINE
  8
型材
  6
DOT
 66
     1
  0
VERTEX
  8
型材
 10
-126.131463
 20
70.75295
  0
VERTEX
  8
型材
 10
-124.962327
 20
72.77795
  0
VERTEX
  8
型材
 10
-122.62406
 20
72.77795
  0
VERTEX
  8
型材
 10
-121.454925
 20
70.75295
  0
VERTEX
  8
型材
 10
-122.62406
 20
68.72795
  0
VERTEX
  8
型材
 10
-124.962327
 20
68.72795
  0
VERTEX
  8
型材
 10
-126.131463
 20
70.75295
  0
SEQEND
  0
LINE
  8
型材
  6
DOT
 10
-187.1432
 20
169.45865
 11
-187.1432
 21
223.75865
  0
LINE
  8
型材
  6
DOT
 10
66.2568
 20
223.75865
 11
66.2568
 21
169.45865
  0
LINE
  8
型材
  6
DOT
 10
-187.1432
 20
169.45865
 11
66.2568
 21
169.45865
  0
LINE
  8
型材
  6
DOT
 10
53.181803
 20
169.45865
 11
53.181803
 21
168.65865
  0
LINE
  8
型材
  6
DOT
 10
55.931803
 20
169.45865
 11
55.931803
 21
168.65865
  0
LINE
  8
型材
  6
DOT
 10
55.931803
 20
169.25865
 11
53.181803
 21
169.25865
  0
LINE
  8
型材
  6
DOT
 10
55.931803
 20
169.05865
 11
53.181803
 21
169.05865
  0
LINE
  8
型材
  6
DOT
 10
55.931803
 20
168.85865
 11
53.181803
 21
168.85865
  0
LINE
  8
型材
  6
DOT
 10
-176.818198
 20
169.45865
 11
-176.818198
 21
168.65865
  0
LINE
  8
型材
  6
DOT
 10
-174.068198
 20
169.45865
 11
-174.068198
 21
168.65865
  0
LINE
  8
型材
  6
DOT
 10
-174.068198
 20
169.25865
 11
-176.818198
 21
169.25865
  0
LINE
  8
型材
  6
DOT
 10
-174.068198
 20
169.05865
 11
-176.818198
 21
169.05865
  0
LINE
  8
型材
  6
DOT
 10
-174.068198
 20
168.85865
 11
-176.818198
 21
168.85865
  0
LINE
  8
型材
  6
DOT
 10
-290.728905
 20
96.80295
 11
-345.028905
 21
96.80295
  0
LINE
  8
型材
  6
DASHDOT
 10
-341.312748
 20
80.05295
 11
-350.325235
 21
80.05295
  0
LINE
  8
型材
  6
DOT
 10
-345.028905
 20
81.42795
 11
-345.828905
 21
81.42795
  0
LINE
  8
型材
  6
DOT
 10
-345.028905
 20
78.67795
 11
-345.828905
 21
78.67795
  0
LINE
  8
型材
  6
DOT
 10
-345.228905
 20
78.67795
 11
-345.228905
 21
81.42795
  0
LINE
  8
型材
  6
DOT
 10
-345.428905
 20
78.67795
 11
-345.428905
 21
81.42795
  0
LINE
  8
型材
  6
DOT
 10
-345.628905
 20
78.67795
 11
-345.628905
 21
81.42795
  0
LINE
  8
型材
  6
DASHDOT
 10
-341.312748
 20
30.05295
 11
-350.325235
 21
30.05295
  0
LINE
  8
型材
  6
DOT
 10
-345.028905
 20
31.42795
 11
-345.828905
 21
31.42795
  0
LINE
  8
型材
  6
DOT
 10
-345.028905
 20
28.67795
 11
-345.828905
 21
28.67795
  0
LINE
  8
型材
  6
DOT
 10
-345.228905
 20
28.67795
 11
-345.228905
 21
31.42795
  0
LINE
  8
型材
  6
DOT
 10
-345.428905
 20
28.67795
 11
-345.428905
 21
31.42795
  0
LINE
  8
型材
  6
DOT
 10
-345.628905
 20
28.67795
 11
-345.628905
 21
31.42795
  0
LINE
  8
型材
  6
DASHDOT
 10
220.426347
 20
80.05295
 11
229.438835
 21
80.05295
  0
LINE
  8
型材
  6
DOT
 10
224.142505
 20
81.42795
 11
224.942505
 21
81.42795
  0
LINE
  8
型材
  6
DOT
 10
224.142505
 20
78.67795
 11
224.942505
 21
78.67795
  0
LINE
  8
型材
  6
DOT
 10
224.342505
 20
78.67795
 11
224.342505
 21
81.42795
  0
LINE
  8
型材
  6
DOT
 10
224.542505
 20
78.67795
 11
224.542505
 21
81.42795
  0
LINE
  8
型材
  6
DOT
 10
224.742505
 20
78.67795
 11
224.742505
 21
81.42795
  0
LINE
  8
型材
  6
DASHDOT
 10
220.426347
 20
30.05295
 11
229.438835
 21
30.05295
  0
LINE
  8
型材
  6
DOT
 10
224.142505
 20
31.42795
 11
224.942505
 21
31.42795
  0
LINE
  8
型材
  6
DOT
 10
224.142505
 20
28.67795
 11
224.942505
 21
28.67795
  0
LINE
  8
型材
  6
DOT
 10
224.342505
 20
28.67795
 11
224.342505
 21
31.42795
  0
LINE
  8
型材
  6
DOT
 10
224.542505
 20
28.67795
 11
224.542505
 21
31.42795
  0
LINE
  8
型材
  6
DOT
 10
224.742505
 20
28.67795
 11
224.742505
 21
31.42795
  0
LINE
  8
型材
  6
DOT
 10
169.842505
 20
96.80295
 11
224.142505
 21
96.80295
  0
LINE
  8
型材
  6
DOT
 10
-187.1432
 20
-59.35275
 11
-187.1432
 21
-113.65275
  0
LINE
  8
型材
  6
DOT
 10
66.2568
 20
-113.65275
 11
66.2568
 21
-59.35275
  0
LINE
  8
型材
  6
DOT
 10
-187.1432
 20
-59.35275
 11
66.2568
 21
-59.35275
  0
LINE
  8
型材
  6
DOT
 10
53.181803
 20
-59.35275
 11
53.181803
 21
-58.55275
  0
LINE
  8
型材
  6
DOT
 10
55.931803
 20
-59.35275
 11
55.931803
 21
-58.55275
  0
LINE
  8
型材
  6
DOT
 10
55.931803
 20
-59.15275
 11
53.181803
 21
-59.15275
  0
LINE
  8
型材
  6
DOT
 10
55.931803
 20
-58.95275
 11
53.181803
 21
-58.95275
  0
LINE
  8
型材
  6
DOT
 10
55.931803
 20
-58.75275
 11
53.181803
 21
-58.75275
  0
LINE
  8
型材
  6
DOT
 10
-176.818198
 20
-59.35275
 11
-176.818198
 21
-58.55275
  0
LINE
  8
型材
  6
DOT
 10
-174.068198
 20
-59.35275
 11
-174.068198
 21
-58.55275
  0
LINE
  8
型材
  6
DOT
 10
-174.068198
 20
-59.15275
 11
-176.818198
 21
-59.15275
  0
LINE
  8
型材
  6
DOT
 10
-174.068198
 20
-58.95275
 11
-176.818198
 21
-58.95275
  0
LINE
  8
型材
  6
DOT
 10
-174.068198
 20
-58.75275
 11
-176.818198
 21
-58.75275
  0
INSERT
  2
*GRP_0091
  8
型材
  6
CONTINUOUS
 62
    32
 10
0.0
 20
0.0
  0
CIRCLE
  8
型材
  6
CONTINUOUS
 62
    32
 10
-332.028905
 20
77.55295
 40
9.25
  0
CIRCLE
  8
型材
  6
CONTINUOUS
 62
    32
 10
-332.028905
 20
77.55295
 40
5.25
  0
CIRCLE
  8
型材
  6
DOT
 62
    32
 10
-332.028905
 20
77.55295
 40
7.0
  0
LINE
  8
型材
  6
CONTINUOUS
 62
    32
 10
-189.1932
 20
-13.52205
 11
68.3068
 21
-13.52205
  0
LINE
  8
型材
  6
DOT
 10
-187.9432
 20
-12.39705
 11
67.0568
 21
-12.39705
  0
LINE
  8
型材
  6
CONTINUOUS
 62
    32
 10
-189.1932
 20
98.72795
 11
-189.1932
 21
-13.52205
  0
LINE
  8
型材
  6
DOT
 10
-187.9432
 20
97.60295
 11
-187.9432
 21
-12.39705
  0
LINE
  8
型材
  6
CONTINUOUS
 62
    32
 10
68.3068
 20
98.72795
 11
68.3068
 21
-13.52205
  0
LINE
  8
型材
  6
DOT
 10
67.0568
 20
97.60295
 11
67.0568
 21
-12.39705
  0
LINE
  8
型材
  6
CONTINUOUS
 62
    32
 10
169.842505
 20
-13.52205
 11
158.142505
 21
-13.52205
  0
ARC
  8
型材
  6
CONTINUOUS
 62
    32
 10
158.142507
 20
-12.722052
 40
0.8
 50
180.0
 51
270.0
  0
ARC
  8
型材
  6
CONTINUOUS
 62
    32
 10
224.142507
 20
-11.597052
 40
0.8
 50
-90.0
 51
0.0
  0
LINE
  8
型材
  6
CONTINUOUS
 62
    32
 10
224.142505
 20
-12.39705
 11
169.842505
 21
-12.39705
  0
LINE
  8
型材
  6
CONTINUOUS
 62
    32
 10
-290.728905
 20
-13.52205
 11
-279.028905
 21
-13.52205
  0
ARC
  8
型材
  6
CONTINUOUS
 62
    32
 10
-279.028905
 20
-12.722052
 40
0.8
 50
270.0
 51
360.0
  0
ARC
  8
型材
  6
CONTINUOUS
 62
    32
 10
-345.028905
 20
-11.597049
 40
0.8
 50
180.0
 51
270.0
  0
LINE
  8
型材
  6
CONTINUOUS
 62
    32
 10
-345.028905
 20
-12.39705
 11
-290.728905
 21
-12.39705
  0
LINE
  8
型材
  6
DOT
 10
-290.728905
 20
-11.59705
 11
-345.028905
 21
-11.59705
  0
LINE
  8
型材
  6
DOT
 10
169.842505
 20
-11.59705
 11
224.142505
 21
-11.59705
  0
LINE
  8
型材
  6
CONTINUOUS
 62
    32
 10
-278.228905
 20
97.92795
 11
-278.228905
 21
-12.72205
  0
LINE
  8
型材
  6
CONTINUOUS
 62
    32
 10
-290.728905
 20
98.72795
 11
-290.728905
 21
-13.52205
  0
LINE
  8
型材
  6
CONTINUOUS
 62
    32
 10
-345.828905
 20
96.80295
 11
-345.828905
 21
-11.59705
  0
LINE
  8
型材
  6
DOT
 10
-345.028905
 20
96.80295
 11
-345.028905
 21
-11.59705
  0
LINE
  8
型材
  6
CONTINUOUS
 62
    32
 10
157.342505
 20
97.92795
 11
157.342505
 21
-12.722052
  0
LINE
  8
型材
  6
CONTINUOUS
 62
    32
 10
169.842505
 20
98.72795
 11
169.842505
 21
-13.52205
  0
LINE
  8
型材
  6
DOT
 10
224.142505
 20
96.80295
 11
224.142505
 21
-11.59705
  0
LINE
  8
型材
  6
CONTINUOUS
 62
    32
 10
224.942505
 20
96.80295
 11
224.942505
 21
-11.59705
  0
INSERT
  2
*GRP_0092
  8
型材
  6
DASHDOT
 62
    32
 10
0.0
 20
0.0
  0
INSERT
  2
*GRP_0093
  8
型材
  6
CONTINUOUS
 62
    32
 10
0.0
 20
0.0
  0
INSERT
  2
*GRP_0094
  8
型材
  6
CONTINUOUS
 62
    32
 10
0.0
 20
0.0
  0
INSERT
  2
*GRP_0095
  8
型材
  6
CONTINUOUS
 62
    32
 10
0.0
 20
0.0
  0
CIRCLE
  8
型材
  6
CONTINUOUS
 62
    32
 10
58.3068
 20
42.60295
 40
2.25
  0
LINE
  8
型材
  6
CONTINUOUS
 62
    32
 10
58.6668
 20
43.32295
 11
58.6668
 21
43.835507
  0
LINE
  8
型材
  6
CONTINUOUS
 62
    32
 10
59.0268
 20
42.96295
 11
59.539358
 21
42.96295
  0
ARC
  8
型材
  6
CONTINUOUS
 62
    32
 10
59.026802
 20
43.32295
 40
0.36
 50
180.0
 51
270.0
  0
LINE
  8
型材
  6
CONTINUOUS
 62
    32
 10
59.539358
 20
42.96295
 11
59.539358
 21
42.60295
  0
LINE
  8
型材
  6
CONTINUOUS
 62
    32
 10
58.6668
 20
43.835507
 11
58.3068
 21
43.835507
  0
LINE
  8
型材
  6
CONTINUOUS
 62
    32
 10
58.6668
 20
41.88295
 11
58.6668
 21
41.370392
  0
LINE
  8
型材
  6
CONTINUOUS
 62
    32
 10
59.0268
 20
42.24295
 11
59.539358
 21
42.24295
  0
ARC
  8
型材
  6
CONTINUOUS
 62
    32
 10
59.026802
 20
41.88295
 40
0.36
 50
90.0
 51
180.0
  0
LINE
  8
型材
  6
CONTINUOUS
 62
    32
 10
59.539358
 20
42.24295
 11
59.539358
 21
42.60295
  0
LINE
  8
型材
  6
CONTINUOUS
 62
    32
 10
58.6668
 20
41.370392
 11
58.3068
 21
41.370392
  0
LINE
  8
型材
  6
CONTINUOUS
 62
    32
 10
57.9468
 20
41.88295
 11
57.9468
 21
41.370392
  0
LINE
  8
型材
  6
CONTINUOUS
 62
    32
 10
57.5868
 20
42.24295
 11
57.074243
 21
42.24295
  0
ARC
  8
型材
  6
CONTINUOUS
 62
    32
 10
57.586802
 20
41.88295
 40
0.36
 50
0.0
 51
90.0
  0
LINE
  8
型材
  6
CONTINUOUS
 62
    32
 10
57.074243
 20
42.24295
 11
57.074243
 21
42.60295
  0
LINE
  8
型材
  6
CONTINUOUS
 62
    32
 10
57.9468
 20
41.370392
 11
58.3068
 21
41.370392
  0
LINE
  8
型材
  6
CONTINUOUS
 62
    32
 10
57.9468
 20
43.32295
 11
57.9468
 21
43.835507
  0
LINE
  8
型材
  6
CONTINUOUS
 62
    32
 10
57.5868
 20
42.96295
 11
57.074243
 21
42.96295
  0
ARC
  8
型材
  6
CONTINUOUS
 62
    32
 10
57.586802
 20
43.32295
 40
0.36
 50
270.0
 51
360.0
  0
LINE
  8
型材
  6
CONTINUOUS
 62
    32
 10
57.074243
 20
42.96295
 11
57.074243
 21
42.60295
  0
LINE
  8
型材
  6
CONTINUOUS
 62
    32
 10
57.9468
 20
43.835507
 11
58.3068
 21
43.835507
  0
CIRCLE
  8
型材
  6
CONTINUOUS
 62
    32
 10
-179.1932
 20
42.60295
 40
2.25
  0
LINE
  8
型材
  6
CONTINUOUS
 62
    32
 10
-178.8332
 20
43.32295
 11
-178.8332
 21
43.835507
  0
LINE
  8
型材
  6
CONTINUOUS
 62
    32
 10
-178.4732
 20
42.96295
 11
-177.960643
 21
42.96295
  0
ARC
  8
型材
  6
CONTINUOUS
 62
    32
 10
-178.473198
 20
43.32295
 40
0.36
 50
180.0
 51
270.0
  0
LINE
  8
型材
  6
CONTINUOUS
 62
    32
 10
-177.960643
 20
42.96295
 11
-177.960643
 21
42.60295
  0
LINE
  8
型材
  6
CONTINUOUS
 62
    32
 10
-178.8332
 20
43.835507
 11
-179.1932
 21
43.835507
  0
LINE
  8
型材
  6
CONTINUOUS
 62
    32
 10
-178.8332
 20
41.88295
 11
-178.8332
 21
41.370392
  0
LINE
  8
型材
  6
CONTINUOUS
 62
    32
 10
-178.4732
 20
42.24295
 11
-177.960643
 21
42.24295
  0
ARC
  8
型材
  6
CONTINUOUS
 62
    32
 10
-178.473198
 20
41.88295
 40
0.36
 50
90.0
 51
180.0
  0
LINE
  8
型材
  6
CONTINUOUS
 62
    32
 10
-177.960643
 20
42.24295
 11
-177.960643
 21
42.60295
  0
LINE
  8
型材
  6
CONTINUOUS
 62
    32
 10
-178.8332
 20
41.370392
 11
-179.1932
 21
41.370392
  0
LINE
  8
型材
  6
CONTINUOUS
 62
    32
 10
-179.5532
 20
41.88295
 11
-179.5532
 21
41.370392
  0
LINE
  8
型材
  6
CONTINUOUS
 62
    32
 10
-179.9132
 20
42.24295
 11
-180.425757
 21
42.24295
  0
ARC
  8
型材
  6
CONTINUOUS
 62
    32
 10
-179.913198
 20
41.88295
 40
0.36
 50
0.0
 51
90.0
  0
LINE
  8
型材
  6
CONTINUOUS
 62
    32
 10
-180.425757
 20
42.24295
 11
-180.425757
 21
42.60295
  0
LINE
  8
型材
  6
CONTINUOUS
 62
    32
 10
-179.5532
 20
41.370392
 11
-179.1932
 21
41.370392
  0
LINE
  8
型材
  6
CONTINUOUS
 62
    32
 10
-179.5532
 20
43.32295
 11
-179.5532
 21
43.835507
  0
LINE
  8
型材
  6
CONTINUOUS
 62
    32
 10
-179.9132
 20
42.96295
 11
-180.425757
 21
42.96295
  0
ARC
  8
型材
  6
CONTINUOUS
 62
    32
 10
-179.913198
 20
43.32295
 40
0.36
 50
270.0
 51
360.0
  0
LINE
  8
型材
  6
CONTINUOUS
 62
    32
 10
-180.425757
 20
42.96295
 11
-180.425757
 21
42.60295
  0
LINE
  8
型材
  6
CONTINUOUS
 62
    32
 10
-179.5532
 20
43.835507
 11
-179.1932
 21
43.835507
  0
LINE
  8
型材
  6
CONTINUOUS
 62
    32
 10
157.342505
 20
40.35295
 11
156.605348
 21
40.417442
  0
ARC
  8
型材
  6
CONTINUOUS
 62
    32
 10
156.692507
 20
41.413635
 40
1.0
 50
180.0
 51
264.999997
  0
LINE
  8
型材
  6
CONTINUOUS
 62
    32
 10
157.342505
 20
44.85295
 11
156.605348
 21
44.788458
  0
ARC
  8
型材
  6
CONTINUOUS
 62
    32
 10
156.692507
 20
43.79226
 40
1.0
 50
95.000003
 51
180.0
  0
LINE
  8
型材
  6
CONTINUOUS
 62
    32
 10
157.342505
 20
40.35295
 11
157.342505
 21
44.85295
  0
LINE
  8
型材
  6
CONTINUOUS
 62
    32
 10
156.709563
 20
42.96295
 11
156.709563
 21
42.24295
  0
LINE
  8
型材
  6
CONTINUOUS
 62
    32
 10
155.692505
 20
42.24295
 11
156.709563
 21
42.24295
  0
LINE
  8
型材
  6
CONTINUOUS
 62
    32
 10
155.692505
 20
42.96295
 11
156.709563
 21
42.96295
  0
LINE
  8
型材
  6
CONTINUOUS
 62
    32
 10
155.692505
 20
41.413638
 11
155.692505
 21
42.24295
  0
LINE
  8
型材
  6
CONTINUOUS
 62
    32
 10
155.692505
 20
42.96295
 11
155.692505
 21
43.792262
  0
LINE
  8
型材
  6
CONTINUOUS
 62
    32
 10
-278.228905
 20
40.35295
 11
-277.491748
 21
40.417442
  0
ARC
  8
型材
  6
CONTINUOUS
 62
    32
 10
-277.578904
 20
41.413635
 40
1.0
 50
275.000003
 51
360.0
  0
LINE
  8
型材
  6
CONTINUOUS
 62
    32
 10
-278.228905
 20
44.85295
 11
-277.491748
 21
44.788458
  0
ARC
  8
型材
  6
CONTINUOUS
 62
    32
 10
-277.578904
 20
43.79226
 40
1.0
 50
0.0
 51
84.999997
  0
LINE
  8
型材
  6
CONTINUOUS
 62
    32
 10
-278.228905
 20
40.35295
 11
-278.228905
 21
44.85295
  0
LINE
  8
型材
  6
CONTINUOUS
 62
    32
 10
-277.595963
 20
42.96295
 11
-277.595963
 21
42.24295
  0
LINE
  8
型材
  6
CONTINUOUS
 62
    32
 10
-276.578905
 20
42.24295
 11
-277.595963
 21
42.24295
  0
LINE
  8
型材
  6
CONTINUOUS
 62
    32
 10
-276.578905
 20
42.96295
 11
-277.595963
 21
42.96295
  0
LINE
  8
型材
  6
CONTINUOUS
 62
    32
 10
-276.578905
 20
41.413638
 11
-276.578905
 21
42.24295
  0
LINE
  8
型材
  6
CONTINUOUS
 62
    32
 10
-276.578905
 20
42.96295
 11
-276.578905
 21
43.792262
  0
INSERT
  2
*GRP_0096
  8
型材
  6
CONTINUOUS
 62
    32
 10
0.0
 20
0.0
  0
CIRCLE
  8
型材
  6
CONTINUOUS
 62
    32
 10
211.142505
 20
7.65295
 40
9.25
  0
CIRCLE
  8
型材
  6
CONTINUOUS
 62
    32
 10
211.142505
 20
7.65295
 40
5.25
  0
CIRCLE
  8
型材
  6
DOT
 62
    32
 10
211.142505
 20
7.65295
 40
7.0
  0
LINE
  8
型材
  6
DOT
 62
    32
 10
-174.0682
 20
77.60295
 11
-174.0682
 21
79.114127
  0
LINE
  8
型材
  6
DOT
 62
    32
 10
-176.8182
 20
77.60295
 11
-176.8182
 21
79.114127
  0
ARC
  8
型材
  6
DOT
 62
    32
 10
-175.443197
 20
77.602949
 40
1.375
 50
180.0
 51
360.0
  0
ARC
  8
型材
  6
DOT
 62
    32
 10
-175.443197
 20
82.602949
 40
3.75
 50
291.510188
 51
608.489812
  0
LINE
  8
型材
  6
DOT
 62
    32
 10
55.9318
 20
77.60295
 11
55.9318
 21
79.114127
  0
LINE
  8
型材
  6
DOT
 62
    32
 10
53.1818
 20
77.60295
 11
53.1818
 21
79.114127
  0
ARC
  8
型材
  6
DOT
 62
    32
 10
54.556803
 20
77.602949
 40
1.375
 50
180.0
 51
360.0
  0
ARC
  8
型材
  6
DOT
 62
    32
 10
54.556803
 20
82.602949
 40
3.75
 50
291.510188
 51
608.489812
  0
LINE
  8
型材
  6
DOT
 62
    32
 10
-174.0682
 20
7.60295
 11
-174.0682
 21
9.114127
  0
LINE
  8
型材
  6
DOT
 62
    32
 10
-176.8182
 20
7.60295
 11
-176.8182
 21
9.114127
  0
ARC
  8
型材
  6
DOT
 62
    32
 10
-175.443197
 20
7.602949
 40
1.375
 50
180.0
 51
360.0
  0
ARC
  8
型材
  6
DOT
 62
    32
 10
-175.443197
 20
12.602949
 40
3.75
 50
291.510188
 51
608.489812
  0
LINE
  8
型材
  6
DOT
 62
    32
 10
53.1818
 20
7.60295
 11
53.1818
 21
9.114127
  0
LINE
  8
型材
  6
DOT
 62
    32
 10
55.9318
 20
7.60295
 11
55.9318
 21
9.114127
  0
ARC
  8
型材
  6
DOT
 62
    32
 10
54.556803
 20
7.602949
 40
1.375
 50
180.0
 51
360.0
  0
ARC
  8
型材
  6
DOT
 62
    32
 10
54.556803
 20
12.602949
 40
3.75
 50
291.510188
 51
608.489812
  0
LINE
  8
型材
  6
CONTINUOUS
 10
143.363505
 20
-110.985933
 11
341.157677
 21
-110.985933
  0
LINE
  8
型材
  6
CONTINUOUS
 10
143.363505
 20
-122.919985
 11
341.157677
 21
-122.919985
  0
LINE
  8
型材
  6
CONTINUOUS
 10
143.363505
 20
-134.854037
 11
341.157677
 21
-134.854037
  0
LINE
  8
型材
  6
CONTINUOUS
 10
143.363505
 20
-146.78809
 11
341.157677
 21
-146.78809
  0
LINE
  8
型材
  6
CONTINUOUS
 10
143.363505
 20
-158.722142
 11
341.157677
 21
-158.722142
  0
LINE
  8
型材
  6
CONTINUOUS
 10
143.363505
 20
-170.656195
 11
341.157677
 21
-170.656195
  0
LINE
  8
型材
  6
CONTINUOUS
 10
143.363505
 20
-99.05188
 11
341.157677
 21
-99.05188
  0
LINE
  8
型材
  6
CONTINUOUS
 10
143.363505
 20
-51.31567
 11
341.157677
 21
-51.31567
  0
LINE
  8
型材
  6
CONTINUOUS
 10
143.363505
 20
-87.117828
 11
341.157677
 21
-87.117828
  0
LINE
  8
型材
  6
CONTINUOUS
 10
143.363505
 20
-218.392405
 11
341.157677
 21
-218.392405
  0
LINE
  8
型材
  6
CONTINUOUS
 10
143.363505
 20
-206.458352
 11
341.157677
 21
-206.458352
  0
LINE
  8
型材
  6
CONTINUOUS
 10
143.363505
 20
-194.5243
 11
341.157677
 21
-194.5243
  0
LINE
  8
型材
  6
CONTINUOUS
 10
143.363505
 20
-182.590247
 11
341.157677
 21
-182.590247
  0
LINE
  8
型材
  6
CONTINUOUS
 10
222.91459
 20
-87.117828
 11
222.91459
 21
-158.722142
  0
LINE
  8
型材
  6
CONTINUOUS
 10
79.86956
 20
185.489263
 11
111.062665
 21
185.489263
  0
LINE
  8
型材
  6
CONTINUOUS
 10
111.062665
 20
185.489263
 11
111.062665
 21
187.748405
  0
LINE
  8
型材
  6
CONTINUOUS
 10
89.304973
 20
187.748405
 11
111.062665
 21
187.748405
  0
LINE
  8
型材
  6
CONTINUOUS
 10
143.363505
 20
-230.326458
 11
341.157677
 21
-230.326458
  0
LINE
  8
型材
  6
CONTINUOUS
 10
143.363505
 20
-242.26051
 11
341.157677
 21
-242.26051
  0
LINE
  8
型材
  6
CONTINUOUS
 10
143.363505
 20
-51.31567
 11
143.363505
 21
-170.656195
  0
LINE
  8
型材
  6
CONTINUOUS
 10
143.363505
 20
-182.590247
 11
143.363505
 21
-242.26051
  0
LINE
  8
型材
  6
CONTINUOUS
 10
341.157677
 20
-51.31567
 11
341.157677
 21
-170.656195
  0
LINE
  8
型材
  6
CONTINUOUS
 10
341.157677
 20
-182.590247
 11
341.157677
 21
-242.26051
  0
LINE
  8
型材
  6
CONTINUOUS
 10
222.91459
 20
-242.26051
 11
222.91459
 21
-194.5243
  0
TEXT
  7
TextStyle03
  8
文字
  6
CONTINUOUS
 10
237.8
 20
-272.95
  1
1
 40
4.0
 72
     5
 11
239.8
 21
-272.95
  0
TEXT
  7
TextStyle03
  8
文字
  6
CONTINUOUS
 10
246.15
 20
-272.95
  1
2
 40
4.0
 72
     5
 11
248.15
 21
-272.95
  0
TEXT
  7
TextStyle03
  8
文字
  6
CONTINUOUS
 10
166.475
 20
270.175
  1
結　線　図
 40
6.0
 72
     5
 11
199.475
 21
270.175
  0
TEXT
  7
TextStyle03
  8
文字
  6
CONTINUOUS
 10
365.45
 20
232.9
  1
茶
 40
6.0
 72
     5
 11
371.45
 21
232.9
  0
TEXT
  7
TextStyle03
  8
文字
  6
CONTINUOUS
 10
352.075
 20
232.9
  1
赤
 40
6.0
 72
     5
 11
358.075
 21
232.9
  0
TEXT
  7
TextStyle03
  8
文字
  6
CONTINUOUS
 10
338.95
 20
232.9
  1
緑
 40
6.0
 72
     5
 11
344.95
 21
232.9
  0
TEXT
  7
TextStyle03
  8
文字
  6
CONTINUOUS
 10
325.725
 20
232.9
  1
黄
 40
6.0
 72
     5
 11
331.725
 21
232.9
  0
TEXT
  7
TextStyle03
  8
文字
  6
CONTINUOUS
 10
312.4
 20
232.9
  1
白
 40
6.0
 72
     5
 11
318.4
 21
232.9
  0
TEXT
  7
TextStyle03
  8
文字
  6
CONTINUOUS
 10
299.05
 20
232.9
  1
青
 40
6.0
 72
     5
 11
305.05
 21
232.9
  0
TEXT
  7
TextStyle03
  8
文字
  6
CONTINUOUS
 10
362.225
 20
225.275
  1
１Ｎ
 40
6.0
 72
     5
 11
374.975
 21
225.275
  0
TEXT
  7
TextStyle03
  8
文字
  6
CONTINUOUS
 10
352.075
 20
225.275
  1
２
 40
6.0
 72
     5
 11
358.075
 21
225.275
  0
TEXT
  7
TextStyle03
  8
文字
  6
CONTINUOUS
 10
338.95
 20
225.275
  1
３
 40
6.0
 72
     5
 11
344.95
 21
225.275
  0
TEXT
  7
TextStyle03
  8
文字
  6
CONTINUOUS
 10
325.725
 20
225.275
  1
４
 40
6.0
 72
     5
 11
331.725
 21
225.275
  0
TEXT
  7
TextStyle03
  8
文字
  6
CONTINUOUS
 10
312.4
 20
225.275
  1
５
 40
6.0
 72
     5
 11
318.4
 21
225.275
  0
TEXT
  7
TextStyle03
  8
文字
  6
CONTINUOUS
 10
299.05
 20
225.275
  1
６
 40
6.0
 72
     5
 11
305.05
 21
225.275
  0
TEXT
  7
TextStyle03
  8
文字
  6
CONTINUOUS
 10
364.775
 20
217.2
  1
DC-
 40
6.0
 72
     5
 11
374.525
 21
217.2
  0
TEXT
  7
TextStyle03
  8
文字
  6
CONTINUOUS
 10
352.075
 20
217.2
  1
開
 40
6.0
 72
     5
 11
358.075
 21
217.2
  0
TEXT
  7
TextStyle03
  8
文字
  6
CONTINUOUS
 10
350.75
 20
209.475
  1
LED
 40
6.0
 72
     5
 11
360.5
 21
209.475
  0
TEXT
  7
TextStyle03
  8
文字
  6
CONTINUOUS
 10
337.175
 20
209.475
  1
LED
 40
6.0
 72
     5
 11
346.925
 21
209.475
  0
TEXT
  7
TextStyle03
  8
文字
  6
CONTINUOUS
 10
338.825
 20
217.2
  1
閉
 40
6.0
 72
     5
 11
344.825
 21
217.2
  0
TEXT
  7
TextStyle03
  8
文字
  6
CONTINUOUS
 10
325.425
 20
217.2
  1
開
 40
6.0
 72
     5
 11
331.425
 21
217.2
  0
TEXT
  7
TextStyle03
  8
文字
  6
CONTINUOUS
 10
312.075
 20
217.2
  1
停
 40
6.0
 72
     5
 11
318.075
 21
217.2
  0
TEXT
  7
TextStyle03
  8
文字
  6
CONTINUOUS
 10
298.875
 20
217.2
  1
閉
 40
6.0
 72
     5
 11
304.875
 21
217.2
  0
TEXT
  7
TextStyle03
  8
文字
  6
CONTINUOUS
 10
219.55
 20
232.9
  1
灰
 40
6.0
 72
     5
 11
225.55
 21
232.9
  0
TEXT
  7
TextStyle03
  8
文字
  6
CONTINUOUS
 10
206.425
 20
232.9
  1
灰
 40
6.0
 72
     5
 11
212.425
 21
232.9
  0
TEXT
  7
TextStyle03
  8
文字
  6
CONTINUOUS
 10
180.175
 20
232.9
  1
赤
 40
6.0
 72
     5
 11
186.175
 21
232.9
  0
TEXT
  7
TextStyle03
  8
文字
  6
CONTINUOUS
 10
166.95
 20
232.9
  1
白
 40
6.0
 72
     5
 11
172.95
 21
232.9
  0
TEXT
  7
TextStyle03
  8
文字
  6
CONTINUOUS
 10
180.175
 20
225.275
  1
＋
 40
6.0
 72
     5
 11
186.175
 21
225.275
  0
TEXT
  7
TextStyle03
  8
文字
  6
CONTINUOUS
 10
166.6
 20
225.275
  1
－
 40
6.0
 72
     5
 11
172.6
 21
225.275
  0
TEXT
  7
TextStyle03
  8
文字
  6
CONTINUOUS
 10
166.95
 20
216.35
  1
DC24V
 40
6.0
 72
     5
 11
183.45
 21
216.35
  0
TEXT
  7
TextStyle03
  8
文字
  6
CONTINUOUS
 10
206.8
 20
216.35
  1
AC100V
 40
6.0
 72
     5
 11
226.675
 21
216.35
  0
TEXT
  7
TextStyle03
  8
文字
  6
CONTINUOUS
 10
285.925
 20
232.9
  1
黒
 40
6.0
 72
     5
 11
291.925
 21
232.9
  0
TEXT
  7
TextStyle03
  8
文字
  6
CONTINUOUS
 10
282.25
 20
225.275
  1
７Ｐ
 40
6.0
 72
     5
 11
295.0
 21
225.275
  0
TEXT
  7
TextStyle03
  8
文字
  6
CONTINUOUS
 10
283.575
 20
217.2
  1
DC+
 40
6.0
 72
     5
 11
293.325
 21
217.2
  0
TEXT
  7
TextStyle03
  8
文字
  6
CONTINUOUS
 10
169.675
 20
195.55
  1
電源入力用端子台
 40
6.0
 72
     5
 11
222.925
 21
195.55
  0
TEXT
  7
TextStyle03
  8
文字
  6
CONTINUOUS
 10
297.2
 20
195.55
  1
信号線用端子台
 40
6.0
 72
     5
 11
343.7
 21
195.55
  0
TEXT
  7
TextStyle03
  8
文字
  6
CONTINUOUS
 10
274.775
 20
-279.275
  1
ＴＫ－ＯＰ－ＤＥ００１Ｂ
 40
4.0
 72
     5
 11
328.275
 21
-279.275
  0
TEXT
  7
TextStyle03
  8
文字
  6
CONTINUOUS
 10
92.925
 20
130.325
  1
Ｓ＝１／２
 40
4.0
 72
     5
 11
114.925
 21
130.325
  0
TEXT
  7
TextStyle03
  8
文字
  6
CONTINUOUS
 10
-373.675
 20
201.65
  1
Ｓ＝１／２
 40
4.0
 72
     5
 11
-351.675
 21
201.65
  0
TEXT
  7
TextStyle03
  8
文字
  6
CONTINUOUS
 10
-100.6
 20
53.775
  1
非常閉鎖用軸受け
 40
6.0
 72
     5
 11
-47.35
 21
53.775
  0
TEXT
  7
TextStyle03
  8
文字
  6
CONTINUOUS
 10
-299.325
 20
180.95
  1
アウターチューブ
 40
6.0
 72
     5
 11
-246.075
 21
180.95
  0
TEXT
  7
TextStyle03
  8
文字
  6
CONTINUOUS
 10
-45.825
 20
198.8
  1
ワイヤー通し部切り欠き加工
 40
6.0
 72
     5
 11
41.175
 21
198.8
  0
TEXT
  7
TextStyle03
  8
文字
  6
CONTINUOUS
 10
-160.25
 20
52.775
  1
蓋用ビス
 40
6.0
 72
     5
 11
-134.0
 21
52.775
  0
TEXT
  7
TextStyle03
  8
文字
  6
CONTINUOUS
 10
-160.5
 20
-2.725
  1
４－φ５．５ルーズ穴（取付け用）
 40
6.0
 72
     5
 11
-53.25
 21
-2.725
  0
TEXT
  7
TextStyle03
  8
文字
  6
CONTINUOUS
 10
82.975
 20
1.375
  1
ボックス取付け用穴ピッチ＝
 40
6.0
 50
90.0
 72
     5
 11
82.975
 21
88.375
  0
TEXT
  7
TextStyle03
  8
文字
  6
CONTINUOUS
 10
-369.875
 20
241.925
  1
電動オペレーターシステム　
 40
6.0
 72
     5
 11
-282.875
 21
241.925
  0
TEXT
  7
TextStyle03
  8
文字
  6
CONTINUOUS
 10
-369.875
 20
235.175
  1
屋内設置タイプ（耐熱）
 40
6.0
 72
     5
 11
-296.375
 21
235.175
  0
TEXT
  7
TextStyle03
  8
文字
  6
CONTINUOUS
 10
-369.875
 20
228.425
  1
予備電源内蔵型
 40
6.0
 72
     5
 11
-323.375
 21
228.425
  0
TEXT
  7
TextStyle03
  8
文字
  6
CONTINUOUS
 10
-369.875
 20
221.675
  1

 40
6.0
 41
1.125
  0
TEXT
  7
TextStyle03
  8
文字
  6
CONTINUOUS
 10
-369.875
 20
214.925
  1
品番：ＴＫ－ＯＰ－ＤＥ００１Ｂ
 40
6.0
 72
     5
 11
-269.375
 21
214.925
  0
TEXT
  7
TextStyle03
  8
文字
  6
CONTINUOUS
 10
146.95
 20
-108.3
  1
ワイヤーロープ巻取り量
 40
6.0
 72
     5
 11
220.45
 21
-108.3
  0
TEXT
  7
TextStyle03
  8
文字
  6
CONTINUOUS
 10
146.95
 20
-119.725
  1
最大許容荷重
 40
6.0
 72
     5
 11
186.7
 21
-119.725
  0
TEXT
  7
TextStyle03
  8
文字
  6
CONTINUOUS
 10
146.95
 20
-132.225
  1
ボックス
 40
6.0
 72
     5
 11
173.2
 21
-132.225
  0
TEXT
  7
TextStyle03
  8
文字
  6
CONTINUOUS
 10
146.95
 20
-143.975
  1
耐熱ボード
 40
6.0
 72
     5
 11
179.95
 21
-143.975
  0
TEXT
  7
TextStyle03
  8
文字
  6
CONTINUOUS
 10
227.825
 20
-143.8
  1
JISA6901　ｔ＝9.0　(250℃　30分)
 40
6.0
 72
     5
 11
335.45
 21
-143.8
  0
TEXT
  7
TextStyle03
  8
文字
  6
CONTINUOUS
 10
146.95
 20
-155.7
  1
付属品
 40
6.0
 72
     5
 11
166.45
 21
-155.7
  0
TEXT
  7
TextStyle03
  8
文字
  6
CONTINUOUS
 10
146.95
 20
-167.5
  1
※フェース色は日塗工Ｃ２５－８０Ａ（淡グレー）近似色。
 40
6.0
 72
     5
 11
328.45
 21
-167.5
  0
TEXT
  7
TextStyle03
  8
文字
  6
CONTINUOUS
 10
227.825
 20
-131.85
  1
ＳＰＣＣ（焼付け塗装）
 40
6.0
 72
     5
 11
301.325
 21
-131.85
  0
TEXT
  7
TextStyle03
  8
文字
  6
CONTINUOUS
 10
228.95
 20
-120.0
  1
３６０ｋｇ
 40
6.0
 72
     5
 11
261.95
 21
-120.0
  0
TEXT
  7
TextStyle03
  8
文字
  6
CONTINUOUS
 10
146.95
 20
-95.875
  1
入　力／出　力
 40
6.0
 72
     5
 11
193.45
 21
-95.875
  0
TEXT
  7
TextStyle03
  8
文字
  6
CONTINUOUS
 10
227.6
 20
-95.875
  1
ＡＣ100Ｖ　4Ａ／ＤＣ24Ｖ　0.2Ａ
 40
6.0
 72
     5
 11
331.475
 21
-95.875
  0
TEXT
  7
TextStyle03
  8
文字
  6
CONTINUOUS
 10
227.825
 20
-108.3
  1
最大１５ｍ
 40
6.0
 72
     5
 11
260.825
 21
-108.3
  0
TEXT
  7
TextStyle03
  8
文字
  6
CONTINUOUS
 10
227.7
 20
-155.6
  1
圧着端子φ1.8用　×１個
 40
6.0
 72
     5
 11
304.575
 21
-155.6
  0
TEXT
  7
TextStyle03
  8
文字
  6
CONTINUOUS
 10
146.95
 20
-61.125
  1
電動オペレーターシステム　　屋内設置タイプ（耐熱）
 40
6.0
 72
     5
 11
314.95
 21
-61.125
  0
TEXT
  7
TextStyle03
  8
文字
  6
CONTINUOUS
 10
146.95
 20
-67.875
  1
予備電源内蔵型
 40
6.0
 72
     5
 11
193.45
 21
-67.875
  0
TEXT
  7
TextStyle03
  8
文字
  6
CONTINUOUS
 10
146.95
 20
-74.625
  1

 40
6.0
 41
1.125
  0
TEXT
  7
TextStyle03
  8
文字
  6
CONTINUOUS
 10
146.95
 20
-81.375
  1
メーカー：特殊技研金属株式会社
 40
6.0
 72
     5
 11
247.45
 21
-81.375
  0
TEXT
  7
TextStyle03
  8
文字
  6
CONTINUOUS
 10
114.1
 20
183.975
  1
電気配線
 40
6.0
 72
     5
 11
140.35
 21
183.975
  0
TEXT
  7
TextStyle03
  8
文字
  6
CONTINUOUS
 10
170.625
 20
181.5
  1
※　電線は番号分け又は、色分けされたものにすること。
 40
6.0
 72
     5
 11
345.375
 21
181.5
  0
TEXT
  7
TextStyle03
  8
文字
 10
148.075
 20
-203.75
  1
充電時間
 40
6.0
 72
     5
 11
172.075
 21
-203.75
  0
TEXT
  7
TextStyle03
  8
文字
 10
148.075
 20
-238.775
  1
交換期間
 40
6.0
 72
     5
 11
172.075
 21
-238.775
  0
TEXT
  7
TextStyle03
  8
文字
 10
148.075
 20
-227.05
  1
動作可能台数
 40
6.0
 72
     5
 11
184.075
 21
-227.05
  0
TEXT
  7
TextStyle03
  8
文字
 10
148.075
 20
-215.35
  1
使用可能時間
 40
6.0
 72
     5
 11
184.075
 21
-215.35
  0
TEXT
  7
TextStyle03
  8
文字
 10
148.075
 20
-191.825
  1
予備電源機能
 40
6.0
 72
     5
 11
184.075
 21
-191.825
  0
TEXT
  7
TextStyle03
  8
文字
 10
225.85
 20
-203.575
  1
１時間（使用後10分以降から充電可能）
 40
6.0
 72
     5
 11
333.85
 21
-203.575
  0
TEXT
  7
TextStyle03
  8
文字
 10
225.85
 20
-239.0
  1
交換不要
 40
6.0
 72
     5
 11
249.85
 21
-239.0
  0
TEXT
  7
TextStyle03
  8
文字
 10
225.85
 20
-227.0
  1
電動駆動装置4台まで
 40
6.0
 72
     5
 11
282.85
 21
-227.0
  0
TEXT
  7
TextStyle03
  8
文字
 10
225.85
 20
-214.6
  1
停電後30分以内
 40
6.0
 72
     5
 11
267.85
 21
-214.6
  0
LINE
  8
寸法
  6
CONTINUOUS
 10
236.6
 20
-264.25
 11
249.6
 21
-264.25
  0
LINE
  8
寸法
  6
CONTINUOUS
 10
236.6
 20
-264.97585
 11
249.6
 21
-264.97585
  0
POLYLINE
  8
寸法
  6
CONTINUOUS
 66
     1
 70
     1
  0
VERTEX
  8
寸法
 10
201.261225
 20
278.468368
  0
VERTEX
  8
寸法
 10
162.87347
 20
278.468368
  0
VERTEX
  8
寸法
 10
162.87347
 20
267.805103
  0
VERTEX
  8
寸法
 10
201.261225
 20
267.805103
  0
SEQEND
  0
POLYLINE
  8
寸法
  6
CONTINUOUS
 66
     1
 70
     1
  0
VERTEX
  8
寸法
 10
116.36883
 20
136.647382
  0
VERTEX
  8
寸法
 10
90.552505
 20
136.647382
  0
VERTEX
  8
寸法
 10
90.552505
 20
128.34126
  0
VERTEX
  8
寸法
 10
116.36883
 20
128.34126
  0
SEQEND
  0
INSERT
  2
*GRP_0097
  8
寸法
  6
CONTINUOUS
 10
0.0
 20
0.0
  0
INSERT
  2
*GRP_0098
  8
寸法
  6
CONTINUOUS
 10
0.0
 20
0.0
  0
POLYLINE
  8
寸法
  6
CONTINUOUS
 66
     1
 70
     1
  0
VERTEX
  8
寸法
 10
-349.99508
 20
208.18093
  0
VERTEX
  8
寸法
 10
-376.13634
 20
208.18093
  0
VERTEX
  8
寸法
 10
-376.13634
 20
199.467178
  0
VERTEX
  8
寸法
 10
-349.99508
 20
199.467178
  0
SEQEND
  0
INSERT
  2
*DIM_0099
  8
寸法
  6
CONTINUOUS
 10
0.0
 20
0.0
  0
INSERT
  2
*DIM_0100
  8
寸法
  6
CONTINUOUS
 10
0.0
 20
0.0
  0
INSERT
  2
*DIM_0101
  8
寸法
  6
CONTINUOUS
 10
0.0
 20
0.0
  0
INSERT
  2
*DIM_0102
  8
寸法
  6
CONTINUOUS
 10
0.0
 20
0.0
  0
INSERT
  2
*DIM_0103
  8
寸法
  6
CONTINUOUS
 10
0.0
 20
0.0
  0
INSERT
  2
*DIM_0104
  8
寸法
  6
CONTINUOUS
 10
0.0
 20
0.0
  0
INSERT
  2
*DIM_0105
  8
寸法
  6
CONTINUOUS
 10
0.0
 20
0.0
  0
INSERT
  2
*DIM_0106
  8
寸法
  6
CONTINUOUS
 10
0.0
 20
0.0
  0
INSERT
  2
*DIM_0107
  8
寸法
  6
CONTINUOUS
 10
0.0
 20
0.0
  0
INSERT
  2
*DIM_0108
  8
寸法
  6
CONTINUOUS
 10
0.0
 20
0.0
  0
INSERT
  2
*DIM_0109
  8
寸法
  6
CONTINUOUS
 10
0.0
 20
0.0
  0
INSERT
  2
*DIM_0110
  8
寸法
  6
CONTINUOUS
 10
0.0
 20
0.0
  0
INSERT
  2
*DIM_0111
  8
寸法
  6
CONTINUOUS
 10
0.0
 20
0.0
  0
INSERT
  2
*DIM_0112
  8
寸法
  6
CONTINUOUS
 10
0.0
 20
0.0
  0
INSERT
  2
*DIM_0113
  8
寸法
  6
CONTINUOUS
 10
0.0
 20
0.0
  0
INSERT
  2
*DIM_0114
  8
寸法
  6
CONTINUOUS
 10
0.0
 20
0.0
  0
INSERT
  2
*DIM_0115
  8
寸法
  6
CONTINUOUS
 10
0.0
 20
0.0
  0
INSERT
  2
*DIM_0116
  8
寸法
  6
CONTINUOUS
 10
0.0
 20
0.0
  0
INSERT
  2
*DIM_0117
  8
寸法
  6
CONTINUOUS
 10
0.0
 20
0.0
  0
INSERT
  2
*DIM_0118
  8
寸法
  6
CONTINUOUS
 10
0.0
 20
0.0
  0
INSERT
  2
*DIM_0119
  8
寸法
  6
CONTINUOUS
 10
0.0
 20
0.0
  0
INSERT
  2
*DIM_0120
  8
寸法
  6
CONTINUOUS
 10
0.0
 20
0.0
  0
INSERT
  2
*DIM_0121
  8
寸法
  6
CONTINUOUS
 10
0.0
 20
0.0
  0
INSERT
  2
*DIM_0122
  8
寸法
  6
CONTINUOUS
 10
0.0
 20
0.0
  0
INSERT
  2
*DIM_0123
  8
寸法
  6
CONTINUOUS
 10
0.0
 20
0.0
  0
INSERT
  2
*GRP_0124
  8
寸法
  6
CONTINUOUS
 10
0.0
 20
0.0
  0
INSERT
  2
*DIM_0125
  8
寸法
  6
CONTINUOUS
 10
0.0
 20
0.0
  0
INSERT
  2
*DIM_0126
  8
寸法
  6
CONTINUOUS
 10
0.0
 20
0.0
  0
INSERT
  2
*GRP_0127
  8
寸法
  6
CONTINUOUS
 10
0.0
 20
0.0
  0
INSERT
  2
*DIM_0128
  8
寸法
  6
CONTINUOUS
 10
0.0
 20
0.0
  0
INSERT
  2
*DIM_0129
  8
寸法
  6
CONTINUOUS
 10
0.0
 20
0.0
  0
INSERT
  2
*DIM_0130
  8
寸法
  6
CONTINUOUS
 10
0.0
 20
0.0
  0
POLYLINE
  8
寸法
  6
CONTINUOUS
 66
     1
  0
VERTEX
  8
寸法
 10
-264.825
 20
249.291725
  0
VERTEX
  8
寸法
 10
-376.13634
 20
249.291725
  0
VERTEX
  8
寸法
 10
-376.13634
 20
212.216818
  0
SEQEND
  0
LINE
  8
寸法
  6
CONTINUOUS
 10
-264.825
 20
249.291725
 11
-264.825
 21
212.216818
  0
LINE
  8
寸法
  6
CONTINUOUS
 10
-376.13634
 20
212.216818
 11
-264.825
 21
212.216818
  0
INSERT
  2
*GRP_0001
  8
その他部品等
  6
CONTINUOUS
 10
0.0
 20
0.0
  0
ENDSEC
  0
EOF
