  0
SECTION
  2
HEADER
  9
$EXTMIN
 10
-420.5
 20
-297.0
  9
$EXTMAX
 10
420.5
 20
297.0
  9
$PDMODE
 70
    32
  9
$PDSIZE
 40
1.5
  9
$LTSCALE
 40
10.0
  0
ENDSEC
  0
SECTION
  2
TABLES
  0
TABLE
  2
LTYPE
 70
    15
  0
LTYPE
  2
CONTINUOUS
 70
    64
  3
実線
 72
    65
 73
     0
 40
0.0
  0
LTYPE
  2
DASHED
 70
    64
  3
破線A
 72
    65
 73
     2
 40
0.6
 49
0.4
 49
-0.2
  0
LTYPE
  2
DASHEDX2
 70
    64
  3
破線B
 72
    65
 73
     2
 40
1.3
 49
0.9
 49
-0.4
  0
LTYPE
  2
DASHDOT
 70
    64
  3
１点鎖線A
 72
    65
 73
     4
 40
0.5375
 49
0.375
 49
-0.05
 49
0.0625
 49
-0.05
  0
LTYPE
  2
DASHDOTX2
 70
    64
  3
１点鎖線B
 72
    65
 73
     4
 40
1.075
 49
0.75
 49
-0.1
 49
0.125
 49
-0.1
  0
LTYPE
  2
DIVIDE2
 70
    64
  3
２点鎖線A
 72
    65
 73
     6
 40
0.5125
 49
0.3
 49
-0.0375
 49
0.05
 49
-0.0375
 49
0.05
 49
-0.0375
  0
LTYPE
  2
DIVIDE
 70
    64
  3
２点鎖線B
 72
    65
 73
     6
 40
1.05
 49
0.55
 49
-0.1
 49
0.1
 49
-0.1
 49
0.1
 49
-0.1
  0
LTYPE
  2
DOT
 70
    64
  3
点線A
 72
    65
 73
     2
 40
0.1125
 49
0.0625
 49
-0.05
  0
LTYPE
  2
DOTX2
 70
    64
  3
点線B
 72
    65
 73
     2
 40
0.275
 49
0.15
 49
-0.125
  0
LTYPE
  2
CONTINUOUS
 70
    64
  3
実線
 72
    65
 73
     0
 40
0.0
  0
LTYPE
  2
CONTINUOUS
 70
    64
  3
実線
 72
    65
 73
     0
 40
0.0
  0
LTYPE
  2
CONTINUOUS
 70
    64
  3
実線
 72
    65
 73
     0
 40
0.0
  0
LTYPE
  2
CONTINUOUS
 70
    64
  3
実線
 72
    65
 73
     0
 40
0.0
  0
LTYPE
  2
CONTINUOUS
 70
    64
  3
実線
 72
    65
 73
     0
 40
0.0
  0
LTYPE
  2
CONTINUOUS
 70
    64
  3
実線
 72
    65
 73
     0
 40
0.0
  0
ENDTAB
  0
TABLE
  2
LAYER
 70
    34
  0
LAYER
  2
通り芯
 70
     0
 62
    15
  6
CONTINUOUS
  0
LAYER
  2
補助線
 70
     0
 62
    16
  6
CONTINUOUS
  0
LAYER
  2
躯体
 70
     0
 62
    31
  6
CONTINUOUS
  0
LAYER
  2
型材
 70
     0
 62
    32
  6
CONTINUOUS
  0
LAYER
  2
型材断面
 70
     0
 62
    47
  6
CONTINUOUS
  0
LAYER
  2
ガラス
 70
     0
 62
    48
  6
CONTINUOUS
  0
LAYER
  2
ゴム等
 70
     0
 62
    63
  6
CONTINUOUS
  0
LAYER
  2
ボルト／ビス
 70
     0
 62
    64
  6
CONTINUOUS
  0
LAYER
  2
文字
 70
     0
 62
    14
  6
CONTINUOUS
  0
LAYER
  2
寸法
 70
     0
 62
    29
  6
CONTINUOUS
  0
LAYER
  2
ﾊｯﾁﾝｸﾞ
 70
     0
 62
    95
  6
CONTINUOUS
  0
LAYER
  2
別途部材
 70
     0
 62
    96
  6
CONTINUOUS
  0
LAYER
  2
曲げ物
 70
     0
 62
   111
  6
CONTINUOUS
  0
LAYER
  2
鉄骨等
 70
     0
 62
   112
  6
CONTINUOUS
  0
LAYER
  2
St
 70
     0
 62
   127
  6
CONTINUOUS
  0
LAYER
  2
その他部品等
 70
     0
 62
   128
  6
CONTINUOUS
  0
LAYER
  2
ｶﾞｽｹｯﾄ
 70
     0
 62
   143
  6
CONTINUOUS
  0
LAYER
  2
細線01
 70
     0
 62
   144
  6
CONTINUOUS
  0
LAYER
  2
細線02
 70
     0
 62
   159
  6
CONTINUOUS
  0
LAYER
  2
ｽｹｯﾁ
 70
     0
 62
    19
  6
CONTINUOUS
  0
LAYER
  2
4
 70
     0
 62
     6
  6
CONTINUOUS
  0
LAYER
  2
ﾚｲﾔ3
 70
     0
 62
    15
  6
CONTINUOUS
  0
LAYER
  2
外形線
 70
     0
 62
     7
  6
CONTINUOUS
  0
LAYER
  2
部品
 70
     0
 62
    14
  6
CONTINUOUS
  0
LAYER
  2
サッシ芯
 70
     0
 62
    17
  6
DASHDOTX2
  0
LAYER
  2
寸法線
 70
     0
 62
    28
  6
CONTINUOUS
  0
LAYER
  2
姿図外形線
 70
     0
 62
   249
  6
CONTINUOUS
  0
LAYER
  2
姿補助線
 70
     0
 62
    30
  6
CONTINUOUS
  0
LAYER
  2
透視線
 70
     0
 62
     3
  6
DOT
  0
LAYER
  2
用紙
 70
     0
 62
     7
  6
CONTINUOUS
  0
LAYER
  2
実線図枠
 70
     0
 62
     3
  6
CONTINUOUS
  0
LAYER
  2
補助図枠
 70
     0
 62
     4
  6
CONTINUOUS
  0
LAYER
  2
建具記号
 70
     0
 62
     5
  6
CONTINUOUS
  0
LAYER
  2
補助文字
 70
     0
 62
    10
  6
CONTINUOUS
  0
ENDTAB
  0
TABLE
  2
STYLE
 70
    10
  0
STYLE
  2
STANDARD
 70
     0
 40
1.0
 41
1.0
 42
1.0
 50
0.0
 71
     0
  3
TXT
  4
BIGFONT
  0
STYLE
  2
TATE
 70
     4
 40
1.0
 41
1.0
 42
1.0
 50
0.0
 71
     0
  3
TXT
  4
BIGFONT
  0
STYLE
  2
TextStyle03
 70
     0
 40
1.0
 41
1.0
 42
1.0
 50
0.0
 71
     0
  3
MONOTXT
  4
BIGFONT
  0
STYLE
  2
TextStyle04
 70
     0
 40
1.0
 41
1.0
 42
1.0
 50
0.0
 71
     0
  3
MONOTXT
  4
BIGFONT
  0
STYLE
  2
TextStyle05
 70
     0
 40
1.0
 41
1.0
 42
1.0
 50
0.0
 71
     0
  3
MONOTXT
  4
BIGFONT
  0
STYLE
  2
TextStyle06
 70
     0
 40
1.0
 41
1.0
 42
1.0
 50
0.0
 71
     0
  3
MONOTXT
  4
BIGFONT
  0
STYLE
  2
TextStyle07
 70
     0
 40
1.0
 41
1.0
 42
1.0
 50
0.0
 71
     0
  3
MONOTXT
  4
BIGFONT
  0
STYLE
  2
TextStyle08
 70
     0
 40
1.0
 41
1.0
 42
1.0
 50
0.0
 71
     0
  3
MONOTXT
  4
BIGFONT
  0
STYLE
  2
TextStyle09
 70
     0
 40
1.0
 41
1.0
 42
1.0
 50
0.0
 71
     0
  3
MONOTXT
  4
BIGFONT
  0
STYLE
  2
TextStyle10
 70
     0
 40
1.0
 41
1.0
 42
1.0
 50
0.0
 71
     0
  3
MONOTXT
  4
BIGFONT
  0
ENDTAB
  0
ENDSEC
  0
SECTION
  2
BLOCKS
  0
BLOCK
  2
*GRP_0001
 70
    65
 10
0.0
 20
0.0
  0
LINE
  8
躯体
  6
CONTINUOUS
 62
    31
 10
374.500033
 20
-251.999995
 11
374.500033
 21
-281.999988
  0
LINE
  8
躯体
  6
CONTINUOUS
 62
    31
 10
254.50002
 20
-251.999995
 11
254.50002
 21
-281.999988
  0
LINE
  8
躯体
  6
CONTINUOUS
 62
    31
 10
154.50005
 20
-251.999995
 11
154.50005
 21
-281.999988
  0
LINE
  8
躯体
  6
CONTINUOUS
 62
    31
 10
63.500072
 20
-251.999995
 11
63.500072
 21
-281.999988
  0
LINE
  8
躯体
  6
CONTINUOUS
 62
    31
 10
23.500082
 20
-251.999995
 11
23.500082
 21
-281.999988
  0
LINE
  8
躯体
  6
CONTINUOUS
 62
    31
 10
-66.49994
 20
-251.999995
 11
-66.49994
 21
-281.999988
  0
LINE
  8
躯体
  6
CONTINUOUS
 62
    31
 10
234.500025
 20
-251.999995
 11
234.500025
 21
-281.999988
  0
LINE
  8
躯体
  6
CONTINUOUS
 62
    31
 10
214.50003
 20
-251.999995
 11
214.50003
 21
-281.999988
  0
LINE
  8
躯体
  6
CONTINUOUS
 62
    31
 10
194.500037
 20
-251.999995
 11
194.500037
 21
-281.999988
  0
LINE
  8
躯体
  6
CONTINUOUS
 62
    31
 10
174.500043
 20
-251.999995
 11
174.500043
 21
-281.999988
  0
LINE
  8
躯体
  6
CONTINUOUS
 62
    31
 10
154.50005
 20
-259.0
 11
254.50002
 21
-259.0
  0
LINE
  8
躯体
  6
CONTINUOUS
 62
    31
 10
-66.49994
 20
-267.000005
 11
63.500072
 21
-267.000005
  0
LINE
  8
躯体
  6
CONTINUOUS
 62
    31
 10
-375.499978
 20
-251.999995
 11
-375.499978
 21
-282.0
  0
LINE
  8
躯体
  6
CONTINUOUS
 62
    31
 10
-360.49997
 20
-251.999995
 11
-360.49997
 21
-282.0
  0
LINE
  8
躯体
  6
CONTINUOUS
 62
    31
 10
-239.50005
 20
-251.999995
 11
-239.50005
 21
-282.0
  0
LINE
  8
躯体
  6
CONTINUOUS
 62
    31
 10
-382.999975
 20
-257.231555
 11
-377.999978
 21
-257.231555
  0
LINE
  8
躯体
  6
CONTINUOUS
 62
    31
 10
-377.999978
 20
-257.231555
 11
-380.499975
 21
-252.901428
  0
LINE
  8
躯体
  6
CONTINUOUS
 62
    31
 10
-380.499975
 20
-252.901428
 11
-382.999975
 21
-257.231555
  0
LINE
  8
躯体
  6
CONTINUOUS
 62
    31
 10
-382.999988
 20
-263.231555
 11
-377.99999
 21
-263.231555
  0
LINE
  8
躯体
  6
CONTINUOUS
 62
    31
 10
-377.99999
 20
-263.231555
 11
-380.499988
 21
-258.901428
  0
LINE
  8
躯体
  6
CONTINUOUS
 62
    31
 10
-380.499988
 20
-258.901428
 11
-382.999988
 21
-263.231555
  0
LINE
  8
躯体
  6
CONTINUOUS
 62
    31
 10
-383.0
 20
-269.231555
 11
-378.000003
 21
-269.231555
  0
LINE
  8
躯体
  6
CONTINUOUS
 62
    31
 10
-378.000003
 20
-269.231555
 11
-380.499988
 21
-264.901428
  0
LINE
  8
躯体
  6
CONTINUOUS
 62
    31
 10
-380.499988
 20
-264.901428
 11
-383.0
 21
-269.231555
  0
LINE
  8
躯体
  6
CONTINUOUS
 62
    31
 10
-383.0
 20
-275.231555
 11
-378.000003
 21
-275.231555
  0
LINE
  8
躯体
  6
CONTINUOUS
 62
    31
 10
-378.000003
 20
-275.231555
 11
-380.5
 21
-270.901428
  0
LINE
  8
躯体
  6
CONTINUOUS
 62
    31
 10
-380.5
 20
-270.901428
 11
-383.0
 21
-275.231555
  0
LINE
  8
躯体
  6
CONTINUOUS
 62
    31
 10
-383.000012
 20
-281.231555
 11
-378.000015
 21
-281.231555
  0
LINE
  8
躯体
  6
CONTINUOUS
 62
    31
 10
-378.000015
 20
-281.231555
 11
-380.500012
 21
-276.901428
  0
LINE
  8
躯体
  6
CONTINUOUS
 62
    31
 10
-380.500012
 20
-276.901428
 11
-383.000012
 21
-281.231555
  0
LINE
  8
躯体
  6
CONTINUOUS
 62
    31
 10
-385.499988
 20
-251.999995
 11
-385.499988
 21
-282.0
  0
LINE
  8
躯体
  6
CONTINUOUS
 62
    31
 10
-229.500053
 20
-251.999995
 11
-229.500053
 21
-282.0
  0
LINE
  8
躯体
  6
CONTINUOUS
 62
    31
 10
-395.499985
 20
282.000017
 11
-395.499985
 21
-281.99998
  0
LINE
  8
躯体
  6
CONTINUOUS
 62
    31
 10
404.500023
 20
282.000017
 11
404.500023
 21
-282.0
  0
LINE
  8
躯体
  6
CONTINUOUS
 62
    31
 10
404.500023
 20
282.000017
 11
-395.499985
 21
282.000017
  0
LINE
  8
躯体
  6
CONTINUOUS
 62
    31
 10
404.500023
 20
-282.0
 11
-395.499985
 21
-282.0
  0
LINE
  8
躯体
  6
CONTINUOUS
 62
    31
 10
404.500023
 20
-251.999995
 11
-395.499985
 21
-251.999995
  0
LINE
  8
躯体
  6
CONTINUOUS
 62
    31
 10
254.50002
 20
-272.0
 11
374.500033
 21
-272.0
  0
LINE
  8
躯体
  6
CONTINUOUS
 62
    31
 10
63.500072
 20
-262.0
 11
154.50005
 21
-262.0
  0
LINE
  8
躯体
  6
CONTINUOUS
 62
    31
 10
63.500072
 20
-272.0
 11
154.50005
 21
-272.0
  0
LINE
  8
躯体
  6
CONTINUOUS
 62
    31
 10
-385.499988
 20
-258.0
 11
-239.50005
 21
-258.0
  0
LINE
  8
躯体
  6
CONTINUOUS
 62
    31
 10
-385.499988
 20
-264.0
 11
-239.50005
 21
-264.0
  0
LINE
  8
躯体
  6
CONTINUOUS
 62
    31
 10
-385.499988
 20
-270.0
 11
-239.50005
 21
-270.0
  0
LINE
  8
躯体
  6
CONTINUOUS
 62
    31
 10
-385.499988
 20
-276.0
 11
-239.50005
 21
-276.0
  0
LINE
  8
躯体
  6
CONTINUOUS
 62
    31
 10
-229.500053
 20
-276.0
 11
-66.49994
 21
-276.0
  0
LINE
  8
躯体
  6
CONTINUOUS
 62
    31
 10
-229.500053
 20
-270.0
 11
-66.49994
 21
-270.0
  0
LINE
  8
躯体
  6
CONTINUOUS
 62
    31
 10
-229.500053
 20
-264.0
 11
-66.49994
 21
-264.0
  0
LINE
  8
躯体
  6
CONTINUOUS
 62
    31
 10
-229.500053
 20
-258.0
 11
-66.49994
 21
-258.0
  0
LINE
  8
躯体
  6
CONTINUOUS
 62
    31
 10
-395.499985
 20
282.000017
 11
-395.499985
 21
-281.99998
  0
LINE
  8
躯体
  6
CONTINUOUS
 62
    31
 10
-395.499985
 20
-281.99998
 11
404.500023
 21
-281.99998
  0
LINE
  8
躯体
  6
CONTINUOUS
 62
    31
 10
404.500023
 20
-281.99998
 11
404.500023
 21
282.000017
  0
LINE
  8
躯体
  6
CONTINUOUS
 62
    31
 10
404.500023
 20
282.000017
 11
-395.499985
 21
282.000017
  0
LINE
  8
躯体
  6
CONTINUOUS
 62
    31
 10
404.500023
 20
-251.999995
 11
-395.499985
 21
-251.999995
  0
LINE
  8
躯体
  6
CONTINUOUS
 62
    31
 10
-385.499988
 20
-251.999995
 11
-385.499988
 21
-282.0
  0
LINE
  8
躯体
  6
CONTINUOUS
 62
    31
 10
-375.49994
 20
-251.999995
 11
-375.49994
 21
-282.0
  0
LINE
  8
躯体
  6
CONTINUOUS
 62
    31
 10
-360.49997
 20
-251.999995
 11
-360.49997
 21
-282.0
  0
LINE
  8
躯体
  6
CONTINUOUS
 62
    31
 10
-239.50005
 20
-251.999995
 11
-239.50005
 21
-281.99998
  0
LINE
  8
躯体
  6
CONTINUOUS
 62
    31
 10
-229.500053
 20
-251.999995
 11
-229.500053
 21
-282.0
  0
LINE
  8
躯体
  6
CONTINUOUS
 62
    31
 10
-66.49994
 20
-251.999995
 11
-66.49994
 21
-282.0
  0
LINE
  8
躯体
  6
CONTINUOUS
 62
    31
 10
23.500082
 20
-251.999995
 11
23.500082
 21
-282.0
  0
LINE
  8
躯体
  6
CONTINUOUS
 62
    31
 10
63.500072
 20
-251.999995
 11
63.500072
 21
-281.99998
  0
LINE
  8
躯体
  6
CONTINUOUS
 62
    31
 10
154.50005
 20
-251.999995
 11
154.50005
 21
-281.999988
  0
LINE
  8
躯体
  6
CONTINUOUS
 62
    31
 10
174.500043
 20
-251.999995
 11
174.500043
 21
-282.0
  0
LINE
  8
躯体
  6
CONTINUOUS
 62
    31
 10
194.500037
 20
-251.999995
 11
194.500037
 21
-281.99998
  0
LINE
  8
躯体
  6
CONTINUOUS
 62
    31
 10
214.50003
 20
-251.999995
 11
214.50003
 21
-281.99998
  0
LINE
  8
躯体
  6
CONTINUOUS
 62
    31
 10
234.500025
 20
-251.999995
 11
234.500025
 21
-281.99998
  0
LINE
  8
躯体
  6
CONTINUOUS
 62
    31
 10
254.50002
 20
-251.999995
 11
254.50002
 21
-281.999988
  0
LINE
  8
躯体
  6
CONTINUOUS
 62
    31
 10
374.500033
 20
-251.999995
 11
374.500033
 21
-282.0
  0
LINE
  8
躯体
  6
CONTINUOUS
 62
    31
 10
-385.499988
 20
-258.0
 11
-239.50005
 21
-258.0
  0
LINE
  8
躯体
  6
CONTINUOUS
 62
    31
 10
-239.50005
 20
-264.0
 11
-385.499988
 21
-264.0
  0
LINE
  8
躯体
  6
CONTINUOUS
 62
    31
 10
-385.499988
 20
-270.0
 11
-239.50005
 21
-270.0
  0
LINE
  8
躯体
  6
CONTINUOUS
 62
    31
 10
-239.50005
 20
-276.0
 11
-385.499988
 21
-276.0
  0
LINE
  8
躯体
  6
CONTINUOUS
 62
    31
 10
-229.500053
 20
-258.0
 11
-66.49994
 21
-258.0
  0
LINE
  8
躯体
  6
CONTINUOUS
 62
    31
 10
-66.49994
 20
-264.0
 11
-229.500053
 21
-264.0
  0
LINE
  8
躯体
  6
CONTINUOUS
 62
    31
 10
-229.500053
 20
-270.0
 11
-66.49994
 21
-270.0
  0
LINE
  8
躯体
  6
CONTINUOUS
 62
    31
 10
-66.49994
 20
-276.0
 11
-229.500053
 21
-276.0
  0
LINE
  8
躯体
  6
CONTINUOUS
 62
    31
 10
-66.49994
 20
-267.000005
 11
63.500072
 21
-267.000005
  0
LINE
  8
躯体
  6
CONTINUOUS
 62
    31
 10
63.500072
 20
-262.0
 11
154.50005
 21
-262.0
  0
LINE
  8
躯体
  6
CONTINUOUS
 62
    31
 10
154.50005
 20
-272.0
 11
63.500072
 21
-272.0
  0
LINE
  8
躯体
  6
CONTINUOUS
 62
    31
 10
154.50005
 20
-259.0
 11
254.50002
 21
-259.0
  0
LINE
  8
躯体
  6
CONTINUOUS
 62
    31
 10
254.50002
 20
-272.0
 11
374.500033
 21
-272.0
  0
LINE
  8
躯体
  6
CONTINUOUS
 62
    31
 10
389.770925
 20
-177.427528
 11
401.770882
 21
-177.427528
  0
LINE
  8
躯体
  6
CONTINUOUS
 62
    31
 10
389.770925
 20
-192.266918
 11
401.770882
 21
-192.266918
  0
LINE
  8
躯体
  6
CONTINUOUS
 62
    31
 10
389.770925
 20
-207.106308
 11
401.770882
 21
-207.106308
  0
LINE
  8
躯体
  6
CONTINUOUS
 62
    31
 10
389.770925
 20
-221.945695
 11
401.770882
 21
-221.945695
  0
CIRCLE
  8
躯体
  6
CONTINUOUS
 62
    31
 10
395.770905
 20
-177.427528
 40
6.0
  0
CIRCLE
  8
躯体
  6
CONTINUOUS
 62
    31
 10
395.770905
 20
-192.266918
 40
6.0
  0
CIRCLE
  8
躯体
  6
CONTINUOUS
 62
    31
 10
395.770905
 20
-207.106308
 40
6.0
  0
CIRCLE
  8
躯体
  6
CONTINUOUS
 62
    31
 10
395.770905
 20
-221.945695
 40
6.0
  0
TEXT
  7
TextStyle03
  8
躯体
  6
CONTINUOUS
 62
    31
 10
-381.25
 20
-257.125
  1
5
 40
3.0
 72
     5
 11
-379.75
 21
-257.125
  0
TEXT
  7
TextStyle03
  8
躯体
  6
CONTINUOUS
 62
    31
 10
-381.25
 20
-263.125
  1
4
 40
3.0
 72
     5
 11
-379.75
 21
-263.125
  0
TEXT
  7
TextStyle03
  8
躯体
  6
CONTINUOUS
 62
    31
 10
-381.25
 20
-269.125
  1
3
 40
3.0
 72
     5
 11
-379.75
 21
-269.125
  0
TEXT
  7
TextStyle03
  8
躯体
  6
CONTINUOUS
 62
    31
 10
-381.25
 20
-275.125
  1
2
 40
3.0
 72
     5
 11
-379.75
 21
-275.125
  0
TEXT
  7
TextStyle03
  8
躯体
  6
CONTINUOUS
 62
    31
 10
-381.25
 20
-281.125
  1
1
 40
3.0
 72
     5
 11
-379.75
 21
-281.125
  0
TEXT
  7
TextStyle03
  8
躯体
  6
CONTINUOUS
 62
    31
 10
-375.0
 20
-257.5
  1
   ,  ,  
 40
3.0
 72
     5
 11
-361.5
 21
-257.5
  0
TEXT
  7
TextStyle03
  8
躯体
  6
CONTINUOUS
 62
    31
 10
-375.0
 20
-263.5
  1
   ,  ,  
 40
3.0
 72
     5
 11
-361.5
 21
-263.5
  0
TEXT
  7
TextStyle03
  8
躯体
  6
CONTINUOUS
 62
    31
 10
-375.0
 20
-269.5
  1
   ,  ,  
 40
3.0
 72
     5
 11
-361.5
 21
-269.5
  0
TEXT
  7
TextStyle03
  8
躯体
  6
CONTINUOUS
 62
    31
 10
-375.0
 20
-275.5
  1
   ,  ,  
 40
3.0
 72
     5
 11
-361.5
 21
-275.5
  0
TEXT
  7
TextStyle03
  8
躯体
  6
CONTINUOUS
 62
    31
 10
-375.0
 20
-281.5
  1
   ,  ,  
 40
3.0
 72
     5
 11
-361.5
 21
-281.5
  0
TEXT
  7
TextStyle03
  8
躯体
  6
CONTINUOUS
 62
    31
 10
-65.45
 20
-256.45
  1
設計監理
 40
3.5
 72
     5
 11
-51.45
 21
-256.45
  0
TEXT
  7
TextStyle03
  8
躯体
  6
CONTINUOUS
 62
    31
 10
-65.45
 20
-271.625
  1
施　　工
 40
3.5
 72
     5
 11
-51.45
 21
-271.625
  0
TEXT
  7
TextStyle03
  8
躯体
  6
CONTINUOUS
 62
    31
 10
16.3
 20
-264.025
  1
殿
 40
5.0
 72
     5
 11
21.3
 21
-264.025
  0
TEXT
  7
TextStyle03
  8
躯体
  6
CONTINUOUS
 62
    31
 10
16.3
 20
-279.025
  1
殿
 40
5.0
 72
     5
 11
21.3
 21
-279.025
  0
TEXT
  7
TextStyle03
  8
躯体
  6
CONTINUOUS
 62
    31
 10
45.5
 20
-266.525
  1
月　　日
 40
4.0
 72
     5
 11
63.0
 21
-266.525
  0
TEXT
  7
TextStyle03
  8
躯体
  6
CONTINUOUS
 62
    31
 10
45.5
 20
-281.5
  1
月　　日
 40
4.0
 72
     5
 11
63.0
 21
-281.5
  0
TEXT
  7
TextStyle03
  8
躯体
  6
CONTINUOUS
 62
    31
 10
159.925
 20
-281.125
  1
　月　日
 40
3.5
 72
     5
 11
173.925
 21
-281.125
  0
TEXT
  7
TextStyle03
  8
躯体
  6
CONTINUOUS
 62
    31
 10
179.925
 20
-281.125
  1
　月　日
 40
3.5
 72
     5
 11
193.925
 21
-281.125
  0
TEXT
  7
TextStyle03
  8
躯体
  6
CONTINUOUS
 62
    31
 10
199.925
 20
-281.125
  1
　月　日
 40
3.5
 72
     5
 11
213.925
 21
-281.125
  0
TEXT
  7
TextStyle03
  8
躯体
  6
CONTINUOUS
 62
    31
 10
219.925
 20
-281.125
  1
　月　日
 40
3.5
 72
     5
 11
233.925
 21
-281.125
  0
TEXT
  7
TextStyle03
  8
躯体
  6
CONTINUOUS
 62
    31
 10
197.35
 20
-257.4
  1
照　査
 40
4.0
 72
     5
 11
210.35
 21
-257.4
  0
TEXT
  7
TextStyle03
  8
躯体
  6
CONTINUOUS
 62
    31
 10
216.6
 20
-257.2
  1
担　当
 40
4.0
 72
     5
 11
229.6
 21
-257.2
  0
TEXT
  7
TextStyle03
  8
躯体
  6
CONTINUOUS
 62
    31
 10
236.225
 20
-257.0
  1
縮　尺
 40
4.0
 72
     5
 11
249.225
 21
-257.0
  0
TEXT
  7
TextStyle03
  8
躯体
  6
CONTINUOUS
 62
    31
 10
236.625
 20
-266.225
  1
１：１
 40
4.0
 72
     5
 11
249.625
 21
-266.225
  0
TEXT
  7
TextStyle03
  8
躯体
  6
CONTINUOUS
 62
    31
 10
236.425
 20
-272.65
  1
　：　
 40
4.0
 72
     5
 11
249.425
 21
-272.65
  0
TEXT
  7
TextStyle03
  8
躯体
  6
CONTINUOUS
 62
    31
 10
236.425
 20
-279.25
  1
　：　
 40
4.0
 72
     5
 11
249.425
 21
-279.25
  0
TEXT
  7
TextStyle03
  8
躯体
  6
CONTINUOUS
 62
    31
 10
256.875
 20
-258.05
  1
工事名
 40
4.0
 72
     5
 11
269.875
 21
-258.05
  0
TEXT
  7
TextStyle03
  8
躯体
  6
CONTINUOUS
 62
    31
 10
256.6
 20
-278.025
  1
図面名
 40
4.0
 72
     5
 11
269.6
 21
-278.025
  0
TEXT
  7
TextStyle03
  8
躯体
  6
CONTINUOUS
 62
    31
 10
375.675
 20
-257.25
  1
図番
 40
4.0
 72
     5
 11
384.175
 21
-257.25
  0
TEXT
  7
TextStyle03
  8
躯体
  6
CONTINUOUS
 62
    31
 10
393.025
 20
-281.175
  1
枚の内
 40
3.5
 72
     5
 11
403.525
 21
-281.175
  0
TEXT
  7
TextStyle04
  8
躯体
  6
CONTINUOUS
 62
    31
 10
76.15
 20
-259.85
  1
特殊技研金属株式会社
 40
6.0
 72
     5
 11
145.15
 21
-259.85
  0
TEXT
  7
TATE
  8
躯体
  6
CONTINUOUS
 62
    31
 10
-234.7
 20
-254.525
  1
特　記　事　項
 40
3.5
 72
     5
 11
-234.7
 21
-279.025
  0
TEXT
  7
TATE
  8
躯体
  6
CONTINUOUS
 62
    31
 10
-390.4
 20
-259.525
  1
訂　　正
 40
3.5
 72
     5
 11
-390.4
 21
-273.525
  0
ENDBLK
  0
ENDSEC
  0
SECTION
  2
ENTITIES
  0
POLYLINE
  8
通り芯
  6
CONTINUOUS
 66
     1
 70
     1
  0
VERTEX
  8
通り芯
 10
-420.5
 20
-297.0
  0
VERTEX
  8
通り芯
 10
420.5
 20
-297.0
  0
VERTEX
  8
通り芯
 10
420.5
 20
297.0
  0
VERTEX
  8
通り芯
 10
-420.5
 20
297.0
  0
SEQEND
  0
POINT
  8
型材
 62
    32
 10
56.290818
 20
-183.086603
  0
LINE
  8
型材
  6
CONTINUOUS
 62
    32
 10
-4.309183
 20
-190.886603
 11
-4.309183
 21
-171.686603
  0
LINE
  8
型材
  6
CONTINUOUS
 62
    32
 10
48.490818
 20
-190.886603
 11
48.490818
 21
-171.686603
  0
LINE
  8
型材
  6
CONTINUOUS
 62
    32
 10
-1.909183
 20
-190.886603
 11
-1.909183
 21
-171.686603
  0
LINE
  8
型材
  6
CONTINUOUS
 62
    32
 10
8.890818
 20
-190.886603
 11
8.890818
 21
-171.686603
  0
LINE
  8
型材
  6
CONTINUOUS
 62
    32
 10
11.290818
 20
-190.886603
 11
11.290818
 21
-171.686603
  0
LINE
  8
型材
  6
CONTINUOUS
 62
    32
 10
50.890818
 20
-190.886603
 11
50.890818
 21
-171.686603
  0
LINE
  8
型材
  6
CONTINUOUS
 62
    32
 10
22.090818
 20
-190.886603
 11
22.090818
 21
-171.686603
  0
LINE
  8
型材
  6
CONTINUOUS
 62
    32
 10
24.490818
 20
-190.886603
 11
24.490818
 21
-171.686603
  0
LINE
  8
型材
  6
CONTINUOUS
 62
    32
 10
37.690818
 20
-190.886603
 11
37.690818
 21
-171.686603
  0
LINE
  8
型材
  6
CONTINUOUS
 62
    32
 10
35.290818
 20
-190.886603
 11
35.290818
 21
-171.686603
  0
LINE
  8
型材
  6
CONTINUOUS
 62
    32
 10
61.690818
 20
-171.686603
 11
61.690818
 21
-190.886603
  0
LINE
  8
型材
  6
DASHDOTX2
 62
    32
 10
56.290818
 20
-177.086603
 11
56.290818
 21
-189.086603
  0
LINE
  8
型材
  6
DASHDOTX2
 62
    32
 10
43.090818
 20
-177.086603
 11
43.090818
 21
-189.086603
  0
LINE
  8
型材
  6
DASHDOTX2
 62
    32
 10
29.890818
 20
-177.086603
 11
29.890818
 21
-189.086603
  0
LINE
  8
型材
  6
DASHDOTX2
 62
    32
 10
16.690818
 20
-177.086603
 11
16.690818
 21
-189.086603
  0
LINE
  8
型材
  6
DASHDOTX2
 62
    32
 10
3.490818
 20
-177.086603
 11
3.490818
 21
-189.086603
  0
LINE
  8
型材
  6
CONTINUOUS
 62
    32
 10
-15.109183
 20
-190.886603
 11
-15.109183
 21
-171.686603
  0
LINE
  8
型材
  6
CONTINUOUS
 62
    32
 10
-17.509183
 20
-190.886603
 11
-17.509183
 21
-171.686603
  0
LINE
  8
型材
  6
DASHDOTX2
 62
    32
 10
-9.709183
 20
-177.086603
 11
-9.709183
 21
-189.086603
  0
LINE
  8
型材
  6
DASHDOTX2
 62
    32
 10
-22.909183
 20
-177.086603
 11
-22.909183
 21
-189.086603
  0
LINE
  8
型材
  6
CONTINUOUS
 62
    32
 10
57.488005
 20
-183.38652
 11
58.39081
 21
-183.38652
  0
LINE
  8
型材
  6
CONTINUOUS
 62
    32
 10
56.590735
 20
-185.18659
 11
56.590735
 21
-184.283785
  0
LINE
  8
型材
  6
CONTINUOUS
 62
    32
 10
55.990903
 20
-185.18659
 11
56.590735
 21
-185.18659
  0
LINE
  8
型材
  6
CONTINUOUS
 62
    32
 10
55.990903
 20
-185.18659
 11
55.990903
 21
-184.283785
  0
LINE
  8
型材
  6
CONTINUOUS
 62
    32
 10
55.990903
 20
-180.986612
 11
55.990903
 21
-181.889418
  0
LINE
  8
型材
  6
CONTINUOUS
 62
    32
 10
56.590735
 20
-180.986612
 11
56.590735
 21
-181.889418
  0
LINE
  8
型材
  6
CONTINUOUS
 62
    32
 10
55.093633
 20
-183.38652
 11
54.190827
 21
-183.38652
  0
LINE
  8
型材
  6
CONTINUOUS
 62
    32
 10
55.093633
 20
-182.786687
 11
54.190827
 21
-182.786687
  0
LINE
  8
型材
  6
CONTINUOUS
 62
    32
 10
57.488
 20
-182.786687
 11
58.39081
 21
-182.786687
  0
LINE
  8
型材
  6
CONTINUOUS
 62
    32
 10
55.990903
 20
-180.986612
 11
56.590735
 21
-180.986612
  0
LINE
  8
型材
  6
CONTINUOUS
 62
    32
 10
54.190827
 20
-183.38652
 11
54.190827
 21
-182.786685
  0
LINE
  8
型材
  6
CONTINUOUS
 62
    32
 10
58.39081
 20
-183.38652
 11
58.39081
 21
-182.786685
  0
LINE
  8
型材
  6
CONTINUOUS
 62
    32
 10
4.688
 20
-183.38652
 11
5.59081
 21
-183.38652
  0
LINE
  8
型材
  6
CONTINUOUS
 62
    32
 10
3.790735
 20
-185.18659
 11
3.790735
 21
-184.283785
  0
LINE
  8
型材
  6
CONTINUOUS
 62
    32
 10
3.1909
 20
-185.18659
 11
3.790735
 21
-185.18659
  0
LINE
  8
型材
  6
CONTINUOUS
 62
    32
 10
3.1909
 20
-185.18659
 11
3.1909
 21
-184.283785
  0
LINE
  8
型材
  6
CONTINUOUS
 62
    32
 10
3.1909
 20
-180.986612
 11
3.1909
 21
-181.889418
  0
LINE
  8
型材
  6
CONTINUOUS
 62
    32
 10
3.790735
 20
-180.986612
 11
3.790735
 21
-181.889418
  0
LINE
  8
型材
  6
CONTINUOUS
 62
    32
 10
-21.711992
 20
-183.38652
 11
-20.80919
 21
-183.38652
  0
LINE
  8
型材
  6
CONTINUOUS
 62
    32
 10
-22.609265
 20
-185.18659
 11
-22.609265
 21
-184.283785
  0
LINE
  8
型材
  6
CONTINUOUS
 62
    32
 10
-23.2091
 20
-185.18659
 11
-22.609265
 21
-185.18659
  0
LINE
  8
型材
  6
CONTINUOUS
 62
    32
 10
-23.2091
 20
-185.18659
 11
-23.2091
 21
-184.283785
  0
LINE
  8
型材
  6
CONTINUOUS
 62
    32
 10
-23.2091
 20
-180.986612
 11
-23.2091
 21
-181.889418
  0
LINE
  8
型材
  6
CONTINUOUS
 62
    32
 10
-22.609265
 20
-180.986612
 11
-22.609265
 21
-181.889418
  0
LINE
  8
型材
  6
CONTINUOUS
 62
    32
 10
-24.10637
 20
-183.38652
 11
-25.009173
 21
-183.38652
  0
LINE
  8
型材
  6
CONTINUOUS
 62
    32
 10
-24.10637
 20
-182.786687
 11
-25.009173
 21
-182.786687
  0
LINE
  8
型材
  6
CONTINUOUS
 62
    32
 10
-21.711992
 20
-182.786687
 11
-20.80919
 21
-182.786687
  0
LINE
  8
型材
  6
CONTINUOUS
 62
    32
 10
-23.2091
 20
-180.986612
 11
-22.609265
 21
-180.986612
  0
LINE
  8
型材
  6
CONTINUOUS
 62
    32
 10
-25.009173
 20
-183.38652
 11
-25.009173
 21
-182.786685
  0
LINE
  8
型材
  6
CONTINUOUS
 62
    32
 10
-20.80919
 20
-183.38652
 11
-20.80919
 21
-182.786685
  0
LINE
  8
型材
  6
CONTINUOUS
 62
    32
 10
2.293633
 20
-183.38652
 11
1.390827
 21
-183.38652
  0
LINE
  8
型材
  6
CONTINUOUS
 62
    32
 10
2.293633
 20
-182.786687
 11
1.390827
 21
-182.786687
  0
LINE
  8
型材
  6
CONTINUOUS
 62
    32
 10
4.688
 20
-182.786687
 11
5.59081
 21
-182.786687
  0
LINE
  8
型材
  6
CONTINUOUS
 62
    32
 10
3.1909
 20
-180.986612
 11
3.790735
 21
-180.986612
  0
LINE
  8
型材
  6
CONTINUOUS
 62
    32
 10
1.390827
 20
-183.38652
 11
1.390827
 21
-182.786685
  0
LINE
  8
型材
  6
CONTINUOUS
 62
    32
 10
5.59081
 20
-183.38652
 11
5.59081
 21
-182.786685
  0
LINE
  8
型材
  6
CONTINUOUS
 62
    32
 10
17.888
 20
-183.38652
 11
18.79081
 21
-183.38652
  0
LINE
  8
型材
  6
CONTINUOUS
 62
    32
 10
16.990735
 20
-185.18659
 11
16.990735
 21
-184.283785
  0
LINE
  8
型材
  6
CONTINUOUS
 62
    32
 10
16.390903
 20
-185.18659
 11
16.990735
 21
-185.18659
  0
LINE
  8
型材
  6
CONTINUOUS
 62
    32
 10
16.3909
 20
-185.18659
 11
16.3909
 21
-184.283785
  0
LINE
  8
型材
  6
CONTINUOUS
 62
    32
 10
16.3909
 20
-180.986612
 11
16.3909
 21
-181.889418
  0
LINE
  8
型材
  6
CONTINUOUS
 62
    32
 10
16.990735
 20
-180.986612
 11
16.990735
 21
-181.889418
  0
LINE
  8
型材
  6
CONTINUOUS
 62
    32
 10
15.493633
 20
-183.38652
 11
14.590827
 21
-183.38652
  0
LINE
  8
型材
  6
CONTINUOUS
 62
    32
 10
15.493633
 20
-182.786687
 11
14.590827
 21
-182.786687
  0
LINE
  8
型材
  6
CONTINUOUS
 62
    32
 10
17.888
 20
-182.786687
 11
18.79081
 21
-182.786687
  0
LINE
  8
型材
  6
CONTINUOUS
 62
    32
 10
16.3909
 20
-180.986612
 11
16.990735
 21
-180.986612
  0
LINE
  8
型材
  6
CONTINUOUS
 62
    32
 10
14.590827
 20
-183.38652
 11
14.590827
 21
-182.786685
  0
LINE
  8
型材
  6
CONTINUOUS
 62
    32
 10
18.79081
 20
-183.38652
 11
18.79081
 21
-182.786685
  0
LINE
  8
型材
  6
CONTINUOUS
 62
    32
 10
31.088
 20
-183.38652
 11
31.99081
 21
-183.38652
  0
LINE
  8
型材
  6
CONTINUOUS
 62
    32
 10
30.190735
 20
-185.18659
 11
30.190735
 21
-184.283785
  0
LINE
  8
型材
  6
CONTINUOUS
 62
    32
 10
29.590903
 20
-185.18659
 11
30.190735
 21
-185.18659
  0
LINE
  8
型材
  6
CONTINUOUS
 62
    32
 10
29.5909
 20
-185.18659
 11
29.5909
 21
-184.283785
  0
LINE
  8
型材
  6
CONTINUOUS
 62
    32
 10
29.5909
 20
-180.986612
 11
29.5909
 21
-181.889418
  0
LINE
  8
型材
  6
CONTINUOUS
 62
    32
 10
30.190735
 20
-180.986612
 11
30.190735
 21
-181.889418
  0
LINE
  8
型材
  6
CONTINUOUS
 62
    32
 10
28.693633
 20
-183.38652
 11
27.790827
 21
-183.38652
  0
LINE
  8
型材
  6
CONTINUOUS
 62
    32
 10
28.693633
 20
-182.786687
 11
27.790827
 21
-182.786687
  0
LINE
  8
型材
  6
CONTINUOUS
 62
    32
 10
31.088
 20
-182.786687
 11
31.99081
 21
-182.786687
  0
LINE
  8
型材
  6
CONTINUOUS
 62
    32
 10
29.5909
 20
-180.986612
 11
30.190735
 21
-180.986612
  0
LINE
  8
型材
  6
CONTINUOUS
 62
    32
 10
27.790827
 20
-183.38652
 11
27.790827
 21
-182.786685
  0
LINE
  8
型材
  6
CONTINUOUS
 62
    32
 10
31.99081
 20
-183.38652
 11
31.99081
 21
-182.786685
  0
LINE
  8
型材
  6
CONTINUOUS
 62
    32
 10
44.288
 20
-183.38652
 11
45.190805
 21
-183.38652
  0
LINE
  8
型材
  6
CONTINUOUS
 62
    32
 10
43.390735
 20
-185.18659
 11
43.390735
 21
-184.283785
  0
LINE
  8
型材
  6
CONTINUOUS
 62
    32
 10
42.790903
 20
-185.18659
 11
43.390735
 21
-185.18659
  0
LINE
  8
型材
  6
CONTINUOUS
 62
    32
 10
42.790903
 20
-185.18659
 11
42.790903
 21
-184.283785
  0
LINE
  8
型材
  6
CONTINUOUS
 62
    32
 10
42.790903
 20
-180.986612
 11
42.790903
 21
-181.889418
  0
LINE
  8
型材
  6
CONTINUOUS
 62
    32
 10
43.390735
 20
-180.986612
 11
43.390735
 21
-181.889418
  0
LINE
  8
型材
  6
CONTINUOUS
 62
    32
 10
41.893633
 20
-183.38652
 11
40.990827
 21
-183.38652
  0
LINE
  8
型材
  6
CONTINUOUS
 62
    32
 10
41.893633
 20
-182.786687
 11
40.990827
 21
-182.786687
  0
LINE
  8
型材
  6
CONTINUOUS
 62
    32
 10
44.288
 20
-182.786687
 11
45.190805
 21
-182.786687
  0
LINE
  8
型材
  6
CONTINUOUS
 62
    32
 10
42.790903
 20
-180.986612
 11
43.390735
 21
-180.986612
  0
LINE
  8
型材
  6
CONTINUOUS
 62
    32
 10
40.990827
 20
-183.38652
 11
40.990827
 21
-182.786685
  0
LINE
  8
型材
  6
CONTINUOUS
 62
    32
 10
45.190805
 20
-183.38652
 11
45.190805
 21
-182.786685
  0
LINE
  8
型材
  6
DASHDOTX2
 62
    32
 10
-67.309183
 20
-183.086603
 11
61.690818
 21
-183.086603
  0
LINE
  8
型材
  6
CONTINUOUS
 62
    32
 10
-8.511992
 20
-183.38652
 11
-7.60919
 21
-183.38652
  0
LINE
  8
型材
  6
CONTINUOUS
 62
    32
 10
-9.409265
 20
-185.18659
 11
-9.409265
 21
-184.283785
  0
LINE
  8
型材
  6
CONTINUOUS
 62
    32
 10
-10.0091
 20
-185.18659
 11
-9.409265
 21
-185.18659
  0
LINE
  8
型材
  6
CONTINUOUS
 62
    32
 10
-10.0091
 20
-185.18659
 11
-10.0091
 21
-184.283785
  0
LINE
  8
型材
  6
CONTINUOUS
 62
    32
 10
-10.0091
 20
-180.986612
 11
-10.0091
 21
-181.889418
  0
LINE
  8
型材
  6
CONTINUOUS
 62
    32
 10
-9.409265
 20
-180.986612
 11
-9.409265
 21
-181.889418
  0
LINE
  8
型材
  6
CONTINUOUS
 62
    32
 10
-10.90637
 20
-183.38652
 11
-11.809173
 21
-183.38652
  0
LINE
  8
型材
  6
CONTINUOUS
 62
    32
 10
-10.90637
 20
-182.786687
 11
-11.809173
 21
-182.786687
  0
LINE
  8
型材
  6
CONTINUOUS
 62
    32
 10
-8.511992
 20
-182.786687
 11
-7.60919
 21
-182.786687
  0
LINE
  8
型材
  6
CONTINUOUS
 62
    32
 10
-10.0091
 20
-180.986612
 11
-9.409265
 21
-180.986612
  0
LINE
  8
型材
  6
CONTINUOUS
 62
    32
 10
-11.809173
 20
-183.38652
 11
-11.809173
 21
-182.786685
  0
LINE
  8
型材
  6
CONTINUOUS
 62
    32
 10
-7.60919
 20
-183.38652
 11
-7.60919
 21
-182.786685
  0
ARC
  8
型材
  6
CONTINUOUS
 62
    32
 10
41.893632
 20
-181.889417
 40
0.897268
 50
269.999934
 51
359.999978
  0
ARC
  8
型材
  6
CONTINUOUS
 62
    32
 10
44.288003
 20
-181.889416
 40
0.897268
 50
179.999954
 51
269.999989
  0
CIRCLE
  8
型材
  6
CONTINUOUS
 62
    32
 10
43.090818
 20
-183.086603
 40
4.14
  0
ARC
  8
型材
  6
CONTINUOUS
 62
    32
 10
-10.906371
 20
-181.889417
 40
0.897268
 50
269.999934
 51
359.999978
  0
ARC
  8
型材
  6
CONTINUOUS
 62
    32
 10
-8.511993
 20
-181.889416
 40
0.897268
 50
179.999954
 51
269.999989
  0
CIRCLE
  8
型材
  6
CONTINUOUS
 62
    32
 10
-9.709183
 20
-183.086603
 40
4.14
  0
ARC
  8
型材
  6
CONTINUOUS
 62
    32
 10
57.488003
 20
-184.283787
 40
0.897268
 50
89.99997
 51
180.000022
  0
ARC
  8
型材
  6
CONTINUOUS
 62
    32
 10
55.093633
 20
-184.283787
 40
0.897268
 50
359.999995
 51
450.000038
  0
ARC
  8
型材
  6
CONTINUOUS
 62
    32
 10
55.093632
 20
-181.889417
 40
0.897268
 50
269.999934
 51
359.999978
  0
ARC
  8
型材
  6
CONTINUOUS
 62
    32
 10
57.488003
 20
-181.889416
 40
0.897268
 50
179.999954
 51
269.999989
  0
CIRCLE
  8
型材
  6
CONTINUOUS
 62
    32
 10
56.290818
 20
-183.086603
 40
4.14
  0
ARC
  8
型材
  6
CONTINUOUS
 62
    32
 10
4.688003
 20
-184.283787
 40
0.897268
 50
89.99997
 51
180.000022
  0
ARC
  8
型材
  6
CONTINUOUS
 62
    32
 10
2.293633
 20
-184.283787
 40
0.897268
 50
359.999995
 51
450.000038
  0
ARC
  8
型材
  6
CONTINUOUS
 62
    32
 10
2.293633
 20
-181.889417
 40
0.897268
 50
269.999934
 51
359.999978
  0
ARC
  8
型材
  6
CONTINUOUS
 62
    32
 10
4.688003
 20
-181.889416
 40
0.897268
 50
179.999954
 51
269.999989
  0
CIRCLE
  8
型材
  6
CONTINUOUS
 62
    32
 10
3.490818
 20
-183.086603
 40
4.14
  0
ARC
  8
型材
  6
CONTINUOUS
 62
    32
 10
-21.711993
 20
-184.283787
 40
0.897268
 50
89.99997
 51
180.000022
  0
ARC
  8
型材
  6
CONTINUOUS
 62
    32
 10
-24.106371
 20
-184.283787
 40
0.897268
 50
359.999995
 51
450.000038
  0
ARC
  8
型材
  6
CONTINUOUS
 62
    32
 10
-24.106371
 20
-181.889417
 40
0.897268
 50
269.999934
 51
359.999978
  0
ARC
  8
型材
  6
CONTINUOUS
 62
    32
 10
-21.711993
 20
-181.889416
 40
0.897268
 50
179.999954
 51
269.999989
  0
CIRCLE
  8
型材
  6
CONTINUOUS
 62
    32
 10
-22.909183
 20
-183.086603
 40
4.14
  0
ARC
  8
型材
  6
CONTINUOUS
 62
    32
 10
17.888003
 20
-184.283787
 40
0.897268
 50
89.99997
 51
180.000022
  0
ARC
  8
型材
  6
CONTINUOUS
 62
    32
 10
15.493633
 20
-184.283787
 40
0.897268
 50
359.999995
 51
450.000038
  0
ARC
  8
型材
  6
CONTINUOUS
 62
    32
 10
15.493633
 20
-181.889417
 40
0.897268
 50
269.999934
 51
359.999978
  0
ARC
  8
型材
  6
CONTINUOUS
 62
    32
 10
17.888003
 20
-181.889416
 40
0.897268
 50
179.999954
 51
269.999989
  0
CIRCLE
  8
型材
  6
CONTINUOUS
 62
    32
 10
16.690818
 20
-183.086603
 40
4.14
  0
ARC
  8
型材
  6
CONTINUOUS
 62
    32
 10
31.088003
 20
-184.283787
 40
0.897268
 50
89.99997
 51
180.000022
  0
ARC
  8
型材
  6
CONTINUOUS
 62
    32
 10
28.693633
 20
-184.283787
 40
0.897268
 50
359.999995
 51
450.000038
  0
ARC
  8
型材
  6
CONTINUOUS
 62
    32
 10
28.693633
 20
-181.889417
 40
0.897268
 50
269.999934
 51
359.999978
  0
ARC
  8
型材
  6
CONTINUOUS
 62
    32
 10
31.088003
 20
-181.889416
 40
0.897268
 50
179.999954
 51
269.999989
  0
CIRCLE
  8
型材
  6
CONTINUOUS
 62
    32
 10
29.890818
 20
-183.086603
 40
4.14
  0
ARC
  8
型材
  6
CONTINUOUS
 62
    32
 10
44.288003
 20
-184.283787
 40
0.897268
 50
89.99997
 51
180.000022
  0
ARC
  8
型材
  6
CONTINUOUS
 62
    32
 10
41.893633
 20
-184.283787
 40
0.897268
 50
359.999995
 51
450.000038
  0
ARC
  8
型材
  6
CONTINUOUS
 62
    32
 10
-8.511993
 20
-184.283787
 40
0.897268
 50
89.99997
 51
180.000022
  0
ARC
  8
型材
  6
CONTINUOUS
 62
    32
 10
-10.906371
 20
-184.283787
 40
0.897268
 50
359.999995
 51
450.000038
  0
LINE
  8
型材
  6
CONTINUOUS
 62
    32
 10
50.89089
 20
-190.88661
 11
50.89089
 21
-222.962118
  0
LINE
  8
型材
  6
DOT
 10
80.62498
 20
-162.598067
 11
80.62498
 21
-230.95521
  0
POINT
  8
型材
 62
    32
 10
-49.309183
 20
-183.086603
  0
LINE
  8
型材
  6
CONTINUOUS
 62
    32
 10
-54.709183
 20
-190.886603
 11
-54.709183
 21
-171.686603
  0
LINE
  8
型材
  6
CONTINUOUS
 62
    32
 10
-30.709183
 20
-190.886603
 11
-30.709183
 21
-171.686603
  0
LINE
  8
型材
  6
CONTINUOUS
 62
    32
 10
-28.309183
 20
-190.886603
 11
-28.309183
 21
-171.686603
  0
LINE
  8
型材
  6
CONTINUOUS
 62
    32
 10
-67.909183
 20
-171.686603
 11
-67.909183
 21
-190.886603
  0
LINE
  8
型材
  6
DASHDOTX2
 62
    32
 10
-36.109183
 20
-177.086603
 11
-36.109183
 21
-189.086603
  0
LINE
  8
型材
  6
DASHDOTX2
 62
    32
 10
-62.509183
 20
-177.086603
 11
-62.509183
 21
-189.086603
  0
LINE
  8
型材
  6
CONTINUOUS
 62
    32
 10
-61.311992
 20
-183.38652
 11
-60.40919
 21
-183.38652
  0
LINE
  8
型材
  6
CONTINUOUS
 62
    32
 10
-62.209265
 20
-185.18659
 11
-62.209265
 21
-184.283785
  0
LINE
  8
型材
  6
CONTINUOUS
 62
    32
 10
-62.8091
 20
-185.18659
 11
-62.209265
 21
-185.18659
  0
LINE
  8
型材
  6
CONTINUOUS
 62
    32
 10
-62.8091
 20
-185.18659
 11
-62.8091
 21
-184.283785
  0
LINE
  8
型材
  6
CONTINUOUS
 62
    32
 10
-62.8091
 20
-180.986612
 11
-62.8091
 21
-181.889418
  0
LINE
  8
型材
  6
CONTINUOUS
 62
    32
 10
-62.209265
 20
-180.986612
 11
-62.209265
 21
-181.889418
  0
LINE
  8
型材
  6
CONTINUOUS
 62
    32
 10
-63.70637
 20
-183.38652
 11
-64.609173
 21
-183.38652
  0
LINE
  8
型材
  6
CONTINUOUS
 62
    32
 10
-63.70637
 20
-182.786687
 11
-64.609173
 21
-182.786687
  0
LINE
  8
型材
  6
CONTINUOUS
 62
    32
 10
-61.311992
 20
-182.786687
 11
-60.40919
 21
-182.786687
  0
LINE
  8
型材
  6
CONTINUOUS
 62
    32
 10
-62.8091
 20
-180.986612
 11
-62.209265
 21
-180.986612
  0
LINE
  8
型材
  6
CONTINUOUS
 62
    32
 10
-64.609173
 20
-183.38652
 11
-64.609173
 21
-182.786685
  0
LINE
  8
型材
  6
CONTINUOUS
 62
    32
 10
-60.40919
 20
-183.38652
 11
-60.40919
 21
-182.786685
  0
LINE
  8
型材
  6
CONTINUOUS
 62
    32
 10
-34.911992
 20
-183.38652
 11
-34.00919
 21
-183.38652
  0
LINE
  8
型材
  6
CONTINUOUS
 62
    32
 10
-35.809265
 20
-185.18659
 11
-35.809265
 21
-184.283785
  0
LINE
  8
型材
  6
CONTINUOUS
 62
    32
 10
-36.4091
 20
-185.18659
 11
-35.809265
 21
-185.18659
  0
LINE
  8
型材
  6
CONTINUOUS
 62
    32
 10
-36.4091
 20
-185.18659
 11
-36.4091
 21
-184.283785
  0
LINE
  8
型材
  6
CONTINUOUS
 62
    32
 10
-36.4091
 20
-180.986612
 11
-36.4091
 21
-181.889418
  0
LINE
  8
型材
  6
CONTINUOUS
 62
    32
 10
-35.809265
 20
-180.986612
 11
-35.809265
 21
-181.889418
  0
LINE
  8
型材
  6
CONTINUOUS
 62
    32
 10
-37.30637
 20
-183.38652
 11
-38.209173
 21
-183.38652
  0
LINE
  8
型材
  6
CONTINUOUS
 62
    32
 10
-37.30637
 20
-182.786687
 11
-38.209173
 21
-182.786687
  0
LINE
  8
型材
  6
CONTINUOUS
 62
    32
 10
-34.911992
 20
-182.786687
 11
-34.00919
 21
-182.786687
  0
LINE
  8
型材
  6
CONTINUOUS
 62
    32
 10
-36.4091
 20
-180.986612
 11
-35.809265
 21
-180.986612
  0
LINE
  8
型材
  6
CONTINUOUS
 62
    32
 10
-38.209173
 20
-183.38652
 11
-38.209173
 21
-182.786685
  0
LINE
  8
型材
  6
CONTINUOUS
 62
    32
 10
-34.00919
 20
-183.38652
 11
-34.00919
 21
-182.786685
  0
LINE
  8
型材
  6
CONTINUOUS
 62
    32
 10
-47.20919
 20
-183.38652
 11
-47.20919
 21
-182.786685
  0
LINE
  8
型材
  6
CONTINUOUS
 62
    32
 10
-51.409173
 20
-183.38652
 11
-51.409173
 21
-182.786685
  0
LINE
  8
型材
  6
CONTINUOUS
 62
    32
 10
-49.6091
 20
-180.986612
 11
-49.009265
 21
-180.986612
  0
LINE
  8
型材
  6
CONTINUOUS
 62
    32
 10
-48.111992
 20
-182.786687
 11
-47.20919
 21
-182.786687
  0
LINE
  8
型材
  6
CONTINUOUS
 62
    32
 10
-50.50637
 20
-182.786687
 11
-51.409173
 21
-182.786687
  0
LINE
  8
型材
  6
CONTINUOUS
 62
    32
 10
-50.50637
 20
-183.38652
 11
-51.409173
 21
-183.38652
  0
LINE
  8
型材
  6
CONTINUOUS
 62
    32
 10
-49.009265
 20
-180.986612
 11
-49.009265
 21
-181.889418
  0
LINE
  8
型材
  6
CONTINUOUS
 62
    32
 10
-49.6091
 20
-180.986612
 11
-49.6091
 21
-181.889418
  0
LINE
  8
型材
  6
CONTINUOUS
 62
    32
 10
-49.6091
 20
-185.18659
 11
-49.6091
 21
-184.283785
  0
LINE
  8
型材
  6
CONTINUOUS
 62
    32
 10
-49.6091
 20
-185.18659
 11
-49.009265
 21
-185.18659
  0
LINE
  8
型材
  6
CONTINUOUS
 62
    32
 10
-49.009265
 20
-185.18659
 11
-49.009265
 21
-184.283785
  0
LINE
  8
型材
  6
CONTINUOUS
 62
    32
 10
-48.111992
 20
-183.38652
 11
-47.20919
 21
-183.38652
  0
LINE
  8
型材
  6
DASHDOTX2
 62
    32
 10
-49.309183
 20
-177.086603
 11
-49.309183
 21
-189.086603
  0
LINE
  8
型材
  6
CONTINUOUS
 62
    32
 10
-41.509183
 20
-190.886603
 11
-41.509183
 21
-171.686603
  0
LINE
  8
型材
  6
CONTINUOUS
 62
    32
 10
-43.909183
 20
-190.886603
 11
-43.909183
 21
-171.686603
  0
ARC
  8
型材
  6
CONTINUOUS
 62
    32
 10
-61.311993
 20
-184.283787
 40
0.897268
 50
89.99997
 51
180.000022
  0
ARC
  8
型材
  6
CONTINUOUS
 62
    32
 10
-63.706371
 20
-184.283787
 40
0.897268
 50
359.999995
 51
450.000038
  0
ARC
  8
型材
  6
CONTINUOUS
 62
    32
 10
-63.706371
 20
-181.889417
 40
0.897268
 50
269.999934
 51
359.999978
  0
ARC
  8
型材
  6
CONTINUOUS
 62
    32
 10
-61.311993
 20
-181.889416
 40
0.897268
 50
179.999954
 51
269.999989
  0
CIRCLE
  8
型材
  6
CONTINUOUS
 62
    32
 10
-62.509183
 20
-183.086603
 40
4.14
  0
ARC
  8
型材
  6
CONTINUOUS
 62
    32
 10
-34.911993
 20
-184.283787
 40
0.897268
 50
89.99997
 51
180.000022
  0
ARC
  8
型材
  6
CONTINUOUS
 62
    32
 10
-37.306371
 20
-184.283787
 40
0.897268
 50
359.999995
 51
450.000038
  0
ARC
  8
型材
  6
CONTINUOUS
 62
    32
 10
-37.306371
 20
-181.889417
 40
0.897268
 50
269.999934
 51
359.999978
  0
ARC
  8
型材
  6
CONTINUOUS
 62
    32
 10
-34.911993
 20
-181.889416
 40
0.897268
 50
179.999954
 51
269.999989
  0
CIRCLE
  8
型材
  6
CONTINUOUS
 62
    32
 10
-36.109183
 20
-183.086603
 40
4.14
  0
CIRCLE
  8
型材
  6
CONTINUOUS
 62
    32
 10
-49.309183
 20
-183.086603
 40
4.14
  0
ARC
  8
型材
  6
CONTINUOUS
 62
    32
 10
-48.111993
 20
-181.889416
 40
0.897268
 50
179.999954
 51
269.999989
  0
ARC
  8
型材
  6
CONTINUOUS
 62
    32
 10
-50.506371
 20
-181.889417
 40
0.897268
 50
269.999934
 51
359.999978
  0
ARC
  8
型材
  6
CONTINUOUS
 62
    32
 10
-50.506371
 20
-184.283787
 40
0.897268
 50
359.999995
 51
450.000038
  0
ARC
  8
型材
  6
CONTINUOUS
 62
    32
 10
-48.111993
 20
-184.283787
 40
0.897268
 50
89.99997
 51
180.000022
  0
POINT
  8
型材
 62
    32
 10
-57.10911
 20
-190.88661
  0
LINE
  8
型材
  6
CONTINUOUS
 62
    32
 10
-57.109183
 20
-171.686603
 11
-57.109183
 21
-222.962118
  0
LINE
  8
型材
  6
CONTINUOUS
 62
    32
 10
61.690818
 20
-171.686603
 11
-67.909183
 21
-171.686603
  0
LINE
  8
型材
  6
CONTINUOUS
 62
    32
 10
61.690818
 20
-190.886603
 11
-67.909183
 21
-190.886603
  0
LINE
  8
型材
  6
CONTINUOUS
 62
    32
 10
50.89089
 20
-190.88661
 11
-67.909183
 21
-190.88661
  0
LINE
  8
型材
  6
CONTINUOUS
 62
    32
 10
50.89089
 20
-222.962118
 11
-57.109183
 21
-222.962118
  0
LINE
  8
型材
  6
DOT
 10
-86.87943
 20
-162.598067
 11
-86.87943
 21
-230.95521
  0
LINE
  8
型材
  6
DOT
 10
80.62498
 20
-162.598067
 11
-86.87943
 21
-162.598067
  0
LINE
  8
型材
  6
DOT
 10
80.62498
 20
-230.95521
 11
-86.87943
 21
-230.95521
  0
POINT
  8
型材
 62
    32
 10
-41.117345
 20
176.7884
  0
POINT
  8
型材
 62
    32
 10
-146.717345
 20
176.7884
  0
LINE
  8
型材
  6
CONTINUOUS
 62
    32
 10
-101.717345
 20
184.5884
 11
-101.717345
 21
165.3884
  0
LINE
  8
型材
  6
CONTINUOUS
 62
    32
 10
-154.517345
 20
184.5884
 11
-154.517345
 21
165.3884
  0
LINE
  8
型材
  6
CONTINUOUS
 62
    32
 10
-152.117345
 20
184.5884
 11
-152.117345
 21
165.3884
  0
LINE
  8
型材
  6
CONTINUOUS
 62
    32
 10
-48.917345
 20
184.5884
 11
-48.917345
 21
165.3884
  0
LINE
  8
型材
  6
CONTINUOUS
 62
    32
 10
-99.317345
 20
184.5884
 11
-99.317345
 21
165.3884
  0
LINE
  8
型材
  6
CONTINUOUS
 62
    32
 10
-128.117345
 20
184.5884
 11
-128.117345
 21
165.3884
  0
LINE
  8
型材
  6
CONTINUOUS
 62
    32
 10
-125.717345
 20
184.5884
 11
-125.717345
 21
165.3884
  0
LINE
  8
型材
  6
CONTINUOUS
 62
    32
 10
-88.517345
 20
184.5884
 11
-88.517345
 21
165.3884
  0
LINE
  8
型材
  6
CONTINUOUS
 62
    32
 10
-86.117345
 20
184.5884
 11
-86.117345
 21
165.3884
  0
LINE
  8
型材
  6
CONTINUOUS
 62
    32
 10
-46.517345
 20
184.5884
 11
-46.517345
 21
165.3884
  0
LINE
  8
型材
  6
CONTINUOUS
 62
    32
 10
-75.317345
 20
184.5884
 11
-75.317345
 21
165.3884
  0
LINE
  8
型材
  6
CONTINUOUS
 62
    32
 10
-72.917345
 20
184.5884
 11
-72.917345
 21
165.3884
  0
LINE
  8
型材
  6
CONTINUOUS
 62
    32
 10
-59.717345
 20
184.5884
 11
-59.717345
 21
165.3884
  0
LINE
  8
型材
  6
CONTINUOUS
 62
    32
 10
-62.117345
 20
184.5884
 11
-62.117345
 21
165.3884
  0
LINE
  8
型材
  6
CONTINUOUS
 62
    32
 10
-35.717345
 20
165.3884
 11
-35.717345
 21
184.5884
  0
LINE
  8
型材
  6
DASHDOTX2
 62
    32
 10
-41.117345
 20
170.7884
 11
-41.117345
 21
182.7884
  0
LINE
  8
型材
  6
DASHDOTX2
 62
    32
 10
-54.317345
 20
170.7884
 11
-54.317345
 21
182.7884
  0
LINE
  8
型材
  6
DASHDOTX2
 62
    32
 10
-67.517345
 20
170.7884
 11
-67.517345
 21
182.7884
  0
LINE
  8
型材
  6
DASHDOTX2
 62
    32
 10
-80.717345
 20
170.7884
 11
-80.717345
 21
182.7884
  0
LINE
  8
型材
  6
DASHDOTX2
 62
    32
 10
-93.917345
 20
170.7884
 11
-93.917345
 21
182.7884
  0
LINE
  8
型材
  6
CONTINUOUS
 62
    32
 10
-112.517345
 20
184.5884
 11
-112.517345
 21
165.3884
  0
LINE
  8
型材
  6
CONTINUOUS
 62
    32
 10
-114.917345
 20
184.5884
 11
-114.917345
 21
165.3884
  0
LINE
  8
型材
  6
CONTINUOUS
 62
    32
 10
-165.317345
 20
165.3884
 11
-165.317345
 21
184.5884
  0
LINE
  8
型材
  6
DASHDOTX2
 62
    32
 10
-107.117345
 20
170.7884
 11
-107.117345
 21
182.7884
  0
LINE
  8
型材
  6
DASHDOTX2
 62
    32
 10
-120.317345
 20
170.7884
 11
-120.317345
 21
182.7884
  0
LINE
  8
型材
  6
DASHDOTX2
 62
    32
 10
-133.517345
 20
170.7884
 11
-133.517345
 21
182.7884
  0
LINE
  8
型材
  6
CONTINUOUS
 62
    32
 10
-39.920158
 20
177.088318
 11
-39.017353
 21
177.088318
  0
LINE
  8
型材
  6
CONTINUOUS
 62
    32
 10
-40.817428
 20
178.888387
 11
-40.817428
 21
177.985583
  0
LINE
  8
型材
  6
CONTINUOUS
 62
    32
 10
-41.41726
 20
178.888387
 11
-40.817428
 21
178.888387
  0
LINE
  8
型材
  6
CONTINUOUS
 62
    32
 10
-41.41726
 20
178.888387
 11
-41.41726
 21
177.985583
  0
LINE
  8
型材
  6
CONTINUOUS
 62
    32
 10
-41.41726
 20
174.68841
 11
-41.41726
 21
175.591215
  0
LINE
  8
型材
  6
CONTINUOUS
 62
    32
 10
-40.817428
 20
174.68841
 11
-40.817428
 21
175.591215
  0
LINE
  8
型材
  6
DASHDOTX2
 62
    32
 10
-159.917345
 20
170.7884
 11
-159.917345
 21
182.7884
  0
LINE
  8
型材
  6
CONTINUOUS
 62
    32
 10
-158.720155
 20
177.088318
 11
-157.817353
 21
177.088318
  0
LINE
  8
型材
  6
CONTINUOUS
 62
    32
 10
-159.617428
 20
178.888387
 11
-159.617428
 21
177.985583
  0
LINE
  8
型材
  6
CONTINUOUS
 62
    32
 10
-160.217263
 20
178.888387
 11
-159.617428
 21
178.888387
  0
LINE
  8
型材
  6
CONTINUOUS
 62
    32
 10
-160.217263
 20
178.888387
 11
-160.217263
 21
177.985583
  0
LINE
  8
型材
  6
CONTINUOUS
 62
    32
 10
-160.217263
 20
174.68841
 11
-160.217263
 21
175.591215
  0
LINE
  8
型材
  6
CONTINUOUS
 62
    32
 10
-159.617428
 20
174.68841
 11
-159.617428
 21
175.591215
  0
LINE
  8
型材
  6
CONTINUOUS
 62
    32
 10
-161.114533
 20
177.088318
 11
-162.017335
 21
177.088318
  0
LINE
  8
型材
  6
CONTINUOUS
 62
    32
 10
-161.114533
 20
176.488485
 11
-162.017335
 21
176.488485
  0
LINE
  8
型材
  6
CONTINUOUS
 62
    32
 10
-158.720155
 20
176.488485
 11
-157.817353
 21
176.488485
  0
LINE
  8
型材
  6
CONTINUOUS
 62
    32
 10
-160.217263
 20
174.68841
 11
-159.617428
 21
174.68841
  0
LINE
  8
型材
  6
CONTINUOUS
 62
    32
 10
-162.017335
 20
177.088318
 11
-162.017335
 21
176.488482
  0
LINE
  8
型材
  6
CONTINUOUS
 62
    32
 10
-157.817353
 20
177.088318
 11
-157.817353
 21
176.488482
  0
LINE
  8
型材
  6
CONTINUOUS
 62
    32
 10
-42.31453
 20
177.088318
 11
-43.217335
 21
177.088318
  0
LINE
  8
型材
  6
CONTINUOUS
 62
    32
 10
-42.31453
 20
176.488485
 11
-43.217335
 21
176.488485
  0
LINE
  8
型材
  6
CONTINUOUS
 62
    32
 10
-39.920162
 20
176.488485
 11
-39.017353
 21
176.488485
  0
LINE
  8
型材
  6
CONTINUOUS
 62
    32
 10
-41.41726
 20
174.68841
 11
-40.817428
 21
174.68841
  0
LINE
  8
型材
  6
CONTINUOUS
 62
    32
 10
-43.217335
 20
177.088318
 11
-43.217335
 21
176.488482
  0
LINE
  8
型材
  6
CONTINUOUS
 62
    32
 10
-39.017353
 20
177.088318
 11
-39.017353
 21
176.488482
  0
LINE
  8
型材
  6
CONTINUOUS
 62
    32
 10
-92.720162
 20
177.088318
 11
-91.817353
 21
177.088318
  0
LINE
  8
型材
  6
CONTINUOUS
 62
    32
 10
-93.617428
 20
178.888387
 11
-93.617428
 21
177.985583
  0
LINE
  8
型材
  6
CONTINUOUS
 62
    32
 10
-94.217263
 20
178.888387
 11
-93.617428
 21
178.888387
  0
LINE
  8
型材
  6
CONTINUOUS
 62
    32
 10
-94.217263
 20
178.888387
 11
-94.217263
 21
177.985583
  0
LINE
  8
型材
  6
CONTINUOUS
 62
    32
 10
-94.217263
 20
174.68841
 11
-94.217263
 21
175.591215
  0
LINE
  8
型材
  6
CONTINUOUS
 62
    32
 10
-93.617428
 20
174.68841
 11
-93.617428
 21
175.591215
  0
LINE
  8
型材
  6
CONTINUOUS
 62
    32
 10
-132.320155
 20
177.088318
 11
-131.417353
 21
177.088318
  0
LINE
  8
型材
  6
CONTINUOUS
 62
    32
 10
-133.217428
 20
178.888387
 11
-133.217428
 21
177.985583
  0
LINE
  8
型材
  6
CONTINUOUS
 62
    32
 10
-133.817263
 20
178.888387
 11
-133.217428
 21
178.888387
  0
LINE
  8
型材
  6
CONTINUOUS
 62
    32
 10
-133.817263
 20
178.888387
 11
-133.817263
 21
177.985583
  0
LINE
  8
型材
  6
CONTINUOUS
 62
    32
 10
-133.817263
 20
174.68841
 11
-133.817263
 21
175.591215
  0
LINE
  8
型材
  6
CONTINUOUS
 62
    32
 10
-133.217428
 20
174.68841
 11
-133.217428
 21
175.591215
  0
LINE
  8
型材
  6
CONTINUOUS
 62
    32
 10
-134.714533
 20
177.088318
 11
-135.617335
 21
177.088318
  0
LINE
  8
型材
  6
CONTINUOUS
 62
    32
 10
-134.714533
 20
176.488485
 11
-135.617335
 21
176.488485
  0
LINE
  8
型材
  6
CONTINUOUS
 62
    32
 10
-132.320155
 20
176.488485
 11
-131.417353
 21
176.488485
  0
LINE
  8
型材
  6
CONTINUOUS
 62
    32
 10
-133.817263
 20
174.68841
 11
-133.217428
 21
174.68841
  0
LINE
  8
型材
  6
CONTINUOUS
 62
    32
 10
-135.617335
 20
177.088318
 11
-135.617335
 21
176.488482
  0
LINE
  8
型材
  6
CONTINUOUS
 62
    32
 10
-131.417353
 20
177.088318
 11
-131.417353
 21
176.488482
  0
LINE
  8
型材
  6
CONTINUOUS
 62
    32
 10
-119.120155
 20
177.088318
 11
-118.217353
 21
177.088318
  0
LINE
  8
型材
  6
CONTINUOUS
 62
    32
 10
-120.017428
 20
178.888387
 11
-120.017428
 21
177.985583
  0
LINE
  8
型材
  6
CONTINUOUS
 62
    32
 10
-120.617263
 20
178.888387
 11
-120.017428
 21
178.888387
  0
LINE
  8
型材
  6
CONTINUOUS
 62
    32
 10
-120.617263
 20
178.888387
 11
-120.617263
 21
177.985583
  0
LINE
  8
型材
  6
CONTINUOUS
 62
    32
 10
-120.617263
 20
174.68841
 11
-120.617263
 21
175.591215
  0
LINE
  8
型材
  6
CONTINUOUS
 62
    32
 10
-120.017428
 20
174.68841
 11
-120.017428
 21
175.591215
  0
LINE
  8
型材
  6
CONTINUOUS
 62
    32
 10
-121.514533
 20
177.088318
 11
-122.417335
 21
177.088318
  0
LINE
  8
型材
  6
CONTINUOUS
 62
    32
 10
-121.514533
 20
176.488485
 11
-122.417335
 21
176.488485
  0
LINE
  8
型材
  6
CONTINUOUS
 62
    32
 10
-119.120155
 20
176.488485
 11
-118.217353
 21
176.488485
  0
LINE
  8
型材
  6
CONTINUOUS
 62
    32
 10
-120.617263
 20
174.68841
 11
-120.017428
 21
174.68841
  0
LINE
  8
型材
  6
CONTINUOUS
 62
    32
 10
-122.417335
 20
177.088318
 11
-122.417335
 21
176.488482
  0
LINE
  8
型材
  6
CONTINUOUS
 62
    32
 10
-118.217353
 20
177.088318
 11
-118.217353
 21
176.488482
  0
LINE
  8
型材
  6
CONTINUOUS
 62
    32
 10
-95.11453
 20
177.088318
 11
-96.017335
 21
177.088318
  0
LINE
  8
型材
  6
CONTINUOUS
 62
    32
 10
-95.11453
 20
176.488485
 11
-96.017335
 21
176.488485
  0
LINE
  8
型材
  6
CONTINUOUS
 62
    32
 10
-92.720162
 20
176.488485
 11
-91.817353
 21
176.488485
  0
LINE
  8
型材
  6
CONTINUOUS
 62
    32
 10
-94.217263
 20
174.68841
 11
-93.617428
 21
174.68841
  0
LINE
  8
型材
  6
CONTINUOUS
 62
    32
 10
-96.017335
 20
177.088318
 11
-96.017335
 21
176.488482
  0
LINE
  8
型材
  6
CONTINUOUS
 62
    32
 10
-91.817353
 20
177.088318
 11
-91.817353
 21
176.488482
  0
LINE
  8
型材
  6
CONTINUOUS
 62
    32
 10
-79.520162
 20
177.088318
 11
-78.617353
 21
177.088318
  0
LINE
  8
型材
  6
CONTINUOUS
 62
    32
 10
-80.417428
 20
178.888387
 11
-80.417428
 21
177.985583
  0
LINE
  8
型材
  6
CONTINUOUS
 62
    32
 10
-81.01726
 20
178.888387
 11
-80.417428
 21
178.888387
  0
LINE
  8
型材
  6
CONTINUOUS
 62
    32
 10
-81.017263
 20
178.888387
 11
-81.017263
 21
177.985583
  0
LINE
  8
型材
  6
CONTINUOUS
 62
    32
 10
-81.017263
 20
174.68841
 11
-81.017263
 21
175.591215
  0
LINE
  8
型材
  6
CONTINUOUS
 62
    32
 10
-80.417428
 20
174.68841
 11
-80.417428
 21
175.591215
  0
LINE
  8
型材
  6
CONTINUOUS
 62
    32
 10
-81.91453
 20
177.088318
 11
-82.817335
 21
177.088318
  0
LINE
  8
型材
  6
CONTINUOUS
 62
    32
 10
-81.91453
 20
176.488485
 11
-82.817335
 21
176.488485
  0
LINE
  8
型材
  6
CONTINUOUS
 62
    32
 10
-79.520162
 20
176.488485
 11
-78.617353
 21
176.488485
  0
LINE
  8
型材
  6
CONTINUOUS
 62
    32
 10
-81.017263
 20
174.68841
 11
-80.417428
 21
174.68841
  0
LINE
  8
型材
  6
CONTINUOUS
 62
    32
 10
-82.817335
 20
177.088318
 11
-82.817335
 21
176.488482
  0
LINE
  8
型材
  6
CONTINUOUS
 62
    32
 10
-78.617353
 20
177.088318
 11
-78.617353
 21
176.488482
  0
LINE
  8
型材
  6
CONTINUOUS
 62
    32
 10
-66.320162
 20
177.088318
 11
-65.417353
 21
177.088318
  0
LINE
  8
型材
  6
CONTINUOUS
 62
    32
 10
-67.217428
 20
178.888387
 11
-67.217428
 21
177.985583
  0
LINE
  8
型材
  6
CONTINUOUS
 62
    32
 10
-67.81726
 20
178.888387
 11
-67.217428
 21
178.888387
  0
LINE
  8
型材
  6
CONTINUOUS
 62
    32
 10
-67.817263
 20
178.888387
 11
-67.817263
 21
177.985583
  0
LINE
  8
型材
  6
CONTINUOUS
 62
    32
 10
-67.817263
 20
174.68841
 11
-67.817263
 21
175.591215
  0
LINE
  8
型材
  6
CONTINUOUS
 62
    32
 10
-67.217428
 20
174.68841
 11
-67.217428
 21
175.591215
  0
LINE
  8
型材
  6
CONTINUOUS
 62
    32
 10
-68.71453
 20
177.088318
 11
-69.617335
 21
177.088318
  0
LINE
  8
型材
  6
CONTINUOUS
 62
    32
 10
-68.71453
 20
176.488485
 11
-69.617335
 21
176.488485
  0
LINE
  8
型材
  6
CONTINUOUS
 62
    32
 10
-66.320162
 20
176.488485
 11
-65.417353
 21
176.488485
  0
LINE
  8
型材
  6
CONTINUOUS
 62
    32
 10
-67.817263
 20
174.68841
 11
-67.217428
 21
174.68841
  0
LINE
  8
型材
  6
CONTINUOUS
 62
    32
 10
-69.617335
 20
177.088318
 11
-69.617335
 21
176.488482
  0
LINE
  8
型材
  6
CONTINUOUS
 62
    32
 10
-65.417353
 20
177.088318
 11
-65.417353
 21
176.488482
  0
LINE
  8
型材
  6
CONTINUOUS
 62
    32
 10
-53.120162
 20
177.088318
 11
-52.217357
 21
177.088318
  0
LINE
  8
型材
  6
CONTINUOUS
 62
    32
 10
-54.017428
 20
178.888387
 11
-54.017428
 21
177.985583
  0
LINE
  8
型材
  6
CONTINUOUS
 62
    32
 10
-54.61726
 20
178.888387
 11
-54.017428
 21
178.888387
  0
LINE
  8
型材
  6
CONTINUOUS
 62
    32
 10
-54.61726
 20
178.888387
 11
-54.61726
 21
177.985583
  0
LINE
  8
型材
  6
CONTINUOUS
 62
    32
 10
-54.61726
 20
174.68841
 11
-54.61726
 21
175.591215
  0
LINE
  8
型材
  6
CONTINUOUS
 62
    32
 10
-54.017428
 20
174.68841
 11
-54.017428
 21
175.591215
  0
LINE
  8
型材
  6
CONTINUOUS
 62
    32
 10
-55.51453
 20
177.088318
 11
-56.417335
 21
177.088318
  0
LINE
  8
型材
  6
CONTINUOUS
 62
    32
 10
-55.51453
 20
176.488485
 11
-56.417335
 21
176.488485
  0
LINE
  8
型材
  6
CONTINUOUS
 62
    32
 10
-53.120162
 20
176.488485
 11
-52.217357
 21
176.488485
  0
LINE
  8
型材
  6
CONTINUOUS
 62
    32
 10
-54.61726
 20
174.68841
 11
-54.017428
 21
174.68841
  0
LINE
  8
型材
  6
CONTINUOUS
 62
    32
 10
-56.417335
 20
177.088318
 11
-56.417335
 21
176.488482
  0
LINE
  8
型材
  6
CONTINUOUS
 62
    32
 10
-52.217357
 20
177.088318
 11
-52.217357
 21
176.488482
  0
LINE
  8
型材
  6
DASHDOTX2
 62
    32
 10
-164.717345
 20
176.7884
 11
-35.717345
 21
176.7884
  0
LINE
  8
型材
  6
CONTINUOUS
 62
    32
 10
-105.920155
 20
177.088318
 11
-105.017353
 21
177.088318
  0
LINE
  8
型材
  6
CONTINUOUS
 62
    32
 10
-106.817428
 20
178.888387
 11
-106.817428
 21
177.985583
  0
LINE
  8
型材
  6
CONTINUOUS
 62
    32
 10
-107.417263
 20
178.888387
 11
-106.817428
 21
178.888387
  0
LINE
  8
型材
  6
CONTINUOUS
 62
    32
 10
-107.417263
 20
178.888387
 11
-107.417263
 21
177.985583
  0
LINE
  8
型材
  6
CONTINUOUS
 62
    32
 10
-107.417263
 20
174.68841
 11
-107.417263
 21
175.591215
  0
LINE
  8
型材
  6
CONTINUOUS
 62
    32
 10
-106.817428
 20
174.68841
 11
-106.817428
 21
175.591215
  0
LINE
  8
型材
  6
CONTINUOUS
 62
    32
 10
-108.314533
 20
177.088318
 11
-109.217335
 21
177.088318
  0
LINE
  8
型材
  6
CONTINUOUS
 62
    32
 10
-108.314533
 20
176.488485
 11
-109.217335
 21
176.488485
  0
LINE
  8
型材
  6
CONTINUOUS
 62
    32
 10
-105.920155
 20
176.488485
 11
-105.017353
 21
176.488485
  0
LINE
  8
型材
  6
CONTINUOUS
 62
    32
 10
-107.417263
 20
174.68841
 11
-106.817428
 21
174.68841
  0
LINE
  8
型材
  6
CONTINUOUS
 62
    32
 10
-109.217335
 20
177.088318
 11
-109.217335
 21
176.488482
  0
LINE
  8
型材
  6
CONTINUOUS
 62
    32
 10
-105.017353
 20
177.088318
 11
-105.017353
 21
176.488482
  0
LINE
  8
型材
  6
CONTINUOUS
 62
    32
 10
-144.617353
 20
177.088318
 11
-144.617353
 21
176.488482
  0
LINE
  8
型材
  6
CONTINUOUS
 62
    32
 10
-148.817335
 20
177.088318
 11
-148.817335
 21
176.488482
  0
LINE
  8
型材
  6
CONTINUOUS
 62
    32
 10
-147.017263
 20
174.68841
 11
-146.417428
 21
174.68841
  0
LINE
  8
型材
  6
CONTINUOUS
 62
    32
 10
-145.520155
 20
176.488485
 11
-144.617353
 21
176.488485
  0
LINE
  8
型材
  6
CONTINUOUS
 62
    32
 10
-147.914533
 20
176.488485
 11
-148.817335
 21
176.488485
  0
LINE
  8
型材
  6
CONTINUOUS
 62
    32
 10
-147.914533
 20
177.088318
 11
-148.817335
 21
177.088318
  0
LINE
  8
型材
  6
CONTINUOUS
 62
    32
 10
-146.417428
 20
174.68841
 11
-146.417428
 21
175.591215
  0
LINE
  8
型材
  6
CONTINUOUS
 62
    32
 10
-147.017263
 20
174.68841
 11
-147.017263
 21
175.591215
  0
LINE
  8
型材
  6
CONTINUOUS
 62
    32
 10
-147.017263
 20
178.888387
 11
-147.017263
 21
177.985583
  0
LINE
  8
型材
  6
CONTINUOUS
 62
    32
 10
-147.017263
 20
178.888387
 11
-146.417428
 21
178.888387
  0
LINE
  8
型材
  6
CONTINUOUS
 62
    32
 10
-146.417428
 20
178.888387
 11
-146.417428
 21
177.985583
  0
LINE
  8
型材
  6
CONTINUOUS
 62
    32
 10
-145.520155
 20
177.088318
 11
-144.617353
 21
177.088318
  0
LINE
  8
型材
  6
DASHDOTX2
 62
    32
 10
-146.717345
 20
170.7884
 11
-146.717345
 21
182.7884
  0
LINE
  8
型材
  6
CONTINUOUS
 62
    32
 10
-138.917345
 20
184.5884
 11
-138.917345
 21
165.3884
  0
LINE
  8
型材
  6
CONTINUOUS
 62
    32
 10
-141.317345
 20
184.5884
 11
-141.317345
 21
165.3884
  0
ARC
  8
型材
  6
CONTINUOUS
 62
    32
 10
-55.514532
 20
175.591214
 40
0.897268
 50
0.000022
 51
90.000066
  0
ARC
  8
型材
  6
CONTINUOUS
 62
    32
 10
-53.120161
 20
175.591213
 40
0.897268
 50
90.000011
 51
180.000046
  0
CIRCLE
  8
型材
  6
CONTINUOUS
 62
    32
 10
-54.317345
 20
176.7884
 40
4.14
  0
ARC
  8
型材
  6
CONTINUOUS
 62
    32
 10
-108.314536
 20
175.591214
 40
0.897268
 50
0.000022
 51
90.000066
  0
ARC
  8
型材
  6
CONTINUOUS
 62
    32
 10
-105.920157
 20
175.591213
 40
0.897268
 50
90.000011
 51
180.000046
  0
CIRCLE
  8
型材
  6
CONTINUOUS
 62
    32
 10
-107.117345
 20
176.7884
 40
4.14
  0
ARC
  8
型材
  6
CONTINUOUS
 62
    32
 10
-39.920161
 20
177.985583
 40
0.897268
 50
179.999978
 51
270.00003
  0
ARC
  8
型材
  6
CONTINUOUS
 62
    32
 10
-42.314531
 20
177.985583
 40
0.897268
 50
269.999962
 51
360.000005
  0
ARC
  8
型材
  6
CONTINUOUS
 62
    32
 10
-42.314532
 20
175.591214
 40
0.897268
 50
0.000022
 51
90.000066
  0
ARC
  8
型材
  6
CONTINUOUS
 62
    32
 10
-39.920161
 20
175.591213
 40
0.897268
 50
90.000011
 51
180.000046
  0
CIRCLE
  8
型材
  6
CONTINUOUS
 62
    32
 10
-41.117345
 20
176.7884
 40
4.14
  0
ARC
  8
型材
  6
CONTINUOUS
 62
    32
 10
-158.720157
 20
177.985583
 40
0.897268
 50
179.999978
 51
270.00003
  0
ARC
  8
型材
  6
CONTINUOUS
 62
    32
 10
-161.114536
 20
177.985583
 40
0.897268
 50
269.999962
 51
360.000005
  0
ARC
  8
型材
  6
CONTINUOUS
 62
    32
 10
-161.114536
 20
175.591214
 40
0.897268
 50
0.000022
 51
90.000066
  0
ARC
  8
型材
  6
CONTINUOUS
 62
    32
 10
-158.720157
 20
175.591213
 40
0.897268
 50
90.000011
 51
180.000046
  0
CIRCLE
  8
型材
  6
CONTINUOUS
 62
    32
 10
-159.917345
 20
176.7884
 40
4.14
  0
ARC
  8
型材
  6
CONTINUOUS
 62
    32
 10
-92.720161
 20
177.985583
 40
0.897268
 50
179.999978
 51
270.00003
  0
ARC
  8
型材
  6
CONTINUOUS
 62
    32
 10
-95.114531
 20
177.985583
 40
0.897268
 50
269.999962
 51
360.000005
  0
ARC
  8
型材
  6
CONTINUOUS
 62
    32
 10
-95.114531
 20
175.591214
 40
0.897268
 50
0.000022
 51
90.000066
  0
ARC
  8
型材
  6
CONTINUOUS
 62
    32
 10
-92.720161
 20
175.591213
 40
0.897268
 50
90.000011
 51
180.000046
  0
CIRCLE
  8
型材
  6
CONTINUOUS
 62
    32
 10
-93.917345
 20
176.7884
 40
4.14
  0
ARC
  8
型材
  6
CONTINUOUS
 62
    32
 10
-132.320157
 20
177.985583
 40
0.897268
 50
179.999978
 51
270.00003
  0
ARC
  8
型材
  6
CONTINUOUS
 62
    32
 10
-134.714536
 20
177.985583
 40
0.897268
 50
269.999962
 51
360.000005
  0
ARC
  8
型材
  6
CONTINUOUS
 62
    32
 10
-134.714536
 20
175.591214
 40
0.897268
 50
0.000022
 51
90.000066
  0
ARC
  8
型材
  6
CONTINUOUS
 62
    32
 10
-132.320157
 20
175.591213
 40
0.897268
 50
90.000011
 51
180.000046
  0
CIRCLE
  8
型材
  6
CONTINUOUS
 62
    32
 10
-133.517345
 20
176.7884
 40
4.14
  0
ARC
  8
型材
  6
CONTINUOUS
 62
    32
 10
-119.120157
 20
177.985583
 40
0.897268
 50
179.999978
 51
270.00003
  0
ARC
  8
型材
  6
CONTINUOUS
 62
    32
 10
-121.514536
 20
177.985583
 40
0.897268
 50
269.999962
 51
360.000005
  0
ARC
  8
型材
  6
CONTINUOUS
 62
    32
 10
-121.514536
 20
175.591214
 40
0.897268
 50
0.000022
 51
90.000066
  0
ARC
  8
型材
  6
CONTINUOUS
 62
    32
 10
-119.120157
 20
175.591213
 40
0.897268
 50
90.000011
 51
180.000046
  0
CIRCLE
  8
型材
  6
CONTINUOUS
 62
    32
 10
-120.317345
 20
176.7884
 40
4.14
  0
ARC
  8
型材
  6
CONTINUOUS
 62
    32
 10
-79.520161
 20
177.985583
 40
0.897268
 50
179.999978
 51
270.00003
  0
ARC
  8
型材
  6
CONTINUOUS
 62
    32
 10
-81.914531
 20
177.985583
 40
0.897268
 50
269.999962
 51
360.000005
  0
ARC
  8
型材
  6
CONTINUOUS
 62
    32
 10
-81.914531
 20
175.591214
 40
0.897268
 50
0.000022
 51
90.000066
  0
ARC
  8
型材
  6
CONTINUOUS
 62
    32
 10
-79.520161
 20
175.591213
 40
0.897268
 50
90.000011
 51
180.000046
  0
CIRCLE
  8
型材
  6
CONTINUOUS
 62
    32
 10
-80.717345
 20
176.7884
 40
4.14
  0
ARC
  8
型材
  6
CONTINUOUS
 62
    32
 10
-66.320161
 20
177.985583
 40
0.897268
 50
179.999978
 51
270.00003
  0
ARC
  8
型材
  6
CONTINUOUS
 62
    32
 10
-68.714531
 20
177.985583
 40
0.897268
 50
269.999962
 51
360.000005
  0
ARC
  8
型材
  6
CONTINUOUS
 62
    32
 10
-68.714531
 20
175.591214
 40
0.897268
 50
0.000022
 51
90.000066
  0
ARC
  8
型材
  6
CONTINUOUS
 62
    32
 10
-66.320161
 20
175.591213
 40
0.897268
 50
90.000011
 51
180.000046
  0
CIRCLE
  8
型材
  6
CONTINUOUS
 62
    32
 10
-67.517345
 20
176.7884
 40
4.14
  0
ARC
  8
型材
  6
CONTINUOUS
 62
    32
 10
-53.120161
 20
177.985583
 40
0.897268
 50
179.999978
 51
270.00003
  0
ARC
  8
型材
  6
CONTINUOUS
 62
    32
 10
-55.514531
 20
177.985583
 40
0.897268
 50
269.999962
 51
360.000005
  0
ARC
  8
型材
  6
CONTINUOUS
 62
    32
 10
-105.920157
 20
177.985583
 40
0.897268
 50
179.999978
 51
270.00003
  0
ARC
  8
型材
  6
CONTINUOUS
 62
    32
 10
-108.314536
 20
177.985583
 40
0.897268
 50
269.999962
 51
360.000005
  0
CIRCLE
  8
型材
  6
CONTINUOUS
 62
    32
 10
-146.717345
 20
176.7884
 40
4.14
  0
ARC
  8
型材
  6
CONTINUOUS
 62
    32
 10
-145.520157
 20
175.591213
 40
0.897268
 50
90.000011
 51
180.000046
  0
ARC
  8
型材
  6
CONTINUOUS
 62
    32
 10
-147.914536
 20
175.591214
 40
0.897268
 50
0.000022
 51
90.000066
  0
ARC
  8
型材
  6
CONTINUOUS
 62
    32
 10
-147.914536
 20
177.985583
 40
0.897268
 50
269.999962
 51
360.000005
  0
ARC
  8
型材
  6
CONTINUOUS
 62
    32
 10
-145.520157
 20
177.985583
 40
0.897268
 50
179.999978
 51
270.00003
  0
POINT
  8
型材
 62
    32
 10
-154.517273
 20
184.588407
  0
LINE
  8
型材
  6
CONTINUOUS
 62
    32
 10
-46.517273
 20
184.588407
 11
-154.517273
 21
184.588407
  0
LINE
  8
型材
  6
CONTINUOUS
 62
    32
 10
-154.517273
 20
184.588407
 11
-154.517273
 21
216.663915
  0
POINT
  8
型材
 62
    32
 10
-27.917345
 20
176.7884
  0
LINE
  8
型材
  6
CONTINUOUS
 62
    32
 10
17.082655
 20
184.5884
 11
17.082655
 21
165.3884
  0
LINE
  8
型材
  6
CONTINUOUS
 62
    32
 10
-33.317345
 20
184.5884
 11
-33.317345
 21
165.3884
  0
LINE
  8
型材
  6
CONTINUOUS
 62
    32
 10
69.882655
 20
184.5884
 11
69.882655
 21
165.3884
  0
LINE
  8
型材
  6
CONTINUOUS
 62
    32
 10
19.482655
 20
184.5884
 11
19.482655
 21
165.3884
  0
LINE
  8
型材
  6
CONTINUOUS
 62
    32
 10
-9.317345
 20
184.5884
 11
-9.317345
 21
165.3884
  0
LINE
  8
型材
  6
CONTINUOUS
 62
    32
 10
-6.917345
 20
184.5884
 11
-6.917345
 21
165.3884
  0
LINE
  8
型材
  6
CONTINUOUS
 62
    32
 10
30.282655
 20
184.5884
 11
30.282655
 21
165.3884
  0
LINE
  8
型材
  6
CONTINUOUS
 62
    32
 10
32.682655
 20
184.5884
 11
32.682655
 21
165.3884
  0
LINE
  8
型材
  6
CONTINUOUS
 62
    32
 10
43.482655
 20
184.5884
 11
43.482655
 21
165.3884
  0
LINE
  8
型材
  6
CONTINUOUS
 62
    32
 10
45.882655
 20
184.5884
 11
45.882655
 21
165.3884
  0
LINE
  8
型材
  6
CONTINUOUS
 62
    32
 10
59.082655
 20
184.5884
 11
59.082655
 21
165.3884
  0
LINE
  8
型材
  6
CONTINUOUS
 62
    32
 10
56.682655
 20
184.5884
 11
56.682655
 21
165.3884
  0
LINE
  8
型材
  6
DASHDOTX2
 62
    32
 10
64.482655
 20
170.7884
 11
64.482655
 21
182.7884
  0
LINE
  8
型材
  6
DASHDOTX2
 62
    32
 10
51.282655
 20
170.7884
 11
51.282655
 21
182.7884
  0
LINE
  8
型材
  6
DASHDOTX2
 62
    32
 10
38.082655
 20
170.7884
 11
38.082655
 21
182.7884
  0
LINE
  8
型材
  6
DASHDOTX2
 62
    32
 10
24.882655
 20
170.7884
 11
24.882655
 21
182.7884
  0
LINE
  8
型材
  6
CONTINUOUS
 62
    32
 10
6.282655
 20
184.5884
 11
6.282655
 21
165.3884
  0
LINE
  8
型材
  6
CONTINUOUS
 62
    32
 10
3.882655
 20
184.5884
 11
3.882655
 21
165.3884
  0
LINE
  8
型材
  6
DASHDOTX2
 62
    32
 10
11.682655
 20
170.7884
 11
11.682655
 21
182.7884
  0
LINE
  8
型材
  6
DASHDOTX2
 62
    32
 10
-1.517345
 20
170.7884
 11
-1.517345
 21
182.7884
  0
LINE
  8
型材
  6
DASHDOTX2
 62
    32
 10
-14.717345
 20
170.7884
 11
-14.717345
 21
182.7884
  0
LINE
  8
型材
  6
CONTINUOUS
 62
    32
 10
26.079838
 20
177.088318
 11
26.982647
 21
177.088318
  0
LINE
  8
型材
  6
CONTINUOUS
 62
    32
 10
25.182573
 20
178.888387
 11
25.182573
 21
177.985583
  0
LINE
  8
型材
  6
CONTINUOUS
 62
    32
 10
24.582738
 20
178.888387
 11
25.182573
 21
178.888387
  0
LINE
  8
型材
  6
CONTINUOUS
 62
    32
 10
24.582738
 20
178.888387
 11
24.582738
 21
177.985583
  0
LINE
  8
型材
  6
CONTINUOUS
 62
    32
 10
24.582738
 20
174.68841
 11
24.582738
 21
175.591215
  0
LINE
  8
型材
  6
CONTINUOUS
 62
    32
 10
25.182573
 20
174.68841
 11
25.182573
 21
175.591215
  0
LINE
  8
型材
  6
CONTINUOUS
 62
    32
 10
-13.520155
 20
177.088318
 11
-12.617353
 21
177.088318
  0
LINE
  8
型材
  6
CONTINUOUS
 62
    32
 10
-14.417428
 20
178.888387
 11
-14.417428
 21
177.985583
  0
LINE
  8
型材
  6
CONTINUOUS
 62
    32
 10
-15.017263
 20
178.888387
 11
-14.417428
 21
178.888387
  0
LINE
  8
型材
  6
CONTINUOUS
 62
    32
 10
-15.017263
 20
178.888387
 11
-15.017263
 21
177.985583
  0
LINE
  8
型材
  6
CONTINUOUS
 62
    32
 10
-15.017263
 20
174.68841
 11
-15.017263
 21
175.591215
  0
LINE
  8
型材
  6
CONTINUOUS
 62
    32
 10
-14.417428
 20
174.68841
 11
-14.417428
 21
175.591215
  0
LINE
  8
型材
  6
CONTINUOUS
 62
    32
 10
-15.914533
 20
177.088318
 11
-16.817335
 21
177.088318
  0
LINE
  8
型材
  6
CONTINUOUS
 62
    32
 10
-15.914533
 20
176.488485
 11
-16.817335
 21
176.488485
  0
LINE
  8
型材
  6
CONTINUOUS
 62
    32
 10
-13.520155
 20
176.488485
 11
-12.617353
 21
176.488485
  0
LINE
  8
型材
  6
CONTINUOUS
 62
    32
 10
-15.017263
 20
174.68841
 11
-14.417428
 21
174.68841
  0
LINE
  8
型材
  6
CONTINUOUS
 62
    32
 10
-16.817335
 20
177.088318
 11
-16.817335
 21
176.488482
  0
LINE
  8
型材
  6
CONTINUOUS
 62
    32
 10
-12.617353
 20
177.088318
 11
-12.617353
 21
176.488482
  0
LINE
  8
型材
  6
CONTINUOUS
 62
    32
 10
-0.320155
 20
177.088318
 11
0.582647
 21
177.088318
  0
LINE
  8
型材
  6
CONTINUOUS
 62
    32
 10
-1.217428
 20
178.888387
 11
-1.217428
 21
177.985583
  0
LINE
  8
型材
  6
CONTINUOUS
 62
    32
 10
-1.817263
 20
178.888387
 11
-1.217428
 21
178.888387
  0
LINE
  8
型材
  6
CONTINUOUS
 62
    32
 10
-1.817263
 20
178.888387
 11
-1.817263
 21
177.985583
  0
LINE
  8
型材
  6
CONTINUOUS
 62
    32
 10
-1.817263
 20
174.68841
 11
-1.817263
 21
175.591215
  0
LINE
  8
型材
  6
CONTINUOUS
 62
    32
 10
-1.217428
 20
174.68841
 11
-1.217428
 21
175.591215
  0
LINE
  8
型材
  6
CONTINUOUS
 62
    32
 10
-2.714533
 20
177.088318
 11
-3.617335
 21
177.088318
  0
LINE
  8
型材
  6
CONTINUOUS
 62
    32
 10
-2.714533
 20
176.488485
 11
-3.617335
 21
176.488485
  0
LINE
  8
型材
  6
CONTINUOUS
 62
    32
 10
-0.320155
 20
176.488485
 11
0.582647
 21
176.488485
  0
LINE
  8
型材
  6
CONTINUOUS
 62
    32
 10
-1.817263
 20
174.68841
 11
-1.217428
 21
174.68841
  0
LINE
  8
型材
  6
CONTINUOUS
 62
    32
 10
-3.617335
 20
177.088318
 11
-3.617335
 21
176.488482
  0
LINE
  8
型材
  6
CONTINUOUS
 62
    32
 10
0.582647
 20
177.088318
 11
0.582647
 21
176.488482
  0
LINE
  8
型材
  6
CONTINUOUS
 62
    32
 10
23.68547
 20
177.088318
 11
22.782665
 21
177.088318
  0
LINE
  8
型材
  6
CONTINUOUS
 62
    32
 10
23.68547
 20
176.488485
 11
22.782665
 21
176.488485
  0
LINE
  8
型材
  6
CONTINUOUS
 62
    32
 10
26.079838
 20
176.488485
 11
26.982647
 21
176.488485
  0
LINE
  8
型材
  6
CONTINUOUS
 62
    32
 10
24.582738
 20
174.68841
 11
25.182573
 21
174.68841
  0
LINE
  8
型材
  6
CONTINUOUS
 62
    32
 10
22.782665
 20
177.088318
 11
22.782665
 21
176.488482
  0
LINE
  8
型材
  6
CONTINUOUS
 62
    32
 10
26.982647
 20
177.088318
 11
26.982647
 21
176.488482
  0
LINE
  8
型材
  6
CONTINUOUS
 62
    32
 10
39.279838
 20
177.088318
 11
40.182647
 21
177.088318
  0
LINE
  8
型材
  6
CONTINUOUS
 62
    32
 10
38.382573
 20
178.888387
 11
38.382573
 21
177.985583
  0
LINE
  8
型材
  6
CONTINUOUS
 62
    32
 10
37.78274
 20
178.888387
 11
38.382573
 21
178.888387
  0
LINE
  8
型材
  6
CONTINUOUS
 62
    32
 10
37.782738
 20
178.888387
 11
37.782738
 21
177.985583
  0
LINE
  8
型材
  6
CONTINUOUS
 62
    32
 10
37.782738
 20
174.68841
 11
37.782738
 21
175.591215
  0
LINE
  8
型材
  6
CONTINUOUS
 62
    32
 10
38.382573
 20
174.68841
 11
38.382573
 21
175.591215
  0
LINE
  8
型材
  6
CONTINUOUS
 62
    32
 10
36.88547
 20
177.088318
 11
35.982665
 21
177.088318
  0
LINE
  8
型材
  6
CONTINUOUS
 62
    32
 10
36.88547
 20
176.488485
 11
35.982665
 21
176.488485
  0
LINE
  8
型材
  6
CONTINUOUS
 62
    32
 10
39.279838
 20
176.488485
 11
40.182647
 21
176.488485
  0
LINE
  8
型材
  6
CONTINUOUS
 62
    32
 10
37.782738
 20
174.68841
 11
38.382573
 21
174.68841
  0
LINE
  8
型材
  6
CONTINUOUS
 62
    32
 10
35.982665
 20
177.088318
 11
35.982665
 21
176.488482
  0
LINE
  8
型材
  6
CONTINUOUS
 62
    32
 10
40.182647
 20
177.088318
 11
40.182647
 21
176.488482
  0
LINE
  8
型材
  6
CONTINUOUS
 62
    32
 10
52.479838
 20
177.088318
 11
53.382647
 21
177.088318
  0
LINE
  8
型材
  6
CONTINUOUS
 62
    32
 10
51.582573
 20
178.888387
 11
51.582573
 21
177.985583
  0
LINE
  8
型材
  6
CONTINUOUS
 62
    32
 10
50.98274
 20
178.888387
 11
51.582573
 21
178.888387
  0
LINE
  8
型材
  6
CONTINUOUS
 62
    32
 10
50.982738
 20
178.888387
 11
50.982738
 21
177.985583
  0
LINE
  8
型材
  6
CONTINUOUS
 62
    32
 10
50.982738
 20
174.68841
 11
50.982738
 21
175.591215
  0
LINE
  8
型材
  6
CONTINUOUS
 62
    32
 10
51.582573
 20
174.68841
 11
51.582573
 21
175.591215
  0
LINE
  8
型材
  6
CONTINUOUS
 62
    32
 10
50.08547
 20
177.088318
 11
49.182665
 21
177.088318
  0
LINE
  8
型材
  6
CONTINUOUS
 62
    32
 10
50.08547
 20
176.488485
 11
49.182665
 21
176.488485
  0
LINE
  8
型材
  6
CONTINUOUS
 62
    32
 10
52.479838
 20
176.488485
 11
53.382647
 21
176.488485
  0
LINE
  8
型材
  6
CONTINUOUS
 62
    32
 10
50.982738
 20
174.68841
 11
51.582573
 21
174.68841
  0
LINE
  8
型材
  6
CONTINUOUS
 62
    32
 10
49.182665
 20
177.088318
 11
49.182665
 21
176.488482
  0
LINE
  8
型材
  6
CONTINUOUS
 62
    32
 10
53.382647
 20
177.088318
 11
53.382647
 21
176.488482
  0
LINE
  8
型材
  6
CONTINUOUS
 62
    32
 10
65.679838
 20
177.088318
 11
66.582642
 21
177.088318
  0
LINE
  8
型材
  6
CONTINUOUS
 62
    32
 10
64.782573
 20
178.888387
 11
64.782573
 21
177.985583
  0
LINE
  8
型材
  6
CONTINUOUS
 62
    32
 10
64.18274
 20
178.888387
 11
64.782573
 21
178.888387
  0
LINE
  8
型材
  6
CONTINUOUS
 62
    32
 10
64.18274
 20
178.888387
 11
64.18274
 21
177.985583
  0
LINE
  8
型材
  6
CONTINUOUS
 62
    32
 10
64.18274
 20
174.68841
 11
64.18274
 21
175.591215
  0
LINE
  8
型材
  6
CONTINUOUS
 62
    32
 10
64.782573
 20
174.68841
 11
64.782573
 21
175.591215
  0
LINE
  8
型材
  6
CONTINUOUS
 62
    32
 10
63.28547
 20
177.088318
 11
62.382665
 21
177.088318
  0
LINE
  8
型材
  6
CONTINUOUS
 62
    32
 10
63.28547
 20
176.488485
 11
62.382665
 21
176.488485
  0
LINE
  8
型材
  6
CONTINUOUS
 62
    32
 10
65.679838
 20
176.488485
 11
66.582642
 21
176.488485
  0
LINE
  8
型材
  6
CONTINUOUS
 62
    32
 10
64.18274
 20
174.68841
 11
64.782573
 21
174.68841
  0
LINE
  8
型材
  6
CONTINUOUS
 62
    32
 10
62.382665
 20
177.088318
 11
62.382665
 21
176.488482
  0
LINE
  8
型材
  6
CONTINUOUS
 62
    32
 10
66.582642
 20
177.088318
 11
66.582642
 21
176.488482
  0
LINE
  8
型材
  6
CONTINUOUS
 62
    32
 10
12.879845
 20
177.088318
 11
13.782647
 21
177.088318
  0
LINE
  8
型材
  6
CONTINUOUS
 62
    32
 10
11.982573
 20
178.888387
 11
11.982573
 21
177.985583
  0
LINE
  8
型材
  6
CONTINUOUS
 62
    32
 10
11.382738
 20
178.888387
 11
11.982573
 21
178.888387
  0
LINE
  8
型材
  6
CONTINUOUS
 62
    32
 10
11.382738
 20
178.888387
 11
11.382738
 21
177.985583
  0
LINE
  8
型材
  6
CONTINUOUS
 62
    32
 10
11.382738
 20
174.68841
 11
11.382738
 21
175.591215
  0
LINE
  8
型材
  6
CONTINUOUS
 62
    32
 10
11.982573
 20
174.68841
 11
11.982573
 21
175.591215
  0
LINE
  8
型材
  6
CONTINUOUS
 62
    32
 10
10.485468
 20
177.088318
 11
9.582665
 21
177.088318
  0
LINE
  8
型材
  6
CONTINUOUS
 62
    32
 10
10.485468
 20
176.488485
 11
9.582665
 21
176.488485
  0
LINE
  8
型材
  6
CONTINUOUS
 62
    32
 10
12.879845
 20
176.488485
 11
13.782647
 21
176.488485
  0
LINE
  8
型材
  6
CONTINUOUS
 62
    32
 10
11.382738
 20
174.68841
 11
11.982573
 21
174.68841
  0
LINE
  8
型材
  6
CONTINUOUS
 62
    32
 10
9.582665
 20
177.088318
 11
9.582665
 21
176.488482
  0
LINE
  8
型材
  6
CONTINUOUS
 62
    32
 10
13.782647
 20
177.088318
 11
13.782647
 21
176.488482
  0
LINE
  8
型材
  6
CONTINUOUS
 62
    32
 10
-25.817353
 20
177.088318
 11
-25.817353
 21
176.488482
  0
LINE
  8
型材
  6
CONTINUOUS
 62
    32
 10
-30.017335
 20
177.088318
 11
-30.017335
 21
176.488482
  0
LINE
  8
型材
  6
CONTINUOUS
 62
    32
 10
-28.217263
 20
174.68841
 11
-27.617428
 21
174.68841
  0
LINE
  8
型材
  6
CONTINUOUS
 62
    32
 10
-26.720155
 20
176.488485
 11
-25.817353
 21
176.488485
  0
LINE
  8
型材
  6
CONTINUOUS
 62
    32
 10
-29.114533
 20
176.488485
 11
-30.017335
 21
176.488485
  0
LINE
  8
型材
  6
CONTINUOUS
 62
    32
 10
-29.114533
 20
177.088318
 11
-30.017335
 21
177.088318
  0
LINE
  8
型材
  6
CONTINUOUS
 62
    32
 10
-27.617428
 20
174.68841
 11
-27.617428
 21
175.591215
  0
LINE
  8
型材
  6
CONTINUOUS
 62
    32
 10
-28.217263
 20
174.68841
 11
-28.217263
 21
175.591215
  0
LINE
  8
型材
  6
CONTINUOUS
 62
    32
 10
-28.217263
 20
178.888387
 11
-28.217263
 21
177.985583
  0
LINE
  8
型材
  6
CONTINUOUS
 62
    32
 10
-28.217263
 20
178.888387
 11
-27.617428
 21
178.888387
  0
LINE
  8
型材
  6
CONTINUOUS
 62
    32
 10
-27.617428
 20
178.888387
 11
-27.617428
 21
177.985583
  0
LINE
  8
型材
  6
CONTINUOUS
 62
    32
 10
-26.720155
 20
177.088318
 11
-25.817353
 21
177.088318
  0
LINE
  8
型材
  6
DASHDOTX2
 62
    32
 10
-27.917345
 20
170.7884
 11
-27.917345
 21
182.7884
  0
LINE
  8
型材
  6
CONTINUOUS
 62
    32
 10
-20.117345
 20
184.5884
 11
-20.117345
 21
165.3884
  0
LINE
  8
型材
  6
CONTINUOUS
 62
    32
 10
-22.517345
 20
184.5884
 11
-22.517345
 21
165.3884
  0
ARC
  8
型材
  6
CONTINUOUS
 62
    32
 10
63.285468
 20
175.591214
 40
0.897268
 50
0.000022
 51
90.000066
  0
ARC
  8
型材
  6
CONTINUOUS
 62
    32
 10
65.679839
 20
175.591213
 40
0.897268
 50
90.000011
 51
180.000046
  0
CIRCLE
  8
型材
  6
CONTINUOUS
 62
    32
 10
64.482655
 20
176.7884
 40
4.14
  0
ARC
  8
型材
  6
CONTINUOUS
 62
    32
 10
10.485464
 20
175.591214
 40
0.897268
 50
0.000022
 51
90.000066
  0
ARC
  8
型材
  6
CONTINUOUS
 62
    32
 10
12.879843
 20
175.591213
 40
0.897268
 50
90.000011
 51
180.000046
  0
CIRCLE
  8
型材
  6
CONTINUOUS
 62
    32
 10
11.682655
 20
176.7884
 40
4.14
  0
ARC
  8
型材
  6
CONTINUOUS
 62
    32
 10
26.079839
 20
177.985583
 40
0.897268
 50
179.999978
 51
270.00003
  0
ARC
  8
型材
  6
CONTINUOUS
 62
    32
 10
23.685469
 20
177.985583
 40
0.897268
 50
269.999962
 51
360.000005
  0
ARC
  8
型材
  6
CONTINUOUS
 62
    32
 10
23.685469
 20
175.591214
 40
0.897268
 50
0.000022
 51
90.000066
  0
ARC
  8
型材
  6
CONTINUOUS
 62
    32
 10
26.079839
 20
175.591213
 40
0.897268
 50
90.000011
 51
180.000046
  0
CIRCLE
  8
型材
  6
CONTINUOUS
 62
    32
 10
24.882655
 20
176.7884
 40
4.14
  0
ARC
  8
型材
  6
CONTINUOUS
 62
    32
 10
-13.520157
 20
177.985583
 40
0.897268
 50
179.999978
 51
270.00003
  0
ARC
  8
型材
  6
CONTINUOUS
 62
    32
 10
-15.914536
 20
177.985583
 40
0.897268
 50
269.999962
 51
360.000005
  0
ARC
  8
型材
  6
CONTINUOUS
 62
    32
 10
-15.914536
 20
175.591214
 40
0.897268
 50
0.000022
 51
90.000066
  0
ARC
  8
型材
  6
CONTINUOUS
 62
    32
 10
-13.520157
 20
175.591213
 40
0.897268
 50
90.000011
 51
180.000046
  0
CIRCLE
  8
型材
  6
CONTINUOUS
 62
    32
 10
-14.717345
 20
176.7884
 40
4.14
  0
ARC
  8
型材
  6
CONTINUOUS
 62
    32
 10
-0.320157
 20
177.985583
 40
0.897268
 50
179.999978
 51
270.00003
  0
ARC
  8
型材
  6
CONTINUOUS
 62
    32
 10
-2.714536
 20
177.985583
 40
0.897268
 50
269.999962
 51
360.000005
  0
ARC
  8
型材
  6
CONTINUOUS
 62
    32
 10
-2.714536
 20
175.591214
 40
0.897268
 50
0.000022
 51
90.000066
  0
ARC
  8
型材
  6
CONTINUOUS
 62
    32
 10
-0.320157
 20
175.591213
 40
0.897268
 50
90.000011
 51
180.000046
  0
CIRCLE
  8
型材
  6
CONTINUOUS
 62
    32
 10
-1.517345
 20
176.7884
 40
4.14
  0
ARC
  8
型材
  6
CONTINUOUS
 62
    32
 10
39.279839
 20
177.985583
 40
0.897268
 50
179.999978
 51
270.00003
  0
ARC
  8
型材
  6
CONTINUOUS
 62
    32
 10
36.885469
 20
177.985583
 40
0.897268
 50
269.999962
 51
360.000005
  0
ARC
  8
型材
  6
CONTINUOUS
 62
    32
 10
36.885469
 20
175.591214
 40
0.897268
 50
0.000022
 51
90.000066
  0
ARC
  8
型材
  6
CONTINUOUS
 62
    32
 10
39.279839
 20
175.591213
 40
0.897268
 50
90.000011
 51
180.000046
  0
CIRCLE
  8
型材
  6
CONTINUOUS
 62
    32
 10
38.082655
 20
176.7884
 40
4.14
  0
ARC
  8
型材
  6
CONTINUOUS
 62
    32
 10
52.479839
 20
177.985583
 40
0.897268
 50
179.999978
 51
270.00003
  0
ARC
  8
型材
  6
CONTINUOUS
 62
    32
 10
50.085469
 20
177.985583
 40
0.897268
 50
269.999962
 51
360.000005
  0
ARC
  8
型材
  6
CONTINUOUS
 62
    32
 10
50.085469
 20
175.591214
 40
0.897268
 50
0.000022
 51
90.000066
  0
ARC
  8
型材
  6
CONTINUOUS
 62
    32
 10
52.479839
 20
175.591213
 40
0.897268
 50
90.000011
 51
180.000046
  0
CIRCLE
  8
型材
  6
CONTINUOUS
 62
    32
 10
51.282655
 20
176.7884
 40
4.14
  0
ARC
  8
型材
  6
CONTINUOUS
 62
    32
 10
65.679839
 20
177.985583
 40
0.897268
 50
179.999978
 51
270.00003
  0
ARC
  8
型材
  6
CONTINUOUS
 62
    32
 10
63.285469
 20
177.985583
 40
0.897268
 50
269.999962
 51
360.000005
  0
ARC
  8
型材
  6
CONTINUOUS
 62
    32
 10
12.879843
 20
177.985583
 40
0.897268
 50
179.999978
 51
270.00003
  0
ARC
  8
型材
  6
CONTINUOUS
 62
    32
 10
10.485464
 20
177.985583
 40
0.897268
 50
269.999962
 51
360.000005
  0
CIRCLE
  8
型材
  6
CONTINUOUS
 62
    32
 10
-27.917345
 20
176.7884
 40
4.14
  0
ARC
  8
型材
  6
CONTINUOUS
 62
    32
 10
-26.720157
 20
175.591213
 40
0.897268
 50
90.000011
 51
180.000046
  0
ARC
  8
型材
  6
CONTINUOUS
 62
    32
 10
-29.114536
 20
175.591214
 40
0.897268
 50
0.000022
 51
90.000066
  0
ARC
  8
型材
  6
CONTINUOUS
 62
    32
 10
-29.114536
 20
177.985583
 40
0.897268
 50
269.999962
 51
360.000005
  0
ARC
  8
型材
  6
CONTINUOUS
 62
    32
 10
-26.720157
 20
177.985583
 40
0.897268
 50
179.999978
 51
270.00003
  0
LINE
  8
型材
  6
CONTINUOUS
 62
    32
 10
-165.317345
 20
165.3884
 11
69.882655
 21
165.3884
  0
LINE
  8
型材
  6
CONTINUOUS
 62
    32
 10
-165.317345
 20
184.5884
 11
69.882655
 21
184.5884
  0
LINE
  8
型材
  6
CONTINUOUS
 62
    32
 10
59.082727
 20
184.588407
 11
59.082727
 21
216.663915
  0
LINE
  8
型材
  6
CONTINUOUS
 62
    32
 10
-154.517273
 20
216.663915
 11
59.082727
 21
216.663915
  0
POLYLINE
  8
型材
  6
DOT
 66
     1
 70
     1
  0
VERTEX
  8
型材
 10
80.62498
 20
232.508362
  0
VERTEX
  8
型材
 10
-176.30359
 20
232.508362
  0
VERTEX
  8
型材
 10
-176.30359
 20
138.896118
  0
VERTEX
  8
型材
 10
80.62498
 20
138.896118
  0
SEQEND
  0
POINT
  8
型材
 62
    32
 10
-154.517345
 20
-10.367008
  0
LINE
  8
型材
  6
CONTINUOUS
 62
    32
 10
-154.517345
 20
-10.367008
 11
-86.117345
 21
-10.367008
  0
POINT
  8
型材
 62
    32
 10
-159.917345
 20
-2.567007
  0
POINT
  8
型材
 62
    32
 10
-154.517345
 20
-2.567007
  0
POINT
  8
型材
 62
    32
 10
-86.117345
 20
-2.567007
  0
POINT
  8
型材
 62
    32
 10
-165.317345
 20
-10.367008
  0
POINT
  8
型材
 62
    32
 10
-159.917345
 20
-2.567007
  0
POINT
  8
型材
 62
    32
 10
-80.717345
 20
-2.567007
  0
POINT
  8
型材
 62
    32
 10
-80.717345
 20
-2.567007
  0
POINT
  8
型材
 62
    32
 10
-75.317345
 20
-10.367008
  0
LINE
  8
型材
  6
CONTINUOUS
 62
    32
 10
-86.117345
 20
-10.367008
 11
-86.117345
 21
8.832992
  0
LINE
  8
型材
  6
CONTINUOUS
 62
    32
 10
-88.517345
 20
-10.367008
 11
-88.517345
 21
8.832992
  0
LINE
  8
型材
  6
CONTINUOUS
 62
    32
 10
-75.317345
 20
8.832992
 11
-75.317345
 21
-10.367008
  0
LINE
  8
型材
  6
DASHDOTX2
 62
    32
 10
-80.717345
 20
3.432993
 11
-80.717345
 21
-8.567007
  0
LINE
  8
型材
  6
CONTINUOUS
 62
    32
 10
-81.914533
 20
-2.866925
 11
-82.817335
 21
-2.866925
  0
LINE
  8
型材
  6
CONTINUOUS
 62
    32
 10
-81.01726
 20
-4.666995
 11
-81.01726
 21
-3.76419
  0
LINE
  8
型材
  6
CONTINUOUS
 62
    32
 10
-80.417425
 20
-4.666995
 11
-81.01726
 21
-4.666995
  0
LINE
  8
型材
  6
CONTINUOUS
 62
    32
 10
-80.417425
 20
-4.666995
 11
-80.417425
 21
-3.76419
  0
LINE
  8
型材
  6
CONTINUOUS
 62
    32
 10
-80.417425
 20
-0.467018
 11
-80.417425
 21
-1.369823
  0
LINE
  8
型材
  6
CONTINUOUS
 62
    32
 10
-81.01726
 20
-0.467018
 11
-81.01726
 21
-1.369823
  0
LINE
  8
型材
  6
CONTINUOUS
 62
    32
 10
-79.520155
 20
-2.866925
 11
-78.617353
 21
-2.866925
  0
LINE
  8
型材
  6
CONTINUOUS
 62
    32
 10
-79.520155
 20
-2.267093
 11
-78.617353
 21
-2.267093
  0
LINE
  8
型材
  6
CONTINUOUS
 62
    32
 10
-81.914533
 20
-2.267093
 11
-82.817335
 21
-2.267093
  0
LINE
  8
型材
  6
CONTINUOUS
 62
    32
 10
-80.417425
 20
-0.467018
 11
-81.01726
 21
-0.467018
  0
LINE
  8
型材
  6
CONTINUOUS
 62
    32
 10
-78.617353
 20
-2.866925
 11
-78.617353
 21
-2.26709
  0
LINE
  8
型材
  6
CONTINUOUS
 62
    32
 10
-82.817335
 20
-2.866925
 11
-82.817335
 21
-2.26709
  0
LINE
  8
型材
  6
CONTINUOUS
 62
    32
 10
-154.517345
 20
-10.367008
 11
-154.517345
 21
8.832992
  0
LINE
  8
型材
  6
CONTINUOUS
 62
    32
 10
-165.317345
 20
8.832992
 11
-75.317345
 21
8.832992
  0
LINE
  8
型材
  6
CONTINUOUS
 62
    32
 10
-152.117345
 20
-10.367008
 11
-152.117345
 21
8.832992
  0
LINE
  8
型材
  6
CONTINUOUS
 62
    32
 10
-112.517345
 20
-10.367008
 11
-112.517345
 21
8.832992
  0
LINE
  8
型材
  6
CONTINUOUS
 62
    32
 10
-114.917345
 20
-10.367008
 11
-114.917345
 21
8.832992
  0
LINE
  8
型材
  6
CONTINUOUS
 62
    32
 10
-125.717345
 20
-10.367008
 11
-125.717345
 21
8.832992
  0
LINE
  8
型材
  6
CONTINUOUS
 62
    32
 10
-128.117345
 20
-10.367008
 11
-128.117345
 21
8.832992
  0
LINE
  8
型材
  6
CONTINUOUS
 62
    32
 10
-141.317345
 20
-10.367008
 11
-141.317345
 21
8.832992
  0
LINE
  8
型材
  6
CONTINUOUS
 62
    32
 10
-138.917345
 20
-10.367008
 11
-138.917345
 21
8.832992
  0
LINE
  8
型材
  6
CONTINUOUS
 62
    32
 10
-165.317345
 20
8.832992
 11
-165.317345
 21
-10.367008
  0
LINE
  8
型材
  6
DASHDOTX2
 62
    32
 10
-159.917345
 20
3.432993
 11
-159.917345
 21
-8.567007
  0
LINE
  8
型材
  6
DASHDOTX2
 62
    32
 10
-146.717345
 20
3.432993
 11
-146.717345
 21
-8.567007
  0
LINE
  8
型材
  6
DASHDOTX2
 62
    32
 10
-133.517345
 20
3.432993
 11
-133.517345
 21
-8.567007
  0
LINE
  8
型材
  6
DASHDOTX2
 62
    32
 10
-120.317345
 20
3.432993
 11
-120.317345
 21
-8.567007
  0
LINE
  8
型材
  6
DASHDOTX2
 62
    32
 10
-107.117345
 20
3.432993
 11
-107.117345
 21
-8.567007
  0
LINE
  8
型材
  6
CONTINUOUS
 62
    32
 10
-161.11453
 20
-2.866925
 11
-162.017335
 21
-2.866925
  0
LINE
  8
型材
  6
CONTINUOUS
 62
    32
 10
-160.21726
 20
-4.666995
 11
-160.21726
 21
-3.76419
  0
LINE
  8
型材
  6
CONTINUOUS
 62
    32
 10
-159.617428
 20
-4.666995
 11
-160.21726
 21
-4.666995
  0
LINE
  8
型材
  6
CONTINUOUS
 62
    32
 10
-159.617428
 20
-4.666995
 11
-159.617428
 21
-3.76419
  0
LINE
  8
型材
  6
CONTINUOUS
 62
    32
 10
-159.617428
 20
-0.467018
 11
-159.617428
 21
-1.369823
  0
LINE
  8
型材
  6
CONTINUOUS
 62
    32
 10
-160.21726
 20
-0.467018
 11
-160.21726
 21
-1.369823
  0
LINE
  8
型材
  6
CONTINUOUS
 62
    32
 10
-158.720158
 20
-2.866925
 11
-157.817353
 21
-2.866925
  0
LINE
  8
型材
  6
CONTINUOUS
 62
    32
 10
-158.720158
 20
-2.267093
 11
-157.817353
 21
-2.267093
  0
LINE
  8
型材
  6
CONTINUOUS
 62
    32
 10
-161.114527
 20
-2.267093
 11
-162.017335
 21
-2.267093
  0
LINE
  8
型材
  6
CONTINUOUS
 62
    32
 10
-159.617428
 20
-0.467018
 11
-160.21726
 21
-0.467018
  0
LINE
  8
型材
  6
CONTINUOUS
 62
    32
 10
-157.817353
 20
-2.866925
 11
-157.817353
 21
-2.26709
  0
LINE
  8
型材
  6
CONTINUOUS
 62
    32
 10
-162.017335
 20
-2.866925
 11
-162.017335
 21
-2.26709
  0
LINE
  8
型材
  6
CONTINUOUS
 62
    32
 10
-108.314527
 20
-2.866925
 11
-109.217335
 21
-2.866925
  0
LINE
  8
型材
  6
CONTINUOUS
 62
    32
 10
-107.41726
 20
-4.666995
 11
-107.41726
 21
-3.76419
  0
LINE
  8
型材
  6
CONTINUOUS
 62
    32
 10
-106.817425
 20
-4.666995
 11
-107.41726
 21
-4.666995
  0
LINE
  8
型材
  6
CONTINUOUS
 62
    32
 10
-106.817425
 20
-4.666995
 11
-106.817425
 21
-3.76419
  0
LINE
  8
型材
  6
CONTINUOUS
 62
    32
 10
-106.817425
 20
-0.467018
 11
-106.817425
 21
-1.369823
  0
LINE
  8
型材
  6
CONTINUOUS
 62
    32
 10
-107.41726
 20
-0.467018
 11
-107.41726
 21
-1.369823
  0
LINE
  8
型材
  6
CONTINUOUS
 62
    32
 10
-105.920158
 20
-2.866925
 11
-105.017353
 21
-2.866925
  0
LINE
  8
型材
  6
CONTINUOUS
 62
    32
 10
-105.920158
 20
-2.267093
 11
-105.017353
 21
-2.267093
  0
LINE
  8
型材
  6
CONTINUOUS
 62
    32
 10
-108.314527
 20
-2.267093
 11
-109.217335
 21
-2.267093
  0
LINE
  8
型材
  6
CONTINUOUS
 62
    32
 10
-106.817425
 20
-0.467018
 11
-107.41726
 21
-0.467018
  0
LINE
  8
型材
  6
CONTINUOUS
 62
    32
 10
-105.017353
 20
-2.866925
 11
-105.017353
 21
-2.26709
  0
LINE
  8
型材
  6
CONTINUOUS
 62
    32
 10
-109.217335
 20
-2.866925
 11
-109.217335
 21
-2.26709
  0
LINE
  8
型材
  6
CONTINUOUS
 62
    32
 10
-121.514527
 20
-2.866925
 11
-122.417335
 21
-2.866925
  0
LINE
  8
型材
  6
CONTINUOUS
 62
    32
 10
-120.61726
 20
-4.666995
 11
-120.61726
 21
-3.76419
  0
LINE
  8
型材
  6
CONTINUOUS
 62
    32
 10
-120.017428
 20
-4.666995
 11
-120.61726
 21
-4.666995
  0
LINE
  8
型材
  6
CONTINUOUS
 62
    32
 10
-120.017425
 20
-4.666995
 11
-120.017425
 21
-3.76419
  0
LINE
  8
型材
  6
CONTINUOUS
 62
    32
 10
-120.017425
 20
-0.467018
 11
-120.017425
 21
-1.369823
  0
LINE
  8
型材
  6
CONTINUOUS
 62
    32
 10
-120.61726
 20
-0.467018
 11
-120.61726
 21
-1.369823
  0
LINE
  8
型材
  6
CONTINUOUS
 62
    32
 10
-119.120158
 20
-2.866925
 11
-118.217353
 21
-2.866925
  0
LINE
  8
型材
  6
CONTINUOUS
 62
    32
 10
-119.120158
 20
-2.267093
 11
-118.217353
 21
-2.267093
  0
LINE
  8
型材
  6
CONTINUOUS
 62
    32
 10
-121.514527
 20
-2.267093
 11
-122.417335
 21
-2.267093
  0
LINE
  8
型材
  6
CONTINUOUS
 62
    32
 10
-120.017425
 20
-0.467018
 11
-120.61726
 21
-0.467018
  0
LINE
  8
型材
  6
CONTINUOUS
 62
    32
 10
-118.217353
 20
-2.866925
 11
-118.217353
 21
-2.26709
  0
LINE
  8
型材
  6
CONTINUOUS
 62
    32
 10
-122.417335
 20
-2.866925
 11
-122.417335
 21
-2.26709
  0
LINE
  8
型材
  6
CONTINUOUS
 62
    32
 10
-134.714527
 20
-2.866925
 11
-135.617335
 21
-2.866925
  0
LINE
  8
型材
  6
CONTINUOUS
 62
    32
 10
-133.81726
 20
-4.666995
 11
-133.81726
 21
-3.76419
  0
LINE
  8
型材
  6
CONTINUOUS
 62
    32
 10
-133.217428
 20
-4.666995
 11
-133.81726
 21
-4.666995
  0
LINE
  8
型材
  6
CONTINUOUS
 62
    32
 10
-133.217425
 20
-4.666995
 11
-133.217425
 21
-3.76419
  0
LINE
  8
型材
  6
CONTINUOUS
 62
    32
 10
-133.217425
 20
-0.467018
 11
-133.217425
 21
-1.369823
  0
LINE
  8
型材
  6
CONTINUOUS
 62
    32
 10
-133.81726
 20
-0.467018
 11
-133.81726
 21
-1.369823
  0
LINE
  8
型材
  6
CONTINUOUS
 62
    32
 10
-132.320157
 20
-2.866925
 11
-131.417353
 21
-2.866925
  0
LINE
  8
型材
  6
CONTINUOUS
 62
    32
 10
-132.320157
 20
-2.267093
 11
-131.417353
 21
-2.267093
  0
LINE
  8
型材
  6
CONTINUOUS
 62
    32
 10
-134.714527
 20
-2.267093
 11
-135.617335
 21
-2.267093
  0
LINE
  8
型材
  6
CONTINUOUS
 62
    32
 10
-133.217425
 20
-0.467018
 11
-133.81726
 21
-0.467018
  0
LINE
  8
型材
  6
CONTINUOUS
 62
    32
 10
-131.417353
 20
-2.866925
 11
-131.417353
 21
-2.26709
  0
LINE
  8
型材
  6
CONTINUOUS
 62
    32
 10
-135.617335
 20
-2.866925
 11
-135.617335
 21
-2.26709
  0
LINE
  8
型材
  6
CONTINUOUS
 62
    32
 10
-147.914527
 20
-2.866925
 11
-148.817332
 21
-2.866925
  0
LINE
  8
型材
  6
CONTINUOUS
 62
    32
 10
-147.01726
 20
-4.666995
 11
-147.01726
 21
-3.76419
  0
LINE
  8
型材
  6
CONTINUOUS
 62
    32
 10
-146.417428
 20
-4.666995
 11
-147.01726
 21
-4.666995
  0
LINE
  8
型材
  6
CONTINUOUS
 62
    32
 10
-146.417428
 20
-4.666995
 11
-146.417428
 21
-3.76419
  0
LINE
  8
型材
  6
CONTINUOUS
 62
    32
 10
-146.417428
 20
-0.467018
 11
-146.417428
 21
-1.369823
  0
LINE
  8
型材
  6
CONTINUOUS
 62
    32
 10
-147.01726
 20
-0.467018
 11
-147.01726
 21
-1.369823
  0
LINE
  8
型材
  6
CONTINUOUS
 62
    32
 10
-145.520158
 20
-2.866925
 11
-144.617353
 21
-2.866925
  0
LINE
  8
型材
  6
CONTINUOUS
 62
    32
 10
-145.520158
 20
-2.267093
 11
-144.617353
 21
-2.267093
  0
LINE
  8
型材
  6
CONTINUOUS
 62
    32
 10
-147.914527
 20
-2.267093
 11
-148.817332
 21
-2.267093
  0
LINE
  8
型材
  6
CONTINUOUS
 62
    32
 10
-146.417428
 20
-0.467018
 11
-147.01726
 21
-0.467018
  0
LINE
  8
型材
  6
CONTINUOUS
 62
    32
 10
-144.617353
 20
-2.866925
 11
-144.617353
 21
-2.26709
  0
LINE
  8
型材
  6
CONTINUOUS
 62
    32
 10
-148.817332
 20
-2.866925
 11
-148.817332
 21
-2.26709
  0
LINE
  8
型材
  6
DASHDOTX2
 62
    32
 10
-75.917345
 20
-2.567007
 11
-165.317345
 21
-2.567007
  0
LINE
  8
型材
  6
CONTINUOUS
 62
    32
 10
-165.317345
 20
-10.367008
 11
-75.317345
 21
-10.367008
  0
LINE
  8
型材
  6
CONTINUOUS
 62
    32
 10
-99.317345
 20
-10.367008
 11
-99.317345
 21
8.832992
  0
LINE
  8
型材
  6
CONTINUOUS
 62
    32
 10
-101.717345
 20
-10.367008
 11
-101.717345
 21
8.832992
  0
LINE
  8
型材
  6
DASHDOTX2
 62
    32
 10
-93.917345
 20
3.432993
 11
-93.917345
 21
-8.567007
  0
LINE
  8
型材
  6
CONTINUOUS
 62
    32
 10
-95.114527
 20
-2.866925
 11
-96.017335
 21
-2.866925
  0
LINE
  8
型材
  6
CONTINUOUS
 62
    32
 10
-94.21726
 20
-4.666995
 11
-94.21726
 21
-3.76419
  0
LINE
  8
型材
  6
CONTINUOUS
 62
    32
 10
-93.617425
 20
-4.666995
 11
-94.21726
 21
-4.666995
  0
LINE
  8
型材
  6
CONTINUOUS
 62
    32
 10
-93.617425
 20
-4.666995
 11
-93.617425
 21
-3.76419
  0
LINE
  8
型材
  6
CONTINUOUS
 62
    32
 10
-93.617425
 20
-0.467018
 11
-93.617425
 21
-1.369823
  0
LINE
  8
型材
  6
CONTINUOUS
 62
    32
 10
-94.21726
 20
-0.467018
 11
-94.21726
 21
-1.369823
  0
LINE
  8
型材
  6
CONTINUOUS
 62
    32
 10
-92.720157
 20
-2.866925
 11
-91.817353
 21
-2.866925
  0
LINE
  8
型材
  6
CONTINUOUS
 62
    32
 10
-92.720157
 20
-2.267093
 11
-91.817353
 21
-2.267093
  0
LINE
  8
型材
  6
CONTINUOUS
 62
    32
 10
-95.114527
 20
-2.267093
 11
-96.017335
 21
-2.267093
  0
LINE
  8
型材
  6
CONTINUOUS
 62
    32
 10
-93.617425
 20
-0.467018
 11
-94.21726
 21
-0.467018
  0
LINE
  8
型材
  6
CONTINUOUS
 62
    32
 10
-91.817353
 20
-2.866925
 11
-91.817353
 21
-2.26709
  0
LINE
  8
型材
  6
CONTINUOUS
 62
    32
 10
-96.017335
 20
-2.866925
 11
-96.017335
 21
-2.26709
  0
ARC
  8
型材
  6
CONTINUOUS
 62
    32
 10
-81.914529
 20
-3.764188
 40
0.897268
 50
359.999978
 51
450.00003
  0
ARC
  8
型材
  6
CONTINUOUS
 62
    32
 10
-79.520151
 20
-3.764188
 40
0.897268
 50
89.999962
 51
180.000005
  0
ARC
  8
型材
  6
CONTINUOUS
 62
    32
 10
-79.520151
 20
-1.369818
 40
0.897268
 50
180.000022
 51
270.000066
  0
ARC
  8
型材
  6
CONTINUOUS
 62
    32
 10
-81.914529
 20
-1.369817
 40
0.897268
 50
270.000011
 51
360.000046
  0
CIRCLE
  8
型材
  6
CONTINUOUS
 62
    32
 10
-80.717345
 20
-2.567007
 40
4.14
  0
ARC
  8
型材
  6
CONTINUOUS
 62
    32
 10
-145.520154
 20
-1.369818
 40
0.897268
 50
180.000022
 51
270.000066
  0
ARC
  8
型材
  6
CONTINUOUS
 62
    32
 10
-147.914525
 20
-1.369817
 40
0.897268
 50
270.000011
 51
360.000046
  0
CIRCLE
  8
型材
  6
CONTINUOUS
 62
    32
 10
-146.717345
 20
-2.567007
 40
4.14
  0
ARC
  8
型材
  6
CONTINUOUS
 62
    32
 10
-161.114525
 20
-3.764188
 40
0.897268
 50
359.999978
 51
450.00003
  0
ARC
  8
型材
  6
CONTINUOUS
 62
    32
 10
-158.720155
 20
-3.764188
 40
0.897268
 50
89.999962
 51
180.000005
  0
ARC
  8
型材
  6
CONTINUOUS
 62
    32
 10
-158.720154
 20
-1.369818
 40
0.897268
 50
180.000022
 51
270.000066
  0
ARC
  8
型材
  6
CONTINUOUS
 62
    32
 10
-161.114525
 20
-1.369817
 40
0.897268
 50
270.000011
 51
360.000046
  0
CIRCLE
  8
型材
  6
CONTINUOUS
 62
    32
 10
-159.917345
 20
-2.567007
 40
4.14
  0
ARC
  8
型材
  6
CONTINUOUS
 62
    32
 10
-108.314525
 20
-3.764188
 40
0.897268
 50
359.999978
 51
450.00003
  0
ARC
  8
型材
  6
CONTINUOUS
 62
    32
 10
-105.920155
 20
-3.764188
 40
0.897268
 50
89.999962
 51
180.000005
  0
ARC
  8
型材
  6
CONTINUOUS
 62
    32
 10
-105.920155
 20
-1.369818
 40
0.897268
 50
180.000022
 51
270.000066
  0
ARC
  8
型材
  6
CONTINUOUS
 62
    32
 10
-108.314525
 20
-1.369817
 40
0.897268
 50
270.000011
 51
360.000046
  0
CIRCLE
  8
型材
  6
CONTINUOUS
 62
    32
 10
-107.117345
 20
-2.567007
 40
4.14
  0
ARC
  8
型材
  6
CONTINUOUS
 62
    32
 10
-121.514525
 20
-3.764188
 40
0.897268
 50
359.999978
 51
450.00003
  0
ARC
  8
型材
  6
CONTINUOUS
 62
    32
 10
-119.120155
 20
-3.764188
 40
0.897268
 50
89.999962
 51
180.000005
  0
ARC
  8
型材
  6
CONTINUOUS
 62
    32
 10
-119.120155
 20
-1.369818
 40
0.897268
 50
180.000022
 51
270.000066
  0
ARC
  8
型材
  6
CONTINUOUS
 62
    32
 10
-121.514525
 20
-1.369817
 40
0.897268
 50
270.000011
 51
360.000046
  0
CIRCLE
  8
型材
  6
CONTINUOUS
 62
    32
 10
-120.317345
 20
-2.567007
 40
4.14
  0
ARC
  8
型材
  6
CONTINUOUS
 62
    32
 10
-134.714525
 20
-3.764188
 40
0.897268
 50
359.999978
 51
450.00003
  0
ARC
  8
型材
  6
CONTINUOUS
 62
    32
 10
-132.320155
 20
-3.764188
 40
0.897268
 50
89.999962
 51
180.000005
  0
ARC
  8
型材
  6
CONTINUOUS
 62
    32
 10
-132.320155
 20
-1.369818
 40
0.897268
 50
180.000022
 51
270.000066
  0
ARC
  8
型材
  6
CONTINUOUS
 62
    32
 10
-134.714525
 20
-1.369817
 40
0.897268
 50
270.000011
 51
360.000046
  0
CIRCLE
  8
型材
  6
CONTINUOUS
 62
    32
 10
-133.517345
 20
-2.567007
 40
4.14
  0
ARC
  8
型材
  6
CONTINUOUS
 62
    32
 10
-147.914525
 20
-3.764188
 40
0.897268
 50
359.999978
 51
450.00003
  0
ARC
  8
型材
  6
CONTINUOUS
 62
    32
 10
-145.520155
 20
-3.764188
 40
0.897268
 50
89.999962
 51
180.000005
  0
ARC
  8
型材
  6
CONTINUOUS
 62
    32
 10
-95.114525
 20
-3.764188
 40
0.897268
 50
359.999978
 51
450.00003
  0
ARC
  8
型材
  6
CONTINUOUS
 62
    32
 10
-92.720155
 20
-3.764188
 40
0.897268
 50
89.999962
 51
180.000005
  0
ARC
  8
型材
  6
CONTINUOUS
 62
    32
 10
-92.720155
 20
-1.369818
 40
0.897268
 50
180.000022
 51
270.000066
  0
ARC
  8
型材
  6
CONTINUOUS
 62
    32
 10
-95.114525
 20
-1.369817
 40
0.897268
 50
270.000011
 51
360.000046
  0
CIRCLE
  8
型材
  6
CONTINUOUS
 62
    32
 10
-93.917345
 20
-2.567007
 40
4.14
  0
LINE
  8
型材
  6
CONTINUOUS
 62
    32
 10
-86.117345
 20
-10.367008
 11
-86.117345
 21
-42.442518
  0
LINE
  8
型材
  6
CONTINUOUS
 62
    32
 10
-86.117345
 20
-42.442518
 11
-154.517345
 21
-42.442518
  0
LINE
  8
型材
  6
CONTINUOUS
 62
    32
 10
-154.517345
 20
-10.367008
 11
-154.517345
 21
-42.442518
  0
POINT
  8
型材
 62
    32
 10
56.290818
 20
-31.042518
  0
POINT
  8
型材
 62
    32
 10
-49.309183
 20
-31.042518
  0
LINE
  8
型材
  6
CONTINUOUS
 62
    32
 10
-4.309183
 20
-23.242518
 11
-4.309183
 21
-42.442518
  0
LINE
  8
型材
  6
CONTINUOUS
 62
    32
 10
-57.109183
 20
-23.242518
 11
-57.109183
 21
-42.442518
  0
LINE
  8
型材
  6
CONTINUOUS
 62
    32
 10
-54.709183
 20
-23.242518
 11
-54.709183
 21
-42.442518
  0
LINE
  8
型材
  6
CONTINUOUS
 62
    32
 10
61.690818
 20
-42.442518
 11
-67.909183
 21
-42.442518
  0
LINE
  8
型材
  6
CONTINUOUS
 62
    32
 10
48.490818
 20
-23.242518
 11
48.490818
 21
-42.442518
  0
LINE
  8
型材
  6
CONTINUOUS
 62
    32
 10
-1.909183
 20
-23.242518
 11
-1.909183
 21
-42.442518
  0
LINE
  8
型材
  6
CONTINUOUS
 62
    32
 10
-30.709183
 20
-23.242518
 11
-30.709183
 21
-42.442518
  0
LINE
  8
型材
  6
CONTINUOUS
 62
    32
 10
-28.309183
 20
-23.242518
 11
-28.309183
 21
-42.442518
  0
LINE
  8
型材
  6
CONTINUOUS
 62
    32
 10
8.890818
 20
-23.242518
 11
8.890818
 21
-42.442518
  0
LINE
  8
型材
  6
CONTINUOUS
 62
    32
 10
11.290818
 20
-23.242518
 11
11.290818
 21
-42.442518
  0
LINE
  8
型材
  6
CONTINUOUS
 62
    32
 10
50.890818
 20
-23.242518
 11
50.890818
 21
-42.442518
  0
LINE
  8
型材
  6
CONTINUOUS
 62
    32
 10
22.090818
 20
-23.242518
 11
22.090818
 21
-42.442518
  0
LINE
  8
型材
  6
CONTINUOUS
 62
    32
 10
24.490818
 20
-23.242518
 11
24.490818
 21
-42.442518
  0
LINE
  8
型材
  6
CONTINUOUS
 62
    32
 10
37.690818
 20
-23.242518
 11
37.690818
 21
-42.442518
  0
LINE
  8
型材
  6
CONTINUOUS
 62
    32
 10
35.290818
 20
-23.242518
 11
35.290818
 21
-42.442518
  0
LINE
  8
型材
  6
CONTINUOUS
 62
    32
 10
61.690818
 20
-42.442518
 11
61.690818
 21
-23.242518
  0
LINE
  8
型材
  6
DASHDOTX2
 62
    32
 10
56.290818
 20
-37.042518
 11
56.290818
 21
-25.042518
  0
LINE
  8
型材
  6
DASHDOTX2
 62
    32
 10
43.090818
 20
-37.042518
 11
43.090818
 21
-25.042518
  0
LINE
  8
型材
  6
DASHDOTX2
 62
    32
 10
29.890818
 20
-37.042518
 11
29.890818
 21
-25.042518
  0
LINE
  8
型材
  6
DASHDOTX2
 62
    32
 10
16.690818
 20
-37.042518
 11
16.690818
 21
-25.042518
  0
LINE
  8
型材
  6
DASHDOTX2
 62
    32
 10
3.490818
 20
-37.042518
 11
3.490818
 21
-25.042518
  0
LINE
  8
型材
  6
CONTINUOUS
 62
    32
 10
-15.109183
 20
-23.242518
 11
-15.109183
 21
-42.442518
  0
LINE
  8
型材
  6
CONTINUOUS
 62
    32
 10
-17.509183
 20
-23.242518
 11
-17.509183
 21
-42.442518
  0
LINE
  8
型材
  6
CONTINUOUS
 62
    32
 10
-67.909183
 20
-42.442518
 11
-67.909183
 21
-23.242518
  0
LINE
  8
型材
  6
DASHDOTX2
 62
    32
 10
-9.709183
 20
-37.042518
 11
-9.709183
 21
-25.042518
  0
LINE
  8
型材
  6
DASHDOTX2
 62
    32
 10
-22.909183
 20
-37.042518
 11
-22.909183
 21
-25.042518
  0
LINE
  8
型材
  6
DASHDOTX2
 62
    32
 10
-36.109183
 20
-37.042518
 11
-36.109183
 21
-25.042518
  0
LINE
  8
型材
  6
CONTINUOUS
 62
    32
 10
57.488005
 20
-30.7426
 11
58.39081
 21
-30.7426
  0
LINE
  8
型材
  6
CONTINUOUS
 62
    32
 10
56.590735
 20
-28.94253
 11
56.590735
 21
-29.845335
  0
LINE
  8
型材
  6
CONTINUOUS
 62
    32
 10
55.990903
 20
-28.94253
 11
56.590735
 21
-28.94253
  0
LINE
  8
型材
  6
CONTINUOUS
 62
    32
 10
55.990903
 20
-28.94253
 11
55.990903
 21
-29.845335
  0
LINE
  8
型材
  6
CONTINUOUS
 62
    32
 10
55.990903
 20
-33.142508
 11
55.990903
 21
-32.239703
  0
LINE
  8
型材
  6
CONTINUOUS
 62
    32
 10
56.590735
 20
-33.142508
 11
56.590735
 21
-32.239703
  0
LINE
  8
型材
  6
DASHDOTX2
 62
    32
 10
-62.509183
 20
-37.042518
 11
-62.509183
 21
-25.042518
  0
LINE
  8
型材
  6
CONTINUOUS
 62
    32
 10
-61.311992
 20
-30.7426
 11
-60.40919
 21
-30.7426
  0
LINE
  8
型材
  6
CONTINUOUS
 62
    32
 10
-62.209265
 20
-28.94253
 11
-62.209265
 21
-29.845335
  0
LINE
  8
型材
  6
CONTINUOUS
 62
    32
 10
-62.8091
 20
-28.94253
 11
-62.209265
 21
-28.94253
  0
LINE
  8
型材
  6
CONTINUOUS
 62
    32
 10
-62.8091
 20
-28.94253
 11
-62.8091
 21
-29.845335
  0
LINE
  8
型材
  6
CONTINUOUS
 62
    32
 10
-62.8091
 20
-33.142508
 11
-62.8091
 21
-32.239703
  0
LINE
  8
型材
  6
CONTINUOUS
 62
    32
 10
-62.209265
 20
-33.142508
 11
-62.209265
 21
-32.239703
  0
LINE
  8
型材
  6
CONTINUOUS
 62
    32
 10
-63.70637
 20
-30.7426
 11
-64.609173
 21
-30.7426
  0
LINE
  8
型材
  6
CONTINUOUS
 62
    32
 10
-63.70637
 20
-31.342432
 11
-64.609173
 21
-31.342432
  0
LINE
  8
型材
  6
CONTINUOUS
 62
    32
 10
-61.311992
 20
-31.342432
 11
-60.40919
 21
-31.342432
  0
LINE
  8
型材
  6
CONTINUOUS
 62
    32
 10
-62.8091
 20
-33.142508
 11
-62.209265
 21
-33.142508
  0
LINE
  8
型材
  6
CONTINUOUS
 62
    32
 10
-64.609173
 20
-30.7426
 11
-64.609173
 21
-31.342435
  0
LINE
  8
型材
  6
CONTINUOUS
 62
    32
 10
-60.40919
 20
-30.7426
 11
-60.40919
 21
-31.342435
  0
LINE
  8
型材
  6
CONTINUOUS
 62
    32
 10
55.093633
 20
-30.7426
 11
54.190827
 21
-30.7426
  0
LINE
  8
型材
  6
CONTINUOUS
 62
    32
 10
55.093633
 20
-31.342432
 11
54.190827
 21
-31.342432
  0
LINE
  8
型材
  6
CONTINUOUS
 62
    32
 10
57.488
 20
-31.342432
 11
58.39081
 21
-31.342432
  0
LINE
  8
型材
  6
CONTINUOUS
 62
    32
 10
55.990903
 20
-33.142508
 11
56.590735
 21
-33.142508
  0
LINE
  8
型材
  6
CONTINUOUS
 62
    32
 10
54.190827
 20
-30.7426
 11
54.190827
 21
-31.342435
  0
LINE
  8
型材
  6
CONTINUOUS
 62
    32
 10
58.39081
 20
-30.7426
 11
58.39081
 21
-31.342435
  0
LINE
  8
型材
  6
CONTINUOUS
 62
    32
 10
4.688
 20
-30.7426
 11
5.59081
 21
-30.7426
  0
LINE
  8
型材
  6
CONTINUOUS
 62
    32
 10
3.790735
 20
-28.94253
 11
3.790735
 21
-29.845335
  0
LINE
  8
型材
  6
CONTINUOUS
 62
    32
 10
3.1909
 20
-28.94253
 11
3.790735
 21
-28.94253
  0
LINE
  8
型材
  6
CONTINUOUS
 62
    32
 10
3.1909
 20
-28.94253
 11
3.1909
 21
-29.845335
  0
LINE
  8
型材
  6
CONTINUOUS
 62
    32
 10
3.1909
 20
-33.142508
 11
3.1909
 21
-32.239703
  0
LINE
  8
型材
  6
CONTINUOUS
 62
    32
 10
3.790735
 20
-33.142508
 11
3.790735
 21
-32.239703
  0
LINE
  8
型材
  6
CONTINUOUS
 62
    32
 10
-34.911992
 20
-30.7426
 11
-34.00919
 21
-30.7426
  0
LINE
  8
型材
  6
CONTINUOUS
 62
    32
 10
-35.809265
 20
-28.94253
 11
-35.809265
 21
-29.845335
  0
LINE
  8
型材
  6
CONTINUOUS
 62
    32
 10
-36.4091
 20
-28.94253
 11
-35.809265
 21
-28.94253
  0
LINE
  8
型材
  6
CONTINUOUS
 62
    32
 10
-36.4091
 20
-28.94253
 11
-36.4091
 21
-29.845335
  0
LINE
  8
型材
  6
CONTINUOUS
 62
    32
 10
-36.4091
 20
-33.142508
 11
-36.4091
 21
-32.239703
  0
LINE
  8
型材
  6
CONTINUOUS
 62
    32
 10
-35.809265
 20
-33.142508
 11
-35.809265
 21
-32.239703
  0
LINE
  8
型材
  6
CONTINUOUS
 62
    32
 10
-37.30637
 20
-30.7426
 11
-38.209173
 21
-30.7426
  0
LINE
  8
型材
  6
CONTINUOUS
 62
    32
 10
-37.30637
 20
-31.342432
 11
-38.209173
 21
-31.342432
  0
LINE
  8
型材
  6
CONTINUOUS
 62
    32
 10
-34.911992
 20
-31.342432
 11
-34.00919
 21
-31.342432
  0
LINE
  8
型材
  6
CONTINUOUS
 62
    32
 10
-36.4091
 20
-33.142508
 11
-35.809265
 21
-33.142508
  0
LINE
  8
型材
  6
CONTINUOUS
 62
    32
 10
-38.209173
 20
-30.7426
 11
-38.209173
 21
-31.342435
  0
LINE
  8
型材
  6
CONTINUOUS
 62
    32
 10
-34.00919
 20
-30.7426
 11
-34.00919
 21
-31.342435
  0
LINE
  8
型材
  6
CONTINUOUS
 62
    32
 10
-21.711992
 20
-30.7426
 11
-20.80919
 21
-30.7426
  0
LINE
  8
型材
  6
CONTINUOUS
 62
    32
 10
-22.609265
 20
-28.94253
 11
-22.609265
 21
-29.845335
  0
LINE
  8
型材
  6
CONTINUOUS
 62
    32
 10
-23.2091
 20
-28.94253
 11
-22.609265
 21
-28.94253
  0
LINE
  8
型材
  6
CONTINUOUS
 62
    32
 10
-23.2091
 20
-28.94253
 11
-23.2091
 21
-29.845335
  0
LINE
  8
型材
  6
CONTINUOUS
 62
    32
 10
-23.2091
 20
-33.142508
 11
-23.2091
 21
-32.239703
  0
LINE
  8
型材
  6
CONTINUOUS
 62
    32
 10
-22.609265
 20
-33.142508
 11
-22.609265
 21
-32.239703
  0
LINE
  8
型材
  6
CONTINUOUS
 62
    32
 10
-24.10637
 20
-30.7426
 11
-25.009173
 21
-30.7426
  0
LINE
  8
型材
  6
CONTINUOUS
 62
    32
 10
-24.10637
 20
-31.342432
 11
-25.009173
 21
-31.342432
  0
LINE
  8
型材
  6
CONTINUOUS
 62
    32
 10
-21.711992
 20
-31.342432
 11
-20.80919
 21
-31.342432
  0
LINE
  8
型材
  6
CONTINUOUS
 62
    32
 10
-23.2091
 20
-33.142508
 11
-22.609265
 21
-33.142508
  0
LINE
  8
型材
  6
CONTINUOUS
 62
    32
 10
-25.009173
 20
-30.7426
 11
-25.009173
 21
-31.342435
  0
LINE
  8
型材
  6
CONTINUOUS
 62
    32
 10
-20.80919
 20
-30.7426
 11
-20.80919
 21
-31.342435
  0
LINE
  8
型材
  6
CONTINUOUS
 62
    32
 10
2.293633
 20
-30.7426
 11
1.390827
 21
-30.7426
  0
LINE
  8
型材
  6
CONTINUOUS
 62
    32
 10
2.293633
 20
-31.342432
 11
1.390827
 21
-31.342432
  0
LINE
  8
型材
  6
CONTINUOUS
 62
    32
 10
4.688
 20
-31.342432
 11
5.59081
 21
-31.342432
  0
LINE
  8
型材
  6
CONTINUOUS
 62
    32
 10
3.1909
 20
-33.142508
 11
3.790735
 21
-33.142508
  0
LINE
  8
型材
  6
CONTINUOUS
 62
    32
 10
1.390827
 20
-30.7426
 11
1.390827
 21
-31.342435
  0
LINE
  8
型材
  6
CONTINUOUS
 62
    32
 10
5.59081
 20
-30.7426
 11
5.59081
 21
-31.342435
  0
LINE
  8
型材
  6
CONTINUOUS
 62
    32
 10
17.888
 20
-30.7426
 11
18.79081
 21
-30.7426
  0
LINE
  8
型材
  6
CONTINUOUS
 62
    32
 10
16.990735
 20
-28.94253
 11
16.990735
 21
-29.845335
  0
LINE
  8
型材
  6
CONTINUOUS
 62
    32
 10
16.390903
 20
-28.94253
 11
16.990735
 21
-28.94253
  0
LINE
  8
型材
  6
CONTINUOUS
 62
    32
 10
16.3909
 20
-28.94253
 11
16.3909
 21
-29.845335
  0
LINE
  8
型材
  6
CONTINUOUS
 62
    32
 10
16.3909
 20
-33.142508
 11
16.3909
 21
-32.239703
  0
LINE
  8
型材
  6
CONTINUOUS
 62
    32
 10
16.990735
 20
-33.142508
 11
16.990735
 21
-32.239703
  0
LINE
  8
型材
  6
CONTINUOUS
 62
    32
 10
15.493633
 20
-30.7426
 11
14.590827
 21
-30.7426
  0
LINE
  8
型材
  6
CONTINUOUS
 62
    32
 10
15.493633
 20
-31.342432
 11
14.590827
 21
-31.342432
  0
LINE
  8
型材
  6
CONTINUOUS
 62
    32
 10
17.888
 20
-31.342432
 11
18.79081
 21
-31.342432
  0
LINE
  8
型材
  6
CONTINUOUS
 62
    32
 10
16.3909
 20
-33.142508
 11
16.990735
 21
-33.142508
  0
LINE
  8
型材
  6
CONTINUOUS
 62
    32
 10
14.590827
 20
-30.7426
 11
14.590827
 21
-31.342435
  0
LINE
  8
型材
  6
CONTINUOUS
 62
    32
 10
18.79081
 20
-30.7426
 11
18.79081
 21
-31.342435
  0
LINE
  8
型材
  6
CONTINUOUS
 62
    32
 10
31.088
 20
-30.7426
 11
31.99081
 21
-30.7426
  0
LINE
  8
型材
  6
CONTINUOUS
 62
    32
 10
30.190735
 20
-28.94253
 11
30.190735
 21
-29.845335
  0
LINE
  8
型材
  6
CONTINUOUS
 62
    32
 10
29.590903
 20
-28.94253
 11
30.190735
 21
-28.94253
  0
LINE
  8
型材
  6
CONTINUOUS
 62
    32
 10
29.5909
 20
-28.94253
 11
29.5909
 21
-29.845335
  0
LINE
  8
型材
  6
CONTINUOUS
 62
    32
 10
29.5909
 20
-33.142508
 11
29.5909
 21
-32.239703
  0
LINE
  8
型材
  6
CONTINUOUS
 62
    32
 10
30.190735
 20
-33.142508
 11
30.190735
 21
-32.239703
  0
LINE
  8
型材
  6
CONTINUOUS
 62
    32
 10
28.693633
 20
-30.7426
 11
27.790827
 21
-30.7426
  0
LINE
  8
型材
  6
CONTINUOUS
 62
    32
 10
28.693633
 20
-31.342432
 11
27.790827
 21
-31.342432
  0
LINE
  8
型材
  6
CONTINUOUS
 62
    32
 10
31.088
 20
-31.342432
 11
31.99081
 21
-31.342432
  0
LINE
  8
型材
  6
CONTINUOUS
 62
    32
 10
29.5909
 20
-33.142508
 11
30.190735
 21
-33.142508
  0
LINE
  8
型材
  6
CONTINUOUS
 62
    32
 10
27.790827
 20
-30.7426
 11
27.790827
 21
-31.342435
  0
LINE
  8
型材
  6
CONTINUOUS
 62
    32
 10
31.99081
 20
-30.7426
 11
31.99081
 21
-31.342435
  0
LINE
  8
型材
  6
CONTINUOUS
 62
    32
 10
44.288
 20
-30.7426
 11
45.190805
 21
-30.7426
  0
LINE
  8
型材
  6
CONTINUOUS
 62
    32
 10
43.390735
 20
-28.94253
 11
43.390735
 21
-29.845335
  0
LINE
  8
型材
  6
CONTINUOUS
 62
    32
 10
42.790903
 20
-28.94253
 11
43.390735
 21
-28.94253
  0
LINE
  8
型材
  6
CONTINUOUS
 62
    32
 10
42.790903
 20
-28.94253
 11
42.790903
 21
-29.845335
  0
LINE
  8
型材
  6
CONTINUOUS
 62
    32
 10
42.790903
 20
-33.142508
 11
42.790903
 21
-32.239703
  0
LINE
  8
型材
  6
CONTINUOUS
 62
    32
 10
43.390735
 20
-33.142508
 11
43.390735
 21
-32.239703
  0
LINE
  8
型材
  6
CONTINUOUS
 62
    32
 10
41.893633
 20
-30.7426
 11
40.990827
 21
-30.7426
  0
LINE
  8
型材
  6
CONTINUOUS
 62
    32
 10
41.893633
 20
-31.342432
 11
40.990827
 21
-31.342432
  0
LINE
  8
型材
  6
CONTINUOUS
 62
    32
 10
44.288
 20
-31.342432
 11
45.190805
 21
-31.342432
  0
LINE
  8
型材
  6
CONTINUOUS
 62
    32
 10
42.790903
 20
-33.142508
 11
43.390735
 21
-33.142508
  0
LINE
  8
型材
  6
CONTINUOUS
 62
    32
 10
40.990827
 20
-30.7426
 11
40.990827
 21
-31.342435
  0
LINE
  8
型材
  6
CONTINUOUS
 62
    32
 10
45.190805
 20
-30.7426
 11
45.190805
 21
-31.342435
  0
LINE
  8
型材
  6
DASHDOTX2
 62
    32
 10
-67.309183
 20
-31.042518
 11
61.690818
 21
-31.042518
  0
LINE
  8
型材
  6
CONTINUOUS
 62
    32
 10
61.690818
 20
-23.242518
 11
-67.909183
 21
-23.242518
  0
LINE
  8
型材
  6
CONTINUOUS
 62
    32
 10
-8.511992
 20
-30.7426
 11
-7.60919
 21
-30.7426
  0
LINE
  8
型材
  6
CONTINUOUS
 62
    32
 10
-9.409265
 20
-28.94253
 11
-9.409265
 21
-29.845335
  0
LINE
  8
型材
  6
CONTINUOUS
 62
    32
 10
-10.0091
 20
-28.94253
 11
-9.409265
 21
-28.94253
  0
LINE
  8
型材
  6
CONTINUOUS
 62
    32
 10
-10.0091
 20
-28.94253
 11
-10.0091
 21
-29.845335
  0
LINE
  8
型材
  6
CONTINUOUS
 62
    32
 10
-10.0091
 20
-33.142508
 11
-10.0091
 21
-32.239703
  0
LINE
  8
型材
  6
CONTINUOUS
 62
    32
 10
-9.409265
 20
-33.142508
 11
-9.409265
 21
-32.239703
  0
LINE
  8
型材
  6
CONTINUOUS
 62
    32
 10
-10.90637
 20
-30.7426
 11
-11.809173
 21
-30.7426
  0
LINE
  8
型材
  6
CONTINUOUS
 62
    32
 10
-10.90637
 20
-31.342432
 11
-11.809173
 21
-31.342432
  0
LINE
  8
型材
  6
CONTINUOUS
 62
    32
 10
-8.511992
 20
-31.342432
 11
-7.60919
 21
-31.342432
  0
LINE
  8
型材
  6
CONTINUOUS
 62
    32
 10
-10.0091
 20
-33.142508
 11
-9.409265
 21
-33.142508
  0
LINE
  8
型材
  6
CONTINUOUS
 62
    32
 10
-11.809173
 20
-30.7426
 11
-11.809173
 21
-31.342435
  0
LINE
  8
型材
  6
CONTINUOUS
 62
    32
 10
-7.60919
 20
-30.7426
 11
-7.60919
 21
-31.342435
  0
LINE
  8
型材
  6
CONTINUOUS
 62
    32
 10
-47.20919
 20
-30.7426
 11
-47.20919
 21
-31.342435
  0
LINE
  8
型材
  6
CONTINUOUS
 62
    32
 10
-51.409173
 20
-30.7426
 11
-51.409173
 21
-31.342435
  0
LINE
  8
型材
  6
CONTINUOUS
 62
    32
 10
-49.6091
 20
-33.142508
 11
-49.009265
 21
-33.142508
  0
LINE
  8
型材
  6
CONTINUOUS
 62
    32
 10
-48.111992
 20
-31.342432
 11
-47.20919
 21
-31.342432
  0
LINE
  8
型材
  6
CONTINUOUS
 62
    32
 10
-50.50637
 20
-31.342432
 11
-51.409173
 21
-31.342432
  0
LINE
  8
型材
  6
CONTINUOUS
 62
    32
 10
-50.50637
 20
-30.7426
 11
-51.409173
 21
-30.7426
  0
LINE
  8
型材
  6
CONTINUOUS
 62
    32
 10
-49.009265
 20
-33.142508
 11
-49.009265
 21
-32.239703
  0
LINE
  8
型材
  6
CONTINUOUS
 62
    32
 10
-49.6091
 20
-33.142508
 11
-49.6091
 21
-32.239703
  0
LINE
  8
型材
  6
CONTINUOUS
 62
    32
 10
-49.6091
 20
-28.94253
 11
-49.6091
 21
-29.845335
  0
LINE
  8
型材
  6
CONTINUOUS
 62
    32
 10
-49.6091
 20
-28.94253
 11
-49.009265
 21
-28.94253
  0
LINE
  8
型材
  6
CONTINUOUS
 62
    32
 10
-49.009265
 20
-28.94253
 11
-49.009265
 21
-29.845335
  0
LINE
  8
型材
  6
CONTINUOUS
 62
    32
 10
-48.111992
 20
-30.7426
 11
-47.20919
 21
-30.7426
  0
LINE
  8
型材
  6
DASHDOTX2
 62
    32
 10
-49.309183
 20
-37.042518
 11
-49.309183
 21
-25.042518
  0
LINE
  8
型材
  6
CONTINUOUS
 62
    32
 10
-41.509183
 20
-23.242518
 11
-41.509183
 21
-42.442518
  0
LINE
  8
型材
  6
CONTINUOUS
 62
    32
 10
-43.909183
 20
-23.242518
 11
-43.909183
 21
-42.442518
  0
ARC
  8
型材
  6
CONTINUOUS
 62
    32
 10
41.893632
 20
-32.239702
 40
0.897268
 50
0.000022
 51
90.000066
  0
ARC
  8
型材
  6
CONTINUOUS
 62
    32
 10
44.288003
 20
-32.239703
 40
0.897268
 50
90.000011
 51
180.000046
  0
CIRCLE
  8
型材
  6
CONTINUOUS
 62
    32
 10
43.090818
 20
-31.042518
 40
4.14
  0
ARC
  8
型材
  6
CONTINUOUS
 62
    32
 10
-10.906371
 20
-32.239702
 40
0.897268
 50
0.000022
 51
90.000066
  0
ARC
  8
型材
  6
CONTINUOUS
 62
    32
 10
-8.511993
 20
-32.239703
 40
0.897268
 50
90.000011
 51
180.000046
  0
CIRCLE
  8
型材
  6
CONTINUOUS
 62
    32
 10
-9.709183
 20
-31.042518
 40
4.14
  0
ARC
  8
型材
  6
CONTINUOUS
 62
    32
 10
57.488003
 20
-29.845333
 40
0.897268
 50
179.999978
 51
270.00003
  0
ARC
  8
型材
  6
CONTINUOUS
 62
    32
 10
55.093633
 20
-29.845333
 40
0.897268
 50
269.999962
 51
360.000005
  0
ARC
  8
型材
  6
CONTINUOUS
 62
    32
 10
55.093632
 20
-32.239702
 40
0.897268
 50
0.000022
 51
90.000066
  0
ARC
  8
型材
  6
CONTINUOUS
 62
    32
 10
57.488003
 20
-32.239703
 40
0.897268
 50
90.000011
 51
180.000046
  0
CIRCLE
  8
型材
  6
CONTINUOUS
 62
    32
 10
56.290818
 20
-31.042518
 40
4.14
  0
ARC
  8
型材
  6
CONTINUOUS
 62
    32
 10
-61.311993
 20
-29.845333
 40
0.897268
 50
179.999978
 51
270.00003
  0
ARC
  8
型材
  6
CONTINUOUS
 62
    32
 10
-63.706371
 20
-29.845333
 40
0.897268
 50
269.999962
 51
360.000005
  0
ARC
  8
型材
  6
CONTINUOUS
 62
    32
 10
-63.706371
 20
-32.239702
 40
0.897268
 50
0.000022
 51
90.000066
  0
ARC
  8
型材
  6
CONTINUOUS
 62
    32
 10
-61.311993
 20
-32.239703
 40
0.897268
 50
90.000011
 51
180.000046
  0
CIRCLE
  8
型材
  6
CONTINUOUS
 62
    32
 10
-62.509183
 20
-31.042518
 40
4.14
  0
ARC
  8
型材
  6
CONTINUOUS
 62
    32
 10
4.688003
 20
-29.845333
 40
0.897268
 50
179.999978
 51
270.00003
  0
ARC
  8
型材
  6
CONTINUOUS
 62
    32
 10
2.293633
 20
-29.845333
 40
0.897268
 50
269.999962
 51
360.000005
  0
ARC
  8
型材
  6
CONTINUOUS
 62
    32
 10
2.293633
 20
-32.239702
 40
0.897268
 50
0.000022
 51
90.000066
  0
ARC
  8
型材
  6
CONTINUOUS
 62
    32
 10
4.688003
 20
-32.239703
 40
0.897268
 50
90.000011
 51
180.000046
  0
CIRCLE
  8
型材
  6
CONTINUOUS
 62
    32
 10
3.490818
 20
-31.042518
 40
4.14
  0
ARC
  8
型材
  6
CONTINUOUS
 62
    32
 10
-34.911993
 20
-29.845333
 40
0.897268
 50
179.999978
 51
270.00003
  0
ARC
  8
型材
  6
CONTINUOUS
 62
    32
 10
-37.306371
 20
-29.845333
 40
0.897268
 50
269.999962
 51
360.000005
  0
ARC
  8
型材
  6
CONTINUOUS
 62
    32
 10
-37.306371
 20
-32.239702
 40
0.897268
 50
0.000022
 51
90.000066
  0
ARC
  8
型材
  6
CONTINUOUS
 62
    32
 10
-34.911993
 20
-32.239703
 40
0.897268
 50
90.000011
 51
180.000046
  0
CIRCLE
  8
型材
  6
CONTINUOUS
 62
    32
 10
-36.109183
 20
-31.042518
 40
4.14
  0
ARC
  8
型材
  6
CONTINUOUS
 62
    32
 10
-21.711993
 20
-29.845333
 40
0.897268
 50
179.999978
 51
270.00003
  0
ARC
  8
型材
  6
CONTINUOUS
 62
    32
 10
-24.106371
 20
-29.845333
 40
0.897268
 50
269.999962
 51
360.000005
  0
ARC
  8
型材
  6
CONTINUOUS
 62
    32
 10
-24.106371
 20
-32.239702
 40
0.897268
 50
0.000022
 51
90.000066
  0
ARC
  8
型材
  6
CONTINUOUS
 62
    32
 10
-21.711993
 20
-32.239703
 40
0.897268
 50
90.000011
 51
180.000046
  0
CIRCLE
  8
型材
  6
CONTINUOUS
 62
    32
 10
-22.909183
 20
-31.042518
 40
4.14
  0
ARC
  8
型材
  6
CONTINUOUS
 62
    32
 10
17.888003
 20
-29.845333
 40
0.897268
 50
179.999978
 51
270.00003
  0
ARC
  8
型材
  6
CONTINUOUS
 62
    32
 10
15.493633
 20
-29.845333
 40
0.897268
 50
269.999962
 51
360.000005
  0
ARC
  8
型材
  6
CONTINUOUS
 62
    32
 10
15.493633
 20
-32.239702
 40
0.897268
 50
0.000022
 51
90.000066
  0
ARC
  8
型材
  6
CONTINUOUS
 62
    32
 10
17.888003
 20
-32.239703
 40
0.897268
 50
90.000011
 51
180.000046
  0
CIRCLE
  8
型材
  6
CONTINUOUS
 62
    32
 10
16.690818
 20
-31.042518
 40
4.14
  0
ARC
  8
型材
  6
CONTINUOUS
 62
    32
 10
31.088003
 20
-29.845333
 40
0.897268
 50
179.999978
 51
270.00003
  0
ARC
  8
型材
  6
CONTINUOUS
 62
    32
 10
28.693633
 20
-29.845333
 40
0.897268
 50
269.999962
 51
360.000005
  0
ARC
  8
型材
  6
CONTINUOUS
 62
    32
 10
28.693633
 20
-32.239702
 40
0.897268
 50
0.000022
 51
90.000066
  0
ARC
  8
型材
  6
CONTINUOUS
 62
    32
 10
31.088003
 20
-32.239703
 40
0.897268
 50
90.000011
 51
180.000046
  0
CIRCLE
  8
型材
  6
CONTINUOUS
 62
    32
 10
29.890818
 20
-31.042518
 40
4.14
  0
ARC
  8
型材
  6
CONTINUOUS
 62
    32
 10
44.288003
 20
-29.845333
 40
0.897268
 50
179.999978
 51
270.00003
  0
ARC
  8
型材
  6
CONTINUOUS
 62
    32
 10
41.893633
 20
-29.845333
 40
0.897268
 50
269.999962
 51
360.000005
  0
ARC
  8
型材
  6
CONTINUOUS
 62
    32
 10
-8.511993
 20
-29.845333
 40
0.897268
 50
179.999978
 51
270.00003
  0
ARC
  8
型材
  6
CONTINUOUS
 62
    32
 10
-10.906371
 20
-29.845333
 40
0.897268
 50
269.999962
 51
360.000005
  0
CIRCLE
  8
型材
  6
CONTINUOUS
 62
    32
 10
-49.309183
 20
-31.042518
 40
4.14
  0
ARC
  8
型材
  6
CONTINUOUS
 62
    32
 10
-48.111993
 20
-32.239703
 40
0.897268
 50
90.000011
 51
180.000046
  0
ARC
  8
型材
  6
CONTINUOUS
 62
    32
 10
-50.506371
 20
-32.239702
 40
0.897268
 50
0.000022
 51
90.000066
  0
ARC
  8
型材
  6
CONTINUOUS
 62
    32
 10
-50.506371
 20
-29.845333
 40
0.897268
 50
269.999962
 51
360.000005
  0
ARC
  8
型材
  6
CONTINUOUS
 62
    32
 10
-48.111993
 20
-29.845333
 40
0.897268
 50
179.999978
 51
270.00003
  0
POINT
  8
型材
 62
    32
 10
-57.10911
 20
-23.24251
  0
LINE
  8
型材
  6
CONTINUOUS
 62
    32
 10
50.89089
 20
-23.24251
 11
-57.10911
 21
-23.24251
  0
LINE
  8
型材
  6
CONTINUOUS
 62
    32
 10
-57.10911
 20
-23.24251
 11
-57.10911
 21
8.832998
  0
LINE
  8
型材
  6
CONTINUOUS
 62
    32
 10
-57.10911
 20
8.832998
 11
50.89089
 21
8.832998
  0
LINE
  8
型材
  6
CONTINUOUS
 62
    32
 10
50.89089
 20
-23.24251
 11
50.89089
 21
8.832998
  0
LINE
  8
型材
  6
DOT
 10
80.62498
 20
18.18886
 11
-176.30359
 21
18.18886
  0
LINE
  8
型材
  6
DOT
 10
-176.30359
 20
18.18886
 11
-176.30359
 21
-55.880527
  0
LINE
  8
型材
  6
DOT
 10
-176.30359
 20
-55.880527
 11
80.62498
 21
-55.880527
  0
LINE
  8
型材
  6
DOT
 10
80.62498
 20
18.18886
 11
80.62498
 21
-55.880527
  0
CIRCLE
  8
型材
 62
    32
 10
119.24672
 20
29.051757
 40
6.183842
  0
ARC
  8
型材
 62
    32
 10
121.179176
 20
29.051752
 40
1.932453
 50
180.0
 51
360.0
  0
ARC
  8
型材
 62
    32
 10
117.314272
 20
29.051752
 40
1.932453
 50
0.0
 51
180.0
  0
CIRCLE
  8
型材
 62
    32
 10
119.24672
 20
149.816692
 40
6.183842
  0
ARC
  8
型材
 62
    32
 10
121.179176
 20
149.816687
 40
1.932453
 50
180.0
 51
360.0
  0
ARC
  8
型材
 62
    32
 10
117.314272
 20
149.816687
 40
1.932453
 50
0.0
 51
180.0
  0
TEXT
  7
TextStyle03
  8
文字
  6
CONTINUOUS
 10
237.8
 20
-272.95
  1
1
 40
4.0
 72
     5
 11
239.8
 21
-272.95
  0
TEXT
  7
TextStyle03
  8
文字
  6
CONTINUOUS
 10
246.15
 20
-272.95
  1
2
 40
4.0
 72
     5
 11
248.15
 21
-272.95
  0
TEXT
  7
TextStyle03
  8
文字
  6
CONTINUOUS
 10
40.7
 20
-197.7
  1
茶
 40
6.0
 72
     5
 11
46.7
 21
-197.7
  0
TEXT
  7
TextStyle03
  8
文字
  6
CONTINUOUS
 10
37.475
 20
-205.325
  1
１Ｎ
 40
6.0
 72
     5
 11
50.225
 21
-205.325
  0
TEXT
  7
TextStyle03
  8
文字
  6
CONTINUOUS
 10
40.025
 20
-213.4
  1
DC-
 40
6.0
 72
     5
 11
49.775
 21
-213.4
  0
TEXT
  7
TextStyle03
  8
文字
  6
CONTINUOUS
 10
27.175
 20
-197.7
  1
赤
 40
6.0
 72
     5
 11
33.175
 21
-197.7
  0
TEXT
  7
TextStyle03
  8
文字
  6
CONTINUOUS
 10
27.175
 20
-205.325
  1
２
 40
6.0
 72
     5
 11
33.175
 21
-205.325
  0
TEXT
  7
TextStyle03
  8
文字
  6
CONTINUOUS
 10
27.175
 20
-213.4
  1
開
 40
6.0
 72
     5
 11
33.175
 21
-213.4
  0
TEXT
  7
TextStyle03
  8
文字
  6
CONTINUOUS
 10
25.25
 20
-221.125
  1
LED
 40
6.0
 72
     5
 11
35.0
 21
-221.125
  0
TEXT
  7
TextStyle03
  8
文字
  6
CONTINUOUS
 10
14.275
 20
-197.7
  1
緑
 40
6.0
 72
     5
 11
20.275
 21
-197.7
  0
TEXT
  7
TextStyle03
  8
文字
  6
CONTINUOUS
 10
14.275
 20
-205.325
  1
３
 40
6.0
 72
     5
 11
20.275
 21
-205.325
  0
TEXT
  7
TextStyle03
  8
文字
  6
CONTINUOUS
 10
14.15
 20
-213.4
  1
閉
 40
6.0
 72
     5
 11
20.15
 21
-213.4
  0
TEXT
  7
TextStyle03
  8
文字
  6
CONTINUOUS
 10
11.925
 20
-221.125
  1
LED
 40
6.0
 72
     5
 11
21.675
 21
-221.125
  0
TEXT
  7
TextStyle03
  8
文字
  6
CONTINUOUS
 10
1.15
 20
-197.7
  1
黄
 40
6.0
 72
     5
 11
7.15
 21
-197.7
  0
TEXT
  7
TextStyle03
  8
文字
  6
CONTINUOUS
 10
1.15
 20
-205.325
  1
４
 40
6.0
 72
     5
 11
7.15
 21
-205.325
  0
TEXT
  7
TextStyle03
  8
文字
  6
CONTINUOUS
 10
0.85
 20
-213.4
  1
開
 40
6.0
 72
     5
 11
6.85
 21
-213.4
  0
TEXT
  7
TextStyle03
  8
文字
  6
CONTINUOUS
 10
-12.325
 20
-197.7
  1
白
 40
6.0
 72
     5
 11
-6.325
 21
-197.7
  0
TEXT
  7
TextStyle03
  8
文字
  6
CONTINUOUS
 10
-12.325
 20
-205.325
  1
５
 40
6.0
 72
     5
 11
-6.325
 21
-205.325
  0
TEXT
  7
TextStyle03
  8
文字
  6
CONTINUOUS
 10
-12.65
 20
-213.4
  1
停
 40
6.0
 72
     5
 11
-6.65
 21
-213.4
  0
TEXT
  7
TextStyle03
  8
文字
  6
CONTINUOUS
 10
-25.525
 20
-197.7
  1
青
 40
6.0
 72
     5
 11
-19.525
 21
-197.7
  0
TEXT
  7
TextStyle03
  8
文字
  6
CONTINUOUS
 10
-25.525
 20
-205.325
  1
６
 40
6.0
 72
     5
 11
-19.525
 21
-205.325
  0
TEXT
  7
TextStyle03
  8
文字
  6
CONTINUOUS
 10
-25.7
 20
-213.4
  1
閉
 40
6.0
 72
     5
 11
-19.7
 21
-213.4
  0
TEXT
  7
TextStyle03
  8
文字
  6
CONTINUOUS
 10
95.325
 20
-191.0
  1
スイッチボックス
 40
6.0
 72
     5
 11
148.575
 21
-191.0
  0
TEXT
  7
TextStyle03
  8
文字
  6
CONTINUOUS
 10
95.325
 20
-197.75
  1

 40
6.0
 41
1.125
  0
TEXT
  7
TextStyle03
  8
文字
  6
CONTINUOUS
 10
95.325
 20
-204.5
  1
品番：ＴＫ－ＯＰ－ＤＥ００２
 40
6.0
 72
     5
 11
189.075
 21
-204.5
  0
TEXT
  7
TextStyle03
  8
文字
  6
CONTINUOUS
 10
-51.875
 20
-197.7
  1
橙
 40
6.0
 72
     5
 11
-45.875
 21
-197.7
  0
TEXT
  7
TextStyle03
  8
文字
  6
CONTINUOUS
 10
-39.0
 20
-197.7
  1
橙
 40
6.0
 72
     5
 11
-33.0
 21
-197.7
  0
TEXT
  7
TextStyle03
  8
文字
  6
CONTINUOUS
 10
-50.25
 20
-205.325
  1
DC24V
 40
6.0
 72
     5
 11
-33.75
 21
-205.325
  0
TEXT
  7
TextStyle03
  8
文字
  6
CONTINUOUS
 10
-51.925
 20
-212.65
  1
有電圧
 40
6.0
 72
     5
 11
-32.425
 21
-212.65
  0
TEXT
  7
TextStyle03
  8
文字
  6
CONTINUOUS
 10
-49.025
 20
-220.5
  1
煙感
 40
6.0
 72
     5
 11
-36.275
 21
-220.5
  0
TEXT
  7
TextStyle03
  8
文字
  6
CONTINUOUS
 10
48.175
 20
185.425
  1
灰
 40
6.0
 72
     5
 11
54.175
 21
185.425
  0
TEXT
  7
TextStyle03
  8
文字
  6
CONTINUOUS
 10
35.175
 20
185.425
  1
灰
 40
6.0
 72
     5
 11
41.175
 21
185.425
  0
TEXT
  7
TextStyle03
  8
文字
  6
CONTINUOUS
 10
-149.2
 20
185.425
  1
白
 40
6.0
 72
     5
 11
-143.2
 21
185.425
  0
TEXT
  7
TextStyle03
  8
文字
  6
CONTINUOUS
 10
-136.2
 20
185.425
  1
赤
 40
6.0
 72
     5
 11
-130.2
 21
185.425
  0
TEXT
  7
TextStyle03
  8
文字
  6
CONTINUOUS
 10
-149.2
 20
193.5
  1
－
 40
6.0
 72
     5
 11
-143.2
 21
193.5
  0
TEXT
  7
TextStyle03
  8
文字
  6
CONTINUOUS
 10
-136.2
 20
193.5
  1
＋
 40
6.0
 72
     5
 11
-130.2
 21
193.5
  0
TEXT
  7
TextStyle03
  8
文字
  6
CONTINUOUS
 10
-147.875
 20
201.7
  1
DC24V
 40
6.0
 72
     5
 11
-131.375
 21
201.7
  0
TEXT
  7
TextStyle03
  8
文字
  6
CONTINUOUS
 10
-122.8
 20
185.425
  1
白
 40
6.0
 72
     5
 11
-116.8
 21
185.425
  0
TEXT
  7
TextStyle03
  8
文字
  6
CONTINUOUS
 10
-109.8
 20
185.425
  1
赤
 40
6.0
 72
     5
 11
-103.8
 21
185.425
  0
TEXT
  7
TextStyle03
  8
文字
  6
CONTINUOUS
 10
-122.8
 20
193.5
  1
－
 40
6.0
 72
     5
 11
-116.8
 21
193.5
  0
TEXT
  7
TextStyle03
  8
文字
  6
CONTINUOUS
 10
-109.8
 20
193.5
  1
＋
 40
6.0
 72
     5
 11
-103.8
 21
193.5
  0
TEXT
  7
TextStyle03
  8
文字
  6
CONTINUOUS
 10
-121.475
 20
201.7
  1
DC24V
 40
6.0
 72
     5
 11
-104.975
 21
201.7
  0
TEXT
  7
TextStyle03
  8
文字
  6
CONTINUOUS
 10
-96.4
 20
185.425
  1
白
 40
6.0
 72
     5
 11
-90.4
 21
185.425
  0
TEXT
  7
TextStyle03
  8
文字
  6
CONTINUOUS
 10
-83.4
 20
185.425
  1
赤
 40
6.0
 72
     5
 11
-77.4
 21
185.425
  0
TEXT
  7
TextStyle03
  8
文字
  6
CONTINUOUS
 10
-96.4
 20
193.5
  1
－
 40
6.0
 72
     5
 11
-90.4
 21
193.5
  0
TEXT
  7
TextStyle03
  8
文字
  6
CONTINUOUS
 10
-83.4
 20
193.5
  1
＋
 40
6.0
 72
     5
 11
-77.4
 21
193.5
  0
TEXT
  7
TextStyle03
  8
文字
  6
CONTINUOUS
 10
-95.075
 20
201.7
  1
DC24V
 40
6.0
 72
     5
 11
-78.575
 21
201.7
  0
TEXT
  7
TextStyle03
  8
文字
  6
CONTINUOUS
 10
-70.0
 20
185.425
  1
白
 40
6.0
 72
     5
 11
-64.0
 21
185.425
  0
TEXT
  7
TextStyle03
  8
文字
  6
CONTINUOUS
 10
-57.0
 20
185.425
  1
赤
 40
6.0
 72
     5
 11
-51.0
 21
185.425
  0
TEXT
  7
TextStyle03
  8
文字
  6
CONTINUOUS
 10
-70.0
 20
193.5
  1
－
 40
6.0
 72
     5
 11
-64.0
 21
193.5
  0
TEXT
  7
TextStyle03
  8
文字
  6
CONTINUOUS
 10
-57.0
 20
193.5
  1
＋
 40
6.0
 72
     5
 11
-51.0
 21
193.5
  0
TEXT
  7
TextStyle03
  8
文字
  6
CONTINUOUS
 10
-68.675
 20
201.7
  1
DC24V
 40
6.0
 72
     5
 11
-52.175
 21
201.7
  0
TEXT
  7
TextStyle03
  8
文字
  6
CONTINUOUS
 10
-43.6
 20
185.425
  1
白
 40
6.0
 72
     5
 11
-37.6
 21
185.425
  0
TEXT
  7
TextStyle03
  8
文字
  6
CONTINUOUS
 10
-30.6
 20
185.425
  1
赤
 40
6.0
 72
     5
 11
-24.6
 21
185.425
  0
TEXT
  7
TextStyle03
  8
文字
  6
CONTINUOUS
 10
-43.6
 20
193.5
  1
－
 40
6.0
 72
     5
 11
-37.6
 21
193.5
  0
TEXT
  7
TextStyle03
  8
文字
  6
CONTINUOUS
 10
-30.6
 20
193.5
  1
＋
 40
6.0
 72
     5
 11
-24.6
 21
193.5
  0
TEXT
  7
TextStyle03
  8
文字
  6
CONTINUOUS
 10
-42.275
 20
201.7
  1
DC24V
 40
6.0
 72
     5
 11
-25.775
 21
201.7
  0
TEXT
  7
TextStyle03
  8
文字
  6
CONTINUOUS
 10
-17.2
 20
185.425
  1
白
 40
6.0
 72
     5
 11
-11.2
 21
185.425
  0
TEXT
  7
TextStyle03
  8
文字
  6
CONTINUOUS
 10
-4.2
 20
185.425
  1
赤
 40
6.0
 72
     5
 11
1.8
 21
185.425
  0
TEXT
  7
TextStyle03
  8
文字
  6
CONTINUOUS
 10
-17.2
 20
193.5
  1
－
 40
6.0
 72
     5
 11
-11.2
 21
193.5
  0
TEXT
  7
TextStyle03
  8
文字
  6
CONTINUOUS
 10
-4.2
 20
193.5
  1
＋
 40
6.0
 72
     5
 11
1.8
 21
193.5
  0
TEXT
  7
TextStyle03
  8
文字
  6
CONTINUOUS
 10
-15.875
 20
201.7
  1
DC24V
 40
6.0
 72
     5
 11
0.625
 21
201.7
  0
TEXT
  7
TextStyle03
  8
文字
  6
CONTINUOUS
 10
35.4
 20
201.7
  1
AC100V
 40
6.0
 72
     5
 11
55.275
 21
201.7
  0
TEXT
  7
TextStyle03
  8
文字
  6
CONTINUOUS
 10
-58.9
 20
246.625
  1
結　線　図
 40
6.0
 72
     5
 11
-25.9
 21
246.625
  0
TEXT
  7
TextStyle03
  8
文字
  6
CONTINUOUS
 10
98.05
 20
197.425
  1
予備電源装置
 40
6.0
 72
     5
 11
137.8
 21
197.425
  0
TEXT
  7
TextStyle03
  8
文字
  6
CONTINUOUS
 10
98.05
 20
190.675
  1

 40
6.0
 41
1.125
  0
TEXT
  7
TextStyle03
  8
文字
  6
CONTINUOUS
 10
98.05
 20
183.925
  1
品番：ＴＫ－ＯＰ－Ｙ００１
 40
6.0
 72
     5
 11
185.05
 21
183.925
  0
TEXT
  7
TextStyle03
  8
文字
  6
CONTINUOUS
 10
-97.025
 20
-17.2
  1
灰
 40
6.0
 72
     5
 11
-91.025
 21
-17.2
  0
TEXT
  7
TextStyle03
  8
文字
  6
CONTINUOUS
 10
-110.15
 20
-17.2
  1
灰
 40
6.0
 72
     5
 11
-104.15
 21
-17.2
  0
TEXT
  7
TextStyle03
  8
文字
  6
CONTINUOUS
 10
-136.4
 20
-17.2
  1
赤
 40
6.0
 72
     5
 11
-130.4
 21
-17.2
  0
TEXT
  7
TextStyle03
  8
文字
  6
CONTINUOUS
 10
-149.625
 20
-17.2
  1
白
 40
6.0
 72
     5
 11
-143.625
 21
-17.2
  0
TEXT
  7
TextStyle03
  8
文字
  6
CONTINUOUS
 10
-136.4
 20
-24.825
  1
＋
 40
6.0
 72
     5
 11
-130.4
 21
-24.825
  0
TEXT
  7
TextStyle03
  8
文字
  6
CONTINUOUS
 10
-149.975
 20
-24.825
  1
－
 40
6.0
 72
     5
 11
-143.975
 21
-24.825
  0
TEXT
  7
TextStyle03
  8
文字
  6
CONTINUOUS
 10
-149.625
 20
-33.75
  1
DC24V
 40
6.0
 72
     5
 11
-133.125
 21
-33.75
  0
TEXT
  7
TextStyle03
  8
文字
  6
CONTINUOUS
 10
-109.775
 20
-33.75
  1
AC100V
 40
6.0
 72
     5
 11
-89.9
 21
-33.75
  0
TEXT
  7
TextStyle03
  8
文字
  6
CONTINUOUS
 10
40.375
 20
-22.4
  1
茶
 40
6.0
 72
     5
 11
46.375
 21
-22.4
  0
TEXT
  7
TextStyle03
  8
文字
  6
CONTINUOUS
 10
27.0
 20
-22.4
  1
赤
 40
6.0
 72
     5
 11
33.0
 21
-22.4
  0
TEXT
  7
TextStyle03
  8
文字
  6
CONTINUOUS
 10
13.875
 20
-22.4
  1
緑
 40
6.0
 72
     5
 11
19.875
 21
-22.4
  0
TEXT
  7
TextStyle03
  8
文字
  6
CONTINUOUS
 10
0.65
 20
-22.4
  1
黄
 40
6.0
 72
     5
 11
6.65
 21
-22.4
  0
TEXT
  7
TextStyle03
  8
文字
  6
CONTINUOUS
 10
-12.675
 20
-22.4
  1
白
 40
6.0
 72
     5
 11
-6.675
 21
-22.4
  0
TEXT
  7
TextStyle03
  8
文字
  6
CONTINUOUS
 10
-26.025
 20
-22.4
  1
青
 40
6.0
 72
     5
 11
-20.025
 21
-22.4
  0
TEXT
  7
TextStyle03
  8
文字
  6
CONTINUOUS
 10
37.15
 20
-14.775
  1
１Ｎ
 40
6.0
 72
     5
 11
49.9
 21
-14.775
  0
TEXT
  7
TextStyle03
  8
文字
  6
CONTINUOUS
 10
27.0
 20
-14.775
  1
２
 40
6.0
 72
     5
 11
33.0
 21
-14.775
  0
TEXT
  7
TextStyle03
  8
文字
  6
CONTINUOUS
 10
13.875
 20
-14.775
  1
３
 40
6.0
 72
     5
 11
19.875
 21
-14.775
  0
TEXT
  7
TextStyle03
  8
文字
  6
CONTINUOUS
 10
0.65
 20
-14.775
  1
４
 40
6.0
 72
     5
 11
6.65
 21
-14.775
  0
TEXT
  7
TextStyle03
  8
文字
  6
CONTINUOUS
 10
-12.675
 20
-14.775
  1
５
 40
6.0
 72
     5
 11
-6.675
 21
-14.775
  0
TEXT
  7
TextStyle03
  8
文字
  6
CONTINUOUS
 10
-26.025
 20
-14.775
  1
６
 40
6.0
 72
     5
 11
-20.025
 21
-14.775
  0
TEXT
  7
TextStyle03
  8
文字
  6
CONTINUOUS
 10
39.7
 20
-6.7
  1
DC-
 40
6.0
 72
     5
 11
49.45
 21
-6.7
  0
TEXT
  7
TextStyle03
  8
文字
  6
CONTINUOUS
 10
27.0
 20
-6.7
  1
開
 40
6.0
 72
     5
 11
33.0
 21
-6.7
  0
TEXT
  7
TextStyle03
  8
文字
  6
CONTINUOUS
 10
25.675
 20
1.025
  1
LED
 40
6.0
 72
     5
 11
35.425
 21
1.025
  0
TEXT
  7
TextStyle03
  8
文字
  6
CONTINUOUS
 10
12.1
 20
1.025
  1
LED
 40
6.0
 72
     5
 11
21.85
 21
1.025
  0
TEXT
  7
TextStyle03
  8
文字
  6
CONTINUOUS
 10
13.75
 20
-6.7
  1
閉
 40
6.0
 72
     5
 11
19.75
 21
-6.7
  0
TEXT
  7
TextStyle03
  8
文字
  6
CONTINUOUS
 10
0.35
 20
-6.7
  1
開
 40
6.0
 72
     5
 11
6.35
 21
-6.7
  0
TEXT
  7
TextStyle03
  8
文字
  6
CONTINUOUS
 10
-13.0
 20
-6.7
  1
停
 40
6.0
 72
     5
 11
-7.0
 21
-6.7
  0
TEXT
  7
TextStyle03
  8
文字
  6
CONTINUOUS
 10
-26.2
 20
-6.7
  1
閉
 40
6.0
 72
     5
 11
-20.2
 21
-6.7
  0
TEXT
  7
TextStyle03
  8
文字
  6
CONTINUOUS
 10
98.05
 20
-11.65
  1
電動駆動装置　耐熱タイプ
 40
6.0
 72
     5
 11
178.3
 21
-11.65
  0
TEXT
  7
TextStyle03
  8
文字
  6
CONTINUOUS
 10
98.05
 20
-18.4
  1

 40
6.0
 41
1.125
  0
TEXT
  7
TextStyle03
  8
文字
  6
CONTINUOUS
 10
98.05
 20
-25.15
  1
品番：ＴＫ－ＯＰ－ＤＥ００１
 40
6.0
 72
     5
 11
191.8
 21
-25.15
  0
TEXT
  7
TextStyle03
  8
文字
  6
CONTINUOUS
 10
-42.575
 20
-14.275
  1
７Ｐ
 40
6.0
 72
     5
 11
-29.825
 21
-14.275
  0
TEXT
  7
TextStyle03
  8
文字
  6
CONTINUOUS
 10
-38.9
 20
-22.525
  1
黒
 40
6.0
 72
     5
 11
-32.9
 21
-22.525
  0
TEXT
  7
TextStyle03
  8
文字
  6
CONTINUOUS
 10
-40.7
 20
-6.725
  1
DC+
 40
6.0
 72
     5
 11
-30.95
 21
-6.725
  0
TEXT
  7
TextStyle03
  8
文字
  6
CONTINUOUS
 10
279.575
 20
-279.275
  1
結線基本図（スイッチ１：駆動装置１）
 40
4.0
 72
     5
 11
360.075
 21
-279.275
  0
TEXT
  7
TextStyle03
  8
文字
  6
CONTINUOUS
 10
-209.725
 20
-144.975
  1
ＤＣ２４Ｖ
 40
4.0
 72
     5
 11
-187.725
 21
-144.975
  0
TEXT
  7
TextStyle03
  8
文字
  6
CONTINUOUS
 10
-209.725
 20
-149.475
  1
ａ接点
 40
4.0
 72
     5
 11
-196.725
 21
-149.475
  0
TEXT
  7
TextStyle03
  8
文字
  6
CONTINUOUS
 10
-245.175
 20
-135.1
  1
防災盤より信号
 40
4.0
 72
     5
 11
-214.175
 21
-135.1
  0
TEXT
  7
TextStyle03
  8
文字
  6
CONTINUOUS
 10
129.275
 20
27.1
  1
ＡＣ１００Ｖ　４Ａ
 40
4.0
 72
     5
 11
169.275
 21
27.1
  0
TEXT
  7
TextStyle03
  8
文字
  6
CONTINUOUS
 10
129.275
 20
148.075
  1
ＡＣ１００Ｖ　４Ａ
 40
4.0
 72
     5
 11
169.275
 21
148.075
  0
LINE
  8
寸法
  6
CONTINUOUS
 10
236.6
 20
-264.25
 11
249.6
 21
-264.25
  0
LINE
  8
寸法
  6
CONTINUOUS
 10
236.6
 20
-264.97585
 11
249.6
 21
-264.97585
  0
LINE
  8
寸法
  6
CONTINUOUS
 10
91.801255
 20
-209.999565
 11
196.76197
 21
-209.999565
  0
POLYLINE
  8
寸法
  6
CONTINUOUS
 66
     1
  0
VERTEX
  8
寸法
 10
196.76197
 20
-209.999565
  0
VERTEX
  8
寸法
 10
196.76197
 20
-181.58054
  0
VERTEX
  8
寸法
 10
91.801255
 20
-181.58054
  0
VERTEX
  8
寸法
 10
91.801255
 20
-209.999565
  0
SEQEND
  0
POLYLINE
  8
寸法
  6
CONTINUOUS
 66
     1
 70
     1
  0
VERTEX
  8
寸法
 10
-23.351383
 20
256.025642
  0
VERTEX
  8
寸法
 10
-63.086078
 20
256.025642
  0
VERTEX
  8
寸法
 10
-63.086078
 20
243.903192
  0
VERTEX
  8
寸法
 10
-23.351383
 20
243.903192
  0
SEQEND
  0
LINE
  8
寸法
  6
CONTINUOUS
 10
91.801255
 20
179.036242
 11
196.76197
 21
179.036242
  0
POLYLINE
  8
寸法
  6
CONTINUOUS
 66
     1
  0
VERTEX
  8
寸法
 10
196.76197
 20
179.036242
  0
VERTEX
  8
寸法
 10
196.76197
 20
207.455268
  0
VERTEX
  8
寸法
 10
91.801255
 20
207.455268
  0
VERTEX
  8
寸法
 10
91.801255
 20
179.036242
  0
SEQEND
  0
LINE
  8
寸法
  6
CONTINUOUS
 10
91.801255
 20
-30.053815
 11
196.76197
 21
-30.053815
  0
POLYLINE
  8
寸法
  6
CONTINUOUS
 66
     1
  0
VERTEX
  8
寸法
 10
196.76197
 20
-30.053815
  0
VERTEX
  8
寸法
 10
196.76197
 20
-1.63479
  0
VERTEX
  8
寸法
 10
91.801255
 20
-1.63479
  0
VERTEX
  8
寸法
 10
91.801255
 20
-30.053815
  0
SEQEND
  0
POLYLINE
  8
寸法
  6
CONTINUOUS
 66
     1
  0
VERTEX
  8
寸法
 10
-182.159245
 20
-145.931352
  0
VERTEX
  8
寸法
 10
-160.929407
 20
-145.931352
  0
VERTEX
  8
寸法
 10
-166.947315
 20
-143.591055
  0
SEQEND
  0
LINE
  8
別途部材
  6
CONTINUOUS
 10
51.282655
 20
170.7884
 11
51.282655
 21
149.84547
  0
LINE
  8
別途部材
  6
CONTINUOUS
 10
38.082655
 20
170.7884
 11
38.082655
 21
145.678023
  0
LINE
  8
別途部材
  6
CONTINUOUS
 10
51.282655
 20
149.84547
 11
113.062877
 21
149.84547
  0
LINE
  8
別途部材
  6
CONTINUOUS
 10
38.082655
 20
145.678023
 11
113.062877
 21
145.678023
  0
POLYLINE
  8
別途部材
  6
CONTINUOUS
 66
     1
  0
VERTEX
  8
別途部材
 10
-107.117345
 20
3.432993
  0
VERTEX
  8
別途部材
 10
-107.117345
 20
33.069545
  0
VERTEX
  8
別途部材
 10
113.062877
 20
33.069545
  0
SEQEND
  0
LINE
  8
別途部材
  6
CONTINUOUS
 10
-93.917345
 20
3.432993
 11
-93.917345
 21
28.902097
  0
LINE
  8
別途部材
  6
CONTINUOUS
 10
113.062877
 20
28.902097
 11
-93.917345
 21
28.902097
  0
LINE
  8
別途部材
  6
CONTINUOUS
 10
-22.909183
 20
-177.086603
 11
-22.909183
 21
-31.042518
  0
LINE
  8
別途部材
  6
CONTINUOUS
 10
-9.709183
 20
-177.086603
 11
-9.709183
 21
-31.042518
  0
LINE
  8
別途部材
  6
CONTINUOUS
 10
3.490818
 20
-177.086603
 11
3.490818
 21
-31.042518
  0
LINE
  8
別途部材
  6
CONTINUOUS
 10
16.690818
 20
-177.086603
 11
16.690818
 21
-31.042518
  0
LINE
  8
別途部材
  6
CONTINUOUS
 10
29.890818
 20
-177.086603
 11
29.890818
 21
-31.042518
  0
LINE
  8
別途部材
  6
CONTINUOUS
 10
43.090818
 20
-177.086603
 11
43.090818
 21
-31.042518
  0
LINE
  8
別途部材
  6
CONTINUOUS
 10
-146.717345
 20
176.7884
 11
-146.717345
 21
-2.567007
  0
LINE
  8
別途部材
  6
CONTINUOUS
 10
-133.517345
 20
176.7884
 11
-133.517345
 21
-2.567007
  0
LINE
  8
別途部材
  6
CONTINUOUS
 10
-49.309183
 20
-177.086603
 11
-49.309183
 21
-137.389578
  0
LINE
  8
別途部材
  6
CONTINUOUS
 10
-49.309183
 20
-137.389578
 11
-209.935973
 21
-137.389578
  0
POLYLINE
  8
別途部材
  6
CONTINUOUS
 66
     1
  0
VERTEX
  8
別途部材
 10
-36.109183
 20
-177.086603
  0
VERTEX
  8
別途部材
 10
-36.109183
 20
-129.180625
  0
VERTEX
  8
別途部材
 10
-209.935973
 20
-129.180625
  0
SEQEND
  0
POLYLINE
  8
別途部材
  6
CONTINUOUS
 66
     1
  0
VERTEX
  8
別途部材
 10
-80.717345
 20
3.432993
  0
VERTEX
  8
別途部材
 10
-80.717345
 20
25.141482
  0
VERTEX
  8
別途部材
 10
113.062877
 20
25.141482
  0
SEQEND
  0
POLYLINE
  8
別途部材
  6
CONTINUOUS
 66
     1
  0
VERTEX
  8
別途部材
 10
64.482655
 20
170.7884
  0
VERTEX
  8
別途部材
 10
64.482655
 20
153.93544
  0
VERTEX
  8
別途部材
 10
113.081135
 20
153.93544
  0
SEQEND
  0
INSERT
  2
*GRP_0001
  8
その他部品等
  6
CONTINUOUS
 10
0.0
 20
0.0
  0
ENDSEC
  0
EOF
