  0
SECTION
  2
HEADER
  9
$EXTMIN
 10
-210.0
 20
-148.5
  9
$EXTMAX
 10
210.0
 20
148.5
  9
$PDMODE
 70
    32
  9
$PDSIZE
 40
1.5
  9
$LTSCALE
 40
10.0
  0
ENDSEC
  0
SECTION
  2
TABLES
  0
TABLE
  2
LTYPE
 70
    15
  0
LTYPE
  2
CONTINUOUS
 70
    64
  3
実線
 72
    65
 73
     0
 40
0.0
  0
LTYPE
  2
DASHED
 70
    64
  3
破線A
 72
    65
 73
     2
 40
0.6
 49
0.4
 49
-0.2
  0
LTYPE
  2
DASHEDX2
 70
    64
  3
破線B
 72
    65
 73
     2
 40
1.3
 49
0.9
 49
-0.4
  0
LTYPE
  2
DASHDOT
 70
    64
  3
１点鎖線A
 72
    65
 73
     4
 40
0.5375
 49
0.375
 49
-0.05
 49
0.0625
 49
-0.05
  0
LTYPE
  2
DASHDOTX2
 70
    64
  3
１点鎖線B
 72
    65
 73
     4
 40
1.075
 49
0.75
 49
-0.1
 49
0.125
 49
-0.1
  0
LTYPE
  2
DIVIDE2
 70
    64
  3
２点鎖線A
 72
    65
 73
     6
 40
0.5125
 49
0.3
 49
-0.0375
 49
0.05
 49
-0.0375
 49
0.05
 49
-0.0375
  0
LTYPE
  2
DIVIDE
 70
    64
  3
２点鎖線B
 72
    65
 73
     6
 40
1.05
 49
0.55
 49
-0.1
 49
0.1
 49
-0.1
 49
0.1
 49
-0.1
  0
LTYPE
  2
DOT
 70
    64
  3
点線A
 72
    65
 73
     2
 40
0.1125
 49
0.0625
 49
-0.05
  0
LTYPE
  2
DOTX2
 70
    64
  3
点線B
 72
    65
 73
     2
 40
0.275
 49
0.15
 49
-0.125
  0
LTYPE
  2
CONTINUOUS
 70
    64
  3
実線
 72
    65
 73
     0
 40
0.0
  0
LTYPE
  2
CONTINUOUS
 70
    64
  3
実線
 72
    65
 73
     0
 40
0.0
  0
LTYPE
  2
CONTINUOUS
 70
    64
  3
実線
 72
    65
 73
     0
 40
0.0
  0
LTYPE
  2
CONTINUOUS
 70
    64
  3
実線
 72
    65
 73
     0
 40
0.0
  0
LTYPE
  2
CONTINUOUS
 70
    64
  3
実線
 72
    65
 73
     0
 40
0.0
  0
LTYPE
  2
CONTINUOUS
 70
    64
  3
実線
 72
    65
 73
     0
 40
0.0
  0
ENDTAB
  0
TABLE
  2
LAYER
 70
    34
  0
LAYER
  2
通り芯
 70
     0
 62
    15
  6
CONTINUOUS
  0
LAYER
  2
補助線
 70
     0
 62
    16
  6
DOT
  0
LAYER
  2
躯体
 70
     0
 62
    31
  6
CONTINUOUS
  0
LAYER
  2
型材
 70
     0
 62
    32
  6
CONTINUOUS
  0
LAYER
  2
型材断面
 70
     0
 62
    47
  6
CONTINUOUS
  0
LAYER
  2
ガラス
 70
     0
 62
    48
  6
CONTINUOUS
  0
LAYER
  2
ゴム等
 70
     0
 62
    63
  6
CONTINUOUS
  0
LAYER
  2
ボルト／ビス
 70
     0
 62
    64
  6
CONTINUOUS
  0
LAYER
  2
文字
 70
     0
 62
    79
  6
CONTINUOUS
  0
LAYER
  2
寸法
 70
     0
 62
    80
  6
CONTINUOUS
  0
LAYER
  2
ﾊｯﾁﾝｸﾞ
 70
     0
 62
    95
  6
CONTINUOUS
  0
LAYER
  2
別途部材
 70
     0
 62
    96
  6
CONTINUOUS
  0
LAYER
  2
曲げ物
 70
     0
 62
   111
  6
CONTINUOUS
  0
LAYER
  2
鉄骨等
 70
     0
 62
   112
  6
CONTINUOUS
  0
LAYER
  2
St
 70
     0
 62
   127
  6
CONTINUOUS
  0
LAYER
  2
その他部品等
 70
     0
 62
   128
  6
CONTINUOUS
  0
LAYER
  2
ｶﾞｽｹｯﾄ
 70
     0
 62
   143
  6
CONTINUOUS
  0
LAYER
  2
ｽｹｯﾁ
 70
     0
 62
    14
  6
CONTINUOUS
  0
LAYER
  2
0
 70
     0
 62
    17
  6
CONTINUOUS
  0
LAYER
  2
1
 70
     0
 62
    30
  6
CONTINUOUS
  0
LAYER
  2
4
 70
     0
 62
    33
  6
CONTINUOUS
  0
LAYER
  2
ﾚｲﾔ3
 70
     0
 62
    46
  6
CONTINUOUS
  0
LAYER
  2
外形線
 70
     0
 62
    49
  6
CONTINUOUS
  0
LAYER
  2
部品
 70
     0
 62
    14
  6
CONTINUOUS
  0
LAYER
  2
サッシ芯
 70
     0
 62
    17
  6
DASHDOTX2
  0
LAYER
  2
寸法線
 70
     0
 62
    62
  6
CONTINUOUS
  0
LAYER
  2
姿図外形線
 70
     0
 62
    65
  6
CONTINUOUS
  0
LAYER
  2
姿補助線
 70
     0
 62
    30
  6
CONTINUOUS
  0
LAYER
  2
透視線
 70
     0
 62
    78
  6
DOT
  0
LAYER
  2
用紙
 70
     0
 62
    81
  6
CONTINUOUS
  0
LAYER
  2
実線図枠
 70
     0
 62
    94
  6
CONTINUOUS
  0
LAYER
  2
補助図枠
 70
     0
 62
    97
  6
CONTINUOUS
  0
LAYER
  2
建具記号
 70
     0
 62
   110
  6
CONTINUOUS
  0
LAYER
  2
補助文字
 70
     0
 62
   113
  6
CONTINUOUS
  0
ENDTAB
  0
TABLE
  2
STYLE
 70
    10
  0
STYLE
  2
STANDARD
 70
     0
 40
1.0
 41
1.0
 42
1.0
 50
0.0
 71
     0
  3
TXT
  4
BIGFONT
  0
STYLE
  2
TATE
 70
     4
 40
1.0
 41
1.0
 42
1.0
 50
0.0
 71
     0
  3
TXT
  4
BIGFONT
  0
STYLE
  2
TextStyle03
 70
     0
 40
1.0
 41
1.0
 42
1.0
 50
0.0
 71
     0
  3
MONOTXT
  4
BIGFONT
  0
STYLE
  2
TextStyle04
 70
     0
 40
1.0
 41
1.0
 42
1.0
 50
0.0
 71
     0
  3
MONOTXT
  4
BIGFONT
  0
STYLE
  2
TextStyle05
 70
     0
 40
1.0
 41
1.0
 42
1.0
 50
0.0
 71
     0
  3
MONOTXT
  4
BIGFONT
  0
STYLE
  2
TextStyle06
 70
     0
 40
1.0
 41
1.0
 42
1.0
 50
0.0
 71
     0
  3
MONOTXT
  4
BIGFONT
  0
STYLE
  2
TextStyle07
 70
     0
 40
1.0
 41
1.0
 42
1.0
 50
0.0
 71
     0
  3
MONOTXT
  4
BIGFONT
  0
STYLE
  2
TextStyle08
 70
     0
 40
1.0
 41
1.0
 42
1.0
 50
0.0
 71
     0
  3
MONOTXT
  4
BIGFONT
  0
STYLE
  2
TextStyle09
 70
     0
 40
1.0
 41
1.0
 42
1.0
 50
0.0
 71
     0
  3
MONOTXT
  4
BIGFONT
  0
STYLE
  2
TextStyle10
 70
     0
 40
1.0
 41
1.0
 42
1.0
 50
0.0
 71
     0
  3
MONOTXT
  4
BIGFONT
  0
ENDTAB
  0
ENDSEC
  0
SECTION
  2
BLOCKS
  0
BLOCK
  2
*GRP_0001
 70
    65
 10
0.0
 20
0.0
  0
LINE
  8
型材断面
  6
CONTINUOUS
 10
195.0
 20
133.5
 11
195.0
 21
-133.5
  0
LINE
  8
型材断面
  6
CONTINUOUS
 10
195.0
 20
-133.5
 11
-185.0
 21
-133.5
  0
LINE
  8
型材断面
  6
CONTINUOUS
 10
-185.0
 20
-133.5
 11
-185.0
 21
133.5
  0
LINE
  8
型材断面
  6
CONTINUOUS
 10
195.0
 20
133.5
 11
-185.0
 21
133.5
  0
LINE
  8
型材断面
  6
CONTINUOUS
 10
145.0
 20
-133.5
 11
145.0
 21
-118.5
  0
LINE
  8
型材断面
  6
CONTINUOUS
 10
195.0
 20
-118.5
 11
145.0
 21
-118.5
  0
ENDBLK
  0
BLOCK
  2
*GRP_0002
 70
    65
 10
0.0
 20
0.0
  0
LINE
  8
別途部材
  6
CONTINUOUS
 62
    96
 10
125.87322
 20
62.500828
 11
125.87322
 21
62.400828
  0
LINE
  8
別途部材
  6
CONTINUOUS
 62
    96
 10
123.77214
 20
62.600828
 11
123.841813
 21
63.931632
  0
LINE
  8
別途部材
  6
CONTINUOUS
 62
    96
 10
124.389885
 20
63.940827
 11
124.27322
 21
64.207495
  0
LINE
  8
別途部材
  6
CONTINUOUS
 62
    96
 10
124.289885
 20
63.919912
 11
124.222365
 21
64.074245
  0
LINE
  8
別途部材
  6
CONTINUOUS
 62
    96
 10
123.743043
 20
63.95775
 11
123.873493
 21
64.217952
  0
LINE
  8
別途部材
  6
CONTINUOUS
 62
    96
 10
123.841813
 20
63.931632
 11
123.973972
 21
64.195245
  0
LINE
  8
別途部材
  6
CONTINUOUS
 62
    96
 10
124.009575
 20
64.130363
 11
123.945927
 21
64.053233
  0
LINE
  8
別途部材
  6
DASHDOTX2
 62
    96
 10
124.07322
 20
64.207495
 11
123.759735
 21
64.207495
  0
LINE
  8
別途部材
  6
DASHDOTX2
 62
    96
 10
124.07322
 20
64.207495
 11
124.40368
 21
64.207495
  0
LINE
  8
別途部材
  6
DASHDOTX2
 62
    96
 10
124.07322
 20
64.207495
 11
124.07322
 21
63.944023
  0
LINE
  8
別途部材
  6
DASHDOTX2
 62
    96
 10
124.07322
 20
64.207495
 11
124.07322
 21
64.485805
  0
LINE
  8
別途部材
  6
CONTINUOUS
 62
    96
 10
124.289885
 20
62.400828
 11
124.289885
 21
63.919912
  0
LINE
  8
別途部材
  6
CONTINUOUS
 62
    96
 10
124.389885
 20
62.500828
 11
124.389885
 21
63.940827
  0
LINE
  8
別途部材
  6
CONTINUOUS
 62
    96
 10
122.538805
 20
62.70083
 11
123.677238
 21
62.70083
  0
LINE
  8
別途部材
  6
CONTINUOUS
 62
    96
 10
122.538805
 20
62.600828
 11
122.538805
 21
62.70083
  0
LINE
  8
別途部材
  6
CONTINUOUS
 62
    96
 10
122.538805
 20
62.600828
 11
123.77214
 21
62.600828
  0
CIRCLE
  8
別途部材
  6
CONTINUOUS
 62
    96
 10
124.07322
 20
64.207495
 40
0.1
  0
ARC
  8
別途部材
  6
CONTINUOUS
 62
    96
 10
124.073215
 20
64.207497
 40
0.2
 50
218.780606
 51
537.001556
  0
LINE
  8
別途部材
  6
CONTINUOUS
 62
    96
 10
124.289885
 20
62.400828
 11
125.87322
 21
62.400828
  0
LINE
  8
別途部材
  6
CONTINUOUS
 62
    96
 10
124.389885
 20
62.500828
 11
125.87322
 21
62.500828
  0
LINE
  8
別途部材
  6
CONTINUOUS
 62
    96
 10
123.743043
 20
63.95775
 11
123.677238
 21
62.70083
  0
ENDBLK
  0
BLOCK
  2
*GRP_0003
 70
    65
 10
0.0
 20
0.0
  0
LINE
  8
型材断面
  6
DOT
 62
    47
 10
121.980198
 20
64.014202
 11
121.980198
 21
64.028345
  0
LINE
  8
型材断面
  6
DOT
 62
    47
 10
121.980198
 20
64.014202
 11
121.99434
 21
64.014202
  0
LINE
  8
型材断面
  6
DOT
 62
    47
 10
122.434325
 20
63.560078
 11
122.434325
 21
63.574217
  0
LINE
  8
型材断面
  6
DOT
 62
    47
 10
122.434325
 20
63.560078
 11
122.448465
 21
63.560078
  0
LINE
  8
型材断面
  6
DOT
 62
    47
 10
122.736813
 20
63.271728
 11
122.448465
 21
63.560078
  0
LINE
  8
型材断面
  6
DOT
 62
    47
 10
122.434325
 20
63.574217
 11
121.99434
 21
64.014202
  0
LINE
  8
型材断面
  6
DOT
 62
    47
 10
123.679487
 20
64.120135
 11
123.797325
 21
64.002297
  0
LINE
  8
型材断面
  6
DOT
 62
    47
 10
122.736813
 20
63.271728
 11
123.684215
 21
64.124863
  0
LINE
  8
型材断面
  6
DOT
 10
123.679487
 20
64.120135
 11
110.951545
 21
51.392193
  0
LINE
  8
型材断面
  6
DOT
 62
    47
 10
123.797325
 20
64.002297
 11
111.069383
 21
51.274358
  0
LINE
  8
型材断面
  6
DOT
 10
122.736813
 20
63.271728
 11
110.90441
 21
51.439328
  0
LINE
  8
型材断面
  6
DOT
 62
    47
 10
98.329535
 20
40.363543
 11
98.315393
 21
40.363543
  0
LINE
  8
型材断面
  6
DOT
 62
    47
 10
98.329535
 20
40.363543
 11
98.329535
 21
40.349397
  0
LINE
  8
型材断面
  6
DOT
 62
    47
 10
98.783662
 20
39.909415
 11
98.76952
 21
39.909415
  0
LINE
  8
型材断面
  6
DOT
 62
    47
 10
98.783662
 20
39.909415
 11
98.783662
 21
39.895272
  0
LINE
  8
型材断面
  6
DOT
 62
    47
 10
99.07201
 20
39.606925
 11
98.783662
 21
39.895272
  0
LINE
  8
型材断面
  6
DOT
 62
    47
 10
98.76952
 20
39.909415
 11
98.329535
 21
40.349397
  0
LINE
  8
型材断面
  6
DOT
 62
    47
 10
98.223605
 20
38.66425
 11
98.34144
 21
38.546415
  0
LINE
  8
型材断面
  6
DOT
 62
    47
 10
99.07201
 20
39.606925
 11
98.218875
 21
38.659522
  0
LINE
  8
型材断面
  6
DOT
 10
98.223605
 20
38.66425
 11
110.951545
 21
51.392193
  0
LINE
  8
型材断面
  6
DOT
 62
    47
 10
98.34144
 20
38.546415
 11
111.069383
 21
51.274358
  0
LINE
  8
型材断面
  6
DOT
 10
99.07201
 20
39.606925
 11
110.90441
 21
51.439328
  0
LINE
  8
型材断面
  6
DOT
 62
    47
 10
121.980198
 20
64.014202
 11
121.980198
 21
64.028345
  0
LINE
  8
型材断面
  6
DOT
 62
    47
 10
121.980198
 20
64.014202
 11
121.99434
 21
64.014202
  0
LINE
  8
型材断面
  6
DOT
 62
    47
 10
122.434325
 20
63.560078
 11
122.434325
 21
63.574217
  0
LINE
  8
型材断面
  6
DOT
 62
    47
 10
122.434325
 20
63.560078
 11
122.448465
 21
63.560078
  0
LINE
  8
型材断面
  6
DOT
 62
    47
 10
122.736813
 20
63.271728
 11
122.448465
 21
63.560078
  0
LINE
  8
型材断面
  6
DOT
 62
    47
 10
122.434325
 20
63.574217
 11
121.99434
 21
64.014202
  0
LINE
  8
型材断面
  6
DOT
 62
    47
 10
122.736813
 20
63.271728
 11
123.684215
 21
64.124863
  0
LINE
  8
型材断面
  6
DOT
 10
123.679487
 20
64.120135
 11
110.951545
 21
51.392193
  0
LINE
  8
型材断面
  6
DOT
 10
122.736813
 20
63.271728
 11
110.90441
 21
51.439328
  0
LINE
  8
型材断面
  6
DOT
 62
    47
 10
98.329535
 20
40.363543
 11
98.315393
 21
40.363543
  0
LINE
  8
型材断面
  6
DOT
 62
    47
 10
98.329535
 20
40.363543
 11
98.329535
 21
40.349397
  0
LINE
  8
型材断面
  6
DOT
 62
    47
 10
98.783662
 20
39.909415
 11
98.76952
 21
39.909415
  0
LINE
  8
型材断面
  6
DOT
 62
    47
 10
98.783662
 20
39.909415
 11
98.783662
 21
39.895272
  0
LINE
  8
型材断面
  6
DOT
 62
    47
 10
99.07201
 20
39.606925
 11
98.783662
 21
39.895272
  0
LINE
  8
型材断面
  6
DOT
 62
    47
 10
98.76952
 20
39.909415
 11
98.329535
 21
40.349397
  0
LINE
  8
型材断面
  6
DOT
 62
    47
 10
99.07201
 20
39.606925
 11
98.218875
 21
38.659522
  0
LINE
  8
型材断面
  6
DOT
 10
98.223605
 20
38.66425
 11
110.951545
 21
51.392193
  0
LINE
  8
型材断面
  6
DOT
 10
99.07201
 20
39.606925
 11
110.90441
 21
51.439328
  0
LINE
  8
型材断面
  6
DOT
 62
    47
 10
120.938385
 20
65.503852
 11
120.3727
 21
66.069537
  0
ARC
  8
型材断面
  6
DOT
 10
120.365522
 20
66.156645
 40
0.1
 50
45.0
 51
135.0
  0
LINE
  8
型材断面
  6
DOT
 62
    47
 10
120.436235
 20
66.227357
 11
120.483375
 21
66.180215
  0
LINE
  8
型材断面
  6
DOT
 62
    47
 10
120.450418
 20
65.99152
 11
121.43321
 21
65.008727
  0
LINE
  8
型材断面
  6
DOT
 62
    47
 10
121.43321
 20
65.008727
 11
109.38411
 21
52.959627
  0
LINE
  8
型材断面
  6
DOT
 62
    47
 10
120.483375
 20
66.180215
 11
108.32345
 21
54.020288
  0
LINE
  8
型材断面
  6
DOT
 62
    47
 10
120.294815
 20
66.227357
 11
108.205597
 21
54.13814
  0
LINE
  8
型材断面
  6
DOT
 62
    47
 10
96.839885
 20
41.405352
 11
96.2742
 21
41.97104
  0
ARC
  8
型材断面
  6
DOT
 10
96.18709
 20
41.978213
 40
0.1
 50
135.0
 51
225.0
  0
LINE
  8
型材断面
  6
DOT
 62
    47
 10
96.116382
 20
41.907503
 11
96.163522
 21
41.860362
  0
LINE
  8
型材断面
  6
DOT
 62
    47
 10
96.35222
 20
41.89332
 11
97.33501
 21
40.91053
  0
LINE
  8
型材断面
  6
DOT
 62
    47
 10
97.33501
 20
40.91053
 11
109.38411
 21
52.959627
  0
LINE
  8
型材断面
  6
DOT
 62
    47
 10
96.163522
 20
41.860362
 11
108.32345
 21
54.020288
  0
LINE
  8
型材断面
  6
DOT
 62
    47
 10
96.116382
 20
42.048922
 11
108.205597
 21
54.13814
  0
LINE
  8
型材断面
  6
DOT
 62
    47
 10
121.980198
 20
64.028345
 11
121.21651
 21
64.79203
  0
LINE
  8
型材断面
  6
DOT
 62
    47
 10
121.980198
 20
64.028345
 11
121.21651
 21
64.79203
  0
LINE
  8
型材断面
  6
DOT
 62
    47
 10
98.315393
 20
40.363543
 11
97.551707
 21
41.127227
  0
LINE
  8
型材断面
  6
DOT
 62
    47
 10
98.315393
 20
40.363543
 11
97.551707
 21
41.127227
  0
ENDBLK
  0
BLOCK
  2
*DIM_0004
 70
    65
 10
0.0
 20
0.0
  0
LINE
  8
寸法
  6
CONTINUOUS
 10
121.59001
 20
27.133922
 11
79.0648
 21
27.133922
  0
LINE
  8
寸法
  6
CONTINUOUS
 10
79.0648
 20
30.867282
 11
79.0648
 21
27.133922
  0
POINT
  8
寸法
 10
79.0648
 20
30.867282
  0
POINT
  8
寸法
 10
79.0648
 20
27.133922
  0
TEXT
  7
TextStyle03
  8
寸法
  6
CONTINUOUS
 10
78.675
 20
26.5625
  1
112
 40
3.0
 50
90.0
 72
     5
 11
78.675
 21
31.4375
  0
ENDBLK
  0
BLOCK
  2
*DIM_0005
 70
    65
 10
0.0
 20
0.0
  0
LINE
  8
寸法
  6
CONTINUOUS
 10
121.59001
 20
64.600645
 11
79.0648
 21
64.600645
  0
LINE
  8
寸法
  6
CONTINUOUS
 10
79.0648
 20
60.867282
 11
79.0648
 21
64.600645
  0
POINT
  8
寸法
 10
79.0648
 20
60.867282
  0
POINT
  8
寸法
 10
79.0648
 20
64.600645
  0
TEXT
  7
TextStyle03
  8
寸法
  6
CONTINUOUS
 10
78.675
 20
60.2875
  1
112
 40
3.0
 50
90.0
 72
     5
 11
78.675
 21
65.1625
  0
ENDBLK
  0
BLOCK
  2
*DIM_0006
 70
    65
 10
0.0
 20
0.0
  0
LINE
  8
寸法
  6
CONTINUOUS
 10
127.09001
 20
22.133922
 11
127.09001
 21
15.337903
  0
LINE
  8
寸法
  6
CONTINUOUS
 10
119.973225
 20
23.851253
 11
119.973225
 21
15.337903
  0
LINE
  8
寸法
  6
CONTINUOUS
 10
127.09001
 20
15.337903
 11
119.973225
 21
15.337903
  0
POINT
  8
寸法
 10
127.09001
 20
15.337903
  0
POINT
  8
寸法
 10
119.973225
 20
15.337903
  0
TEXT
  7
TextStyle03
  8
寸法
  6
CONTINUOUS
 10
119.325
 20
11.475
  1
213.5
 40
3.0
 72
     5
 11
127.575
 21
11.475
  0
ENDBLK
  0
BLOCK
  2
*DIM_0007
 70
    65
 10
0.0
 20
0.0
  0
LINE
  8
寸法
  6
CONTINUOUS
 10
79.0648
 20
30.867282
 11
79.0648
 21
60.867282
  0
POINT
  8
寸法
 10
79.0648
 20
30.867282
  0
POINT
  8
寸法
 10
79.0648
 20
60.867282
  0
TEXT
  7
TextStyle03
  8
寸法
  6
CONTINUOUS
 10
78.675
 20
34.975
  1
呼称寸法　900
 40
3.0
 50
90.0
 72
     5
 11
78.675
 21
56.725
  0
ENDBLK
  0
BLOCK
  2
*DIM_0008
 70
    65
 10
0.0
 20
0.0
  0
LINE
  8
寸法
  6
CONTINUOUS
 10
1.343088
 20
-71.841245
 11
1.343088
 21
-42.588472
  0
LINE
  8
寸法
  6
CONTINUOUS
 10
-2.390272
 20
-42.588472
 11
1.343088
 21
-42.588472
  0
POINT
  8
寸法
 10
-2.390272
 20
-42.588472
  0
POINT
  8
寸法
 10
1.343088
 20
-42.588472
  0
TEXT
  7
TextStyle03
  8
寸法
  6
CONTINUOUS
 10
-2.9625
 20
-42.225
  1
112
 40
3.0
 72
     5
 11
1.9125
 21
-42.225
  0
ENDBLK
  0
BLOCK
  2
*DIM_0009
 70
    65
 10
0.0
 20
0.0
  0
LINE
  8
寸法
  6
CONTINUOUS
 10
6.343088
 20
-73.191245
 11
17.824165
 21
-73.191245
  0
LINE
  8
寸法
  6
CONTINUOUS
 10
4.60877
 20
-66.07446
 11
17.824165
 21
-66.07446
  0
LINE
  8
寸法
  6
CONTINUOUS
 10
17.824165
 20
-73.191245
 11
17.824165
 21
-66.07446
  0
POINT
  8
寸法
 10
17.824165
 20
-73.191245
  0
POINT
  8
寸法
 10
17.824165
 20
-66.07446
  0
TEXT
  7
TextStyle03
  8
寸法
  6
CONTINUOUS
 10
20.8
 20
-73.775
  1
213.5
 40
3.0
 50
90.0
 72
     5
 11
20.8
 21
-65.525
  0
ENDBLK
  0
BLOCK
  2
*DIM_0010
 70
    65
 10
0.0
 20
0.0
  0
LINE
  8
寸法
  6
CONTINUOUS
 10
-122.790297
 20
-71.841245
 11
-122.790297
 21
-42.588472
  0
LINE
  8
寸法
  6
CONTINUOUS
 10
-119.056935
 20
-42.588472
 11
-122.790297
 21
-42.588472
  0
POINT
  8
寸法
 10
-119.056935
 20
-42.588472
  0
POINT
  8
寸法
 10
-122.790297
 20
-42.588472
  0
TEXT
  7
TextStyle03
  8
寸法
  6
CONTINUOUS
 10
-123.3625
 20
-42.225
  1
112
 40
3.0
 72
     5
 11
-118.4875
 21
-42.225
  0
ENDBLK
  0
BLOCK
  2
*DIM_0011
 70
    65
 10
0.0
 20
0.0
  0
LINE
  8
寸法
  6
CONTINUOUS
 10
-119.056935
 20
-42.588472
 11
-2.390272
 21
-42.588472
  0
POINT
  8
寸法
 10
-119.056935
 20
-42.588472
  0
POINT
  8
寸法
 10
-2.390272
 20
-42.588472
  0
TEXT
  7
TextStyle03
  8
寸法
  6
CONTINUOUS
 10
-72.44375
 20
-42.225
  1
呼称寸法　3500
 40
3.0
 72
     5
 11
-49.00625
 21
-42.225
  0
ENDBLK
  0
BLOCK
  2
*DIM_0012
 70
    65
 10
0.0
 20
0.0
  0
LINE
  8
寸法
  6
BYBLOCK
 62
     0
 10
-102.390272
 20
27.237153
 11
-102.390272
 21
22.053908
  0
LINE
  8
寸法
  6
BYBLOCK
 62
     0
 10
-19.056938
 20
27.237153
 11
-19.056938
 21
22.053908
  0
LINE
  8
寸法
  6
BYBLOCK
 62
     0
 10
-102.390272
 20
22.053908
 11
-19.056938
 21
22.053908
  0
POINT
  8
寸法
 62
     0
 10
-102.390272
 20
22.053908
  0
POINT
  8
寸法
 62
     0
 10
-19.056938
 20
22.053908
  0
TEXT
  7
TextStyle03
  8
寸法
  6
CONTINUOUS
 62
     0
 10
-64.00625
 20
22.425
  1
2500
 40
3.0
 72
     5
 11
-57.44375
 21
22.425
  0
ENDBLK
  0
BLOCK
  2
*DIM_0013
 70
    65
 10
0.0
 20
0.0
  0
LINE
  8
寸法
  6
BYBLOCK
 62
     0
 10
-4.390272
 20
25.26047
 11
-4.390272
 21
22.235427
  0
LINE
  8
寸法
  6
BYBLOCK
 62
     0
 10
-2.390272
 20
22.235427
 11
-4.390272
 21
22.235427
  0
POINT
  8
寸法
 62
     0
 10
-2.390272
 20
22.235427
  0
POINT
  8
寸法
 62
     0
 10
-4.390272
 20
22.235427
  0
TEXT
  7
TextStyle03
  8
寸法
  6
CONTINUOUS
 62
     0
 10
-6.26875
 20
18.45
  1
60
 40
3.0
 72
     5
 11
-3.08125
 21
18.45
  0
ENDBLK
  0
BLOCK
  2
*DIM_0014
 70
    65
 10
0.0
 20
0.0
  0
LINE
  8
寸法
  6
BYBLOCK
 62
     0
 10
-117.056938
 20
25.26047
 11
-117.056938
 21
22.235427
  0
LINE
  8
寸法
  6
BYBLOCK
 62
     0
 10
-119.056938
 20
22.235427
 11
-117.056938
 21
22.235427
  0
POINT
  8
寸法
 62
     0
 10
-119.056938
 20
22.235427
  0
POINT
  8
寸法
 62
     0
 10
-117.056938
 20
22.235427
  0
TEXT
  7
TextStyle03
  8
寸法
  6
CONTINUOUS
 62
     0
 10
-118.34375
 20
18.45
  1
60
 40
3.0
 72
     5
 11
-115.15625
 21
18.45
  0
ENDBLK
  0
BLOCK
  2
*DIM_0015
 70
    65
 10
0.0
 20
0.0
  0
LINE
  8
寸法
  6
BYBLOCK
 62
     0
 10
-122.05694
 20
55.867282
 11
-135.349777
 21
55.867282
  0
LINE
  8
寸法
  6
BYBLOCK
 62
     0
 10
-122.05694
 20
35.867282
 11
-135.349777
 21
35.867282
  0
LINE
  8
寸法
  6
BYBLOCK
 62
     0
 10
-135.349777
 20
55.867282
 11
-135.349777
 21
35.867282
  0
POINT
  8
寸法
 62
     0
 10
-135.349777
 20
55.867282
  0
POINT
  8
寸法
 62
     0
 10
-135.349777
 20
35.867282
  0
TEXT
  7
TextStyle03
  8
寸法
  6
CONTINUOUS
 62
     0
 10
-135.725
 20
43.4125
  1
600
 40
3.0
 50
90.0
 72
     5
 11
-135.725
 21
48.2875
  0
ENDBLK
  0
BLOCK
  2
*DIM_0016
 70
    65
 10
0.0
 20
0.0
  0
LINE
  8
寸法
  6
BYBLOCK
 62
     0
 10
-114.056938
 20
63.867282
 11
-114.056938
 21
92.975355
  0
LINE
  8
寸法
  6
BYBLOCK
 62
     0
 10
-87.390272
 20
63.867282
 11
-87.390272
 21
92.975355
  0
LINE
  8
寸法
  6
BYBLOCK
 62
     0
 10
-114.056938
 20
92.975355
 11
-87.390272
 21
92.975355
  0
POINT
  8
寸法
 62
     0
 10
-114.056938
 20
92.975355
  0
POINT
  8
寸法
 62
     0
 10
-87.390272
 20
92.975355
  0
TEXT
  7
TextStyle03
  8
寸法
  6
CONTINUOUS
 62
     0
 10
-103.1625
 20
93.35
  1
800
 40
3.0
 72
     5
 11
-98.2875
 21
93.35
  0
ENDBLK
  0
BLOCK
  2
*DIM_0017
 70
    65
 10
0.0
 20
0.0
  0
LINE
  8
寸法
  6
BYBLOCK
 62
     0
 10
-60.723605
 20
63.867282
 11
-60.723605
 21
92.975355
  0
LINE
  8
寸法
  6
BYBLOCK
 62
     0
 10
-87.390272
 20
92.975355
 11
-60.723605
 21
92.975355
  0
POINT
  8
寸法
 62
     0
 10
-60.723605
 20
92.975355
  0
TEXT
  7
TextStyle03
  8
寸法
  6
CONTINUOUS
 62
     0
 10
-76.5125
 20
93.35
  1
800
 40
3.0
 72
     5
 11
-71.6375
 21
93.35
  0
ENDBLK
  0
BLOCK
  2
*DIM_0018
 70
    65
 10
0.0
 20
0.0
  0
LINE
  8
寸法
  6
BYBLOCK
 62
     0
 10
-34.056938
 20
63.867282
 11
-34.056938
 21
92.975355
  0
LINE
  8
寸法
  6
BYBLOCK
 62
     0
 10
-60.723605
 20
92.975355
 11
-34.056938
 21
92.975355
  0
POINT
  8
寸法
 62
     0
 10
-34.056938
 20
92.975355
  0
TEXT
  7
TextStyle03
  8
寸法
  6
CONTINUOUS
 62
     0
 10
-49.8375
 20
93.35
  1
800
 40
3.0
 72
     5
 11
-44.9625
 21
93.35
  0
ENDBLK
  0
BLOCK
  2
*DIM_0019
 70
    65
 10
0.0
 20
0.0
  0
LINE
  8
寸法
  6
BYBLOCK
 62
     0
 10
-7.390272
 20
63.867282
 11
-7.390272
 21
92.975355
  0
LINE
  8
寸法
  6
BYBLOCK
 62
     0
 10
-34.056938
 20
92.975355
 11
-7.390272
 21
92.975355
  0
POINT
  8
寸法
 62
     0
 10
-7.390272
 20
92.975355
  0
TEXT
  7
TextStyle03
  8
寸法
  6
CONTINUOUS
 62
     0
 10
-23.1625
 20
93.35
  1
800
 40
3.0
 72
     5
 11
-18.2875
 21
93.35
  0
ENDBLK
  0
BLOCK
  2
*DIM_0020
 70
    65
 10
0.0
 20
0.0
  0
LINE
  8
寸法
  6
CONTINUOUS
 10
128.751433
 20
-52.94031
 11
128.751433
 21
-41.706868
  0
LINE
  8
寸法
  6
CONTINUOUS
 10
90.528097
 20
-52.94031
 11
90.528097
 21
-41.706868
  0
LINE
  8
寸法
  6
CONTINUOUS
 10
128.751433
 20
-41.706868
 11
90.528097
 21
-41.706868
  0
POINT
  8
寸法
 10
128.751433
 20
-41.706868
  0
POINT
  8
寸法
 10
90.528097
 20
-41.706868
  0
TEXT
  7
TextStyle03
  8
寸法
  6
CONTINUOUS
 10
104.65625
 20
-41.35
  1
1146.7
 40
3.0
 72
     5
 11
114.59375
 21
-41.35
  0
ENDBLK
  0
BLOCK
  2
*DIM_0021
 70
    65
 10
0.0
 20
0.0
  0
LINE
  8
寸法
  6
CONTINUOUS
 10
133.751433
 20
-57.94031
 11
144.525288
 21
-57.94031
  0
LINE
  8
寸法
  6
CONTINUOUS
 10
133.751433
 20
-88.106977
 11
144.525288
 21
-88.106977
  0
LINE
  8
寸法
  6
CONTINUOUS
 10
144.525288
 20
-57.94031
 11
144.525288
 21
-88.106977
  0
POINT
  8
寸法
 10
144.525288
 20
-57.94031
  0
POINT
  8
寸法
 10
144.525288
 20
-88.106977
  0
TEXT
  7
TextStyle03
  8
寸法
  6
CONTINUOUS
 10
144.15
 20
-75.4625
  1
905
 40
3.0
 50
90.0
 72
     5
 11
144.15
 21
-70.5875
  0
ENDBLK
  0
ENDSEC
  0
SECTION
  2
ENTITIES
  0
POLYLINE
  8
通り芯
  6
CONTINUOUS
 66
     1
 70
     1
  0
VERTEX
  8
通り芯
 10
-210.0
 20
-148.5
  0
VERTEX
  8
通り芯
 10
210.0
 20
-148.5
  0
VERTEX
  8
通り芯
 10
210.0
 20
148.5
  0
VERTEX
  8
通り芯
 10
-210.0
 20
148.5
  0
SEQEND
  0
INSERT
  2
*GRP_0001
  8
型材断面
  6
CONTINUOUS
 10
0.0
 20
0.0
  0
LINE
  8
型材断面
  6
DASHDOT
 10
-60.723605
 20
-77.528333
 11
-60.723605
 21
60.867282
  0
LINE
  8
型材断面
  6
CONTINUOUS
 62
    47
 10
124.023228
 20
61.913977
 11
124.023228
 21
62.63419
  0
LINE
  8
型材断面
  6
CONTINUOUS
 62
    47
 10
122.729908
 20
62.590827
 11
122.719908
 21
62.600828
  0
LINE
  8
型材断面
  6
CONTINUOUS
 62
    47
 10
122.729908
 20
62.590827
 11
122.739907
 21
62.600828
  0
LINE
  8
型材断面
  6
CONTINUOUS
 62
    47
 10
123.37214
 20
62.590827
 11
123.36214
 21
62.600828
  0
LINE
  8
型材断面
  6
CONTINUOUS
 62
    47
 10
123.37214
 20
62.590827
 11
123.38214
 21
62.600828
  0
LINE
  8
型材断面
  6
CONTINUOUS
 62
    47
 10
123.789925
 20
62.600828
 11
123.38214
 21
62.600828
  0
LINE
  8
型材断面
  6
CONTINUOUS
 62
    47
 10
123.36214
 20
62.600828
 11
122.739907
 21
62.600828
  0
LINE
  8
型材断面
  6
CONTINUOUS
 62
    47
 10
127.423345
 20
64.100653
 11
127.09001
 21
64.100653
  0
LINE
  8
型材断面
  6
CONTINUOUS
 62
    47
 10
126.423343
 20
62.167492
 11
126.423343
 21
61.570645
  0
LINE
  8
型材断面
  6
CONTINUOUS
 62
    47
 10
126.42333
 20
62.400645
 11
126.59001
 21
64.600645
  0
LINE
  8
型材断面
  6
CONTINUOUS
 62
    47
 10
127.09001
 20
64.600645
 11
126.59001
 21
64.600645
  0
LINE
  8
型材断面
  6
CONTINUOUS
 62
    47
 10
124.289885
 20
63.867312
 11
124.15657
 21
63.867312
  0
LINE
  8
型材断面
  6
CONTINUOUS
 62
    47
 10
124.289885
 20
62.400645
 11
126.423343
 21
62.400645
  0
LINE
  8
型材断面
  6
CONTINUOUS
 62
    47
 10
124.289885
 20
63.867312
 11
124.289885
 21
45.867282
  0
LINE
  8
型材断面
  6
CONTINUOUS
 10
123.856582
 20
63.867312
 11
123.856582
 21
45.867282
  0
LINE
  8
型材断面
  6
CONTINUOUS
 62
    47
 10
124.023228
 20
63.867312
 11
124.023228
 21
45.867282
  0
LINE
  8
型材断面
  6
CONTINUOUS
 10
123.789925
 20
62.600828
 11
123.789925
 21
45.867282
  0
LINE
  8
型材断面
  6
CONTINUOUS
 62
    47
 10
124.15657
 20
63.867312
 11
124.15657
 21
45.867282
  0
LINE
  8
型材断面
  6
CONTINUOUS
 10
126.423343
 20
62.400645
 11
126.423343
 21
45.867282
  0
LINE
  8
型材断面
  6
CONTINUOUS
 10
126.59001
 20
64.600645
 11
126.59001
 21
45.867282
  0
LINE
  8
型材断面
  6
CONTINUOUS
 10
127.423345
 20
64.100653
 11
127.423345
 21
45.867282
  0
LINE
  8
型材断面
  6
CONTINUOUS
 10
127.09001
 20
64.600645
 11
127.09001
 21
45.867282
  0
LINE
  8
型材断面
  6
CONTINUOUS
 62
    47
 10
124.023228
 20
29.82059
 11
124.023228
 21
29.100377
  0
LINE
  8
型材断面
  6
CONTINUOUS
 62
    47
 10
122.729908
 20
29.14374
 11
122.719908
 21
29.13374
  0
LINE
  8
型材断面
  6
CONTINUOUS
 62
    47
 10
122.729908
 20
29.14374
 11
122.739907
 21
29.13374
  0
LINE
  8
型材断面
  6
CONTINUOUS
 62
    47
 10
123.37214
 20
29.14374
 11
123.36214
 21
29.13374
  0
LINE
  8
型材断面
  6
CONTINUOUS
 62
    47
 10
123.37214
 20
29.14374
 11
123.38214
 21
29.13374
  0
LINE
  8
型材断面
  6
CONTINUOUS
 62
    47
 10
123.789925
 20
29.13374
 11
123.38214
 21
29.13374
  0
LINE
  8
型材断面
  6
CONTINUOUS
 62
    47
 10
123.36214
 20
29.13374
 11
122.739907
 21
29.13374
  0
LINE
  8
型材断面
  6
CONTINUOUS
 62
    47
 10
127.423345
 20
27.633913
 11
127.09001
 21
27.633913
  0
LINE
  8
型材断面
  6
CONTINUOUS
 62
    47
 10
126.423343
 20
29.567075
 11
126.423343
 21
30.163923
  0
LINE
  8
型材断面
  6
CONTINUOUS
 62
    47
 10
126.42333
 20
29.333922
 11
126.59001
 21
27.133922
  0
LINE
  8
型材断面
  6
CONTINUOUS
 62
    47
 10
127.09001
 20
27.133922
 11
126.59001
 21
27.133922
  0
LINE
  8
型材断面
  6
CONTINUOUS
 62
    47
 10
124.289885
 20
27.867255
 11
124.15657
 21
27.867255
  0
LINE
  8
型材断面
  6
CONTINUOUS
 62
    47
 10
124.289885
 20
29.333922
 11
126.423343
 21
29.333922
  0
LINE
  8
型材断面
  6
CONTINUOUS
 62
    47
 10
124.289885
 20
27.867255
 11
124.289885
 21
45.867282
  0
LINE
  8
型材断面
  6
CONTINUOUS
 62
    47
 10
124.023228
 20
27.867255
 11
124.023228
 21
45.867282
  0
LINE
  8
型材断面
  6
CONTINUOUS
 10
123.789925
 20
29.13374
 11
123.789925
 21
45.867282
  0
LINE
  8
型材断面
  6
CONTINUOUS
 62
    47
 10
124.15657
 20
27.867255
 11
124.15657
 21
45.867282
  0
LINE
  8
型材断面
  6
CONTINUOUS
 10
126.423343
 20
29.333922
 11
126.423343
 21
45.867282
  0
LINE
  8
型材断面
  6
CONTINUOUS
 10
126.59001
 20
27.133922
 11
126.59001
 21
45.867282
  0
LINE
  8
型材断面
  6
CONTINUOUS
 10
127.423345
 20
27.633913
 11
127.423345
 21
45.867282
  0
LINE
  8
型材断面
  6
CONTINUOUS
 10
127.09001
 20
27.133922
 11
127.09001
 21
45.867282
  0
LINE
  8
型材断面
  6
CONTINUOUS
 62
    47
 10
124.023228
 20
61.913977
 11
124.023228
 21
62.63419
  0
LINE
  8
型材断面
  6
CONTINUOUS
 62
    47
 10
122.729908
 20
62.590827
 11
122.719908
 21
62.600828
  0
LINE
  8
型材断面
  6
CONTINUOUS
 62
    47
 10
122.729908
 20
62.590827
 11
122.739907
 21
62.600828
  0
LINE
  8
型材断面
  6
CONTINUOUS
 62
    47
 10
123.37214
 20
62.590827
 11
123.36214
 21
62.600828
  0
LINE
  8
型材断面
  6
CONTINUOUS
 62
    47
 10
123.37214
 20
62.590827
 11
123.38214
 21
62.600828
  0
LINE
  8
型材断面
  6
CONTINUOUS
 62
    47
 10
123.789925
 20
62.600828
 11
123.38214
 21
62.600828
  0
LINE
  8
型材断面
  6
CONTINUOUS
 62
    47
 10
123.36214
 20
62.600828
 11
122.739907
 21
62.600828
  0
LINE
  8
型材断面
  6
CONTINUOUS
 62
    47
 10
123.856582
 20
63.867312
 11
124.023228
 21
63.867312
  0
LINE
  8
型材断面
  6
CONTINUOUS
 10
123.856582
 20
63.867312
 11
123.856582
 21
45.867282
  0
LINE
  8
型材断面
  6
CONTINUOUS
 62
    47
 10
124.023228
 20
63.867312
 11
124.023228
 21
45.867282
  0
LINE
  8
型材断面
  6
CONTINUOUS
 10
123.789925
 20
62.600828
 11
123.789925
 21
45.867282
  0
LINE
  8
型材断面
  6
CONTINUOUS
 62
    47
 10
124.023228
 20
29.82059
 11
124.023228
 21
29.100377
  0
LINE
  8
型材断面
  6
CONTINUOUS
 62
    47
 10
122.729908
 20
29.14374
 11
122.719908
 21
29.13374
  0
LINE
  8
型材断面
  6
CONTINUOUS
 62
    47
 10
122.729908
 20
29.14374
 11
122.739907
 21
29.13374
  0
LINE
  8
型材断面
  6
CONTINUOUS
 62
    47
 10
123.37214
 20
29.14374
 11
123.36214
 21
29.13374
  0
LINE
  8
型材断面
  6
CONTINUOUS
 62
    47
 10
123.37214
 20
29.14374
 11
123.38214
 21
29.13374
  0
LINE
  8
型材断面
  6
CONTINUOUS
 62
    47
 10
123.789925
 20
29.13374
 11
123.38214
 21
29.13374
  0
LINE
  8
型材断面
  6
CONTINUOUS
 62
    47
 10
123.36214
 20
29.13374
 11
122.739907
 21
29.13374
  0
LINE
  8
型材断面
  6
CONTINUOUS
 62
    47
 10
124.023228
 20
27.867255
 11
124.023228
 21
45.867282
  0
LINE
  8
型材断面
  6
CONTINUOUS
 10
123.789925
 20
29.13374
 11
123.789925
 21
45.867282
  0
ARC
  8
型材断面
  6
DASHDOT
 10
124.073217
 20
64.207496
 40
36.340275
 50
224.92118
 51
269.921181
  0
LINE
  8
型材断面
  6
CONTINUOUS
 62
    47
 10
120.939895
 20
62.907495
 11
120.139892
 21
62.907495
  0
ARC
  8
型材断面
  6
CONTINUOUS
 10
120.073223
 20
62.964017
 40
0.1
 50
90.0
 51
180.0
  0
LINE
  8
型材断面
  6
CONTINUOUS
 62
    47
 10
120.073225
 20
63.064018
 11
120.139892
 21
63.064018
  0
LINE
  8
型材断面
  6
CONTINUOUS
 62
    47
 10
120.250015
 20
62.907282
 11
121.639892
 21
62.907282
  0
LINE
  8
型材断面
  6
CONTINUOUS
 62
    47
 10
121.639892
 20
62.907282
 11
121.639892
 21
45.867282
  0
LINE
  8
型材断面
  6
CONTINUOUS
 62
    47
 10
120.139892
 20
63.064018
 11
120.139892
 21
45.867282
  0
LINE
  8
型材断面
  6
CONTINUOUS
 62
    47
 10
119.973225
 20
62.964018
 11
119.973225
 21
45.867282
  0
LINE
  8
型材断面
  6
CONTINUOUS
 62
    47
 10
120.939895
 20
28.827073
 11
120.139892
 21
28.827073
  0
ARC
  8
型材断面
  6
CONTINUOUS
 10
120.073223
 20
28.770551
 40
0.1
 50
180.0
 51
270.0
  0
LINE
  8
型材断面
  6
CONTINUOUS
 62
    47
 10
120.073225
 20
28.67055
 11
120.139892
 21
28.67055
  0
LINE
  8
型材断面
  6
CONTINUOUS
 62
    47
 10
120.250015
 20
28.827283
 11
121.639892
 21
28.827283
  0
LINE
  8
型材断面
  6
CONTINUOUS
 62
    47
 10
121.639892
 20
28.827283
 11
121.639892
 21
45.867282
  0
LINE
  8
型材断面
  6
CONTINUOUS
 62
    47
 10
120.139892
 20
28.67055
 11
120.139892
 21
45.867282
  0
LINE
  8
型材断面
  6
CONTINUOUS
 62
    47
 10
119.973225
 20
28.77055
 11
119.973225
 21
45.867282
  0
LINE
  8
型材断面
  6
CONTINUOUS
 62
    47
 10
122.719908
 20
62.600828
 11
121.639892
 21
62.600828
  0
LINE
  8
型材断面
  6
CONTINUOUS
 62
    47
 10
122.719908
 20
62.600828
 11
121.639892
 21
62.600828
  0
LINE
  8
型材断面
  6
CONTINUOUS
 62
    47
 10
122.719908
 20
29.13374
 11
121.639892
 21
29.13374
  0
LINE
  8
型材断面
  6
CONTINUOUS
 62
    47
 10
122.719908
 20
29.13374
 11
121.639892
 21
29.13374
  0
LINE
  8
型材断面
  6
CONTINUOUS
 62
    47
 10
124.023228
 20
63.867312
 11
123.856233
 21
63.867312
  0
LINE
  8
型材断面
  6
CONTINUOUS
 62
    47
 10
123.789925
 20
62.600828
 11
123.856233
 21
63.867312
  0
LINE
  8
型材断面
  6
CONTINUOUS
 62
    47
 10
124.023228
 20
27.867255
 11
123.856233
 21
27.867255
  0
LINE
  8
型材断面
  6
CONTINUOUS
 62
    47
 10
123.789925
 20
29.13374
 11
123.856233
 21
27.867255
  0
LINE
  8
型材断面
  6
CONTINUOUS
 62
    47
 10
124.023228
 20
27.867255
 11
123.856233
 21
27.867255
  0
LINE
  8
型材断面
  6
CONTINUOUS
 10
123.856233
 20
27.867255
 11
123.856233
 21
45.867282
  0
LINE
  8
型材断面
  6
CONTINUOUS
 10
-0.429242
 20
28.67055
 11
-0.19354
 21
28.906252
  0
LINE
  8
型材断面
  6
CONTINUOUS
 10
-2.929455
 20
31.170762
 11
-2.693753
 21
31.406465
  0
LINE
  8
型材断面
  6
CONTINUOUS
 10
-2.693753
 20
31.406465
 11
-0.19354
 21
28.906252
  0
LINE
  8
型材断面
  6
CONTINUOUS
 10
-2.929455
 20
31.170762
 11
-0.429242
 21
28.67055
  0
LINE
  8
型材断面
  6
CONTINUOUS
 10
1.343088
 20
27.133922
 11
-0.311392
 21
28.788402
  0
LINE
  8
型材断面
  6
CONTINUOUS
 62
    47
 10
-1.34358
 20
-70.124463
 11
-0.623368
 21
-70.124463
  0
LINE
  8
型材断面
  6
CONTINUOUS
 62
    47
 10
-0.66673
 20
-68.831142
 11
-0.65673
 21
-68.821143
  0
LINE
  8
型材断面
  6
CONTINUOUS
 62
    47
 10
-0.66673
 20
-68.831142
 11
-0.65673
 21
-68.841143
  0
LINE
  8
型材断面
  6
CONTINUOUS
 62
    47
 10
-0.66673
 20
-69.473375
 11
-0.65673
 21
-69.463375
  0
LINE
  8
型材断面
  6
CONTINUOUS
 62
    47
 10
-0.66673
 20
-69.473375
 11
-0.65673
 21
-69.483375
  0
LINE
  8
型材断面
  6
CONTINUOUS
 62
    47
 10
-0.65673
 20
-69.89116
 11
-0.65673
 21
-69.483375
  0
LINE
  8
型材断面
  6
CONTINUOUS
 62
    47
 10
-0.65673
 20
-69.463375
 11
-0.65673
 21
-68.841143
  0
LINE
  8
型材断面
  6
CONTINUOUS
 62
    47
 10
0.843097
 20
-73.52458
 11
0.843097
 21
-73.191245
  0
LINE
  8
型材断面
  6
CONTINUOUS
 62
    47
 10
-1.090065
 20
-72.524578
 11
-1.686913
 21
-72.524578
  0
LINE
  8
型材断面
  6
CONTINUOUS
 62
    47
 10
-0.856912
 20
-72.524565
 11
1.343088
 21
-72.691245
  0
LINE
  8
型材断面
  6
CONTINUOUS
 62
    47
 10
1.343088
 20
-73.191245
 11
1.343088
 21
-72.691245
  0
LINE
  8
型材断面
  6
CONTINUOUS
 62
    47
 10
0.609755
 20
-70.39112
 11
0.609755
 21
-70.257805
  0
LINE
  8
型材断面
  6
CONTINUOUS
 62
    47
 10
-0.856912
 20
-70.39112
 11
-0.856912
 21
-72.524578
  0
LINE
  8
型材断面
  6
CONTINUOUS
 62
    47
 10
-0.350062
 20
-67.04113
 11
-0.350062
 21
-66.241128
  0
ARC
  8
型材断面
  6
CONTINUOUS
 10
-0.293538
 20
-66.174459
 40
0.1
 50
0.0
 51
90.0
  0
LINE
  8
型材断面
  6
CONTINUOUS
 62
    47
 10
-0.19354
 20
-66.17446
 11
-0.19354
 21
-66.241128
  0
LINE
  8
型材断面
  6
CONTINUOUS
 62
    47
 10
-0.350273
 20
-66.35125
 11
-0.350273
 21
-67.741128
  0
LINE
  8
型材断面
  6
CONTINUOUS
 62
    47
 10
-0.65673
 20
-68.821143
 11
-0.65673
 21
-67.741128
  0
LINE
  8
型材断面
  6
CONTINUOUS
 62
    47
 10
0.609755
 20
-70.124463
 11
0.609755
 21
-69.957467
  0
LINE
  8
型材断面
  6
CONTINUOUS
 62
    47
 10
-0.65673
 20
-69.89116
 11
0.609755
 21
-69.957467
  0
LINE
  8
型材断面
  6
CONTINUOUS
 10
1.343088
 20
-72.691245
 11
-60.723605
 21
-72.691245
  0
LINE
  8
型材断面
  6
CONTINUOUS
 10
-0.856912
 20
-72.524578
 11
-60.723605
 21
-72.524578
  0
LINE
  8
型材断面
  6
CONTINUOUS
 10
1.343088
 20
-73.191245
 11
-60.723605
 21
-73.191245
  0
LINE
  8
型材断面
  6
CONTINUOUS
 10
0.843097
 20
-73.52458
 11
-60.723605
 21
-73.52458
  0
LINE
  8
型材断面
  6
CONTINUOUS
 62
    47
 10
0.609755
 20
-70.257805
 11
-60.723605
 21
-70.257805
  0
LINE
  8
型材断面
  6
CONTINUOUS
 10
0.609755
 20
-69.957817
 11
-60.723605
 21
-69.957817
  0
LINE
  8
型材断面
  6
CONTINUOUS
 62
    47
 10
0.609755
 20
-70.39112
 11
-60.723605
 21
-70.39112
  0
LINE
  8
型材断面
  6
CONTINUOUS
 62
    47
 10
0.609755
 20
-70.124463
 11
-60.723605
 21
-70.124463
  0
LINE
  8
型材断面
  6
CONTINUOUS
 10
-0.65673
 20
-69.89116
 11
-60.723605
 21
-69.89116
  0
LINE
  8
型材断面
  6
CONTINUOUS
 62
    47
 10
-0.350273
 20
-67.741128
 11
-60.723605
 21
-67.741128
  0
LINE
  8
型材断面
  6
CONTINUOUS
 62
    47
 10
-0.19354
 20
-66.241128
 11
-60.723605
 21
-66.241128
  0
LINE
  8
型材断面
  6
CONTINUOUS
 62
    47
 10
-0.29354
 20
-66.07446
 11
-60.723605
 21
-66.07446
  0
LINE
  8
型材断面
  6
CONTINUOUS
 10
-0.429242
 20
28.67055
 11
-60.723605
 21
28.67055
  0
LINE
  8
型材断面
  6
CONTINUOUS
 10
1.343088
 20
27.133922
 11
-60.723605
 21
27.133922
  0
LINE
  8
型材断面
  6
CONTINUOUS
 10
0.609755
 20
27.867255
 11
-60.723605
 21
27.867255
  0
LINE
  8
型材断面
  6
CONTINUOUS
 10
-0.429242
 20
63.064018
 11
-0.19354
 21
62.828312
  0
LINE
  8
型材断面
  6
CONTINUOUS
 10
-2.929455
 20
60.563805
 11
-2.693753
 21
60.328103
  0
LINE
  8
型材断面
  6
CONTINUOUS
 10
-2.693753
 20
60.328103
 11
-0.19354
 21
62.828312
  0
LINE
  8
型材断面
  6
CONTINUOUS
 10
-2.929455
 20
60.563805
 11
-0.429242
 21
63.064018
  0
LINE
  8
型材断面
  6
CONTINUOUS
 10
1.343088
 20
64.600645
 11
-0.311392
 21
62.946165
  0
LINE
  8
型材断面
  6
CONTINUOUS
 10
0.609755
 20
63.867312
 11
-60.723605
 21
63.867312
  0
LINE
  8
型材断面
  6
CONTINUOUS
 10
1.343088
 20
64.600645
 11
-60.723605
 21
64.600645
  0
LINE
  8
型材断面
  6
CONTINUOUS
 10
-0.429242
 20
63.064018
 11
-60.723605
 21
63.064018
  0
LINE
  8
型材断面
  6
CONTINUOUS
 10
-2.693753
 20
46.28395
 11
-0.19354
 21
46.28395
  0
LINE
  8
型材断面
  6
CONTINUOUS
 10
-2.693753
 20
45.450618
 11
-0.19354
 21
45.450618
  0
LINE
  8
型材断面
  6
CONTINUOUS
 10
-2.693753
 20
31.406465
 11
-2.693753
 21
45.450618
  0
LINE
  8
型材断面
  6
CONTINUOUS
 10
1.343088
 20
27.133922
 11
1.343088
 21
45.867282
  0
LINE
  8
型材断面
  6
CONTINUOUS
 10
0.609755
 20
27.867255
 11
0.609755
 21
45.867282
  0
LINE
  8
型材断面
  6
CONTINUOUS
 10
0.609755
 20
45.867282
 11
0.609755
 21
63.867312
  0
LINE
  8
型材断面
  6
CONTINUOUS
 10
1.343088
 20
45.867282
 11
1.343088
 21
64.600645
  0
LINE
  8
型材断面
  6
CONTINUOUS
 10
-0.19354
 20
28.906252
 11
-0.19354
 21
62.828312
  0
LINE
  8
型材断面
  6
CONTINUOUS
 10
-2.693753
 20
46.28395
 11
-2.693753
 21
60.328103
  0
LINE
  8
型材断面
  6
DASHDOT
 10
-2.390272
 20
-77.528333
 11
-2.390272
 21
60.867282
  0
LINE
  8
型材断面
  6
DASHDOT
 10
130.329942
 20
30.867282
 11
-119.056935
 21
30.867282
  0
LINE
  8
型材断面
  6
CONTINUOUS
 62
    47
 10
-120.10363
 20
-70.124463
 11
-120.823842
 21
-70.124463
  0
LINE
  8
型材断面
  6
CONTINUOUS
 62
    47
 10
-120.78048
 20
-68.831142
 11
-120.79048
 21
-68.821143
  0
LINE
  8
型材断面
  6
CONTINUOUS
 62
    47
 10
-120.78048
 20
-68.831142
 11
-120.79048
 21
-68.841143
  0
LINE
  8
型材断面
  6
CONTINUOUS
 62
    47
 10
-120.78048
 20
-69.473375
 11
-120.79048
 21
-69.463375
  0
LINE
  8
型材断面
  6
CONTINUOUS
 62
    47
 10
-120.78048
 20
-69.473375
 11
-120.79048
 21
-69.483375
  0
LINE
  8
型材断面
  6
CONTINUOUS
 62
    47
 10
-120.79048
 20
-69.89116
 11
-120.79048
 21
-69.483375
  0
LINE
  8
型材断面
  6
CONTINUOUS
 62
    47
 10
-120.79048
 20
-69.463375
 11
-120.79048
 21
-68.841143
  0
LINE
  8
型材断面
  6
CONTINUOUS
 62
    47
 10
-122.290308
 20
-73.52458
 11
-122.290308
 21
-73.191245
  0
LINE
  8
型材断面
  6
CONTINUOUS
 62
    47
 10
-120.357145
 20
-72.524578
 11
-119.760297
 21
-72.524578
  0
LINE
  8
型材断面
  6
CONTINUOUS
 62
    47
 10
-120.590297
 20
-72.524565
 11
-122.790297
 21
-72.691245
  0
LINE
  8
型材断面
  6
CONTINUOUS
 62
    47
 10
-122.790297
 20
-73.191245
 11
-122.790297
 21
-72.691245
  0
LINE
  8
型材断面
  6
CONTINUOUS
 62
    47
 10
-122.056965
 20
-70.39112
 11
-122.056965
 21
-70.257805
  0
LINE
  8
型材断面
  6
CONTINUOUS
 62
    47
 10
-120.590297
 20
-70.39112
 11
-120.590297
 21
-72.524578
  0
LINE
  8
型材断面
  6
CONTINUOUS
 62
    47
 10
-121.097148
 20
-67.04113
 11
-121.097148
 21
-66.241128
  0
ARC
  8
型材断面
  6
CONTINUOUS
 10
-121.153671
 20
-66.174459
 40
0.1
 50
90.0
 51
180.0
  0
LINE
  8
型材断面
  6
CONTINUOUS
 62
    47
 10
-121.25367
 20
-66.17446
 11
-121.25367
 21
-66.241128
  0
LINE
  8
型材断面
  6
CONTINUOUS
 62
    47
 10
-121.096937
 20
-66.35125
 11
-121.096937
 21
-67.741128
  0
LINE
  8
型材断面
  6
CONTINUOUS
 62
    47
 10
-120.79048
 20
-68.821143
 11
-120.79048
 21
-67.741128
  0
LINE
  8
型材断面
  6
CONTINUOUS
 62
    47
 10
-122.056965
 20
-70.124463
 11
-122.056965
 21
-69.957467
  0
LINE
  8
型材断面
  6
CONTINUOUS
 62
    47
 10
-120.79048
 20
-69.89116
 11
-122.056965
 21
-69.957467
  0
LINE
  8
型材断面
  6
CONTINUOUS
 10
-122.790297
 20
-72.691245
 11
-60.723605
 21
-72.691245
  0
LINE
  8
型材断面
  6
CONTINUOUS
 10
-120.590297
 20
-72.524578
 11
-60.723605
 21
-72.524578
  0
LINE
  8
型材断面
  6
CONTINUOUS
 10
-122.790297
 20
-73.191245
 11
-60.723605
 21
-73.191245
  0
LINE
  8
型材断面
  6
CONTINUOUS
 10
-122.290308
 20
-73.52458
 11
-60.723605
 21
-73.52458
  0
LINE
  8
型材断面
  6
CONTINUOUS
 62
    47
 10
-122.056965
 20
-70.257805
 11
-60.723605
 21
-70.257805
  0
LINE
  8
型材断面
  6
CONTINUOUS
 10
-122.056965
 20
-69.957817
 11
-60.723605
 21
-69.957817
  0
LINE
  8
型材断面
  6
CONTINUOUS
 62
    47
 10
-122.056965
 20
-70.39112
 11
-60.723605
 21
-70.39112
  0
LINE
  8
型材断面
  6
CONTINUOUS
 62
    47
 10
-122.056965
 20
-70.124463
 11
-60.723605
 21
-70.124463
  0
LINE
  8
型材断面
  6
CONTINUOUS
 10
-120.79048
 20
-69.89116
 11
-60.723605
 21
-69.89116
  0
LINE
  8
型材断面
  6
CONTINUOUS
 62
    47
 10
-121.096937
 20
-67.741128
 11
-60.723605
 21
-67.741128
  0
LINE
  8
型材断面
  6
CONTINUOUS
 62
    47
 10
-121.25367
 20
-66.241128
 11
-60.723605
 21
-66.241128
  0
LINE
  8
型材断面
  6
CONTINUOUS
 62
    47
 10
-121.15367
 20
-66.07446
 11
-60.723605
 21
-66.07446
  0
LINE
  8
型材断面
  6
CONTINUOUS
 10
-121.017968
 20
28.67055
 11
-121.25367
 21
28.906252
  0
LINE
  8
型材断面
  6
CONTINUOUS
 10
-118.517755
 20
31.170762
 11
-118.753457
 21
31.406465
  0
LINE
  8
型材断面
  6
CONTINUOUS
 10
-118.753457
 20
31.406465
 11
-121.25367
 21
28.906252
  0
LINE
  8
型材断面
  6
CONTINUOUS
 10
-118.517755
 20
31.170762
 11
-121.017968
 21
28.67055
  0
LINE
  8
型材断面
  6
CONTINUOUS
 10
-122.790297
 20
27.133922
 11
-121.135818
 21
28.788402
  0
LINE
  8
型材断面
  6
CONTINUOUS
 10
-121.017968
 20
28.67055
 11
-60.723605
 21
28.67055
  0
LINE
  8
型材断面
  6
CONTINUOUS
 10
-122.790297
 20
27.133922
 11
-60.723605
 21
27.133922
  0
LINE
  8
型材断面
  6
CONTINUOUS
 10
-122.056965
 20
27.867255
 11
-60.723605
 21
27.867255
  0
LINE
  8
型材断面
  6
DASHDOT
 10
130.329942
 20
60.867282
 11
-119.056935
 21
60.867282
  0
LINE
  8
型材断面
  6
CONTINUOUS
 10
-121.017968
 20
63.064018
 11
-121.25367
 21
62.828312
  0
LINE
  8
型材断面
  6
CONTINUOUS
 10
-118.517755
 20
60.563805
 11
-118.753457
 21
60.328103
  0
LINE
  8
型材断面
  6
CONTINUOUS
 10
-118.753457
 20
60.328103
 11
-121.25367
 21
62.828312
  0
LINE
  8
型材断面
  6
CONTINUOUS
 10
-118.517755
 20
60.563805
 11
-121.017968
 21
63.064018
  0
LINE
  8
型材断面
  6
CONTINUOUS
 10
-122.790297
 20
64.600645
 11
-121.135818
 21
62.946165
  0
LINE
  8
型材断面
  6
CONTINUOUS
 10
-122.056965
 20
63.867312
 11
-60.723605
 21
63.867312
  0
LINE
  8
型材断面
  6
CONTINUOUS
 10
-122.790297
 20
64.600645
 11
-60.723605
 21
64.600645
  0
LINE
  8
型材断面
  6
CONTINUOUS
 10
-121.017968
 20
63.064018
 11
-60.723605
 21
63.064018
  0
LINE
  8
型材断面
  6
DASHDOT
 10
130.329942
 20
45.867282
 11
-119.056935
 21
45.867282
  0
LINE
  8
型材断面
  6
CONTINUOUS
 10
-118.753457
 20
46.28395
 11
-121.25367
 21
46.28395
  0
LINE
  8
型材断面
  6
CONTINUOUS
 10
-118.753457
 20
45.450618
 11
-121.25367
 21
45.450618
  0
LINE
  8
型材断面
  6
CONTINUOUS
 10
-118.753457
 20
31.406465
 11
-118.753457
 21
45.450618
  0
LINE
  8
型材断面
  6
CONTINUOUS
 10
-122.790297
 20
27.133922
 11
-122.790297
 21
45.867282
  0
LINE
  8
型材断面
  6
CONTINUOUS
 10
-122.056965
 20
27.867255
 11
-122.056965
 21
45.867282
  0
LINE
  8
型材断面
  6
CONTINUOUS
 10
-118.753457
 20
46.28395
 11
-118.753457
 21
60.328103
  0
LINE
  8
型材断面
  6
CONTINUOUS
 10
-121.25367
 20
28.906252
 11
-121.25367
 21
62.828312
  0
LINE
  8
型材断面
  6
CONTINUOUS
 10
-122.056965
 20
45.867282
 11
-122.056965
 21
63.867312
  0
LINE
  8
型材断面
  6
CONTINUOUS
 10
-122.790297
 20
45.867282
 11
-122.790297
 21
64.600645
  0
LINE
  8
型材断面
  6
DASHDOT
 10
-119.056935
 20
-77.528333
 11
-119.056935
 21
60.867282
  0
LINE
  8
型材断面
  6
DASHDOT
 10
-119.056935
 20
60.867282
 11
-2.390272
 21
60.867282
  0
LINE
  8
型材断面
  6
CONTINUOUS
 10
-102.390272
 20
63.497413
 11
-103.885902
 21
66.08792
  0
LINE
  8
型材断面
  6
CONTINUOUS
 10
-102.390272
 20
63.497413
 11
-100.894643
 21
66.08792
  0
LINE
  8
型材断面
  6
CONTINUOUS
 10
-100.894643
 20
66.08792
 11
-103.885902
 21
66.08792
  0
LINE
  8
型材断面
  6
CONTINUOUS
 10
-121.68707
 20
45.867282
 11
-124.277578
 21
47.362912
  0
LINE
  8
型材断面
  6
CONTINUOUS
 10
-121.68707
 20
45.867282
 11
-124.277578
 21
44.371652
  0
LINE
  8
型材断面
  6
CONTINUOUS
 10
-124.277578
 20
44.371652
 11
-124.277578
 21
47.362912
  0
LINE
  8
型材断面
  6
CONTINUOUS
 10
-102.390272
 20
28.237153
 11
-103.885902
 21
25.646645
  0
LINE
  8
型材断面
  6
CONTINUOUS
 10
-102.390272
 20
28.237153
 11
-100.894643
 21
25.646645
  0
LINE
  8
型材断面
  6
CONTINUOUS
 10
-100.894643
 20
25.646645
 11
-103.885902
 21
25.646645
  0
LINE
  8
型材断面
  6
CONTINUOUS
 10
-172.935463
 20
98.844755
 11
-172.339408
 21
96.254248
  0
LINE
  8
型材断面
  6
CONTINUOUS
 10
-172.935463
 20
98.844755
 11
-173.53152
 21
96.254248
  0
LINE
  8
型材断面
  6
CONTINUOUS
 10
-173.53152
 20
96.254248
 11
-172.339408
 21
96.254248
  0
LINE
  8
型材断面
  6
CONTINUOUS
 10
-178.95805
 20
92.975355
 11
-132.716273
 21
92.975355
  0
LINE
  8
型材断面
  6
CONTINUOUS
 10
-172.935463
 20
105.37463
 11
-174.431092
 21
102.784123
  0
LINE
  8
型材断面
  6
CONTINUOUS
 10
-172.935463
 20
105.37463
 11
-171.439833
 21
102.784123
  0
LINE
  8
型材断面
  6
CONTINUOUS
 10
-171.439833
 20
102.784123
 11
-174.431092
 21
102.784123
  0
LINE
  8
型材断面
  6
CONTINUOUS
 10
-178.95805
 20
101.845528
 11
-132.716273
 21
101.845528
  0
LINE
  8
型材断面
  6
CONTINUOUS
 10
-178.95805
 20
87.187322
 11
-132.716273
 21
87.187322
  0
LINE
  8
型材断面
  6
CONTINUOUS
 10
-19.056938
 20
63.497413
 11
-17.561308
 21
66.08792
  0
LINE
  8
型材断面
  6
CONTINUOUS
 10
-19.056938
 20
63.497413
 11
-20.552567
 21
66.08792
  0
LINE
  8
型材断面
  6
CONTINUOUS
 10
-20.552567
 20
66.08792
 11
-17.561308
 21
66.08792
  0
LINE
  8
型材断面
  6
CONTINUOUS
 10
0.23986
 20
45.867282
 11
2.830367
 21
47.362912
  0
LINE
  8
型材断面
  6
CONTINUOUS
 10
0.23986
 20
45.867282
 11
2.830367
 21
44.371652
  0
LINE
  8
型材断面
  6
CONTINUOUS
 10
2.830367
 20
44.371652
 11
2.830367
 21
47.362912
  0
LINE
  8
型材断面
  6
CONTINUOUS
 10
-19.056938
 20
28.237153
 11
-17.561308
 21
25.646645
  0
LINE
  8
型材断面
  6
CONTINUOUS
 10
-19.056938
 20
28.237153
 11
-20.552567
 21
25.646645
  0
LINE
  8
型材断面
  6
CONTINUOUS
 10
-20.552567
 20
25.646645
 11
-17.561308
 21
25.646645
  0
LINE
  8
型材断面
  6
CONTINUOUS
 10
-4.390272
 20
28.26047
 11
-4.98633
 21
25.669965
  0
LINE
  8
型材断面
  6
CONTINUOUS
 10
-4.390272
 20
28.26047
 11
-3.794215
 21
25.669965
  0
LINE
  8
型材断面
  6
CONTINUOUS
 10
-3.794215
 20
25.669965
 11
-4.98633
 21
25.669965
  0
LINE
  8
型材断面
  6
CONTINUOUS
 10
-117.056938
 20
28.26047
 11
-116.46088
 21
25.669965
  0
LINE
  8
型材断面
  6
CONTINUOUS
 10
-117.056938
 20
28.26047
 11
-117.652995
 21
25.669965
  0
LINE
  8
型材断面
  6
CONTINUOUS
 10
-117.652995
 20
25.669965
 11
-116.46088
 21
25.669965
  0
LINE
  8
型材断面
  6
DASHDOT
 10
-41.07027
 20
30.867282
 11
-41.07027
 21
60.867282
  0
LINE
  8
型材断面
  6
DASHDOT
 10
-80.37694
 20
30.867282
 11
-80.37694
 21
60.867282
  0
LINE
  8
型材断面
  6
CONTINUOUS
 10
-99.30027
 20
28.67055
 11
-99.30027
 21
31.170762
  0
LINE
  8
型材断面
  6
CONTINUOUS
 10
-100.133605
 20
28.67055
 11
-100.133605
 21
31.170762
  0
LINE
  8
型材断面
  6
CONTINUOUS
 10
-60.306938
 20
28.67055
 11
-60.306938
 21
31.170762
  0
LINE
  8
型材断面
  6
CONTINUOUS
 10
-61.140272
 20
28.67055
 11
-61.140272
 21
31.170762
  0
LINE
  8
型材断面
  6
CONTINUOUS
 10
-21.313605
 20
28.67055
 11
-21.313605
 21
31.170762
  0
LINE
  8
型材断面
  6
CONTINUOUS
 10
-22.14694
 20
28.67055
 11
-22.14694
 21
31.170762
  0
LINE
  8
型材断面
  6
CONTINUOUS
 10
-99.30027
 20
63.064015
 11
-99.30027
 21
60.563803
  0
LINE
  8
型材断面
  6
CONTINUOUS
 10
-100.133605
 20
63.064015
 11
-100.133605
 21
60.563803
  0
LINE
  8
型材断面
  6
CONTINUOUS
 10
-60.306938
 20
63.064015
 11
-60.306938
 21
60.563803
  0
LINE
  8
型材断面
  6
CONTINUOUS
 10
-61.140272
 20
63.064015
 11
-61.140272
 21
60.563803
  0
LINE
  8
型材断面
  6
CONTINUOUS
 10
-21.313605
 20
63.064015
 11
-21.313605
 21
60.563803
  0
LINE
  8
型材断面
  6
CONTINUOUS
 10
-22.14694
 20
63.064015
 11
-22.14694
 21
60.563803
  0
LINE
  8
型材断面
  6
CONTINUOUS
 10
-81.62694
 20
32.004095
 11
-79.12694
 21
32.004095
  0
LINE
  8
型材断面
  6
CONTINUOUS
 10
-81.62694
 20
59.73047
 11
-79.12694
 21
59.73047
  0
LINE
  8
型材断面
  6
CONTINUOUS
 10
-79.12694
 20
32.004095
 11
-79.12694
 21
59.73047
  0
LINE
  8
型材断面
  6
CONTINUOUS
 10
-81.62694
 20
32.004095
 11
-81.62694
 21
59.73047
  0
LINE
  8
型材断面
  6
CONTINUOUS
 10
-42.32027
 20
32.004095
 11
-39.82027
 21
32.004095
  0
LINE
  8
型材断面
  6
CONTINUOUS
 10
-42.32027
 20
59.73047
 11
-39.82027
 21
59.73047
  0
LINE
  8
型材断面
  6
CONTINUOUS
 10
-39.82027
 20
32.004095
 11
-39.82027
 21
59.73047
  0
LINE
  8
型材断面
  6
CONTINUOUS
 10
-42.32027
 20
32.004095
 11
-42.32027
 21
59.73047
  0
LINE
  8
型材断面
  6
CONTINUOUS
 10
-118.517755
 20
60.563805
 11
-100.133605
 21
60.563805
  0
LINE
  8
型材断面
  6
CONTINUOUS
 10
-118.517755
 20
31.170762
 11
-100.133605
 21
31.170762
  0
LINE
  8
型材断面
  6
CONTINUOUS
 10
-99.30027
 20
31.170762
 11
-61.140272
 21
31.170762
  0
LINE
  8
型材断面
  6
CONTINUOUS
 10
-99.30027
 20
60.563805
 11
-61.140272
 21
60.563805
  0
LINE
  8
型材断面
  6
CONTINUOUS
 10
-2.929455
 20
60.563805
 11
-21.313605
 21
60.563805
  0
LINE
  8
型材断面
  6
CONTINUOUS
 10
-22.14694
 20
60.563805
 11
-60.306938
 21
60.563805
  0
LINE
  8
型材断面
  6
CONTINUOUS
 10
-2.929455
 20
31.170762
 11
-21.313605
 21
31.170762
  0
LINE
  8
型材断面
  6
CONTINUOUS
 10
-22.14694
 20
31.170762
 11
-60.306938
 21
31.170762
  0
POLYLINE
  8
型材断面
  6
DASHDOT
 66
     1
  0
VERTEX
  8
型材断面
 10
-119.056935
 20
30.867282
  0
VERTEX
  8
型材断面
 10
-60.723605
 20
60.867282
  0
VERTEX
  8
型材断面
 10
-2.390272
 20
30.867282
  0
SEQEND
  0
LINE
  8
ガラス
  6
CONTINUOUS
 10
-97.602513
 20
47.268663
 11
-100.233478
 21
44.637697
  0
LINE
  8
ガラス
  6
CONTINUOUS
 10
-98.258685
 20
45.29387
 11
-99.577303
 21
46.612493
  0
LINE
  8
ガラス
  6
CONTINUOUS
 10
-99.11173
 20
45.324323
 11
-98.095215
 21
46.340838
  0
LINE
  8
ガラス
  6
CONTINUOUS
 10
-98.72426
 20
46.582042
 11
-99.740773
 21
45.565527
  0
LINE
  8
ガラス
  6
CONTINUOUS
 10
-59.443445
 20
47.268663
 11
-62.07441
 21
44.637697
  0
LINE
  8
ガラス
  6
CONTINUOUS
 10
-60.099618
 20
45.29387
 11
-61.418235
 21
46.612493
  0
LINE
  8
ガラス
  6
CONTINUOUS
 10
-60.952663
 20
45.324323
 11
-59.936147
 21
46.340838
  0
LINE
  8
ガラス
  6
CONTINUOUS
 10
-60.565193
 20
46.582042
 11
-61.581705
 21
45.565527
  0
LINE
  8
ガラス
  6
CONTINUOUS
 10
-20.145693
 20
47.268663
 11
-22.776657
 21
44.637697
  0
LINE
  8
ガラス
  6
CONTINUOUS
 10
-20.801865
 20
45.29387
 11
-22.120482
 21
46.612493
  0
LINE
  8
ガラス
  6
CONTINUOUS
 10
-21.65491
 20
45.324323
 11
-20.638395
 21
46.340838
  0
LINE
  8
ガラス
  6
CONTINUOUS
 10
-21.26744
 20
46.582042
 11
-22.283953
 21
45.565527
  0
POLYLINE
  8
ガラス
  6
CONTINUOUS
 66
     1
 70
     1
  0
VERTEX
  8
ガラス
 10
128.751433
 20
-57.94031
  0
VERTEX
  8
ガラス
 10
90.528097
 20
-57.94031
  0
VERTEX
  8
ガラス
 10
90.528097
 20
-88.106977
  0
VERTEX
  8
ガラス
 10
128.751433
 20
-88.106977
  0
SEQEND
  0
TEXT
  7
TextStyle03
  8
文字
  6
CONTINUOUS
 10
111.475
 20
22.15
  1
45°
 40
3.0
 50
90.0
 72
     5
 11
111.475
 21
28.525
  0
TEXT
  7
TextStyle03
  8
文字
  6
CONTINUOUS
 10
64.95
 20
116.5
  1
シリーズ：ＴＦＦＨＬ
 40
5.0
 72
     5
 11
120.575
 21
116.5
  0
TEXT
  7
TextStyle03
  8
文字
  6
CONTINUOUS
 10
64.95
 20
110.875
  1
　　　　　（片側開閉）900×3500タイプ
 40
5.0
 72
     5
 11
168.3875
 21
110.875
  0
TEXT
  7
TextStyle03
  8
文字
  6
CONTINUOUS
 10
64.95
 20
105.25
  1
図面名　：外観姿図
 40
5.0
 72
     5
 11
114.95
 21
105.25
  0
TEXT
  7
TextStyle03
  8
文字
  6
CONTINUOUS
 10
64.95
 20
99.625
  1
　　　　　　
 40
5.0
 72
     5
 11
98.075
 21
99.625
  0
TEXT
  7
TextStyle03
  8
文字
  6
CONTINUOUS
 10
-170.15
 20
102.975
  1
は排水穴位置を示す
 40
3.0
 72
     5
 11
-140.15
 21
102.975
  0
TEXT
  7
TextStyle03
  8
文字
  6
CONTINUOUS
 10
-170.15
 20
97.45
  1
はケーシング位置を示す
 40
3.0
 72
     5
 11
-133.4
 21
97.45
  0
TEXT
  7
TextStyle03
  8
文字
  6
CONTINUOUS
 10
-170.15
 20
94.075
  1
２ヶ所中1ヶ所に設定
 40
3.0
 72
     5
 11
-138.4625
 21
94.075
  0
TEXT
  7
TextStyle03
  8
文字
  6
CONTINUOUS
 10
-140.05
 20
24.325
  1
アンカーピッチ
 40
3.0
 50
90.0
 72
     5
 11
-140.05
 21
47.575
  0
TEXT
  7
TextStyle03
  8
文字
  6
CONTINUOUS
 10
-107.9
 20
97.825
  1
アンカーピッチ
 40
3.0
 72
     5
 11
-84.65
 21
97.825
  0
TEXT
  7
TextStyle03
  8
文字
  6
CONTINUOUS
 10
-173.875
 20
88.1
  1
アンカー数量　１４ヶ所
 40
3.0
 72
     5
 11
-137.125
 21
88.1
  0
TEXT
  7
TextStyle03
  8
文字
  6
CONTINUOUS
 10
109.825
 20
-80.65
  1
網入り6.8t
 40
3.0
 72
     5
 11
126.5125
 21
-80.65
  0
TEXT
  7
TextStyle03
  8
文字
  6
CONTINUOUS
 10
116.45
 20
-85.9
  1
×３枚
 40
3.0
 72
     5
 11
126.2
 21
-85.9
  0
INSERT
  2
*DIM_0004
  8
寸法
  6
CONTINUOUS
 10
0.0
 20
0.0
  0
INSERT
  2
*DIM_0005
  8
寸法
  6
CONTINUOUS
 10
0.0
 20
0.0
  0
INSERT
  2
*DIM_0006
  8
寸法
  6
CONTINUOUS
 10
0.0
 20
0.0
  0
INSERT
  2
*DIM_0007
  8
寸法
  6
CONTINUOUS
 10
0.0
 20
0.0
  0
INSERT
  2
*DIM_0008
  8
寸法
  6
CONTINUOUS
 10
0.0
 20
0.0
  0
INSERT
  2
*DIM_0009
  8
寸法
  6
CONTINUOUS
 10
0.0
 20
0.0
  0
INSERT
  2
*DIM_0010
  8
寸法
  6
CONTINUOUS
 10
0.0
 20
0.0
  0
INSERT
  2
*DIM_0011
  8
寸法
  6
CONTINUOUS
 10
0.0
 20
0.0
  0
INSERT
  2
*DIM_0012
  8
寸法
  6
CONTINUOUS
 10
0.0
 20
0.0
  0
INSERT
  2
*DIM_0013
  8
寸法
  6
CONTINUOUS
 10
0.0
 20
0.0
  0
INSERT
  2
*DIM_0014
  8
寸法
  6
CONTINUOUS
 10
0.0
 20
0.0
  0
INSERT
  2
*DIM_0015
  8
寸法
  6
CONTINUOUS
 10
0.0
 20
0.0
  0
INSERT
  2
*DIM_0016
  8
寸法
  6
CONTINUOUS
 10
0.0
 20
0.0
  0
INSERT
  2
*DIM_0017
  8
寸法
  6
CONTINUOUS
 10
0.0
 20
0.0
  0
INSERT
  2
*DIM_0018
  8
寸法
  6
CONTINUOUS
 10
0.0
 20
0.0
  0
INSERT
  2
*DIM_0019
  8
寸法
  6
CONTINUOUS
 10
0.0
 20
0.0
  0
INSERT
  2
*DIM_0020
  8
寸法
  6
CONTINUOUS
 10
0.0
 20
0.0
  0
INSERT
  2
*DIM_0021
  8
寸法
  6
CONTINUOUS
 10
0.0
 20
0.0
  0
INSERT
  2
*GRP_0002
  8
別途部材
  6
CONTINUOUS
 10
0.0
 20
0.0
  0
INSERT
  2
*GRP_0003
  8
別途部材
  6
DOT
 10
0.0
 20
0.0
  0
ENDSEC
  0
EOF
