  0
SECTION
  2
HEADER
  9
$EXTMIN
 10
-210.0
 20
-148.5
  9
$EXTMAX
 10
210.0
 20
148.5
  9
$PDMODE
 70
    32
  9
$PDSIZE
 40
1.5
  9
$LTSCALE
 40
10.0
  0
ENDSEC
  0
SECTION
  2
TABLES
  0
TABLE
  2
LTYPE
 70
    15
  0
LTYPE
  2
CONTINUOUS
 70
    64
  3
実線
 72
    65
 73
     0
 40
0.0
  0
LTYPE
  2
DASHED
 70
    64
  3
破線A
 72
    65
 73
     2
 40
0.6
 49
0.4
 49
-0.2
  0
LTYPE
  2
DASHEDX2
 70
    64
  3
破線B
 72
    65
 73
     2
 40
1.3
 49
0.9
 49
-0.4
  0
LTYPE
  2
DASHDOT
 70
    64
  3
１点鎖線A
 72
    65
 73
     4
 40
0.5375
 49
0.375
 49
-0.05
 49
0.0625
 49
-0.05
  0
LTYPE
  2
DASHDOTX2
 70
    64
  3
１点鎖線B
 72
    65
 73
     4
 40
1.075
 49
0.75
 49
-0.1
 49
0.125
 49
-0.1
  0
LTYPE
  2
DIVIDE2
 70
    64
  3
２点鎖線A
 72
    65
 73
     6
 40
0.5125
 49
0.3
 49
-0.0375
 49
0.05
 49
-0.0375
 49
0.05
 49
-0.0375
  0
LTYPE
  2
DIVIDE
 70
    64
  3
２点鎖線B
 72
    65
 73
     6
 40
1.05
 49
0.55
 49
-0.1
 49
0.1
 49
-0.1
 49
0.1
 49
-0.1
  0
LTYPE
  2
DOT
 70
    64
  3
点線A
 72
    65
 73
     2
 40
0.1125
 49
0.0625
 49
-0.05
  0
LTYPE
  2
DOTX2
 70
    64
  3
点線B
 72
    65
 73
     2
 40
0.275
 49
0.15
 49
-0.125
  0
LTYPE
  2
CONTINUOUS
 70
    64
  3
実線
 72
    65
 73
     0
 40
0.0
  0
LTYPE
  2
CONTINUOUS
 70
    64
  3
実線
 72
    65
 73
     0
 40
0.0
  0
LTYPE
  2
CONTINUOUS
 70
    64
  3
実線
 72
    65
 73
     0
 40
0.0
  0
LTYPE
  2
CONTINUOUS
 70
    64
  3
実線
 72
    65
 73
     0
 40
0.0
  0
LTYPE
  2
CONTINUOUS
 70
    64
  3
実線
 72
    65
 73
     0
 40
0.0
  0
LTYPE
  2
CONTINUOUS
 70
    64
  3
実線
 72
    65
 73
     0
 40
0.0
  0
ENDTAB
  0
TABLE
  2
LAYER
 70
    34
  0
LAYER
  2
通り芯
 70
     0
 62
    15
  6
CONTINUOUS
  0
LAYER
  2
補助線
 70
     0
 62
    16
  6
DOT
  0
LAYER
  2
躯体
 70
     0
 62
    31
  6
CONTINUOUS
  0
LAYER
  2
型材
 70
     0
 62
    32
  6
CONTINUOUS
  0
LAYER
  2
型材断面
 70
     0
 62
    47
  6
CONTINUOUS
  0
LAYER
  2
ガラス
 70
     0
 62
    48
  6
CONTINUOUS
  0
LAYER
  2
ゴム等
 70
     0
 62
    63
  6
CONTINUOUS
  0
LAYER
  2
ボルト／ビス
 70
     0
 62
    64
  6
CONTINUOUS
  0
LAYER
  2
文字
 70
     0
 62
    79
  6
CONTINUOUS
  0
LAYER
  2
寸法
 70
     0
 62
    80
  6
CONTINUOUS
  0
LAYER
  2
ﾊｯﾁﾝｸﾞ
 70
     0
 62
    95
  6
CONTINUOUS
  0
LAYER
  2
別途部材
 70
     0
 62
    96
  6
CONTINUOUS
  0
LAYER
  2
曲げ物
 70
     0
 62
   111
  6
CONTINUOUS
  0
LAYER
  2
鉄骨等
 70
     0
 62
   112
  6
CONTINUOUS
  0
LAYER
  2
St
 70
     0
 62
   127
  6
CONTINUOUS
  0
LAYER
  2
その他部品等
 70
     0
 62
   128
  6
CONTINUOUS
  0
LAYER
  2
ｶﾞｽｹｯﾄ
 70
     0
 62
   143
  6
CONTINUOUS
  0
LAYER
  2
ｽｹｯﾁ
 70
     0
 62
    14
  6
CONTINUOUS
  0
LAYER
  2
0
 70
     0
 62
    17
  6
CONTINUOUS
  0
LAYER
  2
1
 70
     0
 62
    30
  6
CONTINUOUS
  0
LAYER
  2
4
 70
     0
 62
    33
  6
CONTINUOUS
  0
LAYER
  2
ﾚｲﾔ3
 70
     0
 62
    46
  6
CONTINUOUS
  0
LAYER
  2
外形線
 70
     0
 62
    49
  6
CONTINUOUS
  0
LAYER
  2
部品
 70
     0
 62
    14
  6
CONTINUOUS
  0
LAYER
  2
サッシ芯
 70
     0
 62
    17
  6
DASHDOTX2
  0
LAYER
  2
寸法線
 70
     0
 62
    62
  6
CONTINUOUS
  0
LAYER
  2
姿図外形線
 70
     0
 62
    65
  6
CONTINUOUS
  0
LAYER
  2
姿補助線
 70
     0
 62
    30
  6
CONTINUOUS
  0
LAYER
  2
透視線
 70
     0
 62
    78
  6
DOT
  0
LAYER
  2
用紙
 70
     0
 62
    81
  6
CONTINUOUS
  0
LAYER
  2
実線図枠
 70
     0
 62
    94
  6
CONTINUOUS
  0
LAYER
  2
補助図枠
 70
     0
 62
    97
  6
CONTINUOUS
  0
LAYER
  2
建具記号
 70
     0
 62
   110
  6
CONTINUOUS
  0
LAYER
  2
補助文字
 70
     0
 62
   113
  6
CONTINUOUS
  0
ENDTAB
  0
TABLE
  2
STYLE
 70
    10
  0
STYLE
  2
STANDARD
 70
     0
 40
1.0
 41
1.0
 42
1.0
 50
0.0
 71
     0
  3
TXT
  4
BIGFONT
  0
STYLE
  2
TATE
 70
     4
 40
1.0
 41
1.0
 42
1.0
 50
0.0
 71
     0
  3
TXT
  4
BIGFONT
  0
STYLE
  2
TextStyle03
 70
     0
 40
1.0
 41
1.0
 42
1.0
 50
0.0
 71
     0
  3
MONOTXT
  4
BIGFONT
  0
STYLE
  2
TextStyle04
 70
     0
 40
1.0
 41
1.0
 42
1.0
 50
0.0
 71
     0
  3
MONOTXT
  4
BIGFONT
  0
STYLE
  2
TextStyle05
 70
     0
 40
1.0
 41
1.0
 42
1.0
 50
0.0
 71
     0
  3
MONOTXT
  4
BIGFONT
  0
STYLE
  2
TextStyle06
 70
     0
 40
1.0
 41
1.0
 42
1.0
 50
0.0
 71
     0
  3
MONOTXT
  4
BIGFONT
  0
STYLE
  2
TextStyle07
 70
     0
 40
1.0
 41
1.0
 42
1.0
 50
0.0
 71
     0
  3
MONOTXT
  4
BIGFONT
  0
STYLE
  2
TextStyle08
 70
     0
 40
1.0
 41
1.0
 42
1.0
 50
0.0
 71
     0
  3
MONOTXT
  4
BIGFONT
  0
STYLE
  2
TextStyle09
 70
     0
 40
1.0
 41
1.0
 42
1.0
 50
0.0
 71
     0
  3
MONOTXT
  4
BIGFONT
  0
STYLE
  2
TextStyle10
 70
     0
 40
1.0
 41
1.0
 42
1.0
 50
0.0
 71
     0
  3
MONOTXT
  4
BIGFONT
  0
ENDTAB
  0
ENDSEC
  0
SECTION
  2
BLOCKS
  0
BLOCK
  2
*GRP_0001
 70
    65
 10
0.0
 20
0.0
  0
LINE
  8
型材断面
  6
CONTINUOUS
 10
195.0
 20
133.5
 11
195.0
 21
-133.5
  0
LINE
  8
型材断面
  6
CONTINUOUS
 10
195.0
 20
-133.5
 11
-185.0
 21
-133.5
  0
LINE
  8
型材断面
  6
CONTINUOUS
 10
-185.0
 20
-133.5
 11
-185.0
 21
133.5
  0
LINE
  8
型材断面
  6
CONTINUOUS
 10
195.0
 20
133.5
 11
-185.0
 21
133.5
  0
LINE
  8
型材断面
  6
CONTINUOUS
 10
145.0
 20
-133.5
 11
145.0
 21
-118.5
  0
LINE
  8
型材断面
  6
CONTINUOUS
 10
195.0
 20
-118.5
 11
145.0
 21
-118.5
  0
ENDBLK
  0
BLOCK
  2
*GRP_0002
 70
    65
 10
0.0
 20
0.0
  0
LINE
  8
別途部材
  6
CONTINUOUS
 62
    96
 10
125.87322
 20
62.500828
 11
125.87322
 21
62.400828
  0
LINE
  8
別途部材
  6
CONTINUOUS
 62
    96
 10
123.77214
 20
62.600828
 11
123.841813
 21
63.931632
  0
LINE
  8
別途部材
  6
CONTINUOUS
 62
    96
 10
124.389885
 20
63.940827
 11
124.27322
 21
64.207495
  0
LINE
  8
別途部材
  6
CONTINUOUS
 62
    96
 10
124.289885
 20
63.919912
 11
124.222365
 21
64.074245
  0
LINE
  8
別途部材
  6
CONTINUOUS
 62
    96
 10
123.743043
 20
63.95775
 11
123.873493
 21
64.217952
  0
LINE
  8
別途部材
  6
CONTINUOUS
 62
    96
 10
123.841813
 20
63.931632
 11
123.973972
 21
64.195245
  0
LINE
  8
別途部材
  6
CONTINUOUS
 62
    96
 10
124.009575
 20
64.130363
 11
123.945927
 21
64.053233
  0
LINE
  8
別途部材
  6
DASHDOTX2
 62
    96
 10
124.07322
 20
64.207495
 11
123.759735
 21
64.207495
  0
LINE
  8
別途部材
  6
DASHDOTX2
 62
    96
 10
124.07322
 20
64.207495
 11
124.40368
 21
64.207495
  0
LINE
  8
別途部材
  6
DASHDOTX2
 62
    96
 10
124.07322
 20
64.207495
 11
124.07322
 21
63.944023
  0
LINE
  8
別途部材
  6
DASHDOTX2
 62
    96
 10
124.07322
 20
64.207495
 11
124.07322
 21
64.485805
  0
LINE
  8
別途部材
  6
CONTINUOUS
 62
    96
 10
124.289885
 20
62.400828
 11
124.289885
 21
63.919912
  0
LINE
  8
別途部材
  6
CONTINUOUS
 62
    96
 10
124.389885
 20
62.500828
 11
124.389885
 21
63.940827
  0
LINE
  8
別途部材
  6
CONTINUOUS
 62
    96
 10
122.538805
 20
62.70083
 11
123.677238
 21
62.70083
  0
LINE
  8
別途部材
  6
CONTINUOUS
 62
    96
 10
122.538805
 20
62.600828
 11
122.538805
 21
62.70083
  0
LINE
  8
別途部材
  6
CONTINUOUS
 62
    96
 10
122.538805
 20
62.600828
 11
123.77214
 21
62.600828
  0
CIRCLE
  8
別途部材
  6
CONTINUOUS
 62
    96
 10
124.07322
 20
64.207495
 40
0.1
  0
ARC
  8
別途部材
  6
CONTINUOUS
 62
    96
 10
124.073215
 20
64.207497
 40
0.2
 50
218.780606
 51
537.001556
  0
LINE
  8
別途部材
  6
CONTINUOUS
 62
    96
 10
124.289885
 20
62.400828
 11
125.87322
 21
62.400828
  0
LINE
  8
別途部材
  6
CONTINUOUS
 62
    96
 10
124.389885
 20
62.500828
 11
125.87322
 21
62.500828
  0
LINE
  8
別途部材
  6
CONTINUOUS
 62
    96
 10
123.743043
 20
63.95775
 11
123.677238
 21
62.70083
  0
ENDBLK
  0
BLOCK
  2
*GRP_0003
 70
    65
 10
0.0
 20
0.0
  0
LINE
  8
型材断面
  6
DOT
 62
    47
 10
121.980198
 20
64.014202
 11
121.980198
 21
64.028345
  0
LINE
  8
型材断面
  6
DOT
 62
    47
 10
121.980198
 20
64.014202
 11
121.99434
 21
64.014202
  0
LINE
  8
型材断面
  6
DOT
 62
    47
 10
122.434325
 20
63.560078
 11
122.434325
 21
63.574217
  0
LINE
  8
型材断面
  6
DOT
 62
    47
 10
122.434325
 20
63.560078
 11
122.448465
 21
63.560078
  0
LINE
  8
型材断面
  6
DOT
 62
    47
 10
122.736813
 20
63.271728
 11
122.448465
 21
63.560078
  0
LINE
  8
型材断面
  6
DOT
 62
    47
 10
122.434325
 20
63.574217
 11
121.99434
 21
64.014202
  0
LINE
  8
型材断面
  6
DOT
 62
    47
 10
123.679487
 20
64.120135
 11
123.797325
 21
64.002297
  0
LINE
  8
型材断面
  6
DOT
 62
    47
 10
122.736813
 20
63.271728
 11
123.684215
 21
64.124863
  0
LINE
  8
型材断面
  6
DOT
 10
123.679487
 20
64.120135
 11
110.951545
 21
51.392193
  0
LINE
  8
型材断面
  6
DOT
 62
    47
 10
123.797325
 20
64.002297
 11
111.069383
 21
51.274358
  0
LINE
  8
型材断面
  6
DOT
 10
122.736813
 20
63.271728
 11
110.90441
 21
51.439328
  0
LINE
  8
型材断面
  6
DOT
 62
    47
 10
98.329535
 20
40.363543
 11
98.315393
 21
40.363543
  0
LINE
  8
型材断面
  6
DOT
 62
    47
 10
98.329535
 20
40.363543
 11
98.329535
 21
40.349397
  0
LINE
  8
型材断面
  6
DOT
 62
    47
 10
98.783662
 20
39.909415
 11
98.76952
 21
39.909415
  0
LINE
  8
型材断面
  6
DOT
 62
    47
 10
98.783662
 20
39.909415
 11
98.783662
 21
39.895272
  0
LINE
  8
型材断面
  6
DOT
 62
    47
 10
99.07201
 20
39.606925
 11
98.783662
 21
39.895272
  0
LINE
  8
型材断面
  6
DOT
 62
    47
 10
98.76952
 20
39.909415
 11
98.329535
 21
40.349397
  0
LINE
  8
型材断面
  6
DOT
 62
    47
 10
98.223605
 20
38.66425
 11
98.34144
 21
38.546415
  0
LINE
  8
型材断面
  6
DOT
 62
    47
 10
99.07201
 20
39.606925
 11
98.218875
 21
38.659522
  0
LINE
  8
型材断面
  6
DOT
 10
98.223605
 20
38.66425
 11
110.951545
 21
51.392193
  0
LINE
  8
型材断面
  6
DOT
 62
    47
 10
98.34144
 20
38.546415
 11
111.069383
 21
51.274358
  0
LINE
  8
型材断面
  6
DOT
 10
99.07201
 20
39.606925
 11
110.90441
 21
51.439328
  0
LINE
  8
型材断面
  6
DOT
 62
    47
 10
121.980198
 20
64.014202
 11
121.980198
 21
64.028345
  0
LINE
  8
型材断面
  6
DOT
 62
    47
 10
121.980198
 20
64.014202
 11
121.99434
 21
64.014202
  0
LINE
  8
型材断面
  6
DOT
 62
    47
 10
122.434325
 20
63.560078
 11
122.434325
 21
63.574217
  0
LINE
  8
型材断面
  6
DOT
 62
    47
 10
122.434325
 20
63.560078
 11
122.448465
 21
63.560078
  0
LINE
  8
型材断面
  6
DOT
 62
    47
 10
122.736813
 20
63.271728
 11
122.448465
 21
63.560078
  0
LINE
  8
型材断面
  6
DOT
 62
    47
 10
122.434325
 20
63.574217
 11
121.99434
 21
64.014202
  0
LINE
  8
型材断面
  6
DOT
 62
    47
 10
122.736813
 20
63.271728
 11
123.684215
 21
64.124863
  0
LINE
  8
型材断面
  6
DOT
 10
123.679487
 20
64.120135
 11
110.951545
 21
51.392193
  0
LINE
  8
型材断面
  6
DOT
 10
122.736813
 20
63.271728
 11
110.90441
 21
51.439328
  0
LINE
  8
型材断面
  6
DOT
 62
    47
 10
98.329535
 20
40.363543
 11
98.315393
 21
40.363543
  0
LINE
  8
型材断面
  6
DOT
 62
    47
 10
98.329535
 20
40.363543
 11
98.329535
 21
40.349397
  0
LINE
  8
型材断面
  6
DOT
 62
    47
 10
98.783662
 20
39.909415
 11
98.76952
 21
39.909415
  0
LINE
  8
型材断面
  6
DOT
 62
    47
 10
98.783662
 20
39.909415
 11
98.783662
 21
39.895272
  0
LINE
  8
型材断面
  6
DOT
 62
    47
 10
99.07201
 20
39.606925
 11
98.783662
 21
39.895272
  0
LINE
  8
型材断面
  6
DOT
 62
    47
 10
98.76952
 20
39.909415
 11
98.329535
 21
40.349397
  0
LINE
  8
型材断面
  6
DOT
 62
    47
 10
99.07201
 20
39.606925
 11
98.218875
 21
38.659522
  0
LINE
  8
型材断面
  6
DOT
 10
98.223605
 20
38.66425
 11
110.951545
 21
51.392193
  0
LINE
  8
型材断面
  6
DOT
 10
99.07201
 20
39.606925
 11
110.90441
 21
51.439328
  0
LINE
  8
型材断面
  6
DOT
 62
    47
 10
120.938385
 20
65.503852
 11
120.3727
 21
66.069537
  0
ARC
  8
型材断面
  6
DOT
 10
120.365522
 20
66.156645
 40
0.1
 50
45.0
 51
135.0
  0
LINE
  8
型材断面
  6
DOT
 62
    47
 10
120.436235
 20
66.227357
 11
120.483375
 21
66.180215
  0
LINE
  8
型材断面
  6
DOT
 62
    47
 10
120.450418
 20
65.99152
 11
121.43321
 21
65.008727
  0
LINE
  8
型材断面
  6
DOT
 62
    47
 10
121.43321
 20
65.008727
 11
109.38411
 21
52.959627
  0
LINE
  8
型材断面
  6
DOT
 62
    47
 10
120.483375
 20
66.180215
 11
108.32345
 21
54.020288
  0
LINE
  8
型材断面
  6
DOT
 62
    47
 10
120.294815
 20
66.227357
 11
108.205597
 21
54.13814
  0
LINE
  8
型材断面
  6
DOT
 62
    47
 10
96.839885
 20
41.405352
 11
96.2742
 21
41.97104
  0
ARC
  8
型材断面
  6
DOT
 10
96.18709
 20
41.978213
 40
0.1
 50
135.0
 51
225.0
  0
LINE
  8
型材断面
  6
DOT
 62
    47
 10
96.116382
 20
41.907503
 11
96.163522
 21
41.860362
  0
LINE
  8
型材断面
  6
DOT
 62
    47
 10
96.35222
 20
41.89332
 11
97.33501
 21
40.91053
  0
LINE
  8
型材断面
  6
DOT
 62
    47
 10
97.33501
 20
40.91053
 11
109.38411
 21
52.959627
  0
LINE
  8
型材断面
  6
DOT
 62
    47
 10
96.163522
 20
41.860362
 11
108.32345
 21
54.020288
  0
LINE
  8
型材断面
  6
DOT
 62
    47
 10
96.116382
 20
42.048922
 11
108.205597
 21
54.13814
  0
LINE
  8
型材断面
  6
DOT
 62
    47
 10
121.980198
 20
64.028345
 11
121.21651
 21
64.79203
  0
LINE
  8
型材断面
  6
DOT
 62
    47
 10
121.980198
 20
64.028345
 11
121.21651
 21
64.79203
  0
LINE
  8
型材断面
  6
DOT
 62
    47
 10
98.315393
 20
40.363543
 11
97.551707
 21
41.127227
  0
LINE
  8
型材断面
  6
DOT
 62
    47
 10
98.315393
 20
40.363543
 11
97.551707
 21
41.127227
  0
ENDBLK
  0
BLOCK
  2
*DIM_0004
 70
    65
 10
0.0
 20
0.0
  0
LINE
  8
寸法
  6
CONTINUOUS
 10
121.59001
 20
27.133922
 11
79.0648
 21
27.133922
  0
LINE
  8
寸法
  6
CONTINUOUS
 10
79.0648
 20
30.867282
 11
79.0648
 21
27.133922
  0
POINT
  8
寸法
 10
79.0648
 20
30.867282
  0
POINT
  8
寸法
 10
79.0648
 20
27.133922
  0
TEXT
  7
TextStyle03
  8
寸法
  6
CONTINUOUS
 10
78.675
 20
26.5625
  1
112
 40
3.0
 50
90.0
 72
     5
 11
78.675
 21
31.4375
  0
ENDBLK
  0
BLOCK
  2
*DIM_0005
 70
    65
 10
0.0
 20
0.0
  0
LINE
  8
寸法
  6
CONTINUOUS
 10
121.59001
 20
64.600645
 11
79.0648
 21
64.600645
  0
LINE
  8
寸法
  6
CONTINUOUS
 10
79.0648
 20
60.867282
 11
79.0648
 21
64.600645
  0
POINT
  8
寸法
 10
79.0648
 20
60.867282
  0
POINT
  8
寸法
 10
79.0648
 20
64.600645
  0
TEXT
  7
TextStyle03
  8
寸法
  6
CONTINUOUS
 10
78.675
 20
60.2875
  1
112
 40
3.0
 50
90.0
 72
     5
 11
78.675
 21
65.1625
  0
ENDBLK
  0
BLOCK
  2
*DIM_0006
 70
    65
 10
0.0
 20
0.0
  0
LINE
  8
寸法
  6
CONTINUOUS
 10
127.09001
 20
22.133922
 11
127.09001
 21
15.337903
  0
LINE
  8
寸法
  6
CONTINUOUS
 10
119.973225
 20
23.851253
 11
119.973225
 21
15.337903
  0
LINE
  8
寸法
  6
CONTINUOUS
 10
127.09001
 20
15.337903
 11
119.973225
 21
15.337903
  0
POINT
  8
寸法
 10
127.09001
 20
15.337903
  0
POINT
  8
寸法
 10
119.973225
 20
15.337903
  0
TEXT
  7
TextStyle03
  8
寸法
  6
CONTINUOUS
 10
119.325
 20
11.475
  1
213.5
 40
3.0
 72
     5
 11
127.575
 21
11.475
  0
ENDBLK
  0
BLOCK
  2
*DIM_0007
 70
    65
 10
0.0
 20
0.0
  0
LINE
  8
寸法
  6
CONTINUOUS
 10
79.0648
 20
30.867282
 11
79.0648
 21
60.867282
  0
POINT
  8
寸法
 10
79.0648
 20
30.867282
  0
POINT
  8
寸法
 10
79.0648
 20
60.867282
  0
TEXT
  7
TextStyle03
  8
寸法
  6
CONTINUOUS
 10
78.675
 20
34.975
  1
呼称寸法　900
 40
3.0
 50
90.0
 72
     5
 11
78.675
 21
56.725
  0
ENDBLK
  0
BLOCK
  2
*DIM_0008
 70
    65
 10
0.0
 20
0.0
  0
LINE
  8
寸法
  6
CONTINUOUS
 10
-6.990245
 20
-71.841245
 11
-6.990245
 21
-42.588472
  0
LINE
  8
寸法
  6
CONTINUOUS
 10
-10.723605
 20
-42.588472
 11
-6.990245
 21
-42.588472
  0
POINT
  8
寸法
 10
-10.723605
 20
-42.588472
  0
POINT
  8
寸法
 10
-6.990245
 20
-42.588472
  0
TEXT
  7
TextStyle03
  8
寸法
  6
CONTINUOUS
 10
-11.3125
 20
-42.225
  1
112
 40
3.0
 72
     5
 11
-6.4375
 21
-42.225
  0
ENDBLK
  0
BLOCK
  2
*DIM_0009
 70
    65
 10
0.0
 20
0.0
  0
LINE
  8
寸法
  6
CONTINUOUS
 10
-1.990245
 20
-73.191245
 11
9.490833
 21
-73.191245
  0
LINE
  8
寸法
  6
CONTINUOUS
 10
-3.724562
 20
-66.07446
 11
9.490833
 21
-66.07446
  0
LINE
  8
寸法
  6
CONTINUOUS
 10
9.490833
 20
-73.191245
 11
9.490833
 21
-66.07446
  0
POINT
  8
寸法
 10
9.490833
 20
-73.191245
  0
POINT
  8
寸法
 10
9.490833
 20
-66.07446
  0
TEXT
  7
TextStyle03
  8
寸法
  6
CONTINUOUS
 10
12.475
 20
-73.775
  1
213.5
 40
3.0
 50
90.0
 72
     5
 11
12.475
 21
-65.525
  0
ENDBLK
  0
BLOCK
  2
*DIM_0010
 70
    65
 10
0.0
 20
0.0
  0
LINE
  8
寸法
  6
CONTINUOUS
 10
-114.456965
 20
-71.841245
 11
-114.456965
 21
-42.588472
  0
LINE
  8
寸法
  6
CONTINUOUS
 10
-110.723603
 20
-42.588472
 11
-114.456965
 21
-42.588472
  0
POINT
  8
寸法
 10
-110.723603
 20
-42.588472
  0
POINT
  8
寸法
 10
-114.456965
 20
-42.588472
  0
TEXT
  7
TextStyle03
  8
寸法
  6
CONTINUOUS
 10
-115.0375
 20
-42.225
  1
112
 40
3.0
 72
     5
 11
-110.1625
 21
-42.225
  0
ENDBLK
  0
BLOCK
  2
*DIM_0011
 70
    65
 10
0.0
 20
0.0
  0
LINE
  8
寸法
  6
CONTINUOUS
 10
-110.723603
 20
-42.588472
 11
-10.723605
 21
-42.588472
  0
POINT
  8
寸法
 10
-110.723603
 20
-42.588472
  0
POINT
  8
寸法
 10
-10.723605
 20
-42.588472
  0
TEXT
  7
TextStyle03
  8
寸法
  6
CONTINUOUS
 10
-72.44375
 20
-42.225
  1
呼称寸法　3000
 40
3.0
 72
     5
 11
-49.00625
 21
-42.225
  0
ENDBLK
  0
BLOCK
  2
*DIM_0012
 70
    65
 10
0.0
 20
0.0
  0
LINE
  8
寸法
  6
BYBLOCK
 62
     0
 10
-94.056938
 20
27.237153
 11
-94.056938
 21
22.15654
  0
LINE
  8
寸法
  6
BYBLOCK
 62
     0
 10
-27.390272
 20
27.237153
 11
-27.390272
 21
22.15654
  0
LINE
  8
寸法
  6
BYBLOCK
 62
     0
 10
-94.056938
 20
22.15654
 11
-27.390272
 21
22.15654
  0
POINT
  8
寸法
 62
     0
 10
-94.056938
 20
22.15654
  0
POINT
  8
寸法
 62
     0
 10
-27.390272
 20
22.15654
  0
TEXT
  7
TextStyle03
  8
寸法
  6
CONTINUOUS
 62
     0
 10
-64.00625
 20
22.525
  1
2000
 40
3.0
 72
     5
 11
-57.44375
 21
22.525
  0
ENDBLK
  0
BLOCK
  2
*DIM_0013
 70
    65
 10
0.0
 20
0.0
  0
LINE
  8
寸法
  6
BYBLOCK
 62
     0
 10
-12.723605
 20
25.26047
 11
-12.723605
 21
22.235427
  0
LINE
  8
寸法
  6
BYBLOCK
 62
     0
 10
-10.723605
 20
22.235427
 11
-12.723605
 21
22.235427
  0
POINT
  8
寸法
 62
     0
 10
-10.723605
 20
22.235427
  0
POINT
  8
寸法
 62
     0
 10
-12.723605
 20
22.235427
  0
TEXT
  7
TextStyle03
  8
寸法
  6
CONTINUOUS
 62
     0
 10
-14.59375
 20
18.45
  1
60
 40
3.0
 72
     5
 11
-11.40625
 21
18.45
  0
ENDBLK
  0
BLOCK
  2
*DIM_0014
 70
    65
 10
0.0
 20
0.0
  0
LINE
  8
寸法
  6
BYBLOCK
 62
     0
 10
-108.723605
 20
25.26047
 11
-108.723605
 21
22.235427
  0
LINE
  8
寸法
  6
BYBLOCK
 62
     0
 10
-110.723605
 20
22.235427
 11
-108.723605
 21
22.235427
  0
POINT
  8
寸法
 62
     0
 10
-110.723605
 20
22.235427
  0
POINT
  8
寸法
 62
     0
 10
-108.723605
 20
22.235427
  0
TEXT
  7
TextStyle03
  8
寸法
  6
CONTINUOUS
 62
     0
 10
-110.01875
 20
18.45
  1
60
 40
3.0
 72
     5
 11
-106.83125
 21
18.45
  0
ENDBLK
  0
BLOCK
  2
*DIM_0015
 70
    65
 10
0.0
 20
0.0
  0
LINE
  8
寸法
  6
BYBLOCK
 62
     0
 10
-113.723605
 20
55.867282
 11
-127.016443
 21
55.867282
  0
LINE
  8
寸法
  6
BYBLOCK
 62
     0
 10
-113.723605
 20
35.867282
 11
-127.016443
 21
35.867282
  0
LINE
  8
寸法
  6
BYBLOCK
 62
     0
 10
-127.016443
 20
55.867282
 11
-127.016443
 21
35.867282
  0
POINT
  8
寸法
 62
     0
 10
-127.016443
 20
55.867282
  0
POINT
  8
寸法
 62
     0
 10
-127.016443
 20
35.867282
  0
TEXT
  7
TextStyle03
  8
寸法
  6
CONTINUOUS
 62
     0
 10
-127.375
 20
43.4125
  1
600
 40
3.0
 50
90.0
 72
     5
 11
-127.375
 21
48.2875
  0
ENDBLK
  0
BLOCK
  2
*DIM_0016
 70
    65
 10
0.0
 20
0.0
  0
LINE
  8
寸法
  6
BYBLOCK
 62
     0
 10
-100.723605
 20
63.867282
 11
-100.723605
 21
92.975355
  0
LINE
  8
寸法
  6
BYBLOCK
 62
     0
 10
-74.056938
 20
63.867282
 11
-74.056938
 21
92.975355
  0
LINE
  8
寸法
  6
BYBLOCK
 62
     0
 10
-100.723605
 20
92.975355
 11
-74.056938
 21
92.975355
  0
POINT
  8
寸法
 62
     0
 10
-100.723605
 20
92.975355
  0
POINT
  8
寸法
 62
     0
 10
-74.056938
 20
92.975355
  0
TEXT
  7
TextStyle03
  8
寸法
  6
CONTINUOUS
 62
     0
 10
-89.8375
 20
93.35
  1
800
 40
3.0
 72
     5
 11
-84.9625
 21
93.35
  0
ENDBLK
  0
BLOCK
  2
*DIM_0017
 70
    65
 10
0.0
 20
0.0
  0
LINE
  8
寸法
  6
BYBLOCK
 62
     0
 10
-47.390272
 20
63.867282
 11
-47.390272
 21
92.975355
  0
LINE
  8
寸法
  6
BYBLOCK
 62
     0
 10
-74.056938
 20
92.975355
 11
-47.390272
 21
92.975355
  0
POINT
  8
寸法
 62
     0
 10
-47.390272
 20
92.975355
  0
TEXT
  7
TextStyle03
  8
寸法
  6
CONTINUOUS
 62
     0
 10
-63.1625
 20
93.35
  1
800
 40
3.0
 72
     5
 11
-58.2875
 21
93.35
  0
ENDBLK
  0
BLOCK
  2
*DIM_0018
 70
    65
 10
0.0
 20
0.0
  0
LINE
  8
寸法
  6
BYBLOCK
 62
     0
 10
-20.723605
 20
63.867282
 11
-20.723605
 21
92.975355
  0
LINE
  8
寸法
  6
BYBLOCK
 62
     0
 10
-47.390272
 20
92.975355
 11
-20.723605
 21
92.975355
  0
POINT
  8
寸法
 62
     0
 10
-20.723605
 20
92.975355
  0
TEXT
  7
TextStyle03
  8
寸法
  6
CONTINUOUS
 62
     0
 10
-36.4875
 20
93.35
  1
800
 40
3.0
 72
     5
 11
-31.6125
 21
93.35
  0
ENDBLK
  0
BLOCK
  2
*DIM_0019
 70
    65
 10
0.0
 20
0.0
  0
LINE
  8
寸法
  6
CONTINUOUS
 10
88.81085
 20
-41.25197
 11
88.81085
 21
-30.70466
  0
LINE
  8
寸法
  6
CONTINUOUS
 10
121.48085
 20
-41.25197
 11
121.48085
 21
-30.70466
  0
LINE
  8
寸法
  6
CONTINUOUS
 10
88.81085
 20
-30.70466
 11
121.48085
 21
-30.70466
  0
POINT
  8
寸法
 10
88.81085
 20
-30.70466
  0
POINT
  8
寸法
 10
121.48085
 20
-30.70466
  0
TEXT
  7
TextStyle03
  8
寸法
  6
CONTINUOUS
 10
101.0
 20
-30.35
  1
980.1
 40
3.0
 72
     5
 11
109.25
 21
-30.35
  0
ENDBLK
  0
BLOCK
  2
*DIM_0020
 70
    65
 10
0.0
 20
0.0
  0
LINE
  8
寸法
  6
CONTINUOUS
 10
126.48085
 20
-46.25197
 11
137.960848
 21
-46.25197
  0
LINE
  8
寸法
  6
CONTINUOUS
 10
126.48085
 20
-76.418635
 11
137.960848
 21
-76.418635
  0
LINE
  8
寸法
  6
CONTINUOUS
 10
137.960848
 20
-46.25197
 11
137.960848
 21
-76.418635
  0
POINT
  8
寸法
 10
137.960848
 20
-46.25197
  0
POINT
  8
寸法
 10
137.960848
 20
-76.418635
  0
TEXT
  7
TextStyle03
  8
寸法
  6
CONTINUOUS
 10
137.575
 20
-63.7875
  1
905
 40
3.0
 50
90.0
 72
     5
 11
137.575
 21
-58.9125
  0
ENDBLK
  0
ENDSEC
  0
SECTION
  2
ENTITIES
  0
POLYLINE
  8
通り芯
  6
CONTINUOUS
 66
     1
 70
     1
  0
VERTEX
  8
通り芯
 10
-210.0
 20
-148.5
  0
VERTEX
  8
通り芯
 10
210.0
 20
-148.5
  0
VERTEX
  8
通り芯
 10
210.0
 20
148.5
  0
VERTEX
  8
通り芯
 10
-210.0
 20
148.5
  0
SEQEND
  0
INSERT
  2
*GRP_0001
  8
型材断面
  6
CONTINUOUS
 10
0.0
 20
0.0
  0
LINE
  8
型材断面
  6
DASHDOT
 10
-60.723605
 20
-77.528333
 11
-60.723605
 21
60.867282
  0
LINE
  8
型材断面
  6
CONTINUOUS
 62
    47
 10
124.023228
 20
61.913977
 11
124.023228
 21
62.63419
  0
LINE
  8
型材断面
  6
CONTINUOUS
 62
    47
 10
122.729908
 20
62.590827
 11
122.719908
 21
62.600828
  0
LINE
  8
型材断面
  6
CONTINUOUS
 62
    47
 10
122.729908
 20
62.590827
 11
122.739907
 21
62.600828
  0
LINE
  8
型材断面
  6
CONTINUOUS
 62
    47
 10
123.37214
 20
62.590827
 11
123.36214
 21
62.600828
  0
LINE
  8
型材断面
  6
CONTINUOUS
 62
    47
 10
123.37214
 20
62.590827
 11
123.38214
 21
62.600828
  0
LINE
  8
型材断面
  6
CONTINUOUS
 62
    47
 10
123.789925
 20
62.600828
 11
123.38214
 21
62.600828
  0
LINE
  8
型材断面
  6
CONTINUOUS
 62
    47
 10
123.36214
 20
62.600828
 11
122.739907
 21
62.600828
  0
LINE
  8
型材断面
  6
CONTINUOUS
 62
    47
 10
127.423345
 20
64.100653
 11
127.09001
 21
64.100653
  0
LINE
  8
型材断面
  6
CONTINUOUS
 62
    47
 10
126.423343
 20
62.167492
 11
126.423343
 21
61.570645
  0
LINE
  8
型材断面
  6
CONTINUOUS
 62
    47
 10
126.42333
 20
62.400645
 11
126.59001
 21
64.600645
  0
LINE
  8
型材断面
  6
CONTINUOUS
 62
    47
 10
127.09001
 20
64.600645
 11
126.59001
 21
64.600645
  0
LINE
  8
型材断面
  6
CONTINUOUS
 62
    47
 10
124.289885
 20
63.867312
 11
124.15657
 21
63.867312
  0
LINE
  8
型材断面
  6
CONTINUOUS
 62
    47
 10
124.289885
 20
62.400645
 11
126.423343
 21
62.400645
  0
LINE
  8
型材断面
  6
CONTINUOUS
 62
    47
 10
124.289885
 20
63.867312
 11
124.289885
 21
45.867282
  0
LINE
  8
型材断面
  6
CONTINUOUS
 10
123.856582
 20
63.867312
 11
123.856582
 21
45.867282
  0
LINE
  8
型材断面
  6
CONTINUOUS
 62
    47
 10
124.023228
 20
63.867312
 11
124.023228
 21
45.867282
  0
LINE
  8
型材断面
  6
CONTINUOUS
 10
123.789925
 20
62.600828
 11
123.789925
 21
45.867282
  0
LINE
  8
型材断面
  6
CONTINUOUS
 62
    47
 10
124.15657
 20
63.867312
 11
124.15657
 21
45.867282
  0
LINE
  8
型材断面
  6
CONTINUOUS
 10
126.423343
 20
62.400645
 11
126.423343
 21
45.867282
  0
LINE
  8
型材断面
  6
CONTINUOUS
 10
126.59001
 20
64.600645
 11
126.59001
 21
45.867282
  0
LINE
  8
型材断面
  6
CONTINUOUS
 10
127.423345
 20
64.100653
 11
127.423345
 21
45.867282
  0
LINE
  8
型材断面
  6
CONTINUOUS
 10
127.09001
 20
64.600645
 11
127.09001
 21
45.867282
  0
LINE
  8
型材断面
  6
CONTINUOUS
 62
    47
 10
124.023228
 20
29.82059
 11
124.023228
 21
29.100377
  0
LINE
  8
型材断面
  6
CONTINUOUS
 62
    47
 10
122.729908
 20
29.14374
 11
122.719908
 21
29.13374
  0
LINE
  8
型材断面
  6
CONTINUOUS
 62
    47
 10
122.729908
 20
29.14374
 11
122.739907
 21
29.13374
  0
LINE
  8
型材断面
  6
CONTINUOUS
 62
    47
 10
123.37214
 20
29.14374
 11
123.36214
 21
29.13374
  0
LINE
  8
型材断面
  6
CONTINUOUS
 62
    47
 10
123.37214
 20
29.14374
 11
123.38214
 21
29.13374
  0
LINE
  8
型材断面
  6
CONTINUOUS
 62
    47
 10
123.789925
 20
29.13374
 11
123.38214
 21
29.13374
  0
LINE
  8
型材断面
  6
CONTINUOUS
 62
    47
 10
123.36214
 20
29.13374
 11
122.739907
 21
29.13374
  0
LINE
  8
型材断面
  6
CONTINUOUS
 62
    47
 10
127.423345
 20
27.633913
 11
127.09001
 21
27.633913
  0
LINE
  8
型材断面
  6
CONTINUOUS
 62
    47
 10
126.423343
 20
29.567075
 11
126.423343
 21
30.163923
  0
LINE
  8
型材断面
  6
CONTINUOUS
 62
    47
 10
126.42333
 20
29.333922
 11
126.59001
 21
27.133922
  0
LINE
  8
型材断面
  6
CONTINUOUS
 62
    47
 10
127.09001
 20
27.133922
 11
126.59001
 21
27.133922
  0
LINE
  8
型材断面
  6
CONTINUOUS
 62
    47
 10
124.289885
 20
27.867255
 11
124.15657
 21
27.867255
  0
LINE
  8
型材断面
  6
CONTINUOUS
 62
    47
 10
124.289885
 20
29.333922
 11
126.423343
 21
29.333922
  0
LINE
  8
型材断面
  6
CONTINUOUS
 62
    47
 10
124.289885
 20
27.867255
 11
124.289885
 21
45.867282
  0
LINE
  8
型材断面
  6
CONTINUOUS
 62
    47
 10
124.023228
 20
27.867255
 11
124.023228
 21
45.867282
  0
LINE
  8
型材断面
  6
CONTINUOUS
 10
123.789925
 20
29.13374
 11
123.789925
 21
45.867282
  0
LINE
  8
型材断面
  6
CONTINUOUS
 62
    47
 10
124.15657
 20
27.867255
 11
124.15657
 21
45.867282
  0
LINE
  8
型材断面
  6
CONTINUOUS
 10
126.423343
 20
29.333922
 11
126.423343
 21
45.867282
  0
LINE
  8
型材断面
  6
CONTINUOUS
 10
126.59001
 20
27.133922
 11
126.59001
 21
45.867282
  0
LINE
  8
型材断面
  6
CONTINUOUS
 10
127.423345
 20
27.633913
 11
127.423345
 21
45.867282
  0
LINE
  8
型材断面
  6
CONTINUOUS
 10
127.09001
 20
27.133922
 11
127.09001
 21
45.867282
  0
LINE
  8
型材断面
  6
CONTINUOUS
 62
    47
 10
124.023228
 20
61.913977
 11
124.023228
 21
62.63419
  0
LINE
  8
型材断面
  6
CONTINUOUS
 62
    47
 10
122.729908
 20
62.590827
 11
122.719908
 21
62.600828
  0
LINE
  8
型材断面
  6
CONTINUOUS
 62
    47
 10
122.729908
 20
62.590827
 11
122.739907
 21
62.600828
  0
LINE
  8
型材断面
  6
CONTINUOUS
 62
    47
 10
123.37214
 20
62.590827
 11
123.36214
 21
62.600828
  0
LINE
  8
型材断面
  6
CONTINUOUS
 62
    47
 10
123.37214
 20
62.590827
 11
123.38214
 21
62.600828
  0
LINE
  8
型材断面
  6
CONTINUOUS
 62
    47
 10
123.789925
 20
62.600828
 11
123.38214
 21
62.600828
  0
LINE
  8
型材断面
  6
CONTINUOUS
 62
    47
 10
123.36214
 20
62.600828
 11
122.739907
 21
62.600828
  0
LINE
  8
型材断面
  6
CONTINUOUS
 62
    47
 10
123.856582
 20
63.867312
 11
124.023228
 21
63.867312
  0
LINE
  8
型材断面
  6
CONTINUOUS
 10
123.856582
 20
63.867312
 11
123.856582
 21
45.867282
  0
LINE
  8
型材断面
  6
CONTINUOUS
 62
    47
 10
124.023228
 20
63.867312
 11
124.023228
 21
45.867282
  0
LINE
  8
型材断面
  6
CONTINUOUS
 10
123.789925
 20
62.600828
 11
123.789925
 21
45.867282
  0
LINE
  8
型材断面
  6
CONTINUOUS
 62
    47
 10
124.023228
 20
29.82059
 11
124.023228
 21
29.100377
  0
LINE
  8
型材断面
  6
CONTINUOUS
 62
    47
 10
122.729908
 20
29.14374
 11
122.719908
 21
29.13374
  0
LINE
  8
型材断面
  6
CONTINUOUS
 62
    47
 10
122.729908
 20
29.14374
 11
122.739907
 21
29.13374
  0
LINE
  8
型材断面
  6
CONTINUOUS
 62
    47
 10
123.37214
 20
29.14374
 11
123.36214
 21
29.13374
  0
LINE
  8
型材断面
  6
CONTINUOUS
 62
    47
 10
123.37214
 20
29.14374
 11
123.38214
 21
29.13374
  0
LINE
  8
型材断面
  6
CONTINUOUS
 62
    47
 10
123.789925
 20
29.13374
 11
123.38214
 21
29.13374
  0
LINE
  8
型材断面
  6
CONTINUOUS
 62
    47
 10
123.36214
 20
29.13374
 11
122.739907
 21
29.13374
  0
LINE
  8
型材断面
  6
CONTINUOUS
 62
    47
 10
124.023228
 20
27.867255
 11
124.023228
 21
45.867282
  0
LINE
  8
型材断面
  6
CONTINUOUS
 10
123.789925
 20
29.13374
 11
123.789925
 21
45.867282
  0
ARC
  8
型材断面
  6
DASHDOT
 10
124.073217
 20
64.207496
 40
36.340275
 50
224.92118
 51
269.921181
  0
LINE
  8
型材断面
  6
CONTINUOUS
 62
    47
 10
120.939895
 20
62.907495
 11
120.139892
 21
62.907495
  0
ARC
  8
型材断面
  6
CONTINUOUS
 10
120.073223
 20
62.964017
 40
0.1
 50
90.0
 51
180.0
  0
LINE
  8
型材断面
  6
CONTINUOUS
 62
    47
 10
120.073225
 20
63.064018
 11
120.139892
 21
63.064018
  0
LINE
  8
型材断面
  6
CONTINUOUS
 62
    47
 10
120.250015
 20
62.907282
 11
121.639892
 21
62.907282
  0
LINE
  8
型材断面
  6
CONTINUOUS
 62
    47
 10
121.639892
 20
62.907282
 11
121.639892
 21
45.867282
  0
LINE
  8
型材断面
  6
CONTINUOUS
 62
    47
 10
120.139892
 20
63.064018
 11
120.139892
 21
45.867282
  0
LINE
  8
型材断面
  6
CONTINUOUS
 62
    47
 10
119.973225
 20
62.964018
 11
119.973225
 21
45.867282
  0
LINE
  8
型材断面
  6
CONTINUOUS
 62
    47
 10
120.939895
 20
28.827073
 11
120.139892
 21
28.827073
  0
ARC
  8
型材断面
  6
CONTINUOUS
 10
120.073223
 20
28.770551
 40
0.1
 50
180.0
 51
270.0
  0
LINE
  8
型材断面
  6
CONTINUOUS
 62
    47
 10
120.073225
 20
28.67055
 11
120.139892
 21
28.67055
  0
LINE
  8
型材断面
  6
CONTINUOUS
 62
    47
 10
120.250015
 20
28.827283
 11
121.639892
 21
28.827283
  0
LINE
  8
型材断面
  6
CONTINUOUS
 62
    47
 10
121.639892
 20
28.827283
 11
121.639892
 21
45.867282
  0
LINE
  8
型材断面
  6
CONTINUOUS
 62
    47
 10
120.139892
 20
28.67055
 11
120.139892
 21
45.867282
  0
LINE
  8
型材断面
  6
CONTINUOUS
 62
    47
 10
119.973225
 20
28.77055
 11
119.973225
 21
45.867282
  0
LINE
  8
型材断面
  6
CONTINUOUS
 62
    47
 10
122.719908
 20
62.600828
 11
121.639892
 21
62.600828
  0
LINE
  8
型材断面
  6
CONTINUOUS
 62
    47
 10
122.719908
 20
62.600828
 11
121.639892
 21
62.600828
  0
LINE
  8
型材断面
  6
CONTINUOUS
 62
    47
 10
122.719908
 20
29.13374
 11
121.639892
 21
29.13374
  0
LINE
  8
型材断面
  6
CONTINUOUS
 62
    47
 10
122.719908
 20
29.13374
 11
121.639892
 21
29.13374
  0
LINE
  8
型材断面
  6
CONTINUOUS
 62
    47
 10
124.023228
 20
63.867312
 11
123.856233
 21
63.867312
  0
LINE
  8
型材断面
  6
CONTINUOUS
 62
    47
 10
123.789925
 20
62.600828
 11
123.856233
 21
63.867312
  0
LINE
  8
型材断面
  6
CONTINUOUS
 62
    47
 10
124.023228
 20
27.867255
 11
123.856233
 21
27.867255
  0
LINE
  8
型材断面
  6
CONTINUOUS
 62
    47
 10
123.789925
 20
29.13374
 11
123.856233
 21
27.867255
  0
LINE
  8
型材断面
  6
CONTINUOUS
 62
    47
 10
124.023228
 20
27.867255
 11
123.856233
 21
27.867255
  0
LINE
  8
型材断面
  6
CONTINUOUS
 10
123.856233
 20
27.867255
 11
123.856233
 21
45.867282
  0
LINE
  8
型材断面
  6
CONTINUOUS
 10
-8.762575
 20
28.67055
 11
-8.526872
 21
28.906252
  0
LINE
  8
型材断面
  6
CONTINUOUS
 10
-11.262788
 20
31.170762
 11
-11.027085
 21
31.406465
  0
LINE
  8
型材断面
  6
CONTINUOUS
 10
-11.027085
 20
31.406465
 11
-8.526872
 21
28.906252
  0
LINE
  8
型材断面
  6
CONTINUOUS
 10
-11.262788
 20
31.170762
 11
-8.762575
 21
28.67055
  0
LINE
  8
型材断面
  6
CONTINUOUS
 10
-6.990245
 20
27.133922
 11
-8.644725
 21
28.788402
  0
LINE
  8
型材断面
  6
CONTINUOUS
 62
    47
 10
-9.676912
 20
-70.124463
 11
-8.9567
 21
-70.124463
  0
LINE
  8
型材断面
  6
CONTINUOUS
 62
    47
 10
-9.000062
 20
-68.831142
 11
-8.990063
 21
-68.821143
  0
LINE
  8
型材断面
  6
CONTINUOUS
 62
    47
 10
-9.000062
 20
-68.831142
 11
-8.990063
 21
-68.841143
  0
LINE
  8
型材断面
  6
CONTINUOUS
 62
    47
 10
-9.000062
 20
-69.473375
 11
-8.990063
 21
-69.463375
  0
LINE
  8
型材断面
  6
CONTINUOUS
 62
    47
 10
-9.000062
 20
-69.473375
 11
-8.990063
 21
-69.483375
  0
LINE
  8
型材断面
  6
CONTINUOUS
 62
    47
 10
-8.990063
 20
-69.89116
 11
-8.990063
 21
-69.483375
  0
LINE
  8
型材断面
  6
CONTINUOUS
 62
    47
 10
-8.990063
 20
-69.463375
 11
-8.990063
 21
-68.841143
  0
LINE
  8
型材断面
  6
CONTINUOUS
 62
    47
 10
-7.490235
 20
-73.52458
 11
-7.490235
 21
-73.191245
  0
LINE
  8
型材断面
  6
CONTINUOUS
 62
    47
 10
-9.423398
 20
-72.524578
 11
-10.020245
 21
-72.524578
  0
LINE
  8
型材断面
  6
CONTINUOUS
 62
    47
 10
-9.190245
 20
-72.524565
 11
-6.990245
 21
-72.691245
  0
LINE
  8
型材断面
  6
CONTINUOUS
 62
    47
 10
-6.990245
 20
-73.191245
 11
-6.990245
 21
-72.691245
  0
LINE
  8
型材断面
  6
CONTINUOUS
 62
    47
 10
-7.723578
 20
-70.39112
 11
-7.723578
 21
-70.257805
  0
LINE
  8
型材断面
  6
CONTINUOUS
 62
    47
 10
-9.190245
 20
-70.39112
 11
-9.190245
 21
-72.524578
  0
LINE
  8
型材断面
  6
CONTINUOUS
 62
    47
 10
-8.683395
 20
-67.04113
 11
-8.683395
 21
-66.241128
  0
ARC
  8
型材断面
  6
CONTINUOUS
 10
-8.626871
 20
-66.174459
 40
0.1
 50
0.0
 51
90.0
  0
LINE
  8
型材断面
  6
CONTINUOUS
 62
    47
 10
-8.526872
 20
-66.17446
 11
-8.526872
 21
-66.241128
  0
LINE
  8
型材断面
  6
CONTINUOUS
 62
    47
 10
-8.683605
 20
-66.35125
 11
-8.683605
 21
-67.741128
  0
LINE
  8
型材断面
  6
CONTINUOUS
 62
    47
 10
-8.990063
 20
-68.821143
 11
-8.990063
 21
-67.741128
  0
LINE
  8
型材断面
  6
CONTINUOUS
 62
    47
 10
-7.723578
 20
-70.124463
 11
-7.723578
 21
-69.957467
  0
LINE
  8
型材断面
  6
CONTINUOUS
 62
    47
 10
-8.990063
 20
-69.89116
 11
-7.723578
 21
-69.957467
  0
LINE
  8
型材断面
  6
CONTINUOUS
 10
-6.990245
 20
-72.691245
 11
-60.723605
 21
-72.691245
  0
LINE
  8
型材断面
  6
CONTINUOUS
 10
-9.190245
 20
-72.524578
 11
-60.723605
 21
-72.524578
  0
LINE
  8
型材断面
  6
CONTINUOUS
 10
-6.990245
 20
-73.191245
 11
-60.723605
 21
-73.191245
  0
LINE
  8
型材断面
  6
CONTINUOUS
 10
-7.490235
 20
-73.52458
 11
-60.723605
 21
-73.52458
  0
LINE
  8
型材断面
  6
CONTINUOUS
 62
    47
 10
-7.723578
 20
-70.257805
 11
-60.723605
 21
-70.257805
  0
LINE
  8
型材断面
  6
CONTINUOUS
 10
-7.723578
 20
-69.957817
 11
-60.723605
 21
-69.957817
  0
LINE
  8
型材断面
  6
CONTINUOUS
 62
    47
 10
-7.723578
 20
-70.39112
 11
-60.723605
 21
-70.39112
  0
LINE
  8
型材断面
  6
CONTINUOUS
 62
    47
 10
-7.723578
 20
-70.124463
 11
-60.723605
 21
-70.124463
  0
LINE
  8
型材断面
  6
CONTINUOUS
 10
-8.990063
 20
-69.89116
 11
-60.723605
 21
-69.89116
  0
LINE
  8
型材断面
  6
CONTINUOUS
 62
    47
 10
-8.683605
 20
-67.741128
 11
-60.723605
 21
-67.741128
  0
LINE
  8
型材断面
  6
CONTINUOUS
 62
    47
 10
-8.526872
 20
-66.241128
 11
-60.723605
 21
-66.241128
  0
LINE
  8
型材断面
  6
CONTINUOUS
 62
    47
 10
-8.626872
 20
-66.07446
 11
-60.723605
 21
-66.07446
  0
LINE
  8
型材断面
  6
CONTINUOUS
 10
-8.762575
 20
28.67055
 11
-60.723605
 21
28.67055
  0
LINE
  8
型材断面
  6
CONTINUOUS
 10
-6.990245
 20
27.133922
 11
-60.723605
 21
27.133922
  0
LINE
  8
型材断面
  6
CONTINUOUS
 10
-7.723578
 20
27.867255
 11
-60.723605
 21
27.867255
  0
LINE
  8
型材断面
  6
CONTINUOUS
 10
-8.762575
 20
63.064018
 11
-8.526872
 21
62.828312
  0
LINE
  8
型材断面
  6
CONTINUOUS
 10
-11.262788
 20
60.563805
 11
-11.027085
 21
60.328103
  0
LINE
  8
型材断面
  6
CONTINUOUS
 10
-11.027085
 20
60.328103
 11
-8.526872
 21
62.828312
  0
LINE
  8
型材断面
  6
CONTINUOUS
 10
-11.262788
 20
60.563805
 11
-8.762575
 21
63.064018
  0
LINE
  8
型材断面
  6
CONTINUOUS
 10
-6.990245
 20
64.600645
 11
-8.644725
 21
62.946165
  0
LINE
  8
型材断面
  6
CONTINUOUS
 10
-7.723578
 20
63.867312
 11
-60.723605
 21
63.867312
  0
LINE
  8
型材断面
  6
CONTINUOUS
 10
-6.990245
 20
64.600645
 11
-60.723605
 21
64.600645
  0
LINE
  8
型材断面
  6
CONTINUOUS
 10
-8.762575
 20
63.064018
 11
-60.723605
 21
63.064018
  0
LINE
  8
型材断面
  6
CONTINUOUS
 10
-11.027085
 20
46.28395
 11
-8.526872
 21
46.28395
  0
LINE
  8
型材断面
  6
CONTINUOUS
 10
-11.027085
 20
45.450618
 11
-8.526872
 21
45.450618
  0
LINE
  8
型材断面
  6
CONTINUOUS
 10
-11.027085
 20
31.406465
 11
-11.027085
 21
45.450618
  0
LINE
  8
型材断面
  6
CONTINUOUS
 10
-6.990245
 20
27.133922
 11
-6.990245
 21
45.867282
  0
LINE
  8
型材断面
  6
CONTINUOUS
 10
-7.723578
 20
27.867255
 11
-7.723578
 21
45.867282
  0
LINE
  8
型材断面
  6
CONTINUOUS
 10
-7.723578
 20
45.867282
 11
-7.723578
 21
63.867312
  0
LINE
  8
型材断面
  6
CONTINUOUS
 10
-6.990245
 20
45.867282
 11
-6.990245
 21
64.600645
  0
LINE
  8
型材断面
  6
CONTINUOUS
 10
-8.526872
 20
28.906252
 11
-8.526872
 21
62.828312
  0
LINE
  8
型材断面
  6
CONTINUOUS
 10
-11.027085
 20
46.28395
 11
-11.027085
 21
60.328103
  0
LINE
  8
型材断面
  6
DASHDOT
 10
-10.723605
 20
-77.528333
 11
-10.723605
 21
60.867282
  0
LINE
  8
型材断面
  6
DASHDOT
 10
130.329942
 20
30.867282
 11
-110.723603
 21
30.867282
  0
LINE
  8
型材断面
  6
CONTINUOUS
 62
    47
 10
-111.770298
 20
-70.124463
 11
-112.49051
 21
-70.124463
  0
LINE
  8
型材断面
  6
CONTINUOUS
 62
    47
 10
-112.447148
 20
-68.831142
 11
-112.457147
 21
-68.821143
  0
LINE
  8
型材断面
  6
CONTINUOUS
 62
    47
 10
-112.447148
 20
-68.831142
 11
-112.457147
 21
-68.841143
  0
LINE
  8
型材断面
  6
CONTINUOUS
 62
    47
 10
-112.447148
 20
-69.473375
 11
-112.457147
 21
-69.463375
  0
LINE
  8
型材断面
  6
CONTINUOUS
 62
    47
 10
-112.447148
 20
-69.473375
 11
-112.457147
 21
-69.483375
  0
LINE
  8
型材断面
  6
CONTINUOUS
 62
    47
 10
-112.457147
 20
-69.89116
 11
-112.457147
 21
-69.483375
  0
LINE
  8
型材断面
  6
CONTINUOUS
 62
    47
 10
-112.457147
 20
-69.463375
 11
-112.457147
 21
-68.841143
  0
LINE
  8
型材断面
  6
CONTINUOUS
 62
    47
 10
-113.956975
 20
-73.52458
 11
-113.956975
 21
-73.191245
  0
LINE
  8
型材断面
  6
CONTINUOUS
 62
    47
 10
-112.023812
 20
-72.524578
 11
-111.426965
 21
-72.524578
  0
LINE
  8
型材断面
  6
CONTINUOUS
 62
    47
 10
-112.256965
 20
-72.524565
 11
-114.456965
 21
-72.691245
  0
LINE
  8
型材断面
  6
CONTINUOUS
 62
    47
 10
-114.456965
 20
-73.191245
 11
-114.456965
 21
-72.691245
  0
LINE
  8
型材断面
  6
CONTINUOUS
 62
    47
 10
-113.723632
 20
-70.39112
 11
-113.723632
 21
-70.257805
  0
LINE
  8
型材断面
  6
CONTINUOUS
 62
    47
 10
-112.256965
 20
-70.39112
 11
-112.256965
 21
-72.524578
  0
LINE
  8
型材断面
  6
CONTINUOUS
 62
    47
 10
-112.763815
 20
-67.04113
 11
-112.763815
 21
-66.241128
  0
ARC
  8
型材断面
  6
CONTINUOUS
 10
-112.820338
 20
-66.174459
 40
0.1
 50
90.0
 51
180.0
  0
LINE
  8
型材断面
  6
CONTINUOUS
 62
    47
 10
-112.920338
 20
-66.17446
 11
-112.920338
 21
-66.241128
  0
LINE
  8
型材断面
  6
CONTINUOUS
 62
    47
 10
-112.763605
 20
-66.35125
 11
-112.763605
 21
-67.741128
  0
LINE
  8
型材断面
  6
CONTINUOUS
 62
    47
 10
-112.457147
 20
-68.821143
 11
-112.457147
 21
-67.741128
  0
LINE
  8
型材断面
  6
CONTINUOUS
 62
    47
 10
-113.723632
 20
-70.124463
 11
-113.723632
 21
-69.957467
  0
LINE
  8
型材断面
  6
CONTINUOUS
 62
    47
 10
-112.457147
 20
-69.89116
 11
-113.723632
 21
-69.957467
  0
LINE
  8
型材断面
  6
CONTINUOUS
 10
-114.456965
 20
-72.691245
 11
-60.723605
 21
-72.691245
  0
LINE
  8
型材断面
  6
CONTINUOUS
 10
-112.256965
 20
-72.524578
 11
-60.723605
 21
-72.524578
  0
LINE
  8
型材断面
  6
CONTINUOUS
 10
-114.456965
 20
-73.191245
 11
-60.723605
 21
-73.191245
  0
LINE
  8
型材断面
  6
CONTINUOUS
 10
-113.956975
 20
-73.52458
 11
-60.723605
 21
-73.52458
  0
LINE
  8
型材断面
  6
CONTINUOUS
 62
    47
 10
-113.723632
 20
-70.257805
 11
-60.723605
 21
-70.257805
  0
LINE
  8
型材断面
  6
CONTINUOUS
 10
-113.723632
 20
-69.957817
 11
-60.723605
 21
-69.957817
  0
LINE
  8
型材断面
  6
CONTINUOUS
 62
    47
 10
-113.723632
 20
-70.39112
 11
-60.723605
 21
-70.39112
  0
LINE
  8
型材断面
  6
CONTINUOUS
 62
    47
 10
-113.723632
 20
-70.124463
 11
-60.723605
 21
-70.124463
  0
LINE
  8
型材断面
  6
CONTINUOUS
 10
-112.457147
 20
-69.89116
 11
-60.723605
 21
-69.89116
  0
LINE
  8
型材断面
  6
CONTINUOUS
 62
    47
 10
-112.763605
 20
-67.741128
 11
-60.723605
 21
-67.741128
  0
LINE
  8
型材断面
  6
CONTINUOUS
 62
    47
 10
-112.920338
 20
-66.241128
 11
-60.723605
 21
-66.241128
  0
LINE
  8
型材断面
  6
CONTINUOUS
 62
    47
 10
-112.820338
 20
-66.07446
 11
-60.723605
 21
-66.07446
  0
LINE
  8
型材断面
  6
CONTINUOUS
 10
-112.684635
 20
28.67055
 11
-112.920338
 21
28.906252
  0
LINE
  8
型材断面
  6
CONTINUOUS
 10
-110.184422
 20
31.170762
 11
-110.420125
 21
31.406465
  0
LINE
  8
型材断面
  6
CONTINUOUS
 10
-110.420125
 20
31.406465
 11
-112.920338
 21
28.906252
  0
LINE
  8
型材断面
  6
CONTINUOUS
 10
-110.184422
 20
31.170762
 11
-112.684635
 21
28.67055
  0
LINE
  8
型材断面
  6
CONTINUOUS
 10
-114.456965
 20
27.133922
 11
-112.802485
 21
28.788402
  0
LINE
  8
型材断面
  6
CONTINUOUS
 10
-112.684635
 20
28.67055
 11
-60.723605
 21
28.67055
  0
LINE
  8
型材断面
  6
CONTINUOUS
 10
-114.456965
 20
27.133922
 11
-60.723605
 21
27.133922
  0
LINE
  8
型材断面
  6
CONTINUOUS
 10
-113.723632
 20
27.867255
 11
-60.723605
 21
27.867255
  0
LINE
  8
型材断面
  6
DASHDOT
 10
130.329942
 20
60.867282
 11
-110.723603
 21
60.867282
  0
LINE
  8
型材断面
  6
CONTINUOUS
 10
-112.684635
 20
63.064018
 11
-112.920338
 21
62.828312
  0
LINE
  8
型材断面
  6
CONTINUOUS
 10
-110.184422
 20
60.563805
 11
-110.420125
 21
60.328103
  0
LINE
  8
型材断面
  6
CONTINUOUS
 10
-110.420125
 20
60.328103
 11
-112.920338
 21
62.828312
  0
LINE
  8
型材断面
  6
CONTINUOUS
 10
-110.184422
 20
60.563805
 11
-112.684635
 21
63.064018
  0
LINE
  8
型材断面
  6
CONTINUOUS
 10
-114.456965
 20
64.600645
 11
-112.802485
 21
62.946165
  0
LINE
  8
型材断面
  6
CONTINUOUS
 10
-113.723632
 20
63.867312
 11
-60.723605
 21
63.867312
  0
LINE
  8
型材断面
  6
CONTINUOUS
 10
-114.456965
 20
64.600645
 11
-60.723605
 21
64.600645
  0
LINE
  8
型材断面
  6
CONTINUOUS
 10
-112.684635
 20
63.064018
 11
-60.723605
 21
63.064018
  0
LINE
  8
型材断面
  6
DASHDOT
 10
130.329942
 20
45.867282
 11
-110.723603
 21
45.867282
  0
LINE
  8
型材断面
  6
CONTINUOUS
 10
-110.420125
 20
46.28395
 11
-112.920338
 21
46.28395
  0
LINE
  8
型材断面
  6
CONTINUOUS
 10
-110.420125
 20
45.450618
 11
-112.920338
 21
45.450618
  0
LINE
  8
型材断面
  6
CONTINUOUS
 10
-110.420125
 20
31.406465
 11
-110.420125
 21
45.450618
  0
LINE
  8
型材断面
  6
CONTINUOUS
 10
-114.456965
 20
27.133922
 11
-114.456965
 21
45.867282
  0
LINE
  8
型材断面
  6
CONTINUOUS
 10
-113.723632
 20
27.867255
 11
-113.723632
 21
45.867282
  0
LINE
  8
型材断面
  6
CONTINUOUS
 10
-110.420125
 20
46.28395
 11
-110.420125
 21
60.328103
  0
LINE
  8
型材断面
  6
CONTINUOUS
 10
-112.920338
 20
28.906252
 11
-112.920338
 21
62.828312
  0
LINE
  8
型材断面
  6
CONTINUOUS
 10
-113.723632
 20
45.867282
 11
-113.723632
 21
63.867312
  0
LINE
  8
型材断面
  6
CONTINUOUS
 10
-114.456965
 20
45.867282
 11
-114.456965
 21
64.600645
  0
LINE
  8
型材断面
  6
DASHDOT
 10
-110.723603
 20
-77.528333
 11
-110.723603
 21
60.867282
  0
LINE
  8
型材断面
  6
DASHDOT
 10
-110.723603
 20
60.867282
 11
-10.723605
 21
60.867282
  0
LINE
  8
型材断面
  6
CONTINUOUS
 10
-94.056938
 20
63.497413
 11
-95.552567
 21
66.08792
  0
LINE
  8
型材断面
  6
CONTINUOUS
 10
-94.056938
 20
63.497413
 11
-92.561308
 21
66.08792
  0
LINE
  8
型材断面
  6
CONTINUOUS
 10
-92.561308
 20
66.08792
 11
-95.552567
 21
66.08792
  0
LINE
  8
型材断面
  6
CONTINUOUS
 10
-113.353735
 20
45.867282
 11
-115.944243
 21
47.362912
  0
LINE
  8
型材断面
  6
CONTINUOUS
 10
-113.353735
 20
45.867282
 11
-115.944243
 21
44.371652
  0
LINE
  8
型材断面
  6
CONTINUOUS
 10
-115.944243
 20
44.371652
 11
-115.944243
 21
47.362912
  0
LINE
  8
型材断面
  6
CONTINUOUS
 10
-94.056938
 20
28.237153
 11
-95.552567
 21
25.646645
  0
LINE
  8
型材断面
  6
CONTINUOUS
 10
-94.056938
 20
28.237153
 11
-92.561308
 21
25.646645
  0
LINE
  8
型材断面
  6
CONTINUOUS
 10
-92.561308
 20
25.646645
 11
-95.552567
 21
25.646645
  0
LINE
  8
型材断面
  6
CONTINUOUS
 10
-164.602127
 20
98.844755
 11
-164.006073
 21
96.254248
  0
LINE
  8
型材断面
  6
CONTINUOUS
 10
-164.602127
 20
98.844755
 11
-165.198185
 21
96.254248
  0
LINE
  8
型材断面
  6
CONTINUOUS
 10
-165.198185
 20
96.254248
 11
-164.006073
 21
96.254248
  0
LINE
  8
型材断面
  6
CONTINUOUS
 10
-170.624715
 20
92.975355
 11
-124.382938
 21
92.975355
  0
LINE
  8
型材断面
  6
CONTINUOUS
 10
-164.602127
 20
105.37463
 11
-166.097758
 21
102.784123
  0
LINE
  8
型材断面
  6
CONTINUOUS
 10
-164.602127
 20
105.37463
 11
-163.106498
 21
102.784123
  0
LINE
  8
型材断面
  6
CONTINUOUS
 10
-163.106498
 20
102.784123
 11
-166.097758
 21
102.784123
  0
LINE
  8
型材断面
  6
CONTINUOUS
 10
-170.624715
 20
101.845528
 11
-124.382938
 21
101.845528
  0
LINE
  8
型材断面
  6
CONTINUOUS
 10
-170.624715
 20
87.187322
 11
-124.382938
 21
87.187322
  0
LINE
  8
型材断面
  6
CONTINUOUS
 10
-27.390272
 20
63.497413
 11
-25.894643
 21
66.08792
  0
LINE
  8
型材断面
  6
CONTINUOUS
 10
-27.390272
 20
63.497413
 11
-28.885902
 21
66.08792
  0
LINE
  8
型材断面
  6
CONTINUOUS
 10
-28.885902
 20
66.08792
 11
-25.894643
 21
66.08792
  0
LINE
  8
型材断面
  6
CONTINUOUS
 10
-27.390272
 20
28.237153
 11
-25.894643
 21
25.646645
  0
LINE
  8
型材断面
  6
CONTINUOUS
 10
-27.390272
 20
28.237153
 11
-28.885902
 21
25.646645
  0
LINE
  8
型材断面
  6
CONTINUOUS
 10
-28.885902
 20
25.646645
 11
-25.894643
 21
25.646645
  0
LINE
  8
型材断面
  6
CONTINUOUS
 10
-12.723605
 20
28.26047
 11
-13.319662
 21
25.669965
  0
LINE
  8
型材断面
  6
CONTINUOUS
 10
-12.723605
 20
28.26047
 11
-12.127548
 21
25.669965
  0
LINE
  8
型材断面
  6
CONTINUOUS
 10
-12.127548
 20
25.669965
 11
-13.319662
 21
25.669965
  0
LINE
  8
型材断面
  6
CONTINUOUS
 10
-108.723605
 20
28.26047
 11
-108.127548
 21
25.669965
  0
LINE
  8
型材断面
  6
CONTINUOUS
 10
-108.723605
 20
28.26047
 11
-109.319662
 21
25.669965
  0
LINE
  8
型材断面
  6
CONTINUOUS
 10
-109.319662
 20
25.669965
 11
-108.127548
 21
25.669965
  0
LINE
  8
型材断面
  6
DASHDOT
 10
-43.850273
 20
30.867282
 11
-43.850273
 21
60.867282
  0
LINE
  8
型材断面
  6
CONTINUOUS
 10
-8.093475
 20
45.867282
 11
-5.502967
 21
47.362912
  0
LINE
  8
型材断面
  6
CONTINUOUS
 10
-8.093475
 20
45.867282
 11
-5.502967
 21
44.371652
  0
LINE
  8
型材断面
  6
CONTINUOUS
 10
-5.502967
 20
44.371652
 11
-5.502967
 21
47.362912
  0
LINE
  8
型材断面
  6
DASHDOT
 10
-77.596937
 20
30.867282
 11
-77.596937
 21
60.867282
  0
LINE
  8
型材断面
  6
CONTINUOUS
 10
-93.743605
 20
28.67055
 11
-93.743605
 21
31.170762
  0
LINE
  8
型材断面
  6
CONTINUOUS
 10
-94.57694
 20
28.67055
 11
-94.57694
 21
31.170762
  0
LINE
  8
型材断面
  6
CONTINUOUS
 10
-60.306938
 20
28.67055
 11
-60.306938
 21
31.170762
  0
LINE
  8
型材断面
  6
CONTINUOUS
 10
-61.140272
 20
28.67055
 11
-61.140272
 21
31.170762
  0
LINE
  8
型材断面
  6
CONTINUOUS
 10
-26.87027
 20
28.67055
 11
-26.87027
 21
31.170762
  0
LINE
  8
型材断面
  6
CONTINUOUS
 10
-27.703605
 20
28.67055
 11
-27.703605
 21
31.170762
  0
LINE
  8
型材断面
  6
CONTINUOUS
 10
-93.743605
 20
63.064015
 11
-93.743605
 21
60.563803
  0
LINE
  8
型材断面
  6
CONTINUOUS
 10
-94.57694
 20
63.064015
 11
-94.57694
 21
60.563803
  0
LINE
  8
型材断面
  6
CONTINUOUS
 10
-60.306938
 20
63.064015
 11
-60.306938
 21
60.563803
  0
LINE
  8
型材断面
  6
CONTINUOUS
 10
-61.140272
 20
63.064015
 11
-61.140272
 21
60.563803
  0
LINE
  8
型材断面
  6
CONTINUOUS
 10
-26.87027
 20
63.064015
 11
-26.87027
 21
60.563803
  0
LINE
  8
型材断面
  6
CONTINUOUS
 10
-27.703605
 20
63.064015
 11
-27.703605
 21
60.563803
  0
LINE
  8
型材断面
  6
CONTINUOUS
 10
-78.846937
 20
32.004095
 11
-76.346937
 21
32.004095
  0
LINE
  8
型材断面
  6
CONTINUOUS
 10
-78.846937
 20
59.73047
 11
-76.346937
 21
59.73047
  0
LINE
  8
型材断面
  6
CONTINUOUS
 10
-76.346937
 20
32.004095
 11
-76.346937
 21
59.73047
  0
LINE
  8
型材断面
  6
CONTINUOUS
 10
-78.846937
 20
32.004095
 11
-78.846937
 21
59.73047
  0
LINE
  8
型材断面
  6
CONTINUOUS
 10
-45.100273
 20
32.004095
 11
-42.600273
 21
32.004095
  0
LINE
  8
型材断面
  6
CONTINUOUS
 10
-45.100273
 20
59.73047
 11
-42.600273
 21
59.73047
  0
LINE
  8
型材断面
  6
CONTINUOUS
 10
-42.600273
 20
32.004095
 11
-42.600273
 21
59.73047
  0
LINE
  8
型材断面
  6
CONTINUOUS
 10
-45.100273
 20
32.004095
 11
-45.100273
 21
59.73047
  0
LINE
  8
型材断面
  6
CONTINUOUS
 10
-110.184422
 20
31.170762
 11
-94.57694
 21
31.170762
  0
LINE
  8
型材断面
  6
CONTINUOUS
 10
-110.184422
 20
60.563805
 11
-94.57694
 21
60.563805
  0
LINE
  8
型材断面
  6
CONTINUOUS
 10
-93.743605
 20
60.563805
 11
-61.140272
 21
60.563805
  0
LINE
  8
型材断面
  6
CONTINUOUS
 10
-93.743605
 20
31.170762
 11
-61.140272
 21
31.170762
  0
LINE
  8
型材断面
  6
CONTINUOUS
 10
-11.262788
 20
31.170762
 11
-26.87027
 21
31.170762
  0
LINE
  8
型材断面
  6
CONTINUOUS
 10
-27.703605
 20
31.170762
 11
-60.306938
 21
31.170762
  0
LINE
  8
型材断面
  6
CONTINUOUS
 10
-11.262788
 20
60.563805
 11
-26.87027
 21
60.563805
  0
LINE
  8
型材断面
  6
CONTINUOUS
 10
-27.703605
 20
60.563805
 11
-60.306938
 21
60.563805
  0
POLYLINE
  8
型材断面
  6
DASHDOT
 66
     1
  0
VERTEX
  8
型材断面
 10
-110.723603
 20
30.867282
  0
VERTEX
  8
型材断面
 10
-60.723605
 20
60.867282
  0
VERTEX
  8
型材断面
 10
-10.723605
 20
30.867282
  0
SEQEND
  0
LINE
  8
ガラス
  6
CONTINUOUS
 10
-93.832842
 20
47.282195
 11
-96.463807
 21
44.65123
  0
LINE
  8
ガラス
  6
CONTINUOUS
 10
-94.489015
 20
45.307402
 11
-95.807632
 21
46.626025
  0
LINE
  8
ガラス
  6
CONTINUOUS
 10
-95.34206
 20
45.337855
 11
-94.325545
 21
46.35437
  0
LINE
  8
ガラス
  6
CONTINUOUS
 10
-94.95459
 20
46.595575
 11
-95.971102
 21
45.57906
  0
LINE
  8
ガラス
  6
CONTINUOUS
 10
-59.49529
 20
47.282195
 11
-62.126255
 21
44.65123
  0
LINE
  8
ガラス
  6
CONTINUOUS
 10
-60.151462
 20
45.307402
 11
-61.47008
 21
46.626025
  0
LINE
  8
ガラス
  6
CONTINUOUS
 10
-61.004508
 20
45.337855
 11
-59.987993
 21
46.35437
  0
LINE
  8
ガラス
  6
CONTINUOUS
 10
-60.617037
 20
46.595575
 11
-61.63355
 21
45.57906
  0
LINE
  8
ガラス
  6
CONTINUOUS
 10
-25.455705
 20
47.282195
 11
-28.08667
 21
44.65123
  0
LINE
  8
ガラス
  6
CONTINUOUS
 10
-26.111877
 20
45.307402
 11
-27.430495
 21
46.626025
  0
LINE
  8
ガラス
  6
CONTINUOUS
 10
-26.964923
 20
45.337855
 11
-25.948408
 21
46.35437
  0
LINE
  8
ガラス
  6
CONTINUOUS
 10
-26.577452
 20
46.595575
 11
-27.593965
 21
45.57906
  0
POLYLINE
  8
ガラス
  6
CONTINUOUS
 66
     1
 70
     1
  0
VERTEX
  8
ガラス
 10
121.48085
 20
-46.25197
  0
VERTEX
  8
ガラス
 10
88.81085
 20
-46.25197
  0
VERTEX
  8
ガラス
 10
88.81085
 20
-76.418635
  0
VERTEX
  8
ガラス
 10
121.48085
 20
-76.418635
  0
SEQEND
  0
TEXT
  7
TextStyle03
  8
文字
  6
CONTINUOUS
 10
111.475
 20
22.15
  1
45°
 40
3.0
 50
90.0
 72
     5
 11
111.475
 21
28.525
  0
TEXT
  7
TextStyle03
  8
文字
  6
CONTINUOUS
 10
64.95
 20
116.5
  1
シリーズ：ＴＦＦＨＬ
 40
5.0
 72
     5
 11
120.575
 21
116.5
  0
TEXT
  7
TextStyle03
  8
文字
  6
CONTINUOUS
 10
64.95
 20
110.875
  1
　　　　　（片側開閉）900×3000タイプ
 40
5.0
 72
     5
 11
168.3875
 21
110.875
  0
TEXT
  7
TextStyle03
  8
文字
  6
CONTINUOUS
 10
64.95
 20
105.25
  1
図面名　：外観姿図
 40
5.0
 72
     5
 11
114.95
 21
105.25
  0
TEXT
  7
TextStyle03
  8
文字
  6
CONTINUOUS
 10
64.95
 20
99.625
  1
　　　　　　
 40
5.0
 72
     5
 11
98.075
 21
99.625
  0
TEXT
  7
TextStyle03
  8
文字
  6
CONTINUOUS
 10
-161.8
 20
102.975
  1
は排水穴位置を示す
 40
3.0
 72
     5
 11
-131.8
 21
102.975
  0
TEXT
  7
TextStyle03
  8
文字
  6
CONTINUOUS
 10
-161.8
 20
97.45
  1
はケーシング位置を示す
 40
3.0
 72
     5
 11
-125.05
 21
97.45
  0
TEXT
  7
TextStyle03
  8
文字
  6
CONTINUOUS
 10
-161.8
 20
94.075
  1
２ヶ所中1ヶ所に設定
 40
3.0
 72
     5
 11
-130.1125
 21
94.075
  0
TEXT
  7
TextStyle03
  8
文字
  6
CONTINUOUS
 10
-131.7
 20
24.325
  1
アンカーピッチ
 40
3.0
 50
90.0
 72
     5
 11
-131.7
 21
47.575
  0
TEXT
  7
TextStyle03
  8
文字
  6
CONTINUOUS
 10
-100.75
 20
98.275
  1
アンカーピッチ
 40
3.0
 72
     5
 11
-77.5
 21
98.275
  0
TEXT
  7
TextStyle03
  8
文字
  6
CONTINUOUS
 10
-165.525
 20
88.1
  1
アンカー数量　１２ヶ所
 40
3.0
 72
     5
 11
-128.775
 21
88.1
  0
TEXT
  7
TextStyle03
  8
文字
  6
CONTINUOUS
 10
103.15
 20
-69.375
  1
網入り6.8t
 40
3.0
 72
     5
 11
119.8375
 21
-69.375
  0
TEXT
  7
TextStyle03
  8
文字
  6
CONTINUOUS
 10
109.775
 20
-74.625
  1
×３枚
 40
3.0
 72
     5
 11
119.525
 21
-74.625
  0
INSERT
  2
*DIM_0004
  8
寸法
  6
CONTINUOUS
 10
0.0
 20
0.0
  0
INSERT
  2
*DIM_0005
  8
寸法
  6
CONTINUOUS
 10
0.0
 20
0.0
  0
INSERT
  2
*DIM_0006
  8
寸法
  6
CONTINUOUS
 10
0.0
 20
0.0
  0
INSERT
  2
*DIM_0007
  8
寸法
  6
CONTINUOUS
 10
0.0
 20
0.0
  0
INSERT
  2
*DIM_0008
  8
寸法
  6
CONTINUOUS
 10
0.0
 20
0.0
  0
INSERT
  2
*DIM_0009
  8
寸法
  6
CONTINUOUS
 10
0.0
 20
0.0
  0
INSERT
  2
*DIM_0010
  8
寸法
  6
CONTINUOUS
 10
0.0
 20
0.0
  0
INSERT
  2
*DIM_0011
  8
寸法
  6
CONTINUOUS
 10
0.0
 20
0.0
  0
INSERT
  2
*DIM_0012
  8
寸法
  6
CONTINUOUS
 10
0.0
 20
0.0
  0
INSERT
  2
*DIM_0013
  8
寸法
  6
CONTINUOUS
 10
0.0
 20
0.0
  0
INSERT
  2
*DIM_0014
  8
寸法
  6
CONTINUOUS
 10
0.0
 20
0.0
  0
INSERT
  2
*DIM_0015
  8
寸法
  6
CONTINUOUS
 10
0.0
 20
0.0
  0
INSERT
  2
*DIM_0016
  8
寸法
  6
CONTINUOUS
 10
0.0
 20
0.0
  0
INSERT
  2
*DIM_0017
  8
寸法
  6
CONTINUOUS
 10
0.0
 20
0.0
  0
INSERT
  2
*DIM_0018
  8
寸法
  6
CONTINUOUS
 10
0.0
 20
0.0
  0
INSERT
  2
*DIM_0019
  8
寸法
  6
CONTINUOUS
 10
0.0
 20
0.0
  0
INSERT
  2
*DIM_0020
  8
寸法
  6
CONTINUOUS
 10
0.0
 20
0.0
  0
INSERT
  2
*GRP_0002
  8
別途部材
  6
CONTINUOUS
 10
0.0
 20
0.0
  0
INSERT
  2
*GRP_0003
  8
別途部材
  6
DOT
 10
0.0
 20
0.0
  0
ENDSEC
  0
EOF
