  0
SECTION
  2
HEADER
  9
$EXTMIN
 10
-210.0
 20
-148.5
  9
$EXTMAX
 10
210.0
 20
148.5
  9
$PDMODE
 70
    32
  9
$PDSIZE
 40
1.5
  9
$LTSCALE
 40
10.0
  0
ENDSEC
  0
SECTION
  2
TABLES
  0
TABLE
  2
LTYPE
 70
    15
  0
LTYPE
  2
CONTINUOUS
 70
    64
  3
実線
 72
    65
 73
     0
 40
0.0
  0
LTYPE
  2
DASHED
 70
    64
  3
破線A
 72
    65
 73
     2
 40
0.6
 49
0.4
 49
-0.2
  0
LTYPE
  2
DASHEDX2
 70
    64
  3
破線B
 72
    65
 73
     2
 40
1.3
 49
0.9
 49
-0.4
  0
LTYPE
  2
DASHDOT
 70
    64
  3
１点鎖線A
 72
    65
 73
     4
 40
0.5375
 49
0.375
 49
-0.05
 49
0.0625
 49
-0.05
  0
LTYPE
  2
DASHDOTX2
 70
    64
  3
１点鎖線B
 72
    65
 73
     4
 40
1.075
 49
0.75
 49
-0.1
 49
0.125
 49
-0.1
  0
LTYPE
  2
DIVIDE2
 70
    64
  3
２点鎖線A
 72
    65
 73
     6
 40
0.5125
 49
0.3
 49
-0.0375
 49
0.05
 49
-0.0375
 49
0.05
 49
-0.0375
  0
LTYPE
  2
DIVIDE
 70
    64
  3
２点鎖線B
 72
    65
 73
     6
 40
1.05
 49
0.55
 49
-0.1
 49
0.1
 49
-0.1
 49
0.1
 49
-0.1
  0
LTYPE
  2
DOT
 70
    64
  3
点線A
 72
    65
 73
     2
 40
0.1125
 49
0.0625
 49
-0.05
  0
LTYPE
  2
DOTX2
 70
    64
  3
点線B
 72
    65
 73
     2
 40
0.275
 49
0.15
 49
-0.125
  0
LTYPE
  2
CONTINUOUS
 70
    64
  3
実線
 72
    65
 73
     0
 40
0.0
  0
LTYPE
  2
CONTINUOUS
 70
    64
  3
実線
 72
    65
 73
     0
 40
0.0
  0
LTYPE
  2
CONTINUOUS
 70
    64
  3
実線
 72
    65
 73
     0
 40
0.0
  0
LTYPE
  2
CONTINUOUS
 70
    64
  3
実線
 72
    65
 73
     0
 40
0.0
  0
LTYPE
  2
CONTINUOUS
 70
    64
  3
実線
 72
    65
 73
     0
 40
0.0
  0
LTYPE
  2
CONTINUOUS
 70
    64
  3
実線
 72
    65
 73
     0
 40
0.0
  0
ENDTAB
  0
TABLE
  2
LAYER
 70
    34
  0
LAYER
  2
通り芯
 70
     0
 62
    15
  6
CONTINUOUS
  0
LAYER
  2
補助線
 70
     0
 62
    16
  6
DOT
  0
LAYER
  2
躯体
 70
     0
 62
    31
  6
CONTINUOUS
  0
LAYER
  2
型材
 70
     0
 62
    32
  6
CONTINUOUS
  0
LAYER
  2
型材断面
 70
     0
 62
    47
  6
CONTINUOUS
  0
LAYER
  2
ガラス
 70
     0
 62
    48
  6
CONTINUOUS
  0
LAYER
  2
ゴム等
 70
     0
 62
    63
  6
CONTINUOUS
  0
LAYER
  2
ボルト／ビス
 70
     0
 62
    64
  6
CONTINUOUS
  0
LAYER
  2
文字
 70
     0
 62
    79
  6
CONTINUOUS
  0
LAYER
  2
寸法
 70
     0
 62
    80
  6
CONTINUOUS
  0
LAYER
  2
ﾊｯﾁﾝｸﾞ
 70
     0
 62
    95
  6
CONTINUOUS
  0
LAYER
  2
別途部材
 70
     0
 62
    96
  6
CONTINUOUS
  0
LAYER
  2
曲げ物
 70
     0
 62
   111
  6
CONTINUOUS
  0
LAYER
  2
鉄骨等
 70
     0
 62
   112
  6
CONTINUOUS
  0
LAYER
  2
St
 70
     0
 62
   127
  6
CONTINUOUS
  0
LAYER
  2
その他部品等
 70
     0
 62
   128
  6
CONTINUOUS
  0
LAYER
  2
ｶﾞｽｹｯﾄ
 70
     0
 62
   143
  6
CONTINUOUS
  0
LAYER
  2
ｽｹｯﾁ
 70
     0
 62
    14
  6
CONTINUOUS
  0
LAYER
  2
0
 70
     0
 62
    17
  6
CONTINUOUS
  0
LAYER
  2
1
 70
     0
 62
    30
  6
CONTINUOUS
  0
LAYER
  2
4
 70
     0
 62
    33
  6
CONTINUOUS
  0
LAYER
  2
ﾚｲﾔ3
 70
     0
 62
    46
  6
CONTINUOUS
  0
LAYER
  2
外形線
 70
     0
 62
    49
  6
CONTINUOUS
  0
LAYER
  2
部品
 70
     0
 62
    14
  6
CONTINUOUS
  0
LAYER
  2
サッシ芯
 70
     0
 62
    17
  6
DASHDOTX2
  0
LAYER
  2
寸法線
 70
     0
 62
    62
  6
CONTINUOUS
  0
LAYER
  2
姿図外形線
 70
     0
 62
    65
  6
CONTINUOUS
  0
LAYER
  2
姿補助線
 70
     0
 62
    30
  6
CONTINUOUS
  0
LAYER
  2
透視線
 70
     0
 62
    78
  6
DOT
  0
LAYER
  2
用紙
 70
     0
 62
    81
  6
CONTINUOUS
  0
LAYER
  2
実線図枠
 70
     0
 62
    94
  6
CONTINUOUS
  0
LAYER
  2
補助図枠
 70
     0
 62
    97
  6
CONTINUOUS
  0
LAYER
  2
建具記号
 70
     0
 62
   110
  6
CONTINUOUS
  0
LAYER
  2
補助文字
 70
     0
 62
   113
  6
CONTINUOUS
  0
ENDTAB
  0
TABLE
  2
STYLE
 70
    10
  0
STYLE
  2
STANDARD
 70
     0
 40
1.0
 41
1.0
 42
1.0
 50
0.0
 71
     0
  3
TXT
  4
BIGFONT
  0
STYLE
  2
TATE
 70
     4
 40
1.0
 41
1.0
 42
1.0
 50
0.0
 71
     0
  3
TXT
  4
BIGFONT
  0
STYLE
  2
TextStyle03
 70
     0
 40
1.0
 41
1.0
 42
1.0
 50
0.0
 71
     0
  3
MONOTXT
  4
BIGFONT
  0
STYLE
  2
TextStyle04
 70
     0
 40
1.0
 41
1.0
 42
1.0
 50
0.0
 71
     0
  3
MONOTXT
  4
BIGFONT
  0
STYLE
  2
TextStyle05
 70
     0
 40
1.0
 41
1.0
 42
1.0
 50
0.0
 71
     0
  3
MONOTXT
  4
BIGFONT
  0
STYLE
  2
TextStyle06
 70
     0
 40
1.0
 41
1.0
 42
1.0
 50
0.0
 71
     0
  3
MONOTXT
  4
BIGFONT
  0
STYLE
  2
TextStyle07
 70
     0
 40
1.0
 41
1.0
 42
1.0
 50
0.0
 71
     0
  3
MONOTXT
  4
BIGFONT
  0
STYLE
  2
TextStyle08
 70
     0
 40
1.0
 41
1.0
 42
1.0
 50
0.0
 71
     0
  3
MONOTXT
  4
BIGFONT
  0
STYLE
  2
TextStyle09
 70
     0
 40
1.0
 41
1.0
 42
1.0
 50
0.0
 71
     0
  3
MONOTXT
  4
BIGFONT
  0
STYLE
  2
TextStyle10
 70
     0
 40
1.0
 41
1.0
 42
1.0
 50
0.0
 71
     0
  3
MONOTXT
  4
BIGFONT
  0
ENDTAB
  0
ENDSEC
  0
SECTION
  2
BLOCKS
  0
BLOCK
  2
*GRP_0001
 70
    65
 10
0.0
 20
0.0
  0
LINE
  8
型材断面
  6
CONTINUOUS
 10
195.0
 20
133.5
 11
195.0
 21
-133.5
  0
LINE
  8
型材断面
  6
CONTINUOUS
 10
195.0
 20
-133.5
 11
-185.0
 21
-133.5
  0
LINE
  8
型材断面
  6
CONTINUOUS
 10
-185.0
 20
-133.5
 11
-185.0
 21
133.5
  0
LINE
  8
型材断面
  6
CONTINUOUS
 10
195.0
 20
133.5
 11
-185.0
 21
133.5
  0
LINE
  8
型材断面
  6
CONTINUOUS
 10
145.0
 20
-133.5
 11
145.0
 21
-118.5
  0
LINE
  8
型材断面
  6
CONTINUOUS
 10
195.0
 20
-118.5
 11
145.0
 21
-118.5
  0
ENDBLK
  0
BLOCK
  2
*GRP_0002
 70
    65
 10
0.0
 20
0.0
  0
LINE
  8
型材断面
  6
DOT
 62
    47
 10
122.483775
 20
52.621083
 11
122.993043
 21
53.13035
  0
LINE
  8
型材断面
  6
DOT
 62
    47
 10
122.047865
 20
54.014202
 11
122.047865
 21
54.028345
  0
LINE
  8
型材断面
  6
DOT
 62
    47
 10
122.047865
 20
54.014202
 11
122.062008
 21
54.014202
  0
LINE
  8
型材断面
  6
DOT
 62
    47
 10
122.501993
 20
53.560078
 11
122.501993
 21
53.574217
  0
LINE
  8
型材断面
  6
DOT
 62
    47
 10
122.501993
 20
53.560078
 11
122.516132
 21
53.560078
  0
LINE
  8
型材断面
  6
DOT
 62
    47
 10
122.80448
 20
53.271728
 11
122.516132
 21
53.560078
  0
LINE
  8
型材断面
  6
DOT
 62
    47
 10
122.501993
 20
53.574217
 11
122.062008
 21
54.014202
  0
LINE
  8
型材断面
  6
DOT
 62
    47
 10
114.672582
 20
44.80989
 11
123.864992
 21
54.002297
  0
LINE
  8
型材断面
  6
DOT
 62
    47
 10
123.747155
 20
54.120135
 11
123.864992
 21
54.002297
  0
LINE
  8
型材断面
  6
DOT
 62
    47
 10
122.80448
 20
53.271728
 11
123.751882
 21
54.124863
  0
LINE
  8
型材断面
  6
DOT
 10
122.80448
 20
53.271728
 11
114.507612
 21
44.97486
  0
LINE
  8
型材断面
  6
DOT
 10
123.747155
 20
54.120135
 11
114.554747
 21
44.927728
  0
LINE
  8
型材断面
  6
DOT
 62
    47
 10
106.861392
 20
36.998697
 11
106.352123
 21
36.48943
  0
LINE
  8
型材断面
  6
DOT
 62
    47
 10
105.46827
 20
37.434607
 11
105.454127
 21
37.434607
  0
LINE
  8
型材断面
  6
DOT
 62
    47
 10
105.46827
 20
37.434607
 11
105.46827
 21
37.420468
  0
LINE
  8
型材断面
  6
DOT
 62
    47
 10
105.922398
 20
36.980482
 11
105.908255
 21
36.980482
  0
LINE
  8
型材断面
  6
DOT
 62
    47
 10
105.922398
 20
36.980482
 11
105.922398
 21
36.96634
  0
LINE
  8
型材断面
  6
DOT
 62
    47
 10
106.210745
 20
36.677993
 11
105.922398
 21
36.96634
  0
LINE
  8
型材断面
  6
DOT
 62
    47
 10
105.908255
 20
36.980482
 11
105.46827
 21
37.420468
  0
LINE
  8
型材断面
  6
DOT
 62
    47
 10
114.672582
 20
44.80989
 11
105.480175
 21
35.617483
  0
LINE
  8
型材断面
  6
DOT
 62
    47
 10
105.362337
 20
35.735318
 11
105.480175
 21
35.617483
  0
LINE
  8
型材断面
  6
DOT
 62
    47
 10
106.210745
 20
36.677993
 11
105.357612
 21
35.73059
  0
LINE
  8
型材断面
  6
DOT
 10
106.210745
 20
36.677993
 11
114.507612
 21
44.97486
  0
LINE
  8
型材断面
  6
DOT
 10
105.362337
 20
35.735318
 11
114.554747
 21
44.927728
  0
LINE
  8
型材断面
  6
DOT
 62
    47
 10
121.006053
 20
55.503852
 11
120.440367
 21
56.069537
  0
ARC
  8
型材断面
  6
DOT
 10
120.433195
 20
56.156647
 40
0.1
 50
45.0
 51
135.0
  0
LINE
  8
型材断面
  6
DOT
 62
    47
 10
120.503903
 20
56.227357
 11
120.551043
 21
56.180215
  0
LINE
  8
型材断面
  6
DOT
 62
    47
 10
120.518085
 20
55.99152
 11
121.500878
 21
55.008727
  0
LINE
  8
型材断面
  6
DOT
 62
    47
 10
121.500878
 20
55.008727
 11
112.98731
 21
46.495162
  0
LINE
  8
型材断面
  6
DOT
 62
    47
 10
120.551043
 20
56.180215
 11
111.92665
 21
47.555823
  0
LINE
  8
型材断面
  6
DOT
 62
    47
 10
120.362483
 20
56.227357
 11
111.8088
 21
47.673673
  0
LINE
  8
型材断面
  6
DOT
 62
    47
 10
103.978622
 20
38.476423
 11
103.412935
 21
39.042108
  0
ARC
  8
型材断面
  6
DOT
 10
103.32583
 20
39.049283
 40
0.1
 50
135.0
 51
225.0
  0
LINE
  8
型材断面
  6
DOT
 62
    47
 10
103.255118
 20
38.97857
 11
103.302258
 21
38.93143
  0
LINE
  8
型材断面
  6
DOT
 62
    47
 10
103.490952
 20
38.964387
 11
104.473745
 21
37.981597
  0
LINE
  8
型材断面
  6
DOT
 62
    47
 10
104.473745
 20
37.981597
 11
112.98731
 21
46.495162
  0
LINE
  8
型材断面
  6
DOT
 62
    47
 10
103.302258
 20
38.93143
 11
111.92665
 21
47.555823
  0
LINE
  8
型材断面
  6
DOT
 62
    47
 10
103.255118
 20
39.119993
 11
111.8088
 21
47.673673
  0
LINE
  8
型材断面
  6
DOT
 62
    47
 10
105.454127
 20
37.434607
 11
104.690443
 21
38.198295
  0
LINE
  8
型材断面
  6
DOT
 62
    47
 10
122.047865
 20
54.028345
 11
121.284178
 21
54.79203
  0
ENDBLK
  0
BLOCK
  2
*DIM_0003
 70
    65
 10
0.0
 20
0.0
  0
LINE
  8
寸法
  6
CONTINUOUS
 10
127.157677
 20
22.133922
 11
127.157677
 21
15.791205
  0
LINE
  8
寸法
  6
CONTINUOUS
 10
120.040892
 20
23.868932
 11
120.040892
 21
15.791205
  0
LINE
  8
寸法
  6
CONTINUOUS
 10
127.157677
 20
15.791205
 11
120.040892
 21
15.791205
  0
POINT
  8
寸法
 10
127.157677
 20
15.791205
  0
POINT
  8
寸法
 10
120.040892
 20
15.791205
  0
TEXT
  7
TextStyle03
  8
寸法
  6
CONTINUOUS
 10
119.475
 20
12.775
  1
213.5
 40
3.0
 72
     5
 11
127.725
 21
12.775
  0
ENDBLK
  0
BLOCK
  2
*GRP_0004
 70
    65
 10
0.0
 20
0.0
  0
LINE
  8
別途部材
  6
CONTINUOUS
 62
    96
 10
125.940887
 20
52.500828
 11
125.940887
 21
52.400828
  0
LINE
  8
別途部材
  6
CONTINUOUS
 62
    96
 10
123.839807
 20
52.600828
 11
123.90948
 21
53.931632
  0
LINE
  8
別途部材
  6
CONTINUOUS
 62
    96
 10
124.457553
 20
53.940827
 11
124.340887
 21
54.207495
  0
LINE
  8
別途部材
  6
CONTINUOUS
 62
    96
 10
124.357553
 20
53.919912
 11
124.290033
 21
54.074245
  0
LINE
  8
別途部材
  6
CONTINUOUS
 62
    96
 10
123.81071
 20
53.95775
 11
123.94116
 21
54.217952
  0
LINE
  8
別途部材
  6
CONTINUOUS
 62
    96
 10
123.90948
 20
53.931632
 11
124.04164
 21
54.195245
  0
LINE
  8
別途部材
  6
CONTINUOUS
 62
    96
 10
124.077242
 20
54.130363
 11
124.013595
 21
54.053233
  0
LINE
  8
別途部材
  6
DASHDOTX2
 62
    96
 10
124.140887
 20
54.207495
 11
123.827403
 21
54.207495
  0
LINE
  8
別途部材
  6
DASHDOTX2
 62
    96
 10
124.140887
 20
54.207495
 11
124.471348
 21
54.207495
  0
LINE
  8
別途部材
  6
DASHDOTX2
 62
    96
 10
124.140887
 20
54.207495
 11
124.140887
 21
53.944023
  0
LINE
  8
別途部材
  6
DASHDOTX2
 62
    96
 10
124.140887
 20
54.207495
 11
124.140887
 21
54.485805
  0
LINE
  8
別途部材
  6
CONTINUOUS
 62
    96
 10
124.357553
 20
52.400828
 11
124.357553
 21
53.919912
  0
LINE
  8
別途部材
  6
CONTINUOUS
 62
    96
 10
124.457553
 20
52.500828
 11
124.457553
 21
53.940827
  0
LINE
  8
別途部材
  6
CONTINUOUS
 62
    96
 10
122.606473
 20
52.70083
 11
123.744905
 21
52.70083
  0
LINE
  8
別途部材
  6
CONTINUOUS
 62
    96
 10
122.606473
 20
52.600828
 11
122.606473
 21
52.70083
  0
LINE
  8
別途部材
  6
CONTINUOUS
 62
    96
 10
122.606473
 20
52.600828
 11
123.839807
 21
52.600828
  0
CIRCLE
  8
別途部材
  6
CONTINUOUS
 62
    96
 10
124.140887
 20
54.207495
 40
0.1
  0
ARC
  8
別途部材
  6
CONTINUOUS
 62
    96
 10
124.140888
 20
54.207496
 40
0.2
 50
218.780606
 51
537.001556
  0
LINE
  8
別途部材
  6
CONTINUOUS
 62
    96
 10
124.357553
 20
52.400828
 11
125.940887
 21
52.400828
  0
LINE
  8
別途部材
  6
CONTINUOUS
 62
    96
 10
124.457553
 20
52.500828
 11
125.940887
 21
52.500828
  0
LINE
  8
別途部材
  6
CONTINUOUS
 62
    96
 10
123.81071
 20
53.95775
 11
123.744905
 21
52.70083
  0
ENDBLK
  0
BLOCK
  2
*DIM_0005
 70
    65
 10
0.0
 20
0.0
  0
LINE
  8
寸法
  6
CONTINUOUS
 10
121.657677
 20
54.600645
 11
87.439335
 21
54.600645
  0
LINE
  8
寸法
  6
CONTINUOUS
 10
87.439335
 20
50.867282
 11
87.439335
 21
54.600645
  0
POINT
  8
寸法
 10
87.439335
 20
50.867282
  0
POINT
  8
寸法
 10
87.439335
 20
54.600645
  0
TEXT
  7
TextStyle03
  8
寸法
  6
CONTINUOUS
 10
87.05
 20
55.3375
  1
112
 40
3.0
 50
90.0
 72
     5
 11
87.05
 21
60.2125
  0
ENDBLK
  0
BLOCK
  2
*DIM_0006
 70
    65
 10
0.0
 20
0.0
  0
LINE
  8
寸法
  6
CONTINUOUS
 10
121.657677
 20
27.133922
 11
87.439335
 21
27.133922
  0
LINE
  8
寸法
  6
CONTINUOUS
 10
87.439335
 20
30.867282
 11
87.439335
 21
27.133922
  0
POINT
  8
寸法
 10
87.439335
 20
30.867282
  0
POINT
  8
寸法
 10
87.439335
 20
27.133922
  0
TEXT
  7
TextStyle03
  8
寸法
  6
CONTINUOUS
 10
87.05
 20
21.5125
  1
112
 40
3.0
 50
90.0
 72
     5
 11
87.05
 21
26.3875
  0
ENDBLK
  0
BLOCK
  2
*DIM_0007
 70
    65
 10
0.0
 20
0.0
  0
LINE
  8
寸法
  6
CONTINUOUS
 10
87.439335
 20
30.867282
 11
87.439335
 21
50.867282
  0
POINT
  8
寸法
 10
87.439335
 20
30.867282
  0
POINT
  8
寸法
 10
87.439335
 20
50.867282
  0
TEXT
  7
TextStyle03
  8
寸法
  6
CONTINUOUS
 10
87.05
 20
29.975
  1
呼称寸法　600
 40
3.0
 50
90.0
 72
     5
 11
87.05
 21
51.725
  0
ENDBLK
  0
BLOCK
  2
*DIM_0008
 70
    65
 10
0.0
 20
0.0
  0
LINE
  8
寸法
  6
CONTINUOUS
 10
1.343088
 20
-71.841245
 11
1.343088
 21
-42.588472
  0
LINE
  8
寸法
  6
CONTINUOUS
 10
-2.390272
 20
-42.588472
 11
1.343088
 21
-42.588472
  0
POINT
  8
寸法
 10
-2.390272
 20
-42.588472
  0
POINT
  8
寸法
 10
1.343088
 20
-42.588472
  0
TEXT
  7
TextStyle03
  8
寸法
  6
CONTINUOUS
 10
-2.9625
 20
-42.225
  1
112
 40
3.0
 72
     5
 11
1.9125
 21
-42.225
  0
ENDBLK
  0
BLOCK
  2
*DIM_0009
 70
    65
 10
0.0
 20
0.0
  0
LINE
  8
寸法
  6
CONTINUOUS
 10
6.343088
 20
-73.191245
 11
17.824165
 21
-73.191245
  0
LINE
  8
寸法
  6
CONTINUOUS
 10
4.60877
 20
-66.07446
 11
17.824165
 21
-66.07446
  0
LINE
  8
寸法
  6
CONTINUOUS
 10
17.824165
 20
-73.191245
 11
17.824165
 21
-66.07446
  0
POINT
  8
寸法
 10
17.824165
 20
-73.191245
  0
POINT
  8
寸法
 10
17.824165
 20
-66.07446
  0
TEXT
  7
TextStyle03
  8
寸法
  6
CONTINUOUS
 10
20.8
 20
-73.775
  1
213.5
 40
3.0
 50
90.0
 72
     5
 11
20.8
 21
-65.525
  0
ENDBLK
  0
BLOCK
  2
*DIM_0010
 70
    65
 10
0.0
 20
0.0
  0
LINE
  8
寸法
  6
CONTINUOUS
 10
-122.790297
 20
-71.841245
 11
-122.790297
 21
-42.588472
  0
LINE
  8
寸法
  6
CONTINUOUS
 10
-119.056935
 20
-42.588472
 11
-122.790297
 21
-42.588472
  0
POINT
  8
寸法
 10
-119.056935
 20
-42.588472
  0
POINT
  8
寸法
 10
-122.790297
 20
-42.588472
  0
TEXT
  7
TextStyle03
  8
寸法
  6
CONTINUOUS
 10
-123.3625
 20
-42.225
  1
112
 40
3.0
 72
     5
 11
-118.4875
 21
-42.225
  0
ENDBLK
  0
BLOCK
  2
*DIM_0011
 70
    65
 10
0.0
 20
0.0
  0
LINE
  8
寸法
  6
CONTINUOUS
 10
-119.056935
 20
-42.588472
 11
-2.390272
 21
-42.588472
  0
POINT
  8
寸法
 10
-119.056935
 20
-42.588472
  0
POINT
  8
寸法
 10
-2.390272
 20
-42.588472
  0
TEXT
  7
TextStyle03
  8
寸法
  6
CONTINUOUS
 10
-72.44375
 20
-42.225
  1
呼称寸法　3500
 40
3.0
 72
     5
 11
-49.00625
 21
-42.225
  0
ENDBLK
  0
BLOCK
  2
*DIM_0012
 70
    65
 10
0.0
 20
0.0
  0
LINE
  8
寸法
  6
BYBLOCK
 62
     0
 10
-102.390272
 20
27.237153
 11
-102.390272
 21
22.095355
  0
LINE
  8
寸法
  6
BYBLOCK
 62
     0
 10
-19.056938
 20
27.237153
 11
-19.056938
 21
22.095355
  0
LINE
  8
寸法
  6
BYBLOCK
 62
     0
 10
-102.390272
 20
22.095355
 11
-19.056938
 21
22.095355
  0
POINT
  8
寸法
 62
     0
 10
-102.390272
 20
22.095355
  0
POINT
  8
寸法
 62
     0
 10
-19.056938
 20
22.095355
  0
TEXT
  7
TextStyle03
  8
寸法
  6
CONTINUOUS
 62
     0
 10
-64.00625
 20
22.45
  1
2500
 40
3.0
 72
     5
 11
-57.44375
 21
22.45
  0
ENDBLK
  0
BLOCK
  2
*DIM_0013
 70
    65
 10
0.0
 20
0.0
  0
LINE
  8
寸法
  6
BYBLOCK
 62
     0
 10
-4.390272
 20
25.26047
 11
-4.390272
 21
22.235427
  0
LINE
  8
寸法
  6
BYBLOCK
 62
     0
 10
-2.390272
 20
22.235427
 11
-4.390272
 21
22.235427
  0
POINT
  8
寸法
 62
     0
 10
-2.390272
 20
22.235427
  0
POINT
  8
寸法
 62
     0
 10
-4.390272
 20
22.235427
  0
TEXT
  7
TextStyle03
  8
寸法
  6
CONTINUOUS
 62
     0
 10
-6.26875
 20
18.45
  1
60
 40
3.0
 72
     5
 11
-3.08125
 21
18.45
  0
ENDBLK
  0
BLOCK
  2
*DIM_0014
 70
    65
 10
0.0
 20
0.0
  0
LINE
  8
寸法
  6
BYBLOCK
 62
     0
 10
-117.056938
 20
25.26047
 11
-117.056938
 21
22.235427
  0
LINE
  8
寸法
  6
BYBLOCK
 62
     0
 10
-119.056938
 20
22.235427
 11
-117.056938
 21
22.235427
  0
POINT
  8
寸法
 62
     0
 10
-119.056938
 20
22.235427
  0
POINT
  8
寸法
 62
     0
 10
-117.056938
 20
22.235427
  0
TEXT
  7
TextStyle03
  8
寸法
  6
CONTINUOUS
 62
     0
 10
-118.34375
 20
18.45
  1
60
 40
3.0
 72
     5
 11
-115.15625
 21
18.45
  0
ENDBLK
  0
BLOCK
  2
*DIM_0015
 70
    65
 10
0.0
 20
0.0
  0
LINE
  8
寸法
  6
BYBLOCK
 62
     0
 10
-122.05694
 20
47.53395
 11
-135.349777
 21
47.53395
  0
LINE
  8
寸法
  6
BYBLOCK
 62
     0
 10
-122.05694
 20
34.200615
 11
-135.349777
 21
34.200615
  0
LINE
  8
寸法
  6
BYBLOCK
 62
     0
 10
-135.349777
 20
47.53395
 11
-135.349777
 21
34.200615
  0
POINT
  8
寸法
 62
     0
 10
-135.349777
 20
47.53395
  0
POINT
  8
寸法
 62
     0
 10
-135.349777
 20
34.200615
  0
TEXT
  7
TextStyle03
  8
寸法
  6
CONTINUOUS
 62
     0
 10
-135.75
 20
38.4125
  1
400
 40
3.0
 50
90.0
 72
     5
 11
-135.75
 21
43.2875
  0
ENDBLK
  0
BLOCK
  2
*DIM_0016
 70
    65
 10
0.0
 20
0.0
  0
LINE
  8
寸法
  6
BYBLOCK
 62
     0
 10
-114.056938
 20
53.867282
 11
-114.056938
 21
82.975355
  0
LINE
  8
寸法
  6
BYBLOCK
 62
     0
 10
-87.390272
 20
53.867282
 11
-87.390272
 21
82.975355
  0
LINE
  8
寸法
  6
BYBLOCK
 62
     0
 10
-114.056938
 20
82.975355
 11
-87.390272
 21
82.975355
  0
POINT
  8
寸法
 62
     0
 10
-114.056938
 20
82.975355
  0
POINT
  8
寸法
 62
     0
 10
-87.390272
 20
82.975355
  0
TEXT
  7
TextStyle03
  8
寸法
  6
CONTINUOUS
 62
     0
 10
-103.1625
 20
83.35
  1
800
 40
3.0
 72
     5
 11
-98.2875
 21
83.35
  0
ENDBLK
  0
BLOCK
  2
*DIM_0017
 70
    65
 10
0.0
 20
0.0
  0
LINE
  8
寸法
  6
BYBLOCK
 62
     0
 10
-60.723605
 20
53.867282
 11
-60.723605
 21
82.975355
  0
LINE
  8
寸法
  6
BYBLOCK
 62
     0
 10
-87.390272
 20
82.975355
 11
-60.723605
 21
82.975355
  0
POINT
  8
寸法
 62
     0
 10
-60.723605
 20
82.975355
  0
TEXT
  7
TextStyle03
  8
寸法
  6
CONTINUOUS
 62
     0
 10
-76.5125
 20
83.35
  1
800
 40
3.0
 72
     5
 11
-71.6375
 21
83.35
  0
ENDBLK
  0
BLOCK
  2
*DIM_0018
 70
    65
 10
0.0
 20
0.0
  0
LINE
  8
寸法
  6
BYBLOCK
 62
     0
 10
-34.056938
 20
53.867282
 11
-34.056938
 21
82.975355
  0
LINE
  8
寸法
  6
BYBLOCK
 62
     0
 10
-60.723605
 20
82.975355
 11
-34.056938
 21
82.975355
  0
POINT
  8
寸法
 62
     0
 10
-34.056938
 20
82.975355
  0
TEXT
  7
TextStyle03
  8
寸法
  6
CONTINUOUS
 62
     0
 10
-49.8375
 20
83.35
  1
800
 40
3.0
 72
     5
 11
-44.9625
 21
83.35
  0
ENDBLK
  0
BLOCK
  2
*DIM_0019
 70
    65
 10
0.0
 20
0.0
  0
LINE
  8
寸法
  6
BYBLOCK
 62
     0
 10
-7.390272
 20
53.867282
 11
-7.390272
 21
82.975355
  0
LINE
  8
寸法
  6
BYBLOCK
 62
     0
 10
-34.056938
 20
82.975355
 11
-7.390272
 21
82.975355
  0
POINT
  8
寸法
 62
     0
 10
-7.390272
 20
82.975355
  0
TEXT
  7
TextStyle03
  8
寸法
  6
CONTINUOUS
 62
     0
 10
-23.1625
 20
83.35
  1
800
 40
3.0
 72
     5
 11
-18.2875
 21
83.35
  0
ENDBLK
  0
BLOCK
  2
*DIM_0020
 70
    65
 10
0.0
 20
0.0
  0
LINE
  8
寸法
  6
CONTINUOUS
 10
135.822458
 20
-50.570085
 11
135.822458
 21
-38.925
  0
LINE
  8
寸法
  6
CONTINUOUS
 10
97.599125
 20
-50.570085
 11
97.599125
 21
-38.925
  0
LINE
  8
寸法
  6
CONTINUOUS
 10
135.822458
 20
-38.925
 11
97.599125
 21
-38.925
  0
POINT
  8
寸法
 10
135.822458
 20
-38.925
  0
POINT
  8
寸法
 10
97.599125
 20
-38.925
  0
TEXT
  7
TextStyle03
  8
寸法
  6
CONTINUOUS
 10
111.73125
 20
-38.55
  1
1146.7
 40
3.0
 72
     5
 11
121.66875
 21
-38.55
  0
ENDBLK
  0
BLOCK
  2
*DIM_0021
 70
    65
 10
0.0
 20
0.0
  0
LINE
  8
寸法
  6
CONTINUOUS
 10
140.822458
 20
-55.570085
 11
151.918705
 21
-55.570085
  0
LINE
  8
寸法
  6
CONTINUOUS
 10
140.822458
 20
-75.736752
 11
151.918705
 21
-75.736752
  0
LINE
  8
寸法
  6
CONTINUOUS
 10
151.918705
 20
-55.570085
 11
151.918705
 21
-75.736752
  0
POINT
  8
寸法
 10
151.918705
 20
-55.570085
  0
POINT
  8
寸法
 10
151.918705
 20
-75.736752
  0
TEXT
  7
TextStyle03
  8
寸法
  6
CONTINUOUS
 10
151.525
 20
-68.1125
  1
605
 40
3.0
 50
90.0
 72
     5
 11
151.525
 21
-63.2375
  0
ENDBLK
  0
ENDSEC
  0
SECTION
  2
ENTITIES
  0
POLYLINE
  8
通り芯
  6
CONTINUOUS
 66
     1
 70
     1
  0
VERTEX
  8
通り芯
 10
-210.0
 20
-148.5
  0
VERTEX
  8
通り芯
 10
210.0
 20
-148.5
  0
VERTEX
  8
通り芯
 10
210.0
 20
148.5
  0
VERTEX
  8
通り芯
 10
-210.0
 20
148.5
  0
SEQEND
  0
INSERT
  2
*GRP_0001
  8
型材断面
  6
CONTINUOUS
 10
0.0
 20
0.0
  0
LINE
  8
型材断面
  6
CONTINUOUS
 62
    47
 10
124.090895
 20
51.913977
 11
124.090895
 21
52.63419
  0
LINE
  8
型材断面
  6
CONTINUOUS
 62
    47
 10
122.797575
 20
52.590827
 11
122.787575
 21
52.600828
  0
LINE
  8
型材断面
  6
CONTINUOUS
 62
    47
 10
122.797575
 20
52.590827
 11
122.807575
 21
52.600828
  0
LINE
  8
型材断面
  6
CONTINUOUS
 62
    47
 10
123.439807
 20
52.590827
 11
123.429808
 21
52.600828
  0
LINE
  8
型材断面
  6
CONTINUOUS
 62
    47
 10
123.439807
 20
52.590827
 11
123.449807
 21
52.600828
  0
LINE
  8
型材断面
  6
CONTINUOUS
 62
    47
 10
123.857592
 20
52.600828
 11
123.449807
 21
52.600828
  0
LINE
  8
型材断面
  6
CONTINUOUS
 62
    47
 10
123.429808
 20
52.600828
 11
122.807575
 21
52.600828
  0
LINE
  8
型材断面
  6
CONTINUOUS
 62
    47
 10
127.491013
 20
54.100653
 11
127.157677
 21
54.100653
  0
LINE
  8
型材断面
  6
CONTINUOUS
 62
    47
 10
126.49101
 20
52.167492
 11
126.49101
 21
51.570645
  0
LINE
  8
型材断面
  6
CONTINUOUS
 62
    47
 10
126.490998
 20
52.400645
 11
126.657677
 21
54.600645
  0
LINE
  8
型材断面
  6
CONTINUOUS
 62
    47
 10
127.157677
 20
54.600645
 11
126.657677
 21
54.600645
  0
LINE
  8
型材断面
  6
CONTINUOUS
 62
    47
 10
124.357553
 20
53.867312
 11
124.357553
 21
40.867282
  0
LINE
  8
型材断面
  6
CONTINUOUS
 10
126.49101
 20
40.867282
 11
126.49101
 21
52.400645
  0
LINE
  8
型材断面
  6
CONTINUOUS
 10
127.491013
 20
40.867282
 11
127.491013
 21
54.100653
  0
LINE
  8
型材断面
  6
CONTINUOUS
 10
127.157677
 20
40.867282
 11
127.157677
 21
54.600645
  0
LINE
  8
型材断面
  6
CONTINUOUS
 62
    47
 10
124.090895
 20
40.867282
 11
124.090895
 21
53.867312
  0
LINE
  8
型材断面
  6
CONTINUOUS
 62
    47
 10
124.224237
 20
40.867282
 11
124.224237
 21
53.867312
  0
LINE
  8
型材断面
  6
CONTINUOUS
 62
    47
 10
124.357553
 20
53.867312
 11
124.224237
 21
53.867312
  0
LINE
  8
型材断面
  6
CONTINUOUS
 62
    47
 10
124.357553
 20
52.400645
 11
126.49101
 21
52.400645
  0
LINE
  8
型材断面
  6
CONTINUOUS
 10
126.657677
 20
40.867282
 11
126.657677
 21
54.600645
  0
LINE
  8
型材断面
  6
CONTINUOUS
 10
123.857592
 20
52.600828
 11
123.857592
 21
40.867282
  0
LINE
  8
型材断面
  6
CONTINUOUS
 10
123.92425
 20
53.867312
 11
123.92425
 21
40.867282
  0
LINE
  8
型材断面
  6
CONTINUOUS
 62
    47
 10
124.090895
 20
29.82059
 11
124.090895
 21
29.100377
  0
LINE
  8
型材断面
  6
CONTINUOUS
 62
    47
 10
122.797575
 20
29.14374
 11
122.787575
 21
29.13374
  0
LINE
  8
型材断面
  6
CONTINUOUS
 62
    47
 10
122.797575
 20
29.14374
 11
122.807575
 21
29.13374
  0
LINE
  8
型材断面
  6
CONTINUOUS
 62
    47
 10
123.439807
 20
29.14374
 11
123.429808
 21
29.13374
  0
LINE
  8
型材断面
  6
CONTINUOUS
 62
    47
 10
123.439807
 20
29.14374
 11
123.449807
 21
29.13374
  0
LINE
  8
型材断面
  6
CONTINUOUS
 62
    47
 10
123.857592
 20
29.13374
 11
123.449807
 21
29.13374
  0
LINE
  8
型材断面
  6
CONTINUOUS
 62
    47
 10
123.429808
 20
29.13374
 11
122.807575
 21
29.13374
  0
LINE
  8
型材断面
  6
CONTINUOUS
 62
    47
 10
127.491013
 20
27.633913
 11
127.157677
 21
27.633913
  0
LINE
  8
型材断面
  6
CONTINUOUS
 62
    47
 10
126.49101
 20
29.567075
 11
126.49101
 21
30.163923
  0
LINE
  8
型材断面
  6
CONTINUOUS
 62
    47
 10
126.490998
 20
29.333922
 11
126.657677
 21
27.133922
  0
LINE
  8
型材断面
  6
CONTINUOUS
 62
    47
 10
127.157677
 20
27.133922
 11
126.657677
 21
27.133922
  0
LINE
  8
型材断面
  6
CONTINUOUS
 62
    47
 10
124.357553
 20
27.867255
 11
124.357553
 21
40.867282
  0
LINE
  8
型材断面
  6
CONTINUOUS
 10
126.49101
 20
40.867282
 11
126.49101
 21
29.333922
  0
LINE
  8
型材断面
  6
CONTINUOUS
 10
127.491013
 20
40.867282
 11
127.491013
 21
27.633913
  0
LINE
  8
型材断面
  6
CONTINUOUS
 10
127.157677
 20
40.867282
 11
127.157677
 21
27.133922
  0
LINE
  8
型材断面
  6
CONTINUOUS
 62
    47
 10
124.090895
 20
40.867282
 11
124.090895
 21
27.867255
  0
LINE
  8
型材断面
  6
CONTINUOUS
 62
    47
 10
124.224237
 20
40.867282
 11
124.224237
 21
27.867255
  0
LINE
  8
型材断面
  6
CONTINUOUS
 62
    47
 10
124.357553
 20
27.867255
 11
124.224237
 21
27.867255
  0
LINE
  8
型材断面
  6
CONTINUOUS
 62
    47
 10
124.357553
 20
29.333922
 11
126.49101
 21
29.333922
  0
LINE
  8
型材断面
  6
CONTINUOUS
 10
126.657677
 20
40.867282
 11
126.657677
 21
27.133922
  0
LINE
  8
型材断面
  6
CONTINUOUS
 10
123.857592
 20
29.13374
 11
123.857592
 21
40.867282
  0
LINE
  8
型材断面
  6
CONTINUOUS
 10
123.92425
 20
27.867255
 11
123.92425
 21
40.867282
  0
ARC
  8
型材断面
  6
DASHDOT
 10
124.140889
 20
54.207496
 40
26.340287
 50
224.891258
 51
269.891257
  0
LINE
  8
型材断面
  6
CONTINUOUS
 62
    47
 10
121.007562
 20
52.907495
 11
120.20756
 21
52.907495
  0
ARC
  8
型材断面
  6
CONTINUOUS
 10
120.140896
 20
52.964018
 40
0.1
 50
90.0
 51
180.0
  0
LINE
  8
型材断面
  6
CONTINUOUS
 62
    47
 10
120.140892
 20
53.064018
 11
120.20756
 21
53.064018
  0
LINE
  8
型材断面
  6
CONTINUOUS
 62
    47
 10
120.317683
 20
52.907282
 11
121.70756
 21
52.907282
  0
LINE
  8
型材断面
  6
CONTINUOUS
 62
    47
 10
121.70756
 20
52.907282
 11
121.70756
 21
40.867282
  0
LINE
  8
型材断面
  6
CONTINUOUS
 62
    47
 10
120.20756
 20
53.064018
 11
120.20756
 21
40.867282
  0
LINE
  8
型材断面
  6
CONTINUOUS
 62
    47
 10
120.040892
 20
52.964018
 11
120.040892
 21
40.867282
  0
LINE
  8
型材断面
  6
CONTINUOUS
 62
    47
 10
121.007562
 20
28.827073
 11
120.20756
 21
28.827073
  0
ARC
  8
型材断面
  6
CONTINUOUS
 10
120.140896
 20
28.770551
 40
0.1
 50
180.0
 51
270.0
  0
LINE
  8
型材断面
  6
CONTINUOUS
 62
    47
 10
120.140892
 20
28.67055
 11
120.20756
 21
28.67055
  0
LINE
  8
型材断面
  6
CONTINUOUS
 62
    47
 10
120.317683
 20
28.827283
 11
121.70756
 21
28.827283
  0
LINE
  8
型材断面
  6
CONTINUOUS
 62
    47
 10
121.70756
 20
28.827283
 11
121.70756
 21
40.867282
  0
LINE
  8
型材断面
  6
CONTINUOUS
 62
    47
 10
120.20756
 20
28.67055
 11
120.20756
 21
40.867282
  0
LINE
  8
型材断面
  6
CONTINUOUS
 62
    47
 10
120.040892
 20
28.77055
 11
120.040892
 21
40.867282
  0
LINE
  8
型材断面
  6
CONTINUOUS
 62
    47
 10
122.787575
 20
29.13374
 11
121.70756
 21
29.13374
  0
LINE
  8
型材断面
  6
CONTINUOUS
 62
    47
 10
122.787575
 20
52.600828
 11
121.70756
 21
52.600828
  0
LINE
  8
型材断面
  6
CONTINUOUS
 62
    47
 10
124.090895
 20
53.867312
 11
123.9239
 21
53.867312
  0
LINE
  8
型材断面
  6
CONTINUOUS
 62
    47
 10
123.857592
 20
52.600828
 11
123.9239
 21
53.867312
  0
LINE
  8
型材断面
  6
CONTINUOUS
 62
    47
 10
124.090895
 20
27.867255
 11
123.9239
 21
27.867255
  0
LINE
  8
型材断面
  6
CONTINUOUS
 62
    47
 10
123.857592
 20
29.13374
 11
123.9239
 21
27.867255
  0
LINE
  8
型材断面
  6
DASHDOT
 10
-60.723605
 20
50.867282
 11
-60.723605
 21
-77.528333
  0
LINE
  8
型材断面
  6
CONTINUOUS
 10
1.343088
 20
27.133922
 11
1.343088
 21
40.867282
  0
LINE
  8
型材断面
  6
CONTINUOUS
 10
0.609755
 20
27.867255
 11
0.609755
 21
40.867282
  0
LINE
  8
型材断面
  6
CONTINUOUS
 10
1.343088
 20
54.600645
 11
1.343088
 21
40.867282
  0
LINE
  8
型材断面
  6
CONTINUOUS
 10
0.609755
 20
53.867312
 11
0.609755
 21
40.867282
  0
LINE
  8
型材断面
  6
CONTINUOUS
 10
-0.429242
 20
28.67055
 11
-0.19354
 21
28.906252
  0
LINE
  8
型材断面
  6
CONTINUOUS
 10
-2.929455
 20
31.170762
 11
-2.693753
 21
31.406465
  0
LINE
  8
型材断面
  6
CONTINUOUS
 10
-2.693753
 20
31.406465
 11
-0.19354
 21
28.906252
  0
LINE
  8
型材断面
  6
CONTINUOUS
 10
-2.929455
 20
31.170762
 11
-0.429242
 21
28.67055
  0
LINE
  8
型材断面
  6
CONTINUOUS
 10
1.343088
 20
27.133922
 11
-0.311392
 21
28.788402
  0
LINE
  8
型材断面
  6
CONTINUOUS
 10
-0.429242
 20
53.064018
 11
-0.19354
 21
52.828312
  0
LINE
  8
型材断面
  6
CONTINUOUS
 10
-2.929455
 20
50.563805
 11
-2.693753
 21
50.328103
  0
LINE
  8
型材断面
  6
CONTINUOUS
 10
-2.693753
 20
50.328103
 11
-0.19354
 21
52.828312
  0
LINE
  8
型材断面
  6
CONTINUOUS
 10
-2.929455
 20
50.563805
 11
-0.429242
 21
53.064018
  0
LINE
  8
型材断面
  6
CONTINUOUS
 10
1.343088
 20
54.600645
 11
-0.311392
 21
52.946165
  0
LINE
  8
型材断面
  6
CONTINUOUS
 10
-0.19354
 20
28.906252
 11
-0.19354
 21
52.828312
  0
LINE
  8
型材断面
  6
CONTINUOUS
 10
-2.693753
 20
41.28395
 11
-0.19354
 21
41.28395
  0
LINE
  8
型材断面
  6
CONTINUOUS
 10
-2.693753
 20
40.450618
 11
-0.19354
 21
40.450618
  0
LINE
  8
型材断面
  6
CONTINUOUS
 10
-2.693753
 20
31.406465
 11
-2.693753
 21
40.450618
  0
LINE
  8
型材断面
  6
CONTINUOUS
 10
-2.693753
 20
41.28395
 11
-2.693753
 21
50.328103
  0
LINE
  8
型材断面
  6
CONTINUOUS
 62
    47
 10
-1.34358
 20
-70.124463
 11
-0.623368
 21
-70.124463
  0
LINE
  8
型材断面
  6
CONTINUOUS
 62
    47
 10
-0.66673
 20
-68.831142
 11
-0.65673
 21
-68.821143
  0
LINE
  8
型材断面
  6
CONTINUOUS
 62
    47
 10
-0.66673
 20
-68.831142
 11
-0.65673
 21
-68.841143
  0
LINE
  8
型材断面
  6
CONTINUOUS
 62
    47
 10
-0.66673
 20
-69.473375
 11
-0.65673
 21
-69.463375
  0
LINE
  8
型材断面
  6
CONTINUOUS
 62
    47
 10
-0.66673
 20
-69.473375
 11
-0.65673
 21
-69.483375
  0
LINE
  8
型材断面
  6
CONTINUOUS
 62
    47
 10
-0.65673
 20
-69.89116
 11
-0.65673
 21
-69.483375
  0
LINE
  8
型材断面
  6
CONTINUOUS
 62
    47
 10
-0.65673
 20
-69.463375
 11
-0.65673
 21
-68.841143
  0
LINE
  8
型材断面
  6
CONTINUOUS
 62
    47
 10
0.843097
 20
-73.52458
 11
0.843097
 21
-73.191245
  0
LINE
  8
型材断面
  6
CONTINUOUS
 62
    47
 10
-1.090065
 20
-72.524578
 11
-1.686913
 21
-72.524578
  0
LINE
  8
型材断面
  6
CONTINUOUS
 62
    47
 10
-0.856912
 20
-72.524565
 11
1.343088
 21
-72.691245
  0
LINE
  8
型材断面
  6
CONTINUOUS
 62
    47
 10
1.343088
 20
-73.191245
 11
1.343088
 21
-72.691245
  0
LINE
  8
型材断面
  6
CONTINUOUS
 62
    47
 10
0.609755
 20
-70.39112
 11
0.609755
 21
-70.257805
  0
LINE
  8
型材断面
  6
CONTINUOUS
 62
    47
 10
-0.856912
 20
-70.39112
 11
-0.856912
 21
-72.524578
  0
LINE
  8
型材断面
  6
CONTINUOUS
 62
    47
 10
-0.350062
 20
-67.04113
 11
-0.350062
 21
-66.241128
  0
ARC
  8
型材断面
  6
CONTINUOUS
 10
-0.293538
 20
-66.174459
 40
0.1
 50
0.0
 51
90.0
  0
LINE
  8
型材断面
  6
CONTINUOUS
 62
    47
 10
-0.19354
 20
-66.17446
 11
-0.19354
 21
-66.241128
  0
LINE
  8
型材断面
  6
CONTINUOUS
 62
    47
 10
-0.350273
 20
-66.35125
 11
-0.350273
 21
-67.741128
  0
LINE
  8
型材断面
  6
CONTINUOUS
 62
    47
 10
-0.65673
 20
-68.821143
 11
-0.65673
 21
-67.741128
  0
LINE
  8
型材断面
  6
CONTINUOUS
 62
    47
 10
0.609755
 20
-70.124463
 11
0.609755
 21
-69.957467
  0
LINE
  8
型材断面
  6
CONTINUOUS
 62
    47
 10
-0.65673
 20
-69.89116
 11
0.609755
 21
-69.957467
  0
LINE
  8
型材断面
  6
CONTINUOUS
 10
1.343088
 20
-72.691245
 11
-60.723605
 21
-72.691245
  0
LINE
  8
型材断面
  6
CONTINUOUS
 10
-0.856912
 20
-72.524578
 11
-60.723605
 21
-72.524578
  0
LINE
  8
型材断面
  6
CONTINUOUS
 10
1.343088
 20
-73.191245
 11
-60.723605
 21
-73.191245
  0
LINE
  8
型材断面
  6
CONTINUOUS
 10
0.843097
 20
-73.52458
 11
-60.723605
 21
-73.52458
  0
LINE
  8
型材断面
  6
CONTINUOUS
 62
    47
 10
0.609755
 20
-70.257805
 11
-60.723605
 21
-70.257805
  0
LINE
  8
型材断面
  6
CONTINUOUS
 10
0.609755
 20
-69.957817
 11
-60.723605
 21
-69.957817
  0
LINE
  8
型材断面
  6
CONTINUOUS
 62
    47
 10
0.609755
 20
-70.39112
 11
-60.723605
 21
-70.39112
  0
LINE
  8
型材断面
  6
CONTINUOUS
 62
    47
 10
0.609755
 20
-70.124463
 11
-60.723605
 21
-70.124463
  0
LINE
  8
型材断面
  6
CONTINUOUS
 10
-0.65673
 20
-69.89116
 11
-60.723605
 21
-69.89116
  0
LINE
  8
型材断面
  6
CONTINUOUS
 62
    47
 10
-0.350273
 20
-67.741128
 11
-60.723605
 21
-67.741128
  0
LINE
  8
型材断面
  6
CONTINUOUS
 62
    47
 10
-0.19354
 20
-66.241128
 11
-60.723605
 21
-66.241128
  0
LINE
  8
型材断面
  6
CONTINUOUS
 62
    47
 10
-0.29354
 20
-66.07446
 11
-60.723605
 21
-66.07446
  0
LINE
  8
型材断面
  6
CONTINUOUS
 10
-0.429242
 20
28.67055
 11
-60.723605
 21
28.67055
  0
LINE
  8
型材断面
  6
CONTINUOUS
 10
1.343088
 20
27.133922
 11
-60.723605
 21
27.133922
  0
LINE
  8
型材断面
  6
CONTINUOUS
 10
0.609755
 20
27.867255
 11
-60.723605
 21
27.867255
  0
LINE
  8
型材断面
  6
CONTINUOUS
 10
0.609755
 20
53.867312
 11
-60.723605
 21
53.867312
  0
LINE
  8
型材断面
  6
CONTINUOUS
 10
1.343088
 20
54.600645
 11
-60.723605
 21
54.600645
  0
LINE
  8
型材断面
  6
CONTINUOUS
 10
-0.429242
 20
53.064018
 11
-60.723605
 21
53.064018
  0
LINE
  8
型材断面
  6
DASHDOT
 10
-2.390272
 20
-77.528333
 11
-2.390272
 21
50.867282
  0
LINE
  8
型材断面
  6
DASHDOT
 10
130.329942
 20
30.867282
 11
-119.056935
 21
30.867282
  0
LINE
  8
型材断面
  6
DASHDOT
 10
130.329942
 20
40.867282
 11
-119.056935
 21
40.867282
  0
LINE
  8
型材断面
  6
DASHDOT
 10
130.329942
 20
50.867282
 11
-119.056935
 21
50.867282
  0
LINE
  8
型材断面
  6
CONTINUOUS
 62
    47
 10
-120.10363
 20
-70.124463
 11
-120.823842
 21
-70.124463
  0
LINE
  8
型材断面
  6
CONTINUOUS
 62
    47
 10
-120.78048
 20
-68.831142
 11
-120.79048
 21
-68.821143
  0
LINE
  8
型材断面
  6
CONTINUOUS
 62
    47
 10
-120.78048
 20
-68.831142
 11
-120.79048
 21
-68.841143
  0
LINE
  8
型材断面
  6
CONTINUOUS
 62
    47
 10
-120.78048
 20
-69.473375
 11
-120.79048
 21
-69.463375
  0
LINE
  8
型材断面
  6
CONTINUOUS
 62
    47
 10
-120.78048
 20
-69.473375
 11
-120.79048
 21
-69.483375
  0
LINE
  8
型材断面
  6
CONTINUOUS
 62
    47
 10
-120.79048
 20
-69.89116
 11
-120.79048
 21
-69.483375
  0
LINE
  8
型材断面
  6
CONTINUOUS
 62
    47
 10
-120.79048
 20
-69.463375
 11
-120.79048
 21
-68.841143
  0
LINE
  8
型材断面
  6
CONTINUOUS
 62
    47
 10
-122.290308
 20
-73.52458
 11
-122.290308
 21
-73.191245
  0
LINE
  8
型材断面
  6
CONTINUOUS
 62
    47
 10
-120.357145
 20
-72.524578
 11
-119.760297
 21
-72.524578
  0
LINE
  8
型材断面
  6
CONTINUOUS
 62
    47
 10
-120.590297
 20
-72.524565
 11
-122.790297
 21
-72.691245
  0
LINE
  8
型材断面
  6
CONTINUOUS
 62
    47
 10
-122.790297
 20
-73.191245
 11
-122.790297
 21
-72.691245
  0
LINE
  8
型材断面
  6
CONTINUOUS
 62
    47
 10
-122.056965
 20
-70.39112
 11
-122.056965
 21
-70.257805
  0
LINE
  8
型材断面
  6
CONTINUOUS
 62
    47
 10
-120.590297
 20
-70.39112
 11
-120.590297
 21
-72.524578
  0
LINE
  8
型材断面
  6
CONTINUOUS
 62
    47
 10
-121.097148
 20
-67.04113
 11
-121.097148
 21
-66.241128
  0
ARC
  8
型材断面
  6
CONTINUOUS
 10
-121.153671
 20
-66.174459
 40
0.1
 50
90.0
 51
180.0
  0
LINE
  8
型材断面
  6
CONTINUOUS
 62
    47
 10
-121.25367
 20
-66.17446
 11
-121.25367
 21
-66.241128
  0
LINE
  8
型材断面
  6
CONTINUOUS
 62
    47
 10
-121.096937
 20
-66.35125
 11
-121.096937
 21
-67.741128
  0
LINE
  8
型材断面
  6
CONTINUOUS
 62
    47
 10
-120.79048
 20
-68.821143
 11
-120.79048
 21
-67.741128
  0
LINE
  8
型材断面
  6
CONTINUOUS
 62
    47
 10
-122.056965
 20
-70.124463
 11
-122.056965
 21
-69.957467
  0
LINE
  8
型材断面
  6
CONTINUOUS
 62
    47
 10
-120.79048
 20
-69.89116
 11
-122.056965
 21
-69.957467
  0
LINE
  8
型材断面
  6
CONTINUOUS
 10
-122.790297
 20
-72.691245
 11
-60.723605
 21
-72.691245
  0
LINE
  8
型材断面
  6
CONTINUOUS
 10
-120.590297
 20
-72.524578
 11
-60.723605
 21
-72.524578
  0
LINE
  8
型材断面
  6
CONTINUOUS
 10
-122.790297
 20
-73.191245
 11
-60.723605
 21
-73.191245
  0
LINE
  8
型材断面
  6
CONTINUOUS
 10
-122.290308
 20
-73.52458
 11
-60.723605
 21
-73.52458
  0
LINE
  8
型材断面
  6
CONTINUOUS
 62
    47
 10
-122.056965
 20
-70.257805
 11
-60.723605
 21
-70.257805
  0
LINE
  8
型材断面
  6
CONTINUOUS
 10
-122.056965
 20
-69.957817
 11
-60.723605
 21
-69.957817
  0
LINE
  8
型材断面
  6
CONTINUOUS
 62
    47
 10
-122.056965
 20
-70.39112
 11
-60.723605
 21
-70.39112
  0
LINE
  8
型材断面
  6
CONTINUOUS
 62
    47
 10
-122.056965
 20
-70.124463
 11
-60.723605
 21
-70.124463
  0
LINE
  8
型材断面
  6
CONTINUOUS
 10
-120.79048
 20
-69.89116
 11
-60.723605
 21
-69.89116
  0
LINE
  8
型材断面
  6
CONTINUOUS
 62
    47
 10
-121.096937
 20
-67.741128
 11
-60.723605
 21
-67.741128
  0
LINE
  8
型材断面
  6
CONTINUOUS
 62
    47
 10
-121.25367
 20
-66.241128
 11
-60.723605
 21
-66.241128
  0
LINE
  8
型材断面
  6
CONTINUOUS
 62
    47
 10
-121.15367
 20
-66.07446
 11
-60.723605
 21
-66.07446
  0
LINE
  8
型材断面
  6
CONTINUOUS
 10
-122.790297
 20
27.133922
 11
-122.790297
 21
40.867282
  0
LINE
  8
型材断面
  6
CONTINUOUS
 10
-122.056965
 20
27.867255
 11
-122.056965
 21
40.867282
  0
LINE
  8
型材断面
  6
CONTINUOUS
 10
-122.790297
 20
54.600645
 11
-122.790297
 21
40.867282
  0
LINE
  8
型材断面
  6
CONTINUOUS
 10
-122.056965
 20
53.867312
 11
-122.056965
 21
40.867282
  0
LINE
  8
型材断面
  6
CONTINUOUS
 10
-121.017968
 20
28.67055
 11
-121.25367
 21
28.906252
  0
LINE
  8
型材断面
  6
CONTINUOUS
 10
-118.517755
 20
31.170762
 11
-118.753457
 21
31.406465
  0
LINE
  8
型材断面
  6
CONTINUOUS
 10
-118.753457
 20
31.406465
 11
-121.25367
 21
28.906252
  0
LINE
  8
型材断面
  6
CONTINUOUS
 10
-118.517755
 20
31.170762
 11
-121.017968
 21
28.67055
  0
LINE
  8
型材断面
  6
CONTINUOUS
 10
-122.790297
 20
27.133922
 11
-121.135818
 21
28.788402
  0
LINE
  8
型材断面
  6
CONTINUOUS
 10
-121.017968
 20
53.064018
 11
-121.25367
 21
52.828312
  0
LINE
  8
型材断面
  6
CONTINUOUS
 10
-118.517755
 20
50.563805
 11
-118.753457
 21
50.328103
  0
LINE
  8
型材断面
  6
CONTINUOUS
 10
-118.753457
 20
50.328103
 11
-121.25367
 21
52.828312
  0
LINE
  8
型材断面
  6
CONTINUOUS
 10
-118.517755
 20
50.563805
 11
-121.017968
 21
53.064018
  0
LINE
  8
型材断面
  6
CONTINUOUS
 10
-122.790297
 20
54.600645
 11
-121.135818
 21
52.946165
  0
LINE
  8
型材断面
  6
CONTINUOUS
 10
-121.25367
 20
28.906252
 11
-121.25367
 21
52.828312
  0
LINE
  8
型材断面
  6
CONTINUOUS
 10
-118.753457
 20
41.28395
 11
-121.25367
 21
41.28395
  0
LINE
  8
型材断面
  6
CONTINUOUS
 10
-118.753457
 20
40.450618
 11
-121.25367
 21
40.450618
  0
LINE
  8
型材断面
  6
CONTINUOUS
 10
-118.753457
 20
31.406465
 11
-118.753457
 21
40.450618
  0
LINE
  8
型材断面
  6
CONTINUOUS
 10
-118.753457
 20
41.28395
 11
-118.753457
 21
50.328103
  0
LINE
  8
型材断面
  6
CONTINUOUS
 10
-121.017968
 20
28.67055
 11
-60.723605
 21
28.67055
  0
LINE
  8
型材断面
  6
CONTINUOUS
 10
-122.790297
 20
27.133922
 11
-60.723605
 21
27.133922
  0
LINE
  8
型材断面
  6
CONTINUOUS
 10
-122.056965
 20
27.867255
 11
-60.723605
 21
27.867255
  0
LINE
  8
型材断面
  6
CONTINUOUS
 10
-122.056965
 20
53.867312
 11
-60.723605
 21
53.867312
  0
LINE
  8
型材断面
  6
CONTINUOUS
 10
-122.790297
 20
54.600645
 11
-60.723605
 21
54.600645
  0
LINE
  8
型材断面
  6
CONTINUOUS
 10
-121.017968
 20
53.064018
 11
-60.723605
 21
53.064018
  0
LINE
  8
型材断面
  6
DASHDOT
 10
-119.056935
 20
50.867282
 11
-119.056935
 21
-77.528333
  0
LINE
  8
型材断面
  6
DASHDOT
 10
-119.056935
 20
50.867282
 11
-2.390272
 21
50.867282
  0
LINE
  8
型材断面
  6
CONTINUOUS
 10
-102.390272
 20
53.497413
 11
-103.885902
 21
56.08792
  0
LINE
  8
型材断面
  6
CONTINUOUS
 10
-102.390272
 20
53.497413
 11
-100.894643
 21
56.08792
  0
LINE
  8
型材断面
  6
CONTINUOUS
 10
-100.894643
 20
56.08792
 11
-103.885902
 21
56.08792
  0
LINE
  8
型材断面
  6
CONTINUOUS
 10
-159.909148
 20
88.844755
 11
-159.313093
 21
86.254248
  0
LINE
  8
型材断面
  6
CONTINUOUS
 10
-159.909148
 20
88.844755
 11
-160.505205
 21
86.254248
  0
LINE
  8
型材断面
  6
CONTINUOUS
 10
-160.505205
 20
86.254248
 11
-159.313093
 21
86.254248
  0
LINE
  8
型材断面
  6
CONTINUOUS
 10
-165.931735
 20
82.975355
 11
-119.689958
 21
82.975355
  0
LINE
  8
型材断面
  6
CONTINUOUS
 10
-159.909148
 20
95.37463
 11
-161.404777
 21
92.784123
  0
LINE
  8
型材断面
  6
CONTINUOUS
 10
-159.909148
 20
95.37463
 11
-158.413518
 21
92.784123
  0
LINE
  8
型材断面
  6
CONTINUOUS
 10
-158.413518
 20
92.784123
 11
-161.404777
 21
92.784123
  0
LINE
  8
型材断面
  6
CONTINUOUS
 10
-165.931735
 20
91.845528
 11
-119.689958
 21
91.845528
  0
LINE
  8
型材断面
  6
CONTINUOUS
 10
-165.931735
 20
77.187322
 11
-119.689958
 21
77.187322
  0
LINE
  8
型材断面
  6
CONTINUOUS
 10
-121.68707
 20
40.867282
 11
-124.277578
 21
42.362912
  0
LINE
  8
型材断面
  6
CONTINUOUS
 10
-121.68707
 20
40.867282
 11
-124.277578
 21
39.371652
  0
LINE
  8
型材断面
  6
CONTINUOUS
 10
-124.277578
 20
39.371652
 11
-124.277578
 21
42.362912
  0
LINE
  8
型材断面
  6
CONTINUOUS
 10
-102.390272
 20
28.237153
 11
-103.885902
 21
25.646645
  0
LINE
  8
型材断面
  6
CONTINUOUS
 10
-102.390272
 20
28.237153
 11
-100.894643
 21
25.646645
  0
LINE
  8
型材断面
  6
CONTINUOUS
 10
-100.894643
 20
25.646645
 11
-103.885902
 21
25.646645
  0
LINE
  8
型材断面
  6
CONTINUOUS
 10
-19.056938
 20
53.497413
 11
-17.561308
 21
56.08792
  0
LINE
  8
型材断面
  6
CONTINUOUS
 10
-19.056938
 20
53.497413
 11
-20.552567
 21
56.08792
  0
LINE
  8
型材断面
  6
CONTINUOUS
 10
-20.552567
 20
56.08792
 11
-17.561308
 21
56.08792
  0
LINE
  8
型材断面
  6
CONTINUOUS
 10
0.23986
 20
40.867282
 11
2.830367
 21
42.362912
  0
LINE
  8
型材断面
  6
CONTINUOUS
 10
0.23986
 20
40.867282
 11
2.830367
 21
39.371652
  0
LINE
  8
型材断面
  6
CONTINUOUS
 10
2.830367
 20
39.371652
 11
2.830367
 21
42.362912
  0
LINE
  8
型材断面
  6
CONTINUOUS
 10
-19.056938
 20
28.237153
 11
-17.561308
 21
25.646645
  0
LINE
  8
型材断面
  6
CONTINUOUS
 10
-19.056938
 20
28.237153
 11
-20.552567
 21
25.646645
  0
LINE
  8
型材断面
  6
CONTINUOUS
 10
-20.552567
 20
25.646645
 11
-17.561308
 21
25.646645
  0
LINE
  8
型材断面
  6
CONTINUOUS
 10
-4.390272
 20
28.26047
 11
-4.98633
 21
25.669965
  0
LINE
  8
型材断面
  6
CONTINUOUS
 10
-4.390272
 20
28.26047
 11
-3.794215
 21
25.669965
  0
LINE
  8
型材断面
  6
CONTINUOUS
 10
-3.794215
 20
25.669965
 11
-4.98633
 21
25.669965
  0
LINE
  8
型材断面
  6
CONTINUOUS
 10
-117.056938
 20
28.26047
 11
-116.46088
 21
25.669965
  0
LINE
  8
型材断面
  6
CONTINUOUS
 10
-117.056938
 20
28.26047
 11
-117.652995
 21
25.669965
  0
LINE
  8
型材断面
  6
CONTINUOUS
 10
-117.652995
 20
25.669965
 11
-116.46088
 21
25.669965
  0
LINE
  8
型材断面
  6
DASHDOT
 10
-41.07027
 20
30.867282
 11
-41.07027
 21
50.867282
  0
LINE
  8
型材断面
  6
DASHDOT
 10
-80.37694
 20
30.867282
 11
-80.37694
 21
50.867282
  0
LINE
  8
型材断面
  6
CONTINUOUS
 10
-21.313602
 20
28.67055
 11
-21.313602
 21
31.170762
  0
LINE
  8
型材断面
  6
CONTINUOUS
 10
-22.146937
 20
28.67055
 11
-22.146937
 21
31.170762
  0
LINE
  8
型材断面
  6
CONTINUOUS
 10
-99.300273
 20
28.67055
 11
-99.300273
 21
31.170762
  0
LINE
  8
型材断面
  6
CONTINUOUS
 10
-100.133608
 20
28.67055
 11
-100.133608
 21
31.170762
  0
LINE
  8
型材断面
  6
CONTINUOUS
 10
-60.306938
 20
28.67055
 11
-60.306938
 21
31.170762
  0
LINE
  8
型材断面
  6
CONTINUOUS
 10
-61.140272
 20
28.67055
 11
-61.140272
 21
31.170762
  0
LINE
  8
型材断面
  6
CONTINUOUS
 10
-39.82027
 20
32.004095
 11
-42.32027
 21
32.004095
  0
LINE
  8
型材断面
  6
CONTINUOUS
 10
-81.62694
 20
32.004095
 11
-79.12694
 21
32.004095
  0
LINE
  8
型材断面
  6
CONTINUOUS
 10
-39.82027
 20
49.73047
 11
-42.32027
 21
49.73047
  0
LINE
  8
型材断面
  6
CONTINUOUS
 10
-81.62694
 20
49.73047
 11
-79.12694
 21
49.73047
  0
LINE
  8
型材断面
  6
CONTINUOUS
 10
-79.12694
 20
32.004095
 11
-79.12694
 21
49.73047
  0
LINE
  8
型材断面
  6
CONTINUOUS
 10
-81.62694
 20
32.004095
 11
-81.62694
 21
49.73047
  0
LINE
  8
型材断面
  6
CONTINUOUS
 10
-42.32027
 20
32.004095
 11
-42.32027
 21
49.73047
  0
LINE
  8
型材断面
  6
CONTINUOUS
 10
-39.82027
 20
32.004095
 11
-39.82027
 21
49.73047
  0
LINE
  8
型材断面
  6
CONTINUOUS
 10
-100.133608
 20
50.563805
 11
-100.133608
 21
53.064018
  0
LINE
  8
型材断面
  6
CONTINUOUS
 10
-99.300273
 20
50.563805
 11
-99.300273
 21
53.064018
  0
LINE
  8
型材断面
  6
CONTINUOUS
 10
-61.140272
 20
50.563805
 11
-61.140272
 21
53.064018
  0
LINE
  8
型材断面
  6
CONTINUOUS
 10
-60.306938
 20
50.563805
 11
-60.306938
 21
53.064018
  0
LINE
  8
型材断面
  6
CONTINUOUS
 10
-22.146937
 20
50.563805
 11
-22.146937
 21
53.064018
  0
LINE
  8
型材断面
  6
CONTINUOUS
 10
-21.313602
 20
50.563805
 11
-21.313602
 21
53.064018
  0
LINE
  8
型材断面
  6
CONTINUOUS
 10
-2.929455
 20
31.170762
 11
-21.313602
 21
31.170762
  0
LINE
  8
型材断面
  6
CONTINUOUS
 10
-2.929455
 20
50.563805
 11
-21.313602
 21
50.563805
  0
LINE
  8
型材断面
  6
CONTINUOUS
 10
-22.146937
 20
50.563805
 11
-60.306938
 21
50.563805
  0
LINE
  8
型材断面
  6
CONTINUOUS
 10
-22.146937
 20
31.170762
 11
-60.306938
 21
31.170762
  0
LINE
  8
型材断面
  6
CONTINUOUS
 10
-118.517755
 20
31.170762
 11
-100.133608
 21
31.170762
  0
LINE
  8
型材断面
  6
CONTINUOUS
 10
-99.300273
 20
31.170762
 11
-61.140272
 21
31.170762
  0
LINE
  8
型材断面
  6
CONTINUOUS
 10
-118.517755
 20
50.563805
 11
-100.133608
 21
50.563805
  0
LINE
  8
型材断面
  6
CONTINUOUS
 10
-99.300273
 20
50.563805
 11
-61.140272
 21
50.563805
  0
POLYLINE
  8
型材断面
  6
DASHDOT
 66
     1
  0
VERTEX
  8
型材断面
 10
-119.056935
 20
30.867282
  0
VERTEX
  8
型材断面
 10
-60.723605
 20
50.867282
  0
VERTEX
  8
型材断面
 10
-2.390272
 20
30.867282
  0
SEQEND
  0
INSERT
  2
*GRP_0002
  8
ガラス
  6
CONTINUOUS
 10
0.0
 20
0.0
  0
LINE
  8
ガラス
  6
CONTINUOUS
 10
-98.82356
 20
42.135895
 11
-101.454525
 21
39.504932
  0
LINE
  8
ガラス
  6
CONTINUOUS
 10
-99.479735
 20
40.161105
 11
-100.79835
 21
41.479728
  0
LINE
  8
ガラス
  6
CONTINUOUS
 10
-100.33278
 20
40.191555
 11
-99.316262
 21
41.208072
  0
LINE
  8
ガラス
  6
CONTINUOUS
 10
-99.945308
 20
41.449275
 11
-100.96182
 21
40.43276
  0
LINE
  8
ガラス
  6
CONTINUOUS
 10
-59.365103
 20
42.135895
 11
-61.996068
 21
39.504932
  0
LINE
  8
ガラス
  6
CONTINUOUS
 10
-60.021277
 20
40.161105
 11
-61.339893
 21
41.479728
  0
LINE
  8
ガラス
  6
CONTINUOUS
 10
-60.874323
 20
40.191555
 11
-59.857805
 21
41.208072
  0
LINE
  8
ガラス
  6
CONTINUOUS
 10
-60.48685
 20
41.449275
 11
-61.503363
 21
40.43276
  0
LINE
  8
ガラス
  6
CONTINUOUS
 10
-20.088115
 20
42.135895
 11
-22.71908
 21
39.504932
  0
LINE
  8
ガラス
  6
CONTINUOUS
 10
-20.74429
 20
40.161105
 11
-22.062905
 21
41.479728
  0
LINE
  8
ガラス
  6
CONTINUOUS
 10
-21.597335
 20
40.191555
 11
-20.580818
 21
41.208072
  0
LINE
  8
ガラス
  6
CONTINUOUS
 10
-21.209862
 20
41.449275
 11
-22.226375
 21
40.43276
  0
POLYLINE
  8
ガラス
  6
CONTINUOUS
 66
     1
 70
     1
  0
VERTEX
  8
ガラス
 10
135.822458
 20
-55.570085
  0
VERTEX
  8
ガラス
 10
97.599125
 20
-55.570085
  0
VERTEX
  8
ガラス
 10
97.599125
 20
-75.736752
  0
VERTEX
  8
ガラス
 10
135.822458
 20
-75.736752
  0
SEQEND
  0
TEXT
  7
TextStyle03
  8
文字
  6
CONTINUOUS
 10
114.175
 20
21.4
  1
45°
 40
3.0
 50
90.0
 72
     5
 11
114.175
 21
27.775
  0
TEXT
  7
TextStyle03
  8
文字
  6
CONTINUOUS
 10
64.95
 20
116.5
  1
シリーズ：ＴＦＦＨＬ
 40
5.0
 72
     5
 11
120.575
 21
116.5
  0
TEXT
  7
TextStyle03
  8
文字
  6
CONTINUOUS
 10
64.95
 20
110.875
  1
　　　　　（片側開閉）600×3500タイプ
 40
5.0
 72
     5
 11
168.3875
 21
110.875
  0
TEXT
  7
TextStyle03
  8
文字
  6
CONTINUOUS
 10
64.95
 20
105.25
  1
図面名　：外観姿図
 40
5.0
 72
     5
 11
114.95
 21
105.25
  0
TEXT
  7
TextStyle03
  8
文字
  6
CONTINUOUS
 10
64.95
 20
99.625
  1
　　　　　　
 40
5.0
 72
     5
 11
98.075
 21
99.625
  0
TEXT
  7
TextStyle03
  8
文字
  6
CONTINUOUS
 10
-157.1
 20
93.0
  1
は排水穴位置を示す
 40
3.0
 72
     5
 11
-127.1
 21
93.0
  0
TEXT
  7
TextStyle03
  8
文字
  6
CONTINUOUS
 10
-157.1
 20
87.475
  1
はケーシング位置を示す
 40
3.0
 72
     5
 11
-120.35
 21
87.475
  0
TEXT
  7
TextStyle03
  8
文字
  6
CONTINUOUS
 10
-157.1
 20
84.1
  1
２ヶ所中1ヶ所に設定
 40
3.0
 72
     5
 11
-125.4125
 21
84.1
  0
TEXT
  7
TextStyle03
  8
文字
  6
CONTINUOUS
 10
-140.1
 20
19.325
  1
アンカーピッチ
 40
3.0
 50
90.0
 72
     5
 11
-140.1
 21
42.575
  0
TEXT
  7
TextStyle03
  8
文字
  6
CONTINUOUS
 10
-107.9
 20
87.825
  1
アンカーピッチ
 40
3.0
 72
     5
 11
-84.65
 21
87.825
  0
TEXT
  7
TextStyle03
  8
文字
  6
CONTINUOUS
 10
-160.825
 20
78.125
  1
アンカー数量　１４ヶ所
 40
3.0
 72
     5
 11
-124.075
 21
78.125
  0
TEXT
  7
TextStyle03
  8
文字
  6
CONTINUOUS
 10
116.6
 20
-68.1
  1
網入り6.8t
 40
3.0
 72
     5
 11
133.2875
 21
-68.1
  0
TEXT
  7
TextStyle03
  8
文字
  6
CONTINUOUS
 10
123.225
 20
-73.35
  1
×３枚
 40
3.0
 72
     5
 11
132.975
 21
-73.35
  0
INSERT
  2
*DIM_0003
  8
寸法
  6
CONTINUOUS
 10
0.0
 20
0.0
  0
INSERT
  2
*DIM_0005
  8
寸法
  6
CONTINUOUS
 10
0.0
 20
0.0
  0
INSERT
  2
*DIM_0006
  8
寸法
  6
CONTINUOUS
 10
0.0
 20
0.0
  0
INSERT
  2
*DIM_0007
  8
寸法
  6
CONTINUOUS
 10
0.0
 20
0.0
  0
INSERT
  2
*DIM_0008
  8
寸法
  6
CONTINUOUS
 10
0.0
 20
0.0
  0
INSERT
  2
*DIM_0009
  8
寸法
  6
CONTINUOUS
 10
0.0
 20
0.0
  0
INSERT
  2
*DIM_0010
  8
寸法
  6
CONTINUOUS
 10
0.0
 20
0.0
  0
INSERT
  2
*DIM_0011
  8
寸法
  6
CONTINUOUS
 10
0.0
 20
0.0
  0
INSERT
  2
*DIM_0012
  8
寸法
  6
CONTINUOUS
 10
0.0
 20
0.0
  0
INSERT
  2
*DIM_0013
  8
寸法
  6
CONTINUOUS
 10
0.0
 20
0.0
  0
INSERT
  2
*DIM_0014
  8
寸法
  6
CONTINUOUS
 10
0.0
 20
0.0
  0
INSERT
  2
*DIM_0015
  8
寸法
  6
CONTINUOUS
 10
0.0
 20
0.0
  0
INSERT
  2
*DIM_0016
  8
寸法
  6
CONTINUOUS
 10
0.0
 20
0.0
  0
INSERT
  2
*DIM_0017
  8
寸法
  6
CONTINUOUS
 10
0.0
 20
0.0
  0
INSERT
  2
*DIM_0018
  8
寸法
  6
CONTINUOUS
 10
0.0
 20
0.0
  0
INSERT
  2
*DIM_0019
  8
寸法
  6
CONTINUOUS
 10
0.0
 20
0.0
  0
INSERT
  2
*DIM_0020
  8
寸法
  6
CONTINUOUS
 10
0.0
 20
0.0
  0
INSERT
  2
*DIM_0021
  8
寸法
  6
CONTINUOUS
 10
0.0
 20
0.0
  0
INSERT
  2
*GRP_0004
  8
別途部材
  6
CONTINUOUS
 10
0.0
 20
0.0
  0
ENDSEC
  0
EOF
