  0
SECTION
  2
HEADER
  9
$EXTMIN
 10
-210.0
 20
-148.5
  9
$EXTMAX
 10
210.0
 20
148.5
  9
$PDMODE
 70
    32
  9
$PDSIZE
 40
1.5
  9
$LTSCALE
 40
10.0
  0
ENDSEC
  0
SECTION
  2
TABLES
  0
TABLE
  2
LTYPE
 70
    15
  0
LTYPE
  2
CONTINUOUS
 70
    64
  3
実線
 72
    65
 73
     0
 40
0.0
  0
LTYPE
  2
DASHED
 70
    64
  3
破線A
 72
    65
 73
     2
 40
0.6
 49
0.4
 49
-0.2
  0
LTYPE
  2
DASHEDX2
 70
    64
  3
破線B
 72
    65
 73
     2
 40
1.3
 49
0.9
 49
-0.4
  0
LTYPE
  2
DASHDOT
 70
    64
  3
１点鎖線A
 72
    65
 73
     4
 40
0.5375
 49
0.375
 49
-0.05
 49
0.0625
 49
-0.05
  0
LTYPE
  2
DASHDOTX2
 70
    64
  3
１点鎖線B
 72
    65
 73
     4
 40
1.075
 49
0.75
 49
-0.1
 49
0.125
 49
-0.1
  0
LTYPE
  2
DIVIDE2
 70
    64
  3
２点鎖線A
 72
    65
 73
     6
 40
0.5125
 49
0.3
 49
-0.0375
 49
0.05
 49
-0.0375
 49
0.05
 49
-0.0375
  0
LTYPE
  2
DIVIDE
 70
    64
  3
２点鎖線B
 72
    65
 73
     6
 40
1.05
 49
0.55
 49
-0.1
 49
0.1
 49
-0.1
 49
0.1
 49
-0.1
  0
LTYPE
  2
DOT
 70
    64
  3
点線A
 72
    65
 73
     2
 40
0.1125
 49
0.0625
 49
-0.05
  0
LTYPE
  2
DOTX2
 70
    64
  3
点線B
 72
    65
 73
     2
 40
0.275
 49
0.15
 49
-0.125
  0
LTYPE
  2
CONTINUOUS
 70
    64
  3
実線
 72
    65
 73
     0
 40
0.0
  0
LTYPE
  2
CONTINUOUS
 70
    64
  3
実線
 72
    65
 73
     0
 40
0.0
  0
LTYPE
  2
CONTINUOUS
 70
    64
  3
実線
 72
    65
 73
     0
 40
0.0
  0
LTYPE
  2
CONTINUOUS
 70
    64
  3
実線
 72
    65
 73
     0
 40
0.0
  0
LTYPE
  2
CONTINUOUS
 70
    64
  3
実線
 72
    65
 73
     0
 40
0.0
  0
LTYPE
  2
CONTINUOUS
 70
    64
  3
実線
 72
    65
 73
     0
 40
0.0
  0
ENDTAB
  0
TABLE
  2
LAYER
 70
    34
  0
LAYER
  2
通り芯
 70
     0
 62
    15
  6
CONTINUOUS
  0
LAYER
  2
補助線
 70
     0
 62
    16
  6
DOT
  0
LAYER
  2
躯体
 70
     0
 62
    31
  6
CONTINUOUS
  0
LAYER
  2
型材
 70
     0
 62
    32
  6
CONTINUOUS
  0
LAYER
  2
型材断面
 70
     0
 62
    47
  6
CONTINUOUS
  0
LAYER
  2
ガラス
 70
     0
 62
    48
  6
CONTINUOUS
  0
LAYER
  2
ゴム等
 70
     0
 62
    63
  6
CONTINUOUS
  0
LAYER
  2
ボルト／ビス
 70
     0
 62
    64
  6
CONTINUOUS
  0
LAYER
  2
文字
 70
     0
 62
    79
  6
CONTINUOUS
  0
LAYER
  2
寸法
 70
     0
 62
    80
  6
CONTINUOUS
  0
LAYER
  2
ﾊｯﾁﾝｸﾞ
 70
     0
 62
    95
  6
CONTINUOUS
  0
LAYER
  2
別途部材
 70
     0
 62
    96
  6
CONTINUOUS
  0
LAYER
  2
曲げ物
 70
     0
 62
   111
  6
CONTINUOUS
  0
LAYER
  2
鉄骨等
 70
     0
 62
   112
  6
CONTINUOUS
  0
LAYER
  2
St
 70
     0
 62
   127
  6
CONTINUOUS
  0
LAYER
  2
その他部品等
 70
     0
 62
   128
  6
CONTINUOUS
  0
LAYER
  2
ｶﾞｽｹｯﾄ
 70
     0
 62
   143
  6
CONTINUOUS
  0
LAYER
  2
ｽｹｯﾁ
 70
     0
 62
    14
  6
CONTINUOUS
  0
LAYER
  2
0
 70
     0
 62
    17
  6
CONTINUOUS
  0
LAYER
  2
1
 70
     0
 62
    30
  6
CONTINUOUS
  0
LAYER
  2
4
 70
     0
 62
    33
  6
CONTINUOUS
  0
LAYER
  2
ﾚｲﾔ3
 70
     0
 62
    46
  6
CONTINUOUS
  0
LAYER
  2
外形線
 70
     0
 62
    49
  6
CONTINUOUS
  0
LAYER
  2
部品
 70
     0
 62
    14
  6
CONTINUOUS
  0
LAYER
  2
サッシ芯
 70
     0
 62
    17
  6
DASHDOTX2
  0
LAYER
  2
寸法線
 70
     0
 62
    62
  6
CONTINUOUS
  0
LAYER
  2
姿図外形線
 70
     0
 62
    65
  6
CONTINUOUS
  0
LAYER
  2
姿補助線
 70
     0
 62
    30
  6
CONTINUOUS
  0
LAYER
  2
透視線
 70
     0
 62
    78
  6
DOT
  0
LAYER
  2
用紙
 70
     0
 62
    81
  6
CONTINUOUS
  0
LAYER
  2
実線図枠
 70
     0
 62
    94
  6
CONTINUOUS
  0
LAYER
  2
補助図枠
 70
     0
 62
    97
  6
CONTINUOUS
  0
LAYER
  2
建具記号
 70
     0
 62
   110
  6
CONTINUOUS
  0
LAYER
  2
補助文字
 70
     0
 62
   113
  6
CONTINUOUS
  0
ENDTAB
  0
TABLE
  2
STYLE
 70
    10
  0
STYLE
  2
STANDARD
 70
     0
 40
1.0
 41
1.0
 42
1.0
 50
0.0
 71
     0
  3
TXT
  4
BIGFONT
  0
STYLE
  2
TATE
 70
     4
 40
1.0
 41
1.0
 42
1.0
 50
0.0
 71
     0
  3
TXT
  4
BIGFONT
  0
STYLE
  2
TextStyle03
 70
     0
 40
1.0
 41
1.0
 42
1.0
 50
0.0
 71
     0
  3
MONOTXT
  4
BIGFONT
  0
STYLE
  2
TextStyle04
 70
     0
 40
1.0
 41
1.0
 42
1.0
 50
0.0
 71
     0
  3
MONOTXT
  4
BIGFONT
  0
STYLE
  2
TextStyle05
 70
     0
 40
1.0
 41
1.0
 42
1.0
 50
0.0
 71
     0
  3
MONOTXT
  4
BIGFONT
  0
STYLE
  2
TextStyle06
 70
     0
 40
1.0
 41
1.0
 42
1.0
 50
0.0
 71
     0
  3
MONOTXT
  4
BIGFONT
  0
STYLE
  2
TextStyle07
 70
     0
 40
1.0
 41
1.0
 42
1.0
 50
0.0
 71
     0
  3
MONOTXT
  4
BIGFONT
  0
STYLE
  2
TextStyle08
 70
     0
 40
1.0
 41
1.0
 42
1.0
 50
0.0
 71
     0
  3
MONOTXT
  4
BIGFONT
  0
STYLE
  2
TextStyle09
 70
     0
 40
1.0
 41
1.0
 42
1.0
 50
0.0
 71
     0
  3
MONOTXT
  4
BIGFONT
  0
STYLE
  2
TextStyle10
 70
     0
 40
1.0
 41
1.0
 42
1.0
 50
0.0
 71
     0
  3
MONOTXT
  4
BIGFONT
  0
ENDTAB
  0
ENDSEC
  0
SECTION
  2
BLOCKS
  0
BLOCK
  2
*GRP_0001
 70
    65
 10
0.0
 20
0.0
  0
LINE
  8
型材断面
  6
CONTINUOUS
 10
195.0
 20
133.5
 11
195.0
 21
-133.5
  0
LINE
  8
型材断面
  6
CONTINUOUS
 10
195.0
 20
-133.5
 11
-185.0
 21
-133.5
  0
LINE
  8
型材断面
  6
CONTINUOUS
 10
-185.0
 20
-133.5
 11
-185.0
 21
133.5
  0
LINE
  8
型材断面
  6
CONTINUOUS
 10
195.0
 20
133.5
 11
-185.0
 21
133.5
  0
LINE
  8
型材断面
  6
CONTINUOUS
 10
145.0
 20
-133.5
 11
145.0
 21
-118.5
  0
LINE
  8
型材断面
  6
CONTINUOUS
 10
195.0
 20
-118.5
 11
145.0
 21
-118.5
  0
ENDBLK
  0
BLOCK
  2
*GRP_0002
 70
    65
 10
0.0
 20
0.0
  0
LINE
  8
型材断面
  6
DOT
 62
    47
 10
122.483775
 20
52.621083
 11
122.993043
 21
53.13035
  0
LINE
  8
型材断面
  6
DOT
 62
    47
 10
122.047865
 20
54.014202
 11
122.047865
 21
54.028345
  0
LINE
  8
型材断面
  6
DOT
 62
    47
 10
122.047865
 20
54.014202
 11
122.062008
 21
54.014202
  0
LINE
  8
型材断面
  6
DOT
 62
    47
 10
122.501993
 20
53.560078
 11
122.501993
 21
53.574217
  0
LINE
  8
型材断面
  6
DOT
 62
    47
 10
122.501993
 20
53.560078
 11
122.516132
 21
53.560078
  0
LINE
  8
型材断面
  6
DOT
 62
    47
 10
122.80448
 20
53.271728
 11
122.516132
 21
53.560078
  0
LINE
  8
型材断面
  6
DOT
 62
    47
 10
122.501993
 20
53.574217
 11
122.062008
 21
54.014202
  0
LINE
  8
型材断面
  6
DOT
 62
    47
 10
114.672582
 20
44.80989
 11
123.864992
 21
54.002297
  0
LINE
  8
型材断面
  6
DOT
 62
    47
 10
123.747155
 20
54.120135
 11
123.864992
 21
54.002297
  0
LINE
  8
型材断面
  6
DOT
 62
    47
 10
122.80448
 20
53.271728
 11
123.751882
 21
54.124863
  0
LINE
  8
型材断面
  6
DOT
 10
122.80448
 20
53.271728
 11
114.507612
 21
44.97486
  0
LINE
  8
型材断面
  6
DOT
 10
123.747155
 20
54.120135
 11
114.554747
 21
44.927728
  0
LINE
  8
型材断面
  6
DOT
 62
    47
 10
106.861392
 20
36.998697
 11
106.352123
 21
36.48943
  0
LINE
  8
型材断面
  6
DOT
 62
    47
 10
105.46827
 20
37.434607
 11
105.454127
 21
37.434607
  0
LINE
  8
型材断面
  6
DOT
 62
    47
 10
105.46827
 20
37.434607
 11
105.46827
 21
37.420468
  0
LINE
  8
型材断面
  6
DOT
 62
    47
 10
105.922398
 20
36.980482
 11
105.908255
 21
36.980482
  0
LINE
  8
型材断面
  6
DOT
 62
    47
 10
105.922398
 20
36.980482
 11
105.922398
 21
36.96634
  0
LINE
  8
型材断面
  6
DOT
 62
    47
 10
106.210745
 20
36.677993
 11
105.922398
 21
36.96634
  0
LINE
  8
型材断面
  6
DOT
 62
    47
 10
105.908255
 20
36.980482
 11
105.46827
 21
37.420468
  0
LINE
  8
型材断面
  6
DOT
 62
    47
 10
114.672582
 20
44.80989
 11
105.480175
 21
35.617483
  0
LINE
  8
型材断面
  6
DOT
 62
    47
 10
105.362337
 20
35.735318
 11
105.480175
 21
35.617483
  0
LINE
  8
型材断面
  6
DOT
 62
    47
 10
106.210745
 20
36.677993
 11
105.357612
 21
35.73059
  0
LINE
  8
型材断面
  6
DOT
 10
106.210745
 20
36.677993
 11
114.507612
 21
44.97486
  0
LINE
  8
型材断面
  6
DOT
 10
105.362337
 20
35.735318
 11
114.554747
 21
44.927728
  0
LINE
  8
型材断面
  6
DOT
 62
    47
 10
121.006053
 20
55.503852
 11
120.440367
 21
56.069537
  0
ARC
  8
型材断面
  6
DOT
 10
120.433195
 20
56.156647
 40
0.1
 50
45.0
 51
135.0
  0
LINE
  8
型材断面
  6
DOT
 62
    47
 10
120.503903
 20
56.227357
 11
120.551043
 21
56.180215
  0
LINE
  8
型材断面
  6
DOT
 62
    47
 10
120.518085
 20
55.99152
 11
121.500878
 21
55.008727
  0
LINE
  8
型材断面
  6
DOT
 62
    47
 10
121.500878
 20
55.008727
 11
112.98731
 21
46.495162
  0
LINE
  8
型材断面
  6
DOT
 62
    47
 10
120.551043
 20
56.180215
 11
111.92665
 21
47.555823
  0
LINE
  8
型材断面
  6
DOT
 62
    47
 10
120.362483
 20
56.227357
 11
111.8088
 21
47.673673
  0
LINE
  8
型材断面
  6
DOT
 62
    47
 10
103.978622
 20
38.476423
 11
103.412935
 21
39.042108
  0
ARC
  8
型材断面
  6
DOT
 10
103.32583
 20
39.049283
 40
0.1
 50
135.0
 51
225.0
  0
LINE
  8
型材断面
  6
DOT
 62
    47
 10
103.255118
 20
38.97857
 11
103.302258
 21
38.93143
  0
LINE
  8
型材断面
  6
DOT
 62
    47
 10
103.490952
 20
38.964387
 11
104.473745
 21
37.981597
  0
LINE
  8
型材断面
  6
DOT
 62
    47
 10
104.473745
 20
37.981597
 11
112.98731
 21
46.495162
  0
LINE
  8
型材断面
  6
DOT
 62
    47
 10
103.302258
 20
38.93143
 11
111.92665
 21
47.555823
  0
LINE
  8
型材断面
  6
DOT
 62
    47
 10
103.255118
 20
39.119993
 11
111.8088
 21
47.673673
  0
LINE
  8
型材断面
  6
DOT
 62
    47
 10
105.454127
 20
37.434607
 11
104.690443
 21
38.198295
  0
LINE
  8
型材断面
  6
DOT
 62
    47
 10
122.047865
 20
54.028345
 11
121.284178
 21
54.79203
  0
ENDBLK
  0
BLOCK
  2
*DIM_0003
 70
    65
 10
0.0
 20
0.0
  0
LINE
  8
寸法
  6
CONTINUOUS
 10
127.157677
 20
22.133922
 11
127.157677
 21
15.791205
  0
LINE
  8
寸法
  6
CONTINUOUS
 10
120.040892
 20
23.868932
 11
120.040892
 21
15.791205
  0
LINE
  8
寸法
  6
CONTINUOUS
 10
127.157677
 20
15.791205
 11
120.040892
 21
15.791205
  0
POINT
  8
寸法
 10
127.157677
 20
15.791205
  0
POINT
  8
寸法
 10
120.040892
 20
15.791205
  0
TEXT
  7
TextStyle03
  8
寸法
  6
CONTINUOUS
 10
119.475
 20
12.775
  1
213.5
 40
3.0
 72
     5
 11
127.725
 21
12.775
  0
ENDBLK
  0
BLOCK
  2
*GRP_0004
 70
    65
 10
0.0
 20
0.0
  0
LINE
  8
別途部材
  6
CONTINUOUS
 62
    96
 10
125.940887
 20
52.500828
 11
125.940887
 21
52.400828
  0
LINE
  8
別途部材
  6
CONTINUOUS
 62
    96
 10
123.839807
 20
52.600828
 11
123.90948
 21
53.931632
  0
LINE
  8
別途部材
  6
CONTINUOUS
 62
    96
 10
124.457553
 20
53.940827
 11
124.340887
 21
54.207495
  0
LINE
  8
別途部材
  6
CONTINUOUS
 62
    96
 10
124.357553
 20
53.919912
 11
124.290033
 21
54.074245
  0
LINE
  8
別途部材
  6
CONTINUOUS
 62
    96
 10
123.81071
 20
53.95775
 11
123.94116
 21
54.217952
  0
LINE
  8
別途部材
  6
CONTINUOUS
 62
    96
 10
123.90948
 20
53.931632
 11
124.04164
 21
54.195245
  0
LINE
  8
別途部材
  6
CONTINUOUS
 62
    96
 10
124.077242
 20
54.130363
 11
124.013595
 21
54.053233
  0
LINE
  8
別途部材
  6
DASHDOTX2
 62
    96
 10
124.140887
 20
54.207495
 11
123.827403
 21
54.207495
  0
LINE
  8
別途部材
  6
DASHDOTX2
 62
    96
 10
124.140887
 20
54.207495
 11
124.471348
 21
54.207495
  0
LINE
  8
別途部材
  6
DASHDOTX2
 62
    96
 10
124.140887
 20
54.207495
 11
124.140887
 21
53.944023
  0
LINE
  8
別途部材
  6
DASHDOTX2
 62
    96
 10
124.140887
 20
54.207495
 11
124.140887
 21
54.485805
  0
LINE
  8
別途部材
  6
CONTINUOUS
 62
    96
 10
124.357553
 20
52.400828
 11
124.357553
 21
53.919912
  0
LINE
  8
別途部材
  6
CONTINUOUS
 62
    96
 10
124.457553
 20
52.500828
 11
124.457553
 21
53.940827
  0
LINE
  8
別途部材
  6
CONTINUOUS
 62
    96
 10
122.606473
 20
52.70083
 11
123.744905
 21
52.70083
  0
LINE
  8
別途部材
  6
CONTINUOUS
 62
    96
 10
122.606473
 20
52.600828
 11
122.606473
 21
52.70083
  0
LINE
  8
別途部材
  6
CONTINUOUS
 62
    96
 10
122.606473
 20
52.600828
 11
123.839807
 21
52.600828
  0
CIRCLE
  8
別途部材
  6
CONTINUOUS
 62
    96
 10
124.140887
 20
54.207495
 40
0.1
  0
ARC
  8
別途部材
  6
CONTINUOUS
 62
    96
 10
124.140888
 20
54.207496
 40
0.2
 50
218.780606
 51
537.001556
  0
LINE
  8
別途部材
  6
CONTINUOUS
 62
    96
 10
124.357553
 20
52.400828
 11
125.940887
 21
52.400828
  0
LINE
  8
別途部材
  6
CONTINUOUS
 62
    96
 10
124.457553
 20
52.500828
 11
125.940887
 21
52.500828
  0
LINE
  8
別途部材
  6
CONTINUOUS
 62
    96
 10
123.81071
 20
53.95775
 11
123.744905
 21
52.70083
  0
ENDBLK
  0
BLOCK
  2
*DIM_0005
 70
    65
 10
0.0
 20
0.0
  0
LINE
  8
寸法
  6
CONTINUOUS
 10
121.657677
 20
54.600645
 11
87.439335
 21
54.600645
  0
LINE
  8
寸法
  6
CONTINUOUS
 10
87.439335
 20
50.867282
 11
87.439335
 21
54.600645
  0
POINT
  8
寸法
 10
87.439335
 20
50.867282
  0
POINT
  8
寸法
 10
87.439335
 20
54.600645
  0
TEXT
  7
TextStyle03
  8
寸法
  6
CONTINUOUS
 10
87.05
 20
55.3375
  1
112
 40
3.0
 50
90.0
 72
     5
 11
87.05
 21
60.2125
  0
ENDBLK
  0
BLOCK
  2
*DIM_0006
 70
    65
 10
0.0
 20
0.0
  0
LINE
  8
寸法
  6
CONTINUOUS
 10
121.657677
 20
27.133922
 11
87.439335
 21
27.133922
  0
LINE
  8
寸法
  6
CONTINUOUS
 10
87.439335
 20
30.867282
 11
87.439335
 21
27.133922
  0
POINT
  8
寸法
 10
87.439335
 20
30.867282
  0
POINT
  8
寸法
 10
87.439335
 20
27.133922
  0
TEXT
  7
TextStyle03
  8
寸法
  6
CONTINUOUS
 10
87.05
 20
21.5125
  1
112
 40
3.0
 50
90.0
 72
     5
 11
87.05
 21
26.3875
  0
ENDBLK
  0
BLOCK
  2
*DIM_0007
 70
    65
 10
0.0
 20
0.0
  0
LINE
  8
寸法
  6
CONTINUOUS
 10
87.439335
 20
30.867282
 11
87.439335
 21
50.867282
  0
POINT
  8
寸法
 10
87.439335
 20
30.867282
  0
POINT
  8
寸法
 10
87.439335
 20
50.867282
  0
TEXT
  7
TextStyle03
  8
寸法
  6
CONTINUOUS
 10
87.05
 20
29.975
  1
呼称寸法　600
 40
3.0
 50
90.0
 72
     5
 11
87.05
 21
51.725
  0
ENDBLK
  0
BLOCK
  2
*DIM_0008
 70
    65
 10
0.0
 20
0.0
  0
LINE
  8
寸法
  6
CONTINUOUS
 10
-15.323578
 20
-71.841245
 11
-15.323578
 21
-42.588472
  0
LINE
  8
寸法
  6
CONTINUOUS
 10
-19.056938
 20
-42.588472
 11
-15.323578
 21
-42.588472
  0
POINT
  8
寸法
 10
-19.056938
 20
-42.588472
  0
POINT
  8
寸法
 10
-15.323578
 20
-42.588472
  0
TEXT
  7
TextStyle03
  8
寸法
  6
CONTINUOUS
 10
-19.6375
 20
-42.225
  1
112
 40
3.0
 72
     5
 11
-14.7625
 21
-42.225
  0
ENDBLK
  0
BLOCK
  2
*DIM_0009
 70
    65
 10
0.0
 20
0.0
  0
LINE
  8
寸法
  6
CONTINUOUS
 10
-10.323578
 20
-73.191245
 11
1.1575
 21
-73.191245
  0
LINE
  8
寸法
  6
CONTINUOUS
 10
-12.057895
 20
-66.07446
 11
1.1575
 21
-66.07446
  0
LINE
  8
寸法
  6
CONTINUOUS
 10
1.1575
 20
-73.191245
 11
1.1575
 21
-66.07446
  0
POINT
  8
寸法
 10
1.1575
 20
-73.191245
  0
POINT
  8
寸法
 10
1.1575
 20
-66.07446
  0
TEXT
  7
TextStyle03
  8
寸法
  6
CONTINUOUS
 10
4.15
 20
-73.775
  1
213.5
 40
3.0
 50
90.0
 72
     5
 11
4.15
 21
-65.525
  0
ENDBLK
  0
BLOCK
  2
*DIM_0010
 70
    65
 10
0.0
 20
0.0
  0
LINE
  8
寸法
  6
CONTINUOUS
 10
-106.123632
 20
-71.841245
 11
-106.123632
 21
-42.588472
  0
LINE
  8
寸法
  6
CONTINUOUS
 10
-102.39027
 20
-42.588472
 11
-106.123632
 21
-42.588472
  0
POINT
  8
寸法
 10
-102.39027
 20
-42.588472
  0
POINT
  8
寸法
 10
-106.123632
 20
-42.588472
  0
TEXT
  7
TextStyle03
  8
寸法
  6
CONTINUOUS
 10
-106.7125
 20
-42.225
  1
112
 40
3.0
 72
     5
 11
-101.8375
 21
-42.225
  0
ENDBLK
  0
BLOCK
  2
*DIM_0011
 70
    65
 10
0.0
 20
0.0
  0
LINE
  8
寸法
  6
CONTINUOUS
 10
-102.39027
 20
-42.588472
 11
-19.056938
 21
-42.588472
  0
POINT
  8
寸法
 10
-102.39027
 20
-42.588472
  0
POINT
  8
寸法
 10
-19.056938
 20
-42.588472
  0
TEXT
  7
TextStyle03
  8
寸法
  6
CONTINUOUS
 10
-72.44375
 20
-42.225
  1
呼称寸法　2500
 40
3.0
 72
     5
 11
-49.00625
 21
-42.225
  0
ENDBLK
  0
BLOCK
  2
*DIM_0012
 70
    65
 10
0.0
 20
0.0
  0
LINE
  8
寸法
  6
BYBLOCK
 62
     0
 10
-85.723603
 20
27.237153
 11
-85.723603
 21
22.07167
  0
LINE
  8
寸法
  6
BYBLOCK
 62
     0
 10
-35.723607
 20
27.237153
 11
-35.723607
 21
22.07167
  0
LINE
  8
寸法
  6
BYBLOCK
 62
     0
 10
-85.723603
 20
22.07167
 11
-35.723607
 21
22.07167
  0
POINT
  8
寸法
 62
     0
 10
-85.723603
 20
22.07167
  0
POINT
  8
寸法
 62
     0
 10
-35.723607
 20
22.07167
  0
TEXT
  7
TextStyle03
  8
寸法
  6
CONTINUOUS
 62
     0
 10
-63.98125
 20
22.425
  1
1500
 40
3.0
 72
     5
 11
-57.41875
 21
22.425
  0
ENDBLK
  0
BLOCK
  2
*DIM_0013
 70
    65
 10
0.0
 20
0.0
  0
LINE
  8
寸法
  6
BYBLOCK
 62
     0
 10
-21.056938
 20
25.26047
 11
-21.056938
 21
22.235427
  0
LINE
  8
寸法
  6
BYBLOCK
 62
     0
 10
-19.056938
 20
22.235427
 11
-21.056938
 21
22.235427
  0
POINT
  8
寸法
 62
     0
 10
-19.056938
 20
22.235427
  0
POINT
  8
寸法
 62
     0
 10
-21.056938
 20
22.235427
  0
TEXT
  7
TextStyle03
  8
寸法
  6
CONTINUOUS
 62
     0
 10
-22.91875
 20
18.45
  1
60
 40
3.0
 72
     5
 11
-19.73125
 21
18.45
  0
ENDBLK
  0
BLOCK
  2
*DIM_0014
 70
    65
 10
0.0
 20
0.0
  0
LINE
  8
寸法
  6
BYBLOCK
 62
     0
 10
-100.390272
 20
25.26047
 11
-100.390272
 21
22.235427
  0
LINE
  8
寸法
  6
BYBLOCK
 62
     0
 10
-102.390272
 20
22.235427
 11
-100.390272
 21
22.235427
  0
POINT
  8
寸法
 62
     0
 10
-102.390272
 20
22.235427
  0
POINT
  8
寸法
 62
     0
 10
-100.390272
 20
22.235427
  0
TEXT
  7
TextStyle03
  8
寸法
  6
CONTINUOUS
 62
     0
 10
-101.69375
 20
18.45
  1
60
 40
3.0
 72
     5
 11
-98.50625
 21
18.45
  0
ENDBLK
  0
BLOCK
  2
*DIM_0015
 70
    65
 10
0.0
 20
0.0
  0
LINE
  8
寸法
  6
BYBLOCK
 62
     0
 10
-105.39027
 20
47.53395
 11
-118.683108
 21
47.53395
  0
LINE
  8
寸法
  6
BYBLOCK
 62
     0
 10
-105.39027
 20
34.200615
 11
-118.683108
 21
34.200615
  0
LINE
  8
寸法
  6
BYBLOCK
 62
     0
 10
-118.683108
 20
47.53395
 11
-118.683108
 21
34.200615
  0
POINT
  8
寸法
 62
     0
 10
-118.683108
 20
47.53395
  0
POINT
  8
寸法
 62
     0
 10
-118.683108
 20
34.200615
  0
TEXT
  7
TextStyle03
  8
寸法
  6
CONTINUOUS
 62
     0
 10
-119.075
 20
38.4125
  1
400
 40
3.0
 50
90.0
 72
     5
 11
-119.075
 21
43.2875
  0
ENDBLK
  0
BLOCK
  2
*DIM_0016
 70
    65
 10
0.0
 20
0.0
  0
LINE
  8
寸法
  6
BYBLOCK
 62
     0
 10
-95.723605
 20
53.867282
 11
-95.723605
 21
83.614903
  0
LINE
  8
寸法
  6
BYBLOCK
 62
     0
 10
-72.390272
 20
53.867282
 11
-72.390272
 21
83.614903
  0
LINE
  8
寸法
  6
BYBLOCK
 62
     0
 10
-95.723605
 20
83.614903
 11
-72.390272
 21
83.614903
  0
POINT
  8
寸法
 62
     0
 10
-95.723605
 20
83.614903
  0
POINT
  8
寸法
 62
     0
 10
-72.390272
 20
83.614903
  0
TEXT
  7
TextStyle03
  8
寸法
  6
CONTINUOUS
 62
     0
 10
-86.4625
 20
84.0
  1
700
 40
3.0
 72
     5
 11
-81.5875
 21
84.0
  0
ENDBLK
  0
BLOCK
  2
*DIM_0017
 70
    65
 10
0.0
 20
0.0
  0
LINE
  8
寸法
  6
BYBLOCK
 62
     0
 10
-49.056938
 20
53.867282
 11
-49.056938
 21
83.614903
  0
LINE
  8
寸法
  6
BYBLOCK
 62
     0
 10
-72.390272
 20
83.614903
 11
-49.056938
 21
83.614903
  0
POINT
  8
寸法
 62
     0
 10
-49.056938
 20
83.614903
  0
TEXT
  7
TextStyle03
  8
寸法
  6
CONTINUOUS
 62
     0
 10
-63.1375
 20
84.0
  1
700
 40
3.0
 72
     5
 11
-58.2625
 21
84.0
  0
ENDBLK
  0
BLOCK
  2
*DIM_0018
 70
    65
 10
0.0
 20
0.0
  0
LINE
  8
寸法
  6
BYBLOCK
 62
     0
 10
-25.723605
 20
53.867282
 11
-25.723605
 21
83.614903
  0
LINE
  8
寸法
  6
BYBLOCK
 62
     0
 10
-49.056938
 20
83.614903
 11
-25.723605
 21
83.614903
  0
POINT
  8
寸法
 62
     0
 10
-25.723605
 20
83.614903
  0
TEXT
  7
TextStyle03
  8
寸法
  6
CONTINUOUS
 62
     0
 10
-39.7875
 20
84.0
  1
700
 40
3.0
 72
     5
 11
-34.9125
 21
84.0
  0
ENDBLK
  0
BLOCK
  2
*DIM_0019
 70
    65
 10
0.0
 20
0.0
  0
LINE
  8
寸法
  6
CONTINUOUS
 10
126.436288
 20
-42.71167
 11
126.436288
 21
-31.8016
  0
LINE
  8
寸法
  6
CONTINUOUS
 10
85.226288
 20
-42.71167
 11
85.226288
 21
-31.8016
  0
LINE
  8
寸法
  6
CONTINUOUS
 10
126.436288
 20
-31.8016
 11
85.226288
 21
-31.8016
  0
POINT
  8
寸法
 10
126.436288
 20
-31.8016
  0
POINT
  8
寸法
 10
85.226288
 20
-31.8016
  0
TEXT
  7
TextStyle03
  8
寸法
  6
CONTINUOUS
 10
100.85625
 20
-31.45
  1
1236.3
 40
3.0
 72
     5
 11
110.79375
 21
-31.45
  0
ENDBLK
  0
BLOCK
  2
*DIM_0020
 70
    65
 10
0.0
 20
0.0
  0
LINE
  8
寸法
  6
CONTINUOUS
 10
131.436288
 20
-47.71167
 11
141.344645
 21
-47.71167
  0
LINE
  8
寸法
  6
CONTINUOUS
 10
131.436288
 20
-67.878338
 11
141.344645
 21
-67.878338
  0
LINE
  8
寸法
  6
CONTINUOUS
 10
141.344645
 20
-47.71167
 11
141.344645
 21
-67.878338
  0
POINT
  8
寸法
 10
141.344645
 20
-47.71167
  0
POINT
  8
寸法
 10
141.344645
 20
-67.878338
  0
TEXT
  7
TextStyle03
  8
寸法
  6
CONTINUOUS
 10
140.95
 20
-60.2375
  1
605
 40
3.0
 50
90.0
 72
     5
 11
140.95
 21
-55.3625
  0
ENDBLK
  0
ENDSEC
  0
SECTION
  2
ENTITIES
  0
POLYLINE
  8
通り芯
  6
CONTINUOUS
 66
     1
 70
     1
  0
VERTEX
  8
通り芯
 10
-210.0
 20
-148.5
  0
VERTEX
  8
通り芯
 10
210.0
 20
-148.5
  0
VERTEX
  8
通り芯
 10
210.0
 20
148.5
  0
VERTEX
  8
通り芯
 10
-210.0
 20
148.5
  0
SEQEND
  0
INSERT
  2
*GRP_0001
  8
型材断面
  6
CONTINUOUS
 10
0.0
 20
0.0
  0
LINE
  8
型材断面
  6
CONTINUOUS
 62
    47
 10
124.090895
 20
51.913977
 11
124.090895
 21
52.63419
  0
LINE
  8
型材断面
  6
CONTINUOUS
 62
    47
 10
122.797575
 20
52.590827
 11
122.787575
 21
52.600828
  0
LINE
  8
型材断面
  6
CONTINUOUS
 62
    47
 10
122.797575
 20
52.590827
 11
122.807575
 21
52.600828
  0
LINE
  8
型材断面
  6
CONTINUOUS
 62
    47
 10
123.439807
 20
52.590827
 11
123.429808
 21
52.600828
  0
LINE
  8
型材断面
  6
CONTINUOUS
 62
    47
 10
123.439807
 20
52.590827
 11
123.449807
 21
52.600828
  0
LINE
  8
型材断面
  6
CONTINUOUS
 62
    47
 10
123.857592
 20
52.600828
 11
123.449807
 21
52.600828
  0
LINE
  8
型材断面
  6
CONTINUOUS
 62
    47
 10
123.429808
 20
52.600828
 11
122.807575
 21
52.600828
  0
LINE
  8
型材断面
  6
CONTINUOUS
 62
    47
 10
127.491013
 20
54.100653
 11
127.157677
 21
54.100653
  0
LINE
  8
型材断面
  6
CONTINUOUS
 62
    47
 10
126.49101
 20
52.167492
 11
126.49101
 21
51.570645
  0
LINE
  8
型材断面
  6
CONTINUOUS
 62
    47
 10
126.490998
 20
52.400645
 11
126.657677
 21
54.600645
  0
LINE
  8
型材断面
  6
CONTINUOUS
 62
    47
 10
127.157677
 20
54.600645
 11
126.657677
 21
54.600645
  0
LINE
  8
型材断面
  6
CONTINUOUS
 62
    47
 10
124.357553
 20
53.867312
 11
124.357553
 21
40.867282
  0
LINE
  8
型材断面
  6
CONTINUOUS
 10
126.49101
 20
40.867282
 11
126.49101
 21
52.400645
  0
LINE
  8
型材断面
  6
CONTINUOUS
 10
127.491013
 20
40.867282
 11
127.491013
 21
54.100653
  0
LINE
  8
型材断面
  6
CONTINUOUS
 10
127.157677
 20
40.867282
 11
127.157677
 21
54.600645
  0
LINE
  8
型材断面
  6
CONTINUOUS
 62
    47
 10
124.090895
 20
40.867282
 11
124.090895
 21
53.867312
  0
LINE
  8
型材断面
  6
CONTINUOUS
 62
    47
 10
124.224237
 20
40.867282
 11
124.224237
 21
53.867312
  0
LINE
  8
型材断面
  6
CONTINUOUS
 62
    47
 10
124.357553
 20
53.867312
 11
124.224237
 21
53.867312
  0
LINE
  8
型材断面
  6
CONTINUOUS
 62
    47
 10
124.357553
 20
52.400645
 11
126.49101
 21
52.400645
  0
LINE
  8
型材断面
  6
CONTINUOUS
 10
126.657677
 20
40.867282
 11
126.657677
 21
54.600645
  0
LINE
  8
型材断面
  6
CONTINUOUS
 10
123.857592
 20
52.600828
 11
123.857592
 21
40.867282
  0
LINE
  8
型材断面
  6
CONTINUOUS
 10
123.92425
 20
53.867312
 11
123.92425
 21
40.867282
  0
LINE
  8
型材断面
  6
CONTINUOUS
 62
    47
 10
124.090895
 20
29.82059
 11
124.090895
 21
29.100377
  0
LINE
  8
型材断面
  6
CONTINUOUS
 62
    47
 10
122.797575
 20
29.14374
 11
122.787575
 21
29.13374
  0
LINE
  8
型材断面
  6
CONTINUOUS
 62
    47
 10
122.797575
 20
29.14374
 11
122.807575
 21
29.13374
  0
LINE
  8
型材断面
  6
CONTINUOUS
 62
    47
 10
123.439807
 20
29.14374
 11
123.429808
 21
29.13374
  0
LINE
  8
型材断面
  6
CONTINUOUS
 62
    47
 10
123.439807
 20
29.14374
 11
123.449807
 21
29.13374
  0
LINE
  8
型材断面
  6
CONTINUOUS
 62
    47
 10
123.857592
 20
29.13374
 11
123.449807
 21
29.13374
  0
LINE
  8
型材断面
  6
CONTINUOUS
 62
    47
 10
123.429808
 20
29.13374
 11
122.807575
 21
29.13374
  0
LINE
  8
型材断面
  6
CONTINUOUS
 62
    47
 10
127.491013
 20
27.633913
 11
127.157677
 21
27.633913
  0
LINE
  8
型材断面
  6
CONTINUOUS
 62
    47
 10
126.49101
 20
29.567075
 11
126.49101
 21
30.163923
  0
LINE
  8
型材断面
  6
CONTINUOUS
 62
    47
 10
126.490998
 20
29.333922
 11
126.657677
 21
27.133922
  0
LINE
  8
型材断面
  6
CONTINUOUS
 62
    47
 10
127.157677
 20
27.133922
 11
126.657677
 21
27.133922
  0
LINE
  8
型材断面
  6
CONTINUOUS
 62
    47
 10
124.357553
 20
27.867255
 11
124.357553
 21
40.867282
  0
LINE
  8
型材断面
  6
CONTINUOUS
 10
126.49101
 20
40.867282
 11
126.49101
 21
29.333922
  0
LINE
  8
型材断面
  6
CONTINUOUS
 10
127.491013
 20
40.867282
 11
127.491013
 21
27.633913
  0
LINE
  8
型材断面
  6
CONTINUOUS
 10
127.157677
 20
40.867282
 11
127.157677
 21
27.133922
  0
LINE
  8
型材断面
  6
CONTINUOUS
 62
    47
 10
124.090895
 20
40.867282
 11
124.090895
 21
27.867255
  0
LINE
  8
型材断面
  6
CONTINUOUS
 62
    47
 10
124.224237
 20
40.867282
 11
124.224237
 21
27.867255
  0
LINE
  8
型材断面
  6
CONTINUOUS
 62
    47
 10
124.357553
 20
27.867255
 11
124.224237
 21
27.867255
  0
LINE
  8
型材断面
  6
CONTINUOUS
 62
    47
 10
124.357553
 20
29.333922
 11
126.49101
 21
29.333922
  0
LINE
  8
型材断面
  6
CONTINUOUS
 10
126.657677
 20
40.867282
 11
126.657677
 21
27.133922
  0
LINE
  8
型材断面
  6
CONTINUOUS
 10
123.857592
 20
29.13374
 11
123.857592
 21
40.867282
  0
LINE
  8
型材断面
  6
CONTINUOUS
 10
123.92425
 20
27.867255
 11
123.92425
 21
40.867282
  0
ARC
  8
型材断面
  6
DASHDOT
 10
124.140889
 20
54.207496
 40
26.340287
 50
224.891258
 51
269.891257
  0
LINE
  8
型材断面
  6
CONTINUOUS
 62
    47
 10
121.007562
 20
52.907495
 11
120.20756
 21
52.907495
  0
ARC
  8
型材断面
  6
CONTINUOUS
 10
120.140896
 20
52.964018
 40
0.1
 50
90.0
 51
180.0
  0
LINE
  8
型材断面
  6
CONTINUOUS
 62
    47
 10
120.140892
 20
53.064018
 11
120.20756
 21
53.064018
  0
LINE
  8
型材断面
  6
CONTINUOUS
 62
    47
 10
120.317683
 20
52.907282
 11
121.70756
 21
52.907282
  0
LINE
  8
型材断面
  6
CONTINUOUS
 62
    47
 10
121.70756
 20
52.907282
 11
121.70756
 21
40.867282
  0
LINE
  8
型材断面
  6
CONTINUOUS
 62
    47
 10
120.20756
 20
53.064018
 11
120.20756
 21
40.867282
  0
LINE
  8
型材断面
  6
CONTINUOUS
 62
    47
 10
120.040892
 20
52.964018
 11
120.040892
 21
40.867282
  0
LINE
  8
型材断面
  6
CONTINUOUS
 62
    47
 10
121.007562
 20
28.827073
 11
120.20756
 21
28.827073
  0
ARC
  8
型材断面
  6
CONTINUOUS
 10
120.140896
 20
28.770551
 40
0.1
 50
180.0
 51
270.0
  0
LINE
  8
型材断面
  6
CONTINUOUS
 62
    47
 10
120.140892
 20
28.67055
 11
120.20756
 21
28.67055
  0
LINE
  8
型材断面
  6
CONTINUOUS
 62
    47
 10
120.317683
 20
28.827283
 11
121.70756
 21
28.827283
  0
LINE
  8
型材断面
  6
CONTINUOUS
 62
    47
 10
121.70756
 20
28.827283
 11
121.70756
 21
40.867282
  0
LINE
  8
型材断面
  6
CONTINUOUS
 62
    47
 10
120.20756
 20
28.67055
 11
120.20756
 21
40.867282
  0
LINE
  8
型材断面
  6
CONTINUOUS
 62
    47
 10
120.040892
 20
28.77055
 11
120.040892
 21
40.867282
  0
LINE
  8
型材断面
  6
CONTINUOUS
 62
    47
 10
122.787575
 20
29.13374
 11
121.70756
 21
29.13374
  0
LINE
  8
型材断面
  6
CONTINUOUS
 62
    47
 10
122.787575
 20
52.600828
 11
121.70756
 21
52.600828
  0
LINE
  8
型材断面
  6
CONTINUOUS
 62
    47
 10
124.090895
 20
53.867312
 11
123.9239
 21
53.867312
  0
LINE
  8
型材断面
  6
CONTINUOUS
 62
    47
 10
123.857592
 20
52.600828
 11
123.9239
 21
53.867312
  0
LINE
  8
型材断面
  6
CONTINUOUS
 62
    47
 10
124.090895
 20
27.867255
 11
123.9239
 21
27.867255
  0
LINE
  8
型材断面
  6
CONTINUOUS
 62
    47
 10
123.857592
 20
29.13374
 11
123.9239
 21
27.867255
  0
LINE
  8
型材断面
  6
DASHDOT
 10
-60.723605
 20
50.867282
 11
-60.723605
 21
-77.528333
  0
LINE
  8
型材断面
  6
CONTINUOUS
 10
-15.323578
 20
27.133922
 11
-15.323578
 21
40.867282
  0
LINE
  8
型材断面
  6
CONTINUOUS
 10
-16.05691
 20
27.867255
 11
-16.05691
 21
40.867282
  0
LINE
  8
型材断面
  6
CONTINUOUS
 10
-15.323578
 20
54.600645
 11
-15.323578
 21
40.867282
  0
LINE
  8
型材断面
  6
CONTINUOUS
 10
-16.05691
 20
53.867312
 11
-16.05691
 21
40.867282
  0
LINE
  8
型材断面
  6
CONTINUOUS
 10
-17.095907
 20
28.67055
 11
-16.860205
 21
28.906252
  0
LINE
  8
型材断面
  6
CONTINUOUS
 10
-19.59612
 20
31.170762
 11
-19.360418
 21
31.406465
  0
LINE
  8
型材断面
  6
CONTINUOUS
 10
-19.360418
 20
31.406465
 11
-16.860205
 21
28.906252
  0
LINE
  8
型材断面
  6
CONTINUOUS
 10
-19.59612
 20
31.170762
 11
-17.095907
 21
28.67055
  0
LINE
  8
型材断面
  6
CONTINUOUS
 10
-15.323578
 20
27.133922
 11
-16.978057
 21
28.788402
  0
LINE
  8
型材断面
  6
CONTINUOUS
 10
-17.095907
 20
53.064018
 11
-16.860205
 21
52.828312
  0
LINE
  8
型材断面
  6
CONTINUOUS
 10
-19.59612
 20
50.563805
 11
-19.360418
 21
50.328103
  0
LINE
  8
型材断面
  6
CONTINUOUS
 10
-19.360418
 20
50.328103
 11
-16.860205
 21
52.828312
  0
LINE
  8
型材断面
  6
CONTINUOUS
 10
-19.59612
 20
50.563805
 11
-17.095907
 21
53.064018
  0
LINE
  8
型材断面
  6
CONTINUOUS
 10
-15.323578
 20
54.600645
 11
-16.978057
 21
52.946165
  0
LINE
  8
型材断面
  6
CONTINUOUS
 10
-16.860205
 20
28.906252
 11
-16.860205
 21
52.828312
  0
LINE
  8
型材断面
  6
CONTINUOUS
 10
-19.360418
 20
41.28395
 11
-16.860205
 21
41.28395
  0
LINE
  8
型材断面
  6
CONTINUOUS
 10
-19.360418
 20
40.450618
 11
-16.860205
 21
40.450618
  0
LINE
  8
型材断面
  6
CONTINUOUS
 10
-19.360418
 20
31.406465
 11
-19.360418
 21
40.450618
  0
LINE
  8
型材断面
  6
CONTINUOUS
 10
-19.360418
 20
41.28395
 11
-19.360418
 21
50.328103
  0
LINE
  8
型材断面
  6
CONTINUOUS
 62
    47
 10
-18.010245
 20
-70.124463
 11
-17.290032
 21
-70.124463
  0
LINE
  8
型材断面
  6
CONTINUOUS
 62
    47
 10
-17.333395
 20
-68.831142
 11
-17.323395
 21
-68.821143
  0
LINE
  8
型材断面
  6
CONTINUOUS
 62
    47
 10
-17.333395
 20
-68.831142
 11
-17.323395
 21
-68.841143
  0
LINE
  8
型材断面
  6
CONTINUOUS
 62
    47
 10
-17.333395
 20
-69.473375
 11
-17.323395
 21
-69.463375
  0
LINE
  8
型材断面
  6
CONTINUOUS
 62
    47
 10
-17.333395
 20
-69.473375
 11
-17.323395
 21
-69.483375
  0
LINE
  8
型材断面
  6
CONTINUOUS
 62
    47
 10
-17.323395
 20
-69.89116
 11
-17.323395
 21
-69.483375
  0
LINE
  8
型材断面
  6
CONTINUOUS
 62
    47
 10
-17.323395
 20
-69.463375
 11
-17.323395
 21
-68.841143
  0
LINE
  8
型材断面
  6
CONTINUOUS
 62
    47
 10
-15.823567
 20
-73.52458
 11
-15.823567
 21
-73.191245
  0
LINE
  8
型材断面
  6
CONTINUOUS
 62
    47
 10
-17.75673
 20
-72.524578
 11
-18.353578
 21
-72.524578
  0
LINE
  8
型材断面
  6
CONTINUOUS
 62
    47
 10
-17.523578
 20
-72.524565
 11
-15.323578
 21
-72.691245
  0
LINE
  8
型材断面
  6
CONTINUOUS
 62
    47
 10
-15.323578
 20
-73.191245
 11
-15.323578
 21
-72.691245
  0
LINE
  8
型材断面
  6
CONTINUOUS
 62
    47
 10
-16.05691
 20
-70.39112
 11
-16.05691
 21
-70.257805
  0
LINE
  8
型材断面
  6
CONTINUOUS
 62
    47
 10
-17.523578
 20
-70.39112
 11
-17.523578
 21
-72.524578
  0
LINE
  8
型材断面
  6
CONTINUOUS
 62
    47
 10
-17.016727
 20
-67.04113
 11
-17.016727
 21
-66.241128
  0
ARC
  8
型材断面
  6
CONTINUOUS
 10
-16.960203
 20
-66.174459
 40
0.1
 50
0.0
 51
90.0
  0
LINE
  8
型材断面
  6
CONTINUOUS
 62
    47
 10
-16.860205
 20
-66.17446
 11
-16.860205
 21
-66.241128
  0
LINE
  8
型材断面
  6
CONTINUOUS
 62
    47
 10
-17.016938
 20
-66.35125
 11
-17.016938
 21
-67.741128
  0
LINE
  8
型材断面
  6
CONTINUOUS
 62
    47
 10
-17.323395
 20
-68.821143
 11
-17.323395
 21
-67.741128
  0
LINE
  8
型材断面
  6
CONTINUOUS
 62
    47
 10
-16.05691
 20
-70.124463
 11
-16.05691
 21
-69.957467
  0
LINE
  8
型材断面
  6
CONTINUOUS
 62
    47
 10
-17.323395
 20
-69.89116
 11
-16.05691
 21
-69.957467
  0
LINE
  8
型材断面
  6
CONTINUOUS
 10
-15.323578
 20
-72.691245
 11
-60.723605
 21
-72.691245
  0
LINE
  8
型材断面
  6
CONTINUOUS
 10
-17.523578
 20
-72.524578
 11
-60.723605
 21
-72.524578
  0
LINE
  8
型材断面
  6
CONTINUOUS
 10
-15.323578
 20
-73.191245
 11
-60.723605
 21
-73.191245
  0
LINE
  8
型材断面
  6
CONTINUOUS
 10
-15.823567
 20
-73.52458
 11
-60.723605
 21
-73.52458
  0
LINE
  8
型材断面
  6
CONTINUOUS
 62
    47
 10
-16.05691
 20
-70.257805
 11
-60.723605
 21
-70.257805
  0
LINE
  8
型材断面
  6
CONTINUOUS
 10
-16.05691
 20
-69.957817
 11
-60.723605
 21
-69.957817
  0
LINE
  8
型材断面
  6
CONTINUOUS
 62
    47
 10
-16.05691
 20
-70.39112
 11
-60.723605
 21
-70.39112
  0
LINE
  8
型材断面
  6
CONTINUOUS
 62
    47
 10
-16.05691
 20
-70.124463
 11
-60.723605
 21
-70.124463
  0
LINE
  8
型材断面
  6
CONTINUOUS
 10
-17.323395
 20
-69.89116
 11
-60.723605
 21
-69.89116
  0
LINE
  8
型材断面
  6
CONTINUOUS
 62
    47
 10
-17.016938
 20
-67.741128
 11
-60.723605
 21
-67.741128
  0
LINE
  8
型材断面
  6
CONTINUOUS
 62
    47
 10
-16.860205
 20
-66.241128
 11
-60.723605
 21
-66.241128
  0
LINE
  8
型材断面
  6
CONTINUOUS
 62
    47
 10
-16.960205
 20
-66.07446
 11
-60.723605
 21
-66.07446
  0
LINE
  8
型材断面
  6
CONTINUOUS
 10
-17.095907
 20
28.67055
 11
-60.723605
 21
28.67055
  0
LINE
  8
型材断面
  6
CONTINUOUS
 10
-15.323578
 20
27.133922
 11
-60.723605
 21
27.133922
  0
LINE
  8
型材断面
  6
CONTINUOUS
 10
-16.05691
 20
27.867255
 11
-60.723605
 21
27.867255
  0
LINE
  8
型材断面
  6
CONTINUOUS
 10
-16.05691
 20
53.867312
 11
-60.723605
 21
53.867312
  0
LINE
  8
型材断面
  6
CONTINUOUS
 10
-15.323578
 20
54.600645
 11
-60.723605
 21
54.600645
  0
LINE
  8
型材断面
  6
CONTINUOUS
 10
-17.095907
 20
53.064018
 11
-60.723605
 21
53.064018
  0
LINE
  8
型材断面
  6
DASHDOT
 10
-19.056938
 20
-77.528333
 11
-19.056938
 21
50.867282
  0
LINE
  8
型材断面
  6
DASHDOT
 10
130.329942
 20
30.867282
 11
-102.39027
 21
30.867282
  0
LINE
  8
型材断面
  6
DASHDOT
 10
130.329942
 20
40.867282
 11
-102.39027
 21
40.867282
  0
LINE
  8
型材断面
  6
DASHDOT
 10
130.329942
 20
50.867282
 11
-102.39027
 21
50.867282
  0
LINE
  8
型材断面
  6
CONTINUOUS
 62
    47
 10
-103.436965
 20
-70.124463
 11
-104.157178
 21
-70.124463
  0
LINE
  8
型材断面
  6
CONTINUOUS
 62
    47
 10
-104.113815
 20
-68.831142
 11
-104.123815
 21
-68.821143
  0
LINE
  8
型材断面
  6
CONTINUOUS
 62
    47
 10
-104.113815
 20
-68.831142
 11
-104.123815
 21
-68.841143
  0
LINE
  8
型材断面
  6
CONTINUOUS
 62
    47
 10
-104.113815
 20
-69.473375
 11
-104.123815
 21
-69.463375
  0
LINE
  8
型材断面
  6
CONTINUOUS
 62
    47
 10
-104.113815
 20
-69.473375
 11
-104.123815
 21
-69.483375
  0
LINE
  8
型材断面
  6
CONTINUOUS
 62
    47
 10
-104.123815
 20
-69.89116
 11
-104.123815
 21
-69.483375
  0
LINE
  8
型材断面
  6
CONTINUOUS
 62
    47
 10
-104.123815
 20
-69.463375
 11
-104.123815
 21
-68.841143
  0
LINE
  8
型材断面
  6
CONTINUOUS
 62
    47
 10
-105.623643
 20
-73.52458
 11
-105.623643
 21
-73.191245
  0
LINE
  8
型材断面
  6
CONTINUOUS
 62
    47
 10
-103.69048
 20
-72.524578
 11
-103.093632
 21
-72.524578
  0
LINE
  8
型材断面
  6
CONTINUOUS
 62
    47
 10
-103.923632
 20
-72.524565
 11
-106.123632
 21
-72.691245
  0
LINE
  8
型材断面
  6
CONTINUOUS
 62
    47
 10
-106.123632
 20
-73.191245
 11
-106.123632
 21
-72.691245
  0
LINE
  8
型材断面
  6
CONTINUOUS
 62
    47
 10
-105.3903
 20
-70.39112
 11
-105.3903
 21
-70.257805
  0
LINE
  8
型材断面
  6
CONTINUOUS
 62
    47
 10
-103.923632
 20
-70.39112
 11
-103.923632
 21
-72.524578
  0
LINE
  8
型材断面
  6
CONTINUOUS
 62
    47
 10
-104.430483
 20
-67.04113
 11
-104.430483
 21
-66.241128
  0
ARC
  8
型材断面
  6
CONTINUOUS
 10
-104.487006
 20
-66.174459
 40
0.1
 50
90.0
 51
180.0
  0
LINE
  8
型材断面
  6
CONTINUOUS
 62
    47
 10
-104.587005
 20
-66.17446
 11
-104.587005
 21
-66.241128
  0
LINE
  8
型材断面
  6
CONTINUOUS
 62
    47
 10
-104.430272
 20
-66.35125
 11
-104.430272
 21
-67.741128
  0
LINE
  8
型材断面
  6
CONTINUOUS
 62
    47
 10
-104.123815
 20
-68.821143
 11
-104.123815
 21
-67.741128
  0
LINE
  8
型材断面
  6
CONTINUOUS
 62
    47
 10
-105.3903
 20
-70.124463
 11
-105.3903
 21
-69.957467
  0
LINE
  8
型材断面
  6
CONTINUOUS
 62
    47
 10
-104.123815
 20
-69.89116
 11
-105.3903
 21
-69.957467
  0
LINE
  8
型材断面
  6
CONTINUOUS
 10
-106.123632
 20
-72.691245
 11
-60.723605
 21
-72.691245
  0
LINE
  8
型材断面
  6
CONTINUOUS
 10
-103.923632
 20
-72.524578
 11
-60.723605
 21
-72.524578
  0
LINE
  8
型材断面
  6
CONTINUOUS
 10
-106.123632
 20
-73.191245
 11
-60.723605
 21
-73.191245
  0
LINE
  8
型材断面
  6
CONTINUOUS
 10
-105.623643
 20
-73.52458
 11
-60.723605
 21
-73.52458
  0
LINE
  8
型材断面
  6
CONTINUOUS
 62
    47
 10
-105.3903
 20
-70.257805
 11
-60.723605
 21
-70.257805
  0
LINE
  8
型材断面
  6
CONTINUOUS
 10
-105.3903
 20
-69.957817
 11
-60.723605
 21
-69.957817
  0
LINE
  8
型材断面
  6
CONTINUOUS
 62
    47
 10
-105.3903
 20
-70.39112
 11
-60.723605
 21
-70.39112
  0
LINE
  8
型材断面
  6
CONTINUOUS
 62
    47
 10
-105.3903
 20
-70.124463
 11
-60.723605
 21
-70.124463
  0
LINE
  8
型材断面
  6
CONTINUOUS
 10
-104.123815
 20
-69.89116
 11
-60.723605
 21
-69.89116
  0
LINE
  8
型材断面
  6
CONTINUOUS
 62
    47
 10
-104.430272
 20
-67.741128
 11
-60.723605
 21
-67.741128
  0
LINE
  8
型材断面
  6
CONTINUOUS
 62
    47
 10
-104.587005
 20
-66.241128
 11
-60.723605
 21
-66.241128
  0
LINE
  8
型材断面
  6
CONTINUOUS
 62
    47
 10
-104.487005
 20
-66.07446
 11
-60.723605
 21
-66.07446
  0
LINE
  8
型材断面
  6
CONTINUOUS
 10
-106.123632
 20
27.133922
 11
-106.123632
 21
40.867282
  0
LINE
  8
型材断面
  6
CONTINUOUS
 10
-105.3903
 20
27.867255
 11
-105.3903
 21
40.867282
  0
LINE
  8
型材断面
  6
CONTINUOUS
 10
-106.123632
 20
54.600645
 11
-106.123632
 21
40.867282
  0
LINE
  8
型材断面
  6
CONTINUOUS
 10
-105.3903
 20
53.867312
 11
-105.3903
 21
40.867282
  0
LINE
  8
型材断面
  6
CONTINUOUS
 10
-104.351303
 20
28.67055
 11
-104.587005
 21
28.906252
  0
LINE
  8
型材断面
  6
CONTINUOUS
 10
-101.85109
 20
31.170762
 11
-102.086792
 21
31.406465
  0
LINE
  8
型材断面
  6
CONTINUOUS
 10
-102.086792
 20
31.406465
 11
-104.587005
 21
28.906252
  0
LINE
  8
型材断面
  6
CONTINUOUS
 10
-101.85109
 20
31.170762
 11
-104.351303
 21
28.67055
  0
LINE
  8
型材断面
  6
CONTINUOUS
 10
-106.123632
 20
27.133922
 11
-104.469153
 21
28.788402
  0
LINE
  8
型材断面
  6
CONTINUOUS
 10
-104.351303
 20
53.064018
 11
-104.587005
 21
52.828312
  0
LINE
  8
型材断面
  6
CONTINUOUS
 10
-101.85109
 20
50.563805
 11
-102.086792
 21
50.328103
  0
LINE
  8
型材断面
  6
CONTINUOUS
 10
-102.086792
 20
50.328103
 11
-104.587005
 21
52.828312
  0
LINE
  8
型材断面
  6
CONTINUOUS
 10
-101.85109
 20
50.563805
 11
-104.351303
 21
53.064018
  0
LINE
  8
型材断面
  6
CONTINUOUS
 10
-106.123632
 20
54.600645
 11
-104.469153
 21
52.946165
  0
LINE
  8
型材断面
  6
CONTINUOUS
 10
-104.587005
 20
28.906252
 11
-104.587005
 21
52.828312
  0
LINE
  8
型材断面
  6
CONTINUOUS
 10
-102.086792
 20
41.28395
 11
-104.587005
 21
41.28395
  0
LINE
  8
型材断面
  6
CONTINUOUS
 10
-102.086792
 20
40.450618
 11
-104.587005
 21
40.450618
  0
LINE
  8
型材断面
  6
CONTINUOUS
 10
-102.086792
 20
31.406465
 11
-102.086792
 21
40.450618
  0
LINE
  8
型材断面
  6
CONTINUOUS
 10
-102.086792
 20
41.28395
 11
-102.086792
 21
50.328103
  0
LINE
  8
型材断面
  6
CONTINUOUS
 10
-104.351303
 20
28.67055
 11
-60.723605
 21
28.67055
  0
LINE
  8
型材断面
  6
CONTINUOUS
 10
-106.123632
 20
27.133922
 11
-60.723605
 21
27.133922
  0
LINE
  8
型材断面
  6
CONTINUOUS
 10
-105.3903
 20
27.867255
 11
-60.723605
 21
27.867255
  0
LINE
  8
型材断面
  6
CONTINUOUS
 10
-105.3903
 20
53.867312
 11
-60.723605
 21
53.867312
  0
LINE
  8
型材断面
  6
CONTINUOUS
 10
-106.123632
 20
54.600645
 11
-60.723605
 21
54.600645
  0
LINE
  8
型材断面
  6
CONTINUOUS
 10
-104.351303
 20
53.064018
 11
-60.723605
 21
53.064018
  0
LINE
  8
型材断面
  6
DASHDOT
 10
-102.39027
 20
50.867282
 11
-102.39027
 21
-77.528333
  0
LINE
  8
型材断面
  6
DASHDOT
 10
-102.39027
 20
50.867282
 11
-19.056938
 21
50.867282
  0
LINE
  8
型材断面
  6
CONTINUOUS
 10
-85.723603
 20
53.497413
 11
-87.219233
 21
56.08792
  0
LINE
  8
型材断面
  6
CONTINUOUS
 10
-85.723603
 20
53.497413
 11
-84.227973
 21
56.08792
  0
LINE
  8
型材断面
  6
CONTINUOUS
 10
-84.227973
 20
56.08792
 11
-87.219233
 21
56.08792
  0
LINE
  8
型材断面
  6
CONTINUOUS
 10
-143.242478
 20
88.844755
 11
-142.646422
 21
86.254248
  0
LINE
  8
型材断面
  6
CONTINUOUS
 10
-143.242478
 20
88.844755
 11
-143.838535
 21
86.254248
  0
LINE
  8
型材断面
  6
CONTINUOUS
 10
-143.838535
 20
86.254248
 11
-142.646422
 21
86.254248
  0
LINE
  8
型材断面
  6
CONTINUOUS
 10
-149.265065
 20
82.975355
 11
-103.023287
 21
82.975355
  0
LINE
  8
型材断面
  6
CONTINUOUS
 10
-143.242478
 20
95.37463
 11
-144.738108
 21
92.784123
  0
LINE
  8
型材断面
  6
CONTINUOUS
 10
-143.242478
 20
95.37463
 11
-141.746847
 21
92.784123
  0
LINE
  8
型材断面
  6
CONTINUOUS
 10
-141.746847
 20
92.784123
 11
-144.738108
 21
92.784123
  0
LINE
  8
型材断面
  6
CONTINUOUS
 10
-149.265065
 20
91.845528
 11
-103.023287
 21
91.845528
  0
LINE
  8
型材断面
  6
CONTINUOUS
 10
-149.265065
 20
77.187322
 11
-103.023287
 21
77.187322
  0
LINE
  8
型材断面
  6
CONTINUOUS
 10
-105.0204
 20
40.867282
 11
-107.610908
 21
42.362912
  0
LINE
  8
型材断面
  6
CONTINUOUS
 10
-105.0204
 20
40.867282
 11
-107.610908
 21
39.371652
  0
LINE
  8
型材断面
  6
CONTINUOUS
 10
-107.610908
 20
39.371652
 11
-107.610908
 21
42.362912
  0
LINE
  8
型材断面
  6
CONTINUOUS
 10
-85.723603
 20
28.237153
 11
-87.219233
 21
25.646645
  0
LINE
  8
型材断面
  6
CONTINUOUS
 10
-85.723603
 20
28.237153
 11
-84.227973
 21
25.646645
  0
LINE
  8
型材断面
  6
CONTINUOUS
 10
-84.227973
 20
25.646645
 11
-87.219233
 21
25.646645
  0
LINE
  8
型材断面
  6
CONTINUOUS
 10
-35.723607
 20
53.497413
 11
-34.227977
 21
56.08792
  0
LINE
  8
型材断面
  6
CONTINUOUS
 10
-35.723607
 20
53.497413
 11
-37.219237
 21
56.08792
  0
LINE
  8
型材断面
  6
CONTINUOUS
 10
-37.219237
 20
56.08792
 11
-34.227977
 21
56.08792
  0
LINE
  8
型材断面
  6
CONTINUOUS
 10
-16.42681
 20
40.867282
 11
-13.836302
 21
42.362912
  0
LINE
  8
型材断面
  6
CONTINUOUS
 10
-16.42681
 20
40.867282
 11
-13.836302
 21
39.371652
  0
LINE
  8
型材断面
  6
CONTINUOUS
 10
-13.836302
 20
39.371652
 11
-13.836302
 21
42.362912
  0
LINE
  8
型材断面
  6
CONTINUOUS
 10
-35.723607
 20
28.237153
 11
-34.227977
 21
25.646645
  0
LINE
  8
型材断面
  6
CONTINUOUS
 10
-35.723607
 20
28.237153
 11
-37.219237
 21
25.646645
  0
LINE
  8
型材断面
  6
CONTINUOUS
 10
-37.219237
 20
25.646645
 11
-34.227977
 21
25.646645
  0
POLYLINE
  8
型材断面
  6
DASHDOT
 66
     1
  0
VERTEX
  8
型材断面
 10
-102.39027
 20
30.867282
  0
VERTEX
  8
型材断面
 10
-60.723605
 20
50.867282
  0
VERTEX
  8
型材断面
 10
-19.056938
 20
30.867282
  0
SEQEND
  0
LINE
  8
型材断面
  6
CONTINUOUS
 10
-21.056938
 20
28.26047
 11
-21.652995
 21
25.669965
  0
LINE
  8
型材断面
  6
CONTINUOUS
 10
-21.056938
 20
28.26047
 11
-20.46088
 21
25.669965
  0
LINE
  8
型材断面
  6
CONTINUOUS
 10
-20.46088
 20
25.669965
 11
-21.652995
 21
25.669965
  0
LINE
  8
型材断面
  6
CONTINUOUS
 10
-100.390272
 20
28.26047
 11
-99.794215
 21
25.669965
  0
LINE
  8
型材断面
  6
CONTINUOUS
 10
-100.390272
 20
28.26047
 11
-100.98633
 21
25.669965
  0
LINE
  8
型材断面
  6
CONTINUOUS
 10
-100.98633
 20
25.669965
 11
-99.794215
 21
25.669965
  0
LINE
  8
型材断面
  6
CONTINUOUS
 10
-81.140272
 20
50.563805
 11
-81.140272
 21
53.064018
  0
LINE
  8
型材断面
  6
CONTINUOUS
 10
-81.973607
 20
50.563805
 11
-81.973607
 21
53.064018
  0
LINE
  8
型材断面
  6
CONTINUOUS
 10
-81.140272
 20
28.67055
 11
-81.140272
 21
31.170762
  0
LINE
  8
型材断面
  6
CONTINUOUS
 10
-81.973607
 20
28.67055
 11
-81.973607
 21
31.170762
  0
LINE
  8
型材断面
  6
CONTINUOUS
 10
-40.306938
 20
50.563805
 11
-40.306938
 21
53.064018
  0
LINE
  8
型材断面
  6
CONTINUOUS
 10
-39.473603
 20
50.563805
 11
-39.473603
 21
53.064018
  0
LINE
  8
型材断面
  6
CONTINUOUS
 10
-40.306938
 20
28.67055
 11
-40.306938
 21
31.170762
  0
LINE
  8
型材断面
  6
CONTINUOUS
 10
-39.473603
 20
28.67055
 11
-39.473603
 21
31.170762
  0
LINE
  8
型材断面
  6
CONTINUOUS
 10
-19.59612
 20
31.170762
 11
-39.473603
 21
31.170762
  0
LINE
  8
型材断面
  6
CONTINUOUS
 10
-40.306938
 20
31.170762
 11
-60.723605
 21
31.170762
  0
LINE
  8
型材断面
  6
CONTINUOUS
 10
-19.59612
 20
50.563805
 11
-39.473603
 21
50.563805
  0
LINE
  8
型材断面
  6
CONTINUOUS
 10
-40.306938
 20
50.563805
 11
-60.723605
 21
50.563805
  0
LINE
  8
型材断面
  6
CONTINUOUS
 10
-101.85109
 20
50.563805
 11
-81.973607
 21
50.563805
  0
LINE
  8
型材断面
  6
CONTINUOUS
 10
-81.140272
 20
50.563805
 11
-60.723605
 21
50.563805
  0
LINE
  8
型材断面
  6
CONTINUOUS
 10
-101.85109
 20
31.170762
 11
-81.973607
 21
31.170762
  0
LINE
  8
型材断面
  6
CONTINUOUS
 10
-81.140272
 20
31.170762
 11
-60.723605
 21
31.170762
  0
LINE
  8
型材断面
  6
CONTINUOUS
 10
-59.473605
 20
32.004095
 11
-61.973605
 21
32.004095
  0
LINE
  8
型材断面
  6
CONTINUOUS
 10
-59.473605
 20
49.73047
 11
-61.973605
 21
49.73047
  0
LINE
  8
型材断面
  6
CONTINUOUS
 10
-59.473605
 20
32.004095
 11
-59.473605
 21
49.73047
  0
LINE
  8
型材断面
  6
CONTINUOUS
 10
-61.973605
 20
32.004095
 11
-61.973605
 21
49.73047
  0
INSERT
  2
*GRP_0002
  8
ガラス
  6
CONTINUOUS
 10
0.0
 20
0.0
  0
LINE
  8
ガラス
  6
CONTINUOUS
 10
-38.449222
 20
42.00625
 11
-41.080188
 21
39.375288
  0
LINE
  8
ガラス
  6
CONTINUOUS
 10
-39.105397
 20
40.03146
 11
-40.424013
 21
41.350082
  0
LINE
  8
ガラス
  6
CONTINUOUS
 10
-39.958443
 20
40.06191
 11
-38.941925
 21
41.078427
  0
LINE
  8
ガラス
  6
CONTINUOUS
 10
-39.57097
 20
41.31963
 11
-40.587482
 21
40.303115
  0
LINE
  8
ガラス
  6
CONTINUOUS
 10
-80.407402
 20
42.00625
 11
-83.038368
 21
39.375288
  0
LINE
  8
ガラス
  6
CONTINUOUS
 10
-81.063577
 20
40.03146
 11
-82.382193
 21
41.350082
  0
LINE
  8
ガラス
  6
CONTINUOUS
 10
-81.916622
 20
40.06191
 11
-80.900105
 21
41.078427
  0
LINE
  8
ガラス
  6
CONTINUOUS
 10
-81.52915
 20
41.31963
 11
-82.545662
 21
40.303115
  0
POLYLINE
  8
ガラス
  6
CONTINUOUS
 66
     1
 70
     1
  0
VERTEX
  8
ガラス
 10
126.436288
 20
-47.71167
  0
VERTEX
  8
ガラス
 10
85.226288
 20
-47.71167
  0
VERTEX
  8
ガラス
 10
85.226288
 20
-67.878338
  0
VERTEX
  8
ガラス
 10
126.436288
 20
-67.878338
  0
SEQEND
  0
TEXT
  7
TextStyle03
  8
文字
  6
CONTINUOUS
 10
114.175
 20
21.4
  1
45°
 40
3.0
 50
90.0
 72
     5
 11
114.175
 21
27.775
  0
TEXT
  7
TextStyle03
  8
文字
  6
CONTINUOUS
 10
64.95
 20
116.5
  1
シリーズ：ＴＦＦＨＬ
 40
5.0
 72
     5
 11
120.575
 21
116.5
  0
TEXT
  7
TextStyle03
  8
文字
  6
CONTINUOUS
 10
64.95
 20
110.875
  1
　　　　　（片側開閉）600×2500タイプ
 40
5.0
 72
     5
 11
168.3875
 21
110.875
  0
TEXT
  7
TextStyle03
  8
文字
  6
CONTINUOUS
 10
64.95
 20
105.25
  1
図面名　：外観姿図
 40
5.0
 72
     5
 11
114.95
 21
105.25
  0
TEXT
  7
TextStyle03
  8
文字
  6
CONTINUOUS
 10
64.95
 20
99.625
  1
　　　　　　
 40
5.0
 72
     5
 11
98.075
 21
99.625
  0
TEXT
  7
TextStyle03
  8
文字
  6
CONTINUOUS
 10
-140.425
 20
93.0
  1
は排水穴位置を示す
 40
3.0
 72
     5
 11
-110.425
 21
93.0
  0
TEXT
  7
TextStyle03
  8
文字
  6
CONTINUOUS
 10
-140.425
 20
87.475
  1
はケーシング位置を示す
 40
3.0
 72
     5
 11
-103.675
 21
87.475
  0
TEXT
  7
TextStyle03
  8
文字
  6
CONTINUOUS
 10
-140.425
 20
84.1
  1
２ヶ所中1ヶ所に設定
 40
3.0
 72
     5
 11
-108.7375
 21
84.1
  0
TEXT
  7
TextStyle03
  8
文字
  6
CONTINUOUS
 10
-123.425
 20
19.325
  1
アンカーピッチ
 40
3.0
 50
90.0
 72
     5
 11
-123.425
 21
42.575
  0
TEXT
  7
TextStyle03
  8
文字
  6
CONTINUOUS
 10
-95.725
 20
88.9
  1
アンカーピッチ
 40
3.0
 72
     5
 11
-72.475
 21
88.9
  0
TEXT
  7
TextStyle03
  8
文字
  6
CONTINUOUS
 10
-144.15
 20
78.125
  1
アンカー数量　１２ヶ所
 40
3.0
 72
     5
 11
-107.4
 21
78.125
  0
TEXT
  7
TextStyle03
  8
文字
  6
CONTINUOUS
 10
106.625
 20
-60.2
  1
網入り6.8t
 40
3.0
 72
     5
 11
123.3125
 21
-60.2
  0
TEXT
  7
TextStyle03
  8
文字
  6
CONTINUOUS
 10
113.25
 20
-65.45
  1
×２枚
 40
3.0
 72
     5
 11
123.0
 21
-65.45
  0
INSERT
  2
*DIM_0003
  8
寸法
  6
CONTINUOUS
 10
0.0
 20
0.0
  0
INSERT
  2
*DIM_0005
  8
寸法
  6
CONTINUOUS
 10
0.0
 20
0.0
  0
INSERT
  2
*DIM_0006
  8
寸法
  6
CONTINUOUS
 10
0.0
 20
0.0
  0
INSERT
  2
*DIM_0007
  8
寸法
  6
CONTINUOUS
 10
0.0
 20
0.0
  0
INSERT
  2
*DIM_0008
  8
寸法
  6
CONTINUOUS
 10
0.0
 20
0.0
  0
INSERT
  2
*DIM_0009
  8
寸法
  6
CONTINUOUS
 10
0.0
 20
0.0
  0
INSERT
  2
*DIM_0010
  8
寸法
  6
CONTINUOUS
 10
0.0
 20
0.0
  0
INSERT
  2
*DIM_0011
  8
寸法
  6
CONTINUOUS
 10
0.0
 20
0.0
  0
INSERT
  2
*DIM_0012
  8
寸法
  6
CONTINUOUS
 10
0.0
 20
0.0
  0
INSERT
  2
*DIM_0013
  8
寸法
  6
CONTINUOUS
 10
0.0
 20
0.0
  0
INSERT
  2
*DIM_0014
  8
寸法
  6
CONTINUOUS
 10
0.0
 20
0.0
  0
INSERT
  2
*DIM_0015
  8
寸法
  6
CONTINUOUS
 10
0.0
 20
0.0
  0
INSERT
  2
*DIM_0016
  8
寸法
  6
CONTINUOUS
 10
0.0
 20
0.0
  0
INSERT
  2
*DIM_0017
  8
寸法
  6
CONTINUOUS
 10
0.0
 20
0.0
  0
INSERT
  2
*DIM_0018
  8
寸法
  6
CONTINUOUS
 10
0.0
 20
0.0
  0
INSERT
  2
*DIM_0019
  8
寸法
  6
CONTINUOUS
 10
0.0
 20
0.0
  0
INSERT
  2
*DIM_0020
  8
寸法
  6
CONTINUOUS
 10
0.0
 20
0.0
  0
INSERT
  2
*GRP_0004
  8
別途部材
  6
CONTINUOUS
 10
0.0
 20
0.0
  0
ENDSEC
  0
EOF
