  0
SECTION
  2
HEADER
  9
$EXTMIN
 10
-210.0
 20
-148.5
  9
$EXTMAX
 10
210.0
 20
148.5
  9
$PDMODE
 70
    32
  9
$PDSIZE
 40
1.5
  9
$LTSCALE
 40
10.0
  0
ENDSEC
  0
SECTION
  2
TABLES
  0
TABLE
  2
LTYPE
 70
    15
  0
LTYPE
  2
CONTINUOUS
 70
    64
  3
実線
 72
    65
 73
     0
 40
0.0
  0
LTYPE
  2
DASHED
 70
    64
  3
破線A
 72
    65
 73
     2
 40
0.6
 49
0.4
 49
-0.2
  0
LTYPE
  2
DASHEDX2
 70
    64
  3
破線B
 72
    65
 73
     2
 40
1.3
 49
0.9
 49
-0.4
  0
LTYPE
  2
DASHDOT
 70
    64
  3
１点鎖線A
 72
    65
 73
     4
 40
0.5375
 49
0.375
 49
-0.05
 49
0.0625
 49
-0.05
  0
LTYPE
  2
DASHDOTX2
 70
    64
  3
１点鎖線B
 72
    65
 73
     4
 40
1.075
 49
0.75
 49
-0.1
 49
0.125
 49
-0.1
  0
LTYPE
  2
DIVIDE2
 70
    64
  3
２点鎖線A
 72
    65
 73
     6
 40
0.5125
 49
0.3
 49
-0.0375
 49
0.05
 49
-0.0375
 49
0.05
 49
-0.0375
  0
LTYPE
  2
DIVIDE
 70
    64
  3
２点鎖線B
 72
    65
 73
     6
 40
1.05
 49
0.55
 49
-0.1
 49
0.1
 49
-0.1
 49
0.1
 49
-0.1
  0
LTYPE
  2
DOT
 70
    64
  3
点線A
 72
    65
 73
     2
 40
0.1125
 49
0.0625
 49
-0.05
  0
LTYPE
  2
DOTX2
 70
    64
  3
点線B
 72
    65
 73
     2
 40
0.275
 49
0.15
 49
-0.125
  0
LTYPE
  2
CONTINUOUS
 70
    64
  3
実線
 72
    65
 73
     0
 40
0.0
  0
LTYPE
  2
CONTINUOUS
 70
    64
  3
実線
 72
    65
 73
     0
 40
0.0
  0
LTYPE
  2
CONTINUOUS
 70
    64
  3
実線
 72
    65
 73
     0
 40
0.0
  0
LTYPE
  2
CONTINUOUS
 70
    64
  3
実線
 72
    65
 73
     0
 40
0.0
  0
LTYPE
  2
CONTINUOUS
 70
    64
  3
実線
 72
    65
 73
     0
 40
0.0
  0
LTYPE
  2
CONTINUOUS
 70
    64
  3
実線
 72
    65
 73
     0
 40
0.0
  0
ENDTAB
  0
TABLE
  2
LAYER
 70
    34
  0
LAYER
  2
通り芯
 70
     0
 62
    15
  6
CONTINUOUS
  0
LAYER
  2
補助線
 70
     0
 62
    16
  6
DOT
  0
LAYER
  2
躯体
 70
     0
 62
    31
  6
CONTINUOUS
  0
LAYER
  2
型材
 70
     0
 62
    32
  6
CONTINUOUS
  0
LAYER
  2
型材断面
 70
     0
 62
    47
  6
CONTINUOUS
  0
LAYER
  2
ガラス
 70
     0
 62
    48
  6
CONTINUOUS
  0
LAYER
  2
ゴム等
 70
     0
 62
    63
  6
CONTINUOUS
  0
LAYER
  2
ボルト／ビス
 70
     0
 62
    64
  6
CONTINUOUS
  0
LAYER
  2
文字
 70
     0
 62
    79
  6
CONTINUOUS
  0
LAYER
  2
寸法
 70
     0
 62
    80
  6
CONTINUOUS
  0
LAYER
  2
ﾊｯﾁﾝｸﾞ
 70
     0
 62
    95
  6
CONTINUOUS
  0
LAYER
  2
別途部材
 70
     0
 62
    96
  6
CONTINUOUS
  0
LAYER
  2
曲げ物
 70
     0
 62
   111
  6
CONTINUOUS
  0
LAYER
  2
鉄骨等
 70
     0
 62
   112
  6
CONTINUOUS
  0
LAYER
  2
St
 70
     0
 62
   127
  6
CONTINUOUS
  0
LAYER
  2
その他部品等
 70
     0
 62
   128
  6
CONTINUOUS
  0
LAYER
  2
ｶﾞｽｹｯﾄ
 70
     0
 62
   143
  6
CONTINUOUS
  0
LAYER
  2
ｽｹｯﾁ
 70
     0
 62
    14
  6
CONTINUOUS
  0
LAYER
  2
0
 70
     0
 62
    17
  6
CONTINUOUS
  0
LAYER
  2
1
 70
     0
 62
    30
  6
CONTINUOUS
  0
LAYER
  2
4
 70
     0
 62
    33
  6
CONTINUOUS
  0
LAYER
  2
ﾚｲﾔ3
 70
     0
 62
    46
  6
CONTINUOUS
  0
LAYER
  2
外形線
 70
     0
 62
    49
  6
CONTINUOUS
  0
LAYER
  2
部品
 70
     0
 62
    14
  6
CONTINUOUS
  0
LAYER
  2
サッシ芯
 70
     0
 62
    17
  6
DASHDOTX2
  0
LAYER
  2
寸法線
 70
     0
 62
    62
  6
CONTINUOUS
  0
LAYER
  2
姿図外形線
 70
     0
 62
    65
  6
CONTINUOUS
  0
LAYER
  2
姿補助線
 70
     0
 62
    30
  6
CONTINUOUS
  0
LAYER
  2
透視線
 70
     0
 62
    78
  6
DOT
  0
LAYER
  2
用紙
 70
     0
 62
    81
  6
CONTINUOUS
  0
LAYER
  2
実線図枠
 70
     0
 62
    94
  6
CONTINUOUS
  0
LAYER
  2
補助図枠
 70
     0
 62
    97
  6
CONTINUOUS
  0
LAYER
  2
建具記号
 70
     0
 62
   110
  6
CONTINUOUS
  0
LAYER
  2
補助文字
 70
     0
 62
   113
  6
CONTINUOUS
  0
ENDTAB
  0
TABLE
  2
STYLE
 70
    10
  0
STYLE
  2
STANDARD
 70
     0
 40
1.0
 41
1.0
 42
1.0
 50
0.0
 71
     0
  3
TXT
  4
BIGFONT
  0
STYLE
  2
TATE
 70
     4
 40
1.0
 41
1.0
 42
1.0
 50
0.0
 71
     0
  3
TXT
  4
BIGFONT
  0
STYLE
  2
TextStyle03
 70
     0
 40
1.0
 41
1.0
 42
1.0
 50
0.0
 71
     0
  3
MONOTXT
  4
BIGFONT
  0
STYLE
  2
TextStyle04
 70
     0
 40
1.0
 41
1.0
 42
1.0
 50
0.0
 71
     0
  3
MONOTXT
  4
BIGFONT
  0
STYLE
  2
TextStyle05
 70
     0
 40
1.0
 41
1.0
 42
1.0
 50
0.0
 71
     0
  3
MONOTXT
  4
BIGFONT
  0
STYLE
  2
TextStyle06
 70
     0
 40
1.0
 41
1.0
 42
1.0
 50
0.0
 71
     0
  3
MONOTXT
  4
BIGFONT
  0
STYLE
  2
TextStyle07
 70
     0
 40
1.0
 41
1.0
 42
1.0
 50
0.0
 71
     0
  3
MONOTXT
  4
BIGFONT
  0
STYLE
  2
TextStyle08
 70
     0
 40
1.0
 41
1.0
 42
1.0
 50
0.0
 71
     0
  3
MONOTXT
  4
BIGFONT
  0
STYLE
  2
TextStyle09
 70
     0
 40
1.0
 41
1.0
 42
1.0
 50
0.0
 71
     0
  3
MONOTXT
  4
BIGFONT
  0
STYLE
  2
TextStyle10
 70
     0
 40
1.0
 41
1.0
 42
1.0
 50
0.0
 71
     0
  3
MONOTXT
  4
BIGFONT
  0
ENDTAB
  0
ENDSEC
  0
SECTION
  2
BLOCKS
  0
BLOCK
  2
*GRP_0001
 70
    65
 10
0.0
 20
0.0
  0
LINE
  8
型材断面
  6
CONTINUOUS
 10
195.0
 20
133.5
 11
195.0
 21
-133.5
  0
LINE
  8
型材断面
  6
CONTINUOUS
 10
195.0
 20
-133.5
 11
-185.0
 21
-133.5
  0
LINE
  8
型材断面
  6
CONTINUOUS
 10
-185.0
 20
-133.5
 11
-185.0
 21
133.5
  0
LINE
  8
型材断面
  6
CONTINUOUS
 10
195.0
 20
133.5
 11
-185.0
 21
133.5
  0
LINE
  8
型材断面
  6
CONTINUOUS
 10
145.0
 20
-133.5
 11
145.0
 21
-118.5
  0
LINE
  8
型材断面
  6
CONTINUOUS
 10
195.0
 20
-118.5
 11
145.0
 21
-118.5
  0
ENDBLK
  0
BLOCK
  2
*GRP_0002
 70
    65
 10
0.0
 20
0.0
  0
LINE
  8
型材断面
  6
DOT
 62
    47
 10
122.483775
 20
52.621083
 11
122.993043
 21
53.13035
  0
LINE
  8
型材断面
  6
DOT
 62
    47
 10
122.047865
 20
54.014202
 11
122.047865
 21
54.028345
  0
LINE
  8
型材断面
  6
DOT
 62
    47
 10
122.047865
 20
54.014202
 11
122.062008
 21
54.014202
  0
LINE
  8
型材断面
  6
DOT
 62
    47
 10
122.501993
 20
53.560078
 11
122.501993
 21
53.574217
  0
LINE
  8
型材断面
  6
DOT
 62
    47
 10
122.501993
 20
53.560078
 11
122.516132
 21
53.560078
  0
LINE
  8
型材断面
  6
DOT
 62
    47
 10
122.80448
 20
53.271728
 11
122.516132
 21
53.560078
  0
LINE
  8
型材断面
  6
DOT
 62
    47
 10
122.501993
 20
53.574217
 11
122.062008
 21
54.014202
  0
LINE
  8
型材断面
  6
DOT
 62
    47
 10
114.672582
 20
44.80989
 11
123.864992
 21
54.002297
  0
LINE
  8
型材断面
  6
DOT
 62
    47
 10
123.747155
 20
54.120135
 11
123.864992
 21
54.002297
  0
LINE
  8
型材断面
  6
DOT
 62
    47
 10
122.80448
 20
53.271728
 11
123.751882
 21
54.124863
  0
LINE
  8
型材断面
  6
DOT
 10
122.80448
 20
53.271728
 11
114.507612
 21
44.97486
  0
LINE
  8
型材断面
  6
DOT
 10
123.747155
 20
54.120135
 11
114.554747
 21
44.927728
  0
LINE
  8
型材断面
  6
DOT
 62
    47
 10
106.861392
 20
36.998697
 11
106.352123
 21
36.48943
  0
LINE
  8
型材断面
  6
DOT
 62
    47
 10
105.46827
 20
37.434607
 11
105.454127
 21
37.434607
  0
LINE
  8
型材断面
  6
DOT
 62
    47
 10
105.46827
 20
37.434607
 11
105.46827
 21
37.420468
  0
LINE
  8
型材断面
  6
DOT
 62
    47
 10
105.922398
 20
36.980482
 11
105.908255
 21
36.980482
  0
LINE
  8
型材断面
  6
DOT
 62
    47
 10
105.922398
 20
36.980482
 11
105.922398
 21
36.96634
  0
LINE
  8
型材断面
  6
DOT
 62
    47
 10
106.210745
 20
36.677993
 11
105.922398
 21
36.96634
  0
LINE
  8
型材断面
  6
DOT
 62
    47
 10
105.908255
 20
36.980482
 11
105.46827
 21
37.420468
  0
LINE
  8
型材断面
  6
DOT
 62
    47
 10
114.672582
 20
44.80989
 11
105.480175
 21
35.617483
  0
LINE
  8
型材断面
  6
DOT
 62
    47
 10
105.362337
 20
35.735318
 11
105.480175
 21
35.617483
  0
LINE
  8
型材断面
  6
DOT
 62
    47
 10
106.210745
 20
36.677993
 11
105.357612
 21
35.73059
  0
LINE
  8
型材断面
  6
DOT
 10
106.210745
 20
36.677993
 11
114.507612
 21
44.97486
  0
LINE
  8
型材断面
  6
DOT
 10
105.362337
 20
35.735318
 11
114.554747
 21
44.927728
  0
LINE
  8
型材断面
  6
DOT
 62
    47
 10
121.006053
 20
55.503852
 11
120.440367
 21
56.069537
  0
ARC
  8
型材断面
  6
DOT
 10
120.433195
 20
56.156647
 40
0.1
 50
45.0
 51
135.0
  0
LINE
  8
型材断面
  6
DOT
 62
    47
 10
120.503903
 20
56.227357
 11
120.551043
 21
56.180215
  0
LINE
  8
型材断面
  6
DOT
 62
    47
 10
120.518085
 20
55.99152
 11
121.500878
 21
55.008727
  0
LINE
  8
型材断面
  6
DOT
 62
    47
 10
121.500878
 20
55.008727
 11
112.98731
 21
46.495162
  0
LINE
  8
型材断面
  6
DOT
 62
    47
 10
120.551043
 20
56.180215
 11
111.92665
 21
47.555823
  0
LINE
  8
型材断面
  6
DOT
 62
    47
 10
120.362483
 20
56.227357
 11
111.8088
 21
47.673673
  0
LINE
  8
型材断面
  6
DOT
 62
    47
 10
103.978622
 20
38.476423
 11
103.412935
 21
39.042108
  0
ARC
  8
型材断面
  6
DOT
 10
103.32583
 20
39.049283
 40
0.1
 50
135.0
 51
225.0
  0
LINE
  8
型材断面
  6
DOT
 62
    47
 10
103.255118
 20
38.97857
 11
103.302258
 21
38.93143
  0
LINE
  8
型材断面
  6
DOT
 62
    47
 10
103.490952
 20
38.964387
 11
104.473745
 21
37.981597
  0
LINE
  8
型材断面
  6
DOT
 62
    47
 10
104.473745
 20
37.981597
 11
112.98731
 21
46.495162
  0
LINE
  8
型材断面
  6
DOT
 62
    47
 10
103.302258
 20
38.93143
 11
111.92665
 21
47.555823
  0
LINE
  8
型材断面
  6
DOT
 62
    47
 10
103.255118
 20
39.119993
 11
111.8088
 21
47.673673
  0
LINE
  8
型材断面
  6
DOT
 62
    47
 10
105.454127
 20
37.434607
 11
104.690443
 21
38.198295
  0
LINE
  8
型材断面
  6
DOT
 62
    47
 10
122.047865
 20
54.028345
 11
121.284178
 21
54.79203
  0
ENDBLK
  0
BLOCK
  2
*DIM_0003
 70
    65
 10
0.0
 20
0.0
  0
LINE
  8
寸法
  6
CONTINUOUS
 10
-97.7903
 20
-71.841245
 11
-97.7903
 21
-42.588472
  0
LINE
  8
寸法
  6
CONTINUOUS
 10
-94.056938
 20
-42.588472
 11
-97.7903
 21
-42.588472
  0
POINT
  8
寸法
 10
-94.056938
 20
-42.588472
  0
POINT
  8
寸法
 10
-97.7903
 20
-42.588472
  0
TEXT
  7
TextStyle03
  8
寸法
  6
CONTINUOUS
 10
-98.3625
 20
-42.25
  1
112
 40
3.0
 72
     5
 11
-93.4875
 21
-42.25
  0
ENDBLK
  0
BLOCK
  2
*DIM_0004
 70
    65
 10
0.0
 20
0.0
  0
LINE
  8
寸法
  6
CONTINUOUS
 10
-23.65691
 20
-71.841245
 11
-23.65691
 21
-42.588472
  0
LINE
  8
寸法
  6
CONTINUOUS
 10
-27.39027
 20
-42.588472
 11
-23.65691
 21
-42.588472
  0
POINT
  8
寸法
 10
-27.39027
 20
-42.588472
  0
POINT
  8
寸法
 10
-23.65691
 20
-42.588472
  0
TEXT
  7
TextStyle03
  8
寸法
  6
CONTINUOUS
 10
-27.9625
 20
-42.25
  1
112
 40
3.0
 72
     5
 11
-23.0875
 21
-42.25
  0
ENDBLK
  0
BLOCK
  2
*DIM_0005
 70
    65
 10
0.0
 20
0.0
  0
LINE
  8
寸法
  6
CONTINUOUS
 10
-94.056938
 20
-42.588472
 11
-27.39027
 21
-42.588472
  0
POINT
  8
寸法
 10
-94.056938
 20
-42.588472
  0
POINT
  8
寸法
 10
-27.39027
 20
-42.588472
  0
TEXT
  7
TextStyle03
  8
寸法
  6
CONTINUOUS
 10
-72.44375
 20
-42.25
  1
呼称寸法　2000
 40
3.0
 72
     5
 11
-49.00625
 21
-42.25
  0
ENDBLK
  0
BLOCK
  2
*DIM_0006
 70
    65
 10
0.0
 20
0.0
  0
LINE
  8
寸法
  6
CONTINUOUS
 10
127.157677
 20
22.133922
 11
127.157677
 21
15.791205
  0
LINE
  8
寸法
  6
CONTINUOUS
 10
120.040892
 20
23.868932
 11
120.040892
 21
15.791205
  0
LINE
  8
寸法
  6
CONTINUOUS
 10
127.157677
 20
15.791205
 11
120.040892
 21
15.791205
  0
POINT
  8
寸法
 10
127.157677
 20
15.791205
  0
POINT
  8
寸法
 10
120.040892
 20
15.791205
  0
TEXT
  7
TextStyle03
  8
寸法
  6
CONTINUOUS
 10
119.475
 20
12.775
  1
213.5
 40
3.0
 72
     5
 11
127.725
 21
12.775
  0
ENDBLK
  0
BLOCK
  2
*GRP_0007
 70
    65
 10
0.0
 20
0.0
  0
LINE
  8
別途部材
  6
CONTINUOUS
 62
    96
 10
125.940887
 20
52.500828
 11
125.940887
 21
52.400828
  0
LINE
  8
別途部材
  6
CONTINUOUS
 62
    96
 10
123.839807
 20
52.600828
 11
123.90948
 21
53.931632
  0
LINE
  8
別途部材
  6
CONTINUOUS
 62
    96
 10
124.457553
 20
53.940827
 11
124.340887
 21
54.207495
  0
LINE
  8
別途部材
  6
CONTINUOUS
 62
    96
 10
124.357553
 20
53.919912
 11
124.290033
 21
54.074245
  0
LINE
  8
別途部材
  6
CONTINUOUS
 62
    96
 10
123.81071
 20
53.95775
 11
123.94116
 21
54.217952
  0
LINE
  8
別途部材
  6
CONTINUOUS
 62
    96
 10
123.90948
 20
53.931632
 11
124.04164
 21
54.195245
  0
LINE
  8
別途部材
  6
CONTINUOUS
 62
    96
 10
124.077242
 20
54.130363
 11
124.013595
 21
54.053233
  0
LINE
  8
別途部材
  6
DASHDOTX2
 62
    96
 10
124.140887
 20
54.207495
 11
123.827403
 21
54.207495
  0
LINE
  8
別途部材
  6
DASHDOTX2
 62
    96
 10
124.140887
 20
54.207495
 11
124.471348
 21
54.207495
  0
LINE
  8
別途部材
  6
DASHDOTX2
 62
    96
 10
124.140887
 20
54.207495
 11
124.140887
 21
53.944023
  0
LINE
  8
別途部材
  6
DASHDOTX2
 62
    96
 10
124.140887
 20
54.207495
 11
124.140887
 21
54.485805
  0
LINE
  8
別途部材
  6
CONTINUOUS
 62
    96
 10
124.357553
 20
52.400828
 11
124.357553
 21
53.919912
  0
LINE
  8
別途部材
  6
CONTINUOUS
 62
    96
 10
124.457553
 20
52.500828
 11
124.457553
 21
53.940827
  0
LINE
  8
別途部材
  6
CONTINUOUS
 62
    96
 10
122.606473
 20
52.70083
 11
123.744905
 21
52.70083
  0
LINE
  8
別途部材
  6
CONTINUOUS
 62
    96
 10
122.606473
 20
52.600828
 11
122.606473
 21
52.70083
  0
LINE
  8
別途部材
  6
CONTINUOUS
 62
    96
 10
122.606473
 20
52.600828
 11
123.839807
 21
52.600828
  0
CIRCLE
  8
別途部材
  6
CONTINUOUS
 62
    96
 10
124.140887
 20
54.207495
 40
0.1
  0
ARC
  8
別途部材
  6
CONTINUOUS
 62
    96
 10
124.140888
 20
54.207496
 40
0.2
 50
218.780606
 51
537.001556
  0
LINE
  8
別途部材
  6
CONTINUOUS
 62
    96
 10
124.357553
 20
52.400828
 11
125.940887
 21
52.400828
  0
LINE
  8
別途部材
  6
CONTINUOUS
 62
    96
 10
124.457553
 20
52.500828
 11
125.940887
 21
52.500828
  0
LINE
  8
別途部材
  6
CONTINUOUS
 62
    96
 10
123.81071
 20
53.95775
 11
123.744905
 21
52.70083
  0
ENDBLK
  0
BLOCK
  2
*DIM_0008
 70
    65
 10
0.0
 20
0.0
  0
LINE
  8
寸法
  6
CONTINUOUS
 10
-18.65691
 20
-73.191245
 11
-7.175832
 21
-73.191245
  0
LINE
  8
寸法
  6
CONTINUOUS
 10
-20.391227
 20
-66.07446
 11
-7.175832
 21
-66.07446
  0
LINE
  8
寸法
  6
CONTINUOUS
 10
-7.175832
 20
-73.191245
 11
-7.175832
 21
-66.07446
  0
POINT
  8
寸法
 10
-7.175832
 20
-73.191245
  0
POINT
  8
寸法
 10
-7.175832
 20
-66.07446
  0
TEXT
  7
TextStyle03
  8
寸法
  6
CONTINUOUS
 10
-4.2
 20
-73.775
  1
213.5
 40
3.0
 50
90.0
 72
     5
 11
-4.2
 21
-65.525
  0
ENDBLK
  0
BLOCK
  2
*DIM_0009
 70
    65
 10
0.0
 20
0.0
  0
LINE
  8
寸法
  6
CONTINUOUS
 10
121.657677
 20
54.600645
 11
87.439335
 21
54.600645
  0
LINE
  8
寸法
  6
CONTINUOUS
 10
87.439335
 20
50.867282
 11
87.439335
 21
54.600645
  0
POINT
  8
寸法
 10
87.439335
 20
50.867282
  0
POINT
  8
寸法
 10
87.439335
 20
54.600645
  0
TEXT
  7
TextStyle03
  8
寸法
  6
CONTINUOUS
 10
87.05
 20
55.3375
  1
112
 40
3.0
 50
90.0
 72
     5
 11
87.05
 21
60.2125
  0
ENDBLK
  0
BLOCK
  2
*DIM_0010
 70
    65
 10
0.0
 20
0.0
  0
LINE
  8
寸法
  6
CONTINUOUS
 10
121.657677
 20
27.133922
 11
87.439335
 21
27.133922
  0
LINE
  8
寸法
  6
CONTINUOUS
 10
87.439335
 20
30.867282
 11
87.439335
 21
27.133922
  0
POINT
  8
寸法
 10
87.439335
 20
30.867282
  0
POINT
  8
寸法
 10
87.439335
 20
27.133922
  0
TEXT
  7
TextStyle03
  8
寸法
  6
CONTINUOUS
 10
87.05
 20
21.5125
  1
112
 40
3.0
 50
90.0
 72
     5
 11
87.05
 21
26.3875
  0
ENDBLK
  0
BLOCK
  2
*DIM_0011
 70
    65
 10
0.0
 20
0.0
  0
LINE
  8
寸法
  6
CONTINUOUS
 10
87.439335
 20
30.867282
 11
87.439335
 21
50.867282
  0
POINT
  8
寸法
 10
87.439335
 20
30.867282
  0
POINT
  8
寸法
 10
87.439335
 20
50.867282
  0
TEXT
  7
TextStyle03
  8
寸法
  6
CONTINUOUS
 10
87.05
 20
29.975
  1
呼称寸法　600
 40
3.0
 50
90.0
 72
     5
 11
87.05
 21
51.725
  0
ENDBLK
  0
BLOCK
  2
*DIM_0012
 70
    65
 10
0.0
 20
0.0
  0
LINE
  8
寸法
  6
BYBLOCK
 62
     0
 10
-77.390272
 20
27.237153
 11
-77.390272
 21
22.235427
  0
LINE
  8
寸法
  6
BYBLOCK
 62
     0
 10
-44.056938
 20
27.237153
 11
-44.056938
 21
22.235427
  0
LINE
  8
寸法
  6
BYBLOCK
 62
     0
 10
-77.390272
 20
22.235427
 11
-44.056938
 21
22.235427
  0
POINT
  8
寸法
 62
     0
 10
-77.390272
 20
22.235427
  0
POINT
  8
寸法
 62
     0
 10
-44.056938
 20
22.235427
  0
TEXT
  7
TextStyle03
  8
寸法
  6
CONTINUOUS
 62
     0
 10
-64.00625
 20
22.6
  1
1000
 40
3.0
 72
     5
 11
-57.44375
 21
22.6
  0
ENDBLK
  0
BLOCK
  2
*DIM_0013
 70
    65
 10
0.0
 20
0.0
  0
LINE
  8
寸法
  6
BYBLOCK
 62
     0
 10
-29.390272
 20
25.26047
 11
-29.390272
 21
22.235427
  0
LINE
  8
寸法
  6
BYBLOCK
 62
     0
 10
-27.390272
 20
22.235427
 11
-29.390272
 21
22.235427
  0
POINT
  8
寸法
 62
     0
 10
-27.390272
 20
22.235427
  0
POINT
  8
寸法
 62
     0
 10
-29.390272
 20
22.235427
  0
TEXT
  7
TextStyle03
  8
寸法
  6
CONTINUOUS
 62
     0
 10
-31.26875
 20
18.45
  1
60
 40
3.0
 72
     5
 11
-28.08125
 21
18.45
  0
ENDBLK
  0
BLOCK
  2
*DIM_0014
 70
    65
 10
0.0
 20
0.0
  0
LINE
  8
寸法
  6
BYBLOCK
 62
     0
 10
-92.056938
 20
25.26047
 11
-92.056938
 21
22.235427
  0
LINE
  8
寸法
  6
BYBLOCK
 62
     0
 10
-94.056938
 20
22.235427
 11
-92.056938
 21
22.235427
  0
POINT
  8
寸法
 62
     0
 10
-94.056938
 20
22.235427
  0
POINT
  8
寸法
 62
     0
 10
-92.056938
 20
22.235427
  0
TEXT
  7
TextStyle03
  8
寸法
  6
CONTINUOUS
 62
     0
 10
-93.36875
 20
18.45
  1
60
 40
3.0
 72
     5
 11
-90.18125
 21
18.45
  0
ENDBLK
  0
BLOCK
  2
*DIM_0015
 70
    65
 10
0.0
 20
0.0
  0
LINE
  8
寸法
  6
BYBLOCK
 62
     0
 10
-97.05694
 20
47.53395
 11
-110.349777
 21
47.53395
  0
LINE
  8
寸法
  6
BYBLOCK
 62
     0
 10
-97.05694
 20
34.200615
 11
-110.349777
 21
34.200615
  0
LINE
  8
寸法
  6
BYBLOCK
 62
     0
 10
-110.349777
 20
47.53395
 11
-110.349777
 21
34.200615
  0
POINT
  8
寸法
 62
     0
 10
-110.349777
 20
47.53395
  0
POINT
  8
寸法
 62
     0
 10
-110.349777
 20
34.200615
  0
TEXT
  7
TextStyle03
  8
寸法
  6
CONTINUOUS
 62
     0
 10
-110.775
 20
38.4125
  1
400
 40
3.0
 50
90.0
 72
     5
 11
-110.775
 21
43.2875
  0
ENDBLK
  0
BLOCK
  2
*DIM_0016
 70
    65
 10
0.0
 20
0.0
  0
LINE
  8
寸法
  6
BYBLOCK
 62
     0
 10
-84.056938
 20
53.867282
 11
-84.056938
 21
82.794902
  0
LINE
  8
寸法
  6
BYBLOCK
 62
     0
 10
-60.723605
 20
53.867282
 11
-60.723605
 21
82.794902
  0
LINE
  8
寸法
  6
BYBLOCK
 62
     0
 10
-84.056938
 20
82.794902
 11
-60.723605
 21
82.794902
  0
POINT
  8
寸法
 62
     0
 10
-84.056938
 20
82.794902
  0
POINT
  8
寸法
 62
     0
 10
-60.723605
 20
82.794902
  0
TEXT
  7
TextStyle03
  8
寸法
  6
CONTINUOUS
 62
     0
 10
-74.8125
 20
83.175
  1
700
 40
3.0
 72
     5
 11
-69.9375
 21
83.175
  0
ENDBLK
  0
BLOCK
  2
*DIM_0017
 70
    65
 10
0.0
 20
0.0
  0
LINE
  8
寸法
  6
BYBLOCK
 62
     0
 10
-37.390272
 20
53.867282
 11
-37.390272
 21
82.794902
  0
LINE
  8
寸法
  6
BYBLOCK
 62
     0
 10
-60.723605
 20
82.794902
 11
-37.390272
 21
82.794902
  0
POINT
  8
寸法
 62
     0
 10
-37.390272
 20
82.794902
  0
TEXT
  7
TextStyle03
  8
寸法
  6
CONTINUOUS
 62
     0
 10
-51.4875
 20
83.175
  1
700
 40
3.0
 72
     5
 11
-46.6125
 21
83.175
  0
ENDBLK
  0
BLOCK
  2
*DIM_0018
 70
    65
 10
0.0
 20
0.0
  0
LINE
  8
寸法
  6
CONTINUOUS
 10
118.805643
 20
-48.455918
 11
118.805643
 21
-38.298048
  0
LINE
  8
寸法
  6
CONTINUOUS
 10
85.928975
 20
-48.455918
 11
85.928975
 21
-38.298048
  0
LINE
  8
寸法
  6
CONTINUOUS
 10
118.805643
 20
-38.298048
 11
85.928975
 21
-38.298048
  0
POINT
  8
寸法
 10
118.805643
 20
-38.298048
  0
POINT
  8
寸法
 10
85.928975
 20
-38.298048
  0
TEXT
  7
TextStyle03
  8
寸法
  6
CONTINUOUS
 10
98.225
 20
-37.925
  1
986.3
 40
3.0
 72
     5
 11
106.475
 21
-37.925
  0
ENDBLK
  0
BLOCK
  2
*DIM_0019
 70
    65
 10
0.0
 20
0.0
  0
LINE
  8
寸法
  6
CONTINUOUS
 10
123.805643
 20
-53.455918
 11
134.484052
 21
-53.455918
  0
LINE
  8
寸法
  6
CONTINUOUS
 10
123.805643
 20
-73.622585
 11
134.484052
 21
-73.622585
  0
LINE
  8
寸法
  6
CONTINUOUS
 10
134.484052
 20
-53.455918
 11
134.484052
 21
-73.622585
  0
POINT
  8
寸法
 10
134.484052
 20
-53.455918
  0
POINT
  8
寸法
 10
134.484052
 20
-73.622585
  0
TEXT
  7
TextStyle03
  8
寸法
  6
CONTINUOUS
 10
134.1
 20
-65.9875
  1
605
 40
3.0
 50
90.0
 72
     5
 11
134.1
 21
-61.1125
  0
ENDBLK
  0
ENDSEC
  0
SECTION
  2
ENTITIES
  0
POLYLINE
  8
通り芯
  6
CONTINUOUS
 66
     1
 70
     1
  0
VERTEX
  8
通り芯
 10
-210.0
 20
-148.5
  0
VERTEX
  8
通り芯
 10
210.0
 20
-148.5
  0
VERTEX
  8
通り芯
 10
210.0
 20
148.5
  0
VERTEX
  8
通り芯
 10
-210.0
 20
148.5
  0
SEQEND
  0
INSERT
  2
*GRP_0001
  8
型材断面
  6
CONTINUOUS
 10
0.0
 20
0.0
  0
LINE
  8
型材断面
  6
CONTINUOUS
 62
    47
 10
124.090895
 20
51.913977
 11
124.090895
 21
52.63419
  0
LINE
  8
型材断面
  6
CONTINUOUS
 62
    47
 10
122.797575
 20
52.590827
 11
122.787575
 21
52.600828
  0
LINE
  8
型材断面
  6
CONTINUOUS
 62
    47
 10
122.797575
 20
52.590827
 11
122.807575
 21
52.600828
  0
LINE
  8
型材断面
  6
CONTINUOUS
 62
    47
 10
123.439807
 20
52.590827
 11
123.429808
 21
52.600828
  0
LINE
  8
型材断面
  6
CONTINUOUS
 62
    47
 10
123.439807
 20
52.590827
 11
123.449807
 21
52.600828
  0
LINE
  8
型材断面
  6
CONTINUOUS
 62
    47
 10
123.857592
 20
52.600828
 11
123.449807
 21
52.600828
  0
LINE
  8
型材断面
  6
CONTINUOUS
 62
    47
 10
123.429808
 20
52.600828
 11
122.807575
 21
52.600828
  0
LINE
  8
型材断面
  6
CONTINUOUS
 62
    47
 10
127.491013
 20
54.100653
 11
127.157677
 21
54.100653
  0
LINE
  8
型材断面
  6
CONTINUOUS
 62
    47
 10
126.49101
 20
52.167492
 11
126.49101
 21
51.570645
  0
LINE
  8
型材断面
  6
CONTINUOUS
 62
    47
 10
126.490998
 20
52.400645
 11
126.657677
 21
54.600645
  0
LINE
  8
型材断面
  6
CONTINUOUS
 62
    47
 10
127.157677
 20
54.600645
 11
126.657677
 21
54.600645
  0
LINE
  8
型材断面
  6
CONTINUOUS
 62
    47
 10
124.357553
 20
53.867312
 11
124.357553
 21
40.867282
  0
LINE
  8
型材断面
  6
CONTINUOUS
 10
126.49101
 20
40.867282
 11
126.49101
 21
52.400645
  0
LINE
  8
型材断面
  6
CONTINUOUS
 10
127.491013
 20
40.867282
 11
127.491013
 21
54.100653
  0
LINE
  8
型材断面
  6
CONTINUOUS
 10
127.157677
 20
40.867282
 11
127.157677
 21
54.600645
  0
LINE
  8
型材断面
  6
CONTINUOUS
 62
    47
 10
124.090895
 20
40.867282
 11
124.090895
 21
53.867312
  0
LINE
  8
型材断面
  6
CONTINUOUS
 62
    47
 10
124.224237
 20
40.867282
 11
124.224237
 21
53.867312
  0
LINE
  8
型材断面
  6
CONTINUOUS
 62
    47
 10
124.357553
 20
53.867312
 11
124.224237
 21
53.867312
  0
LINE
  8
型材断面
  6
CONTINUOUS
 62
    47
 10
124.357553
 20
52.400645
 11
126.49101
 21
52.400645
  0
LINE
  8
型材断面
  6
CONTINUOUS
 10
126.657677
 20
40.867282
 11
126.657677
 21
54.600645
  0
LINE
  8
型材断面
  6
CONTINUOUS
 10
123.857592
 20
52.600828
 11
123.857592
 21
40.867282
  0
LINE
  8
型材断面
  6
CONTINUOUS
 10
123.92425
 20
53.867312
 11
123.92425
 21
40.867282
  0
LINE
  8
型材断面
  6
CONTINUOUS
 62
    47
 10
124.090895
 20
29.82059
 11
124.090895
 21
29.100377
  0
LINE
  8
型材断面
  6
CONTINUOUS
 62
    47
 10
122.797575
 20
29.14374
 11
122.787575
 21
29.13374
  0
LINE
  8
型材断面
  6
CONTINUOUS
 62
    47
 10
122.797575
 20
29.14374
 11
122.807575
 21
29.13374
  0
LINE
  8
型材断面
  6
CONTINUOUS
 62
    47
 10
123.439807
 20
29.14374
 11
123.429808
 21
29.13374
  0
LINE
  8
型材断面
  6
CONTINUOUS
 62
    47
 10
123.439807
 20
29.14374
 11
123.449807
 21
29.13374
  0
LINE
  8
型材断面
  6
CONTINUOUS
 62
    47
 10
123.857592
 20
29.13374
 11
123.449807
 21
29.13374
  0
LINE
  8
型材断面
  6
CONTINUOUS
 62
    47
 10
123.429808
 20
29.13374
 11
122.807575
 21
29.13374
  0
LINE
  8
型材断面
  6
CONTINUOUS
 62
    47
 10
127.491013
 20
27.633913
 11
127.157677
 21
27.633913
  0
LINE
  8
型材断面
  6
CONTINUOUS
 62
    47
 10
126.49101
 20
29.567075
 11
126.49101
 21
30.163923
  0
LINE
  8
型材断面
  6
CONTINUOUS
 62
    47
 10
126.490998
 20
29.333922
 11
126.657677
 21
27.133922
  0
LINE
  8
型材断面
  6
CONTINUOUS
 62
    47
 10
127.157677
 20
27.133922
 11
126.657677
 21
27.133922
  0
LINE
  8
型材断面
  6
CONTINUOUS
 62
    47
 10
124.357553
 20
27.867255
 11
124.357553
 21
40.867282
  0
LINE
  8
型材断面
  6
CONTINUOUS
 10
126.49101
 20
40.867282
 11
126.49101
 21
29.333922
  0
LINE
  8
型材断面
  6
CONTINUOUS
 10
127.491013
 20
40.867282
 11
127.491013
 21
27.633913
  0
LINE
  8
型材断面
  6
CONTINUOUS
 10
127.157677
 20
40.867282
 11
127.157677
 21
27.133922
  0
LINE
  8
型材断面
  6
CONTINUOUS
 62
    47
 10
124.090895
 20
40.867282
 11
124.090895
 21
27.867255
  0
LINE
  8
型材断面
  6
CONTINUOUS
 62
    47
 10
124.224237
 20
40.867282
 11
124.224237
 21
27.867255
  0
LINE
  8
型材断面
  6
CONTINUOUS
 62
    47
 10
124.357553
 20
27.867255
 11
124.224237
 21
27.867255
  0
LINE
  8
型材断面
  6
CONTINUOUS
 62
    47
 10
124.357553
 20
29.333922
 11
126.49101
 21
29.333922
  0
LINE
  8
型材断面
  6
CONTINUOUS
 10
126.657677
 20
40.867282
 11
126.657677
 21
27.133922
  0
LINE
  8
型材断面
  6
CONTINUOUS
 10
123.857592
 20
29.13374
 11
123.857592
 21
40.867282
  0
LINE
  8
型材断面
  6
CONTINUOUS
 10
123.92425
 20
27.867255
 11
123.92425
 21
40.867282
  0
ARC
  8
型材断面
  6
DASHDOT
 10
124.140889
 20
54.207496
 40
26.340287
 50
224.891258
 51
269.891257
  0
LINE
  8
型材断面
  6
CONTINUOUS
 62
    47
 10
121.007562
 20
52.907495
 11
120.20756
 21
52.907495
  0
ARC
  8
型材断面
  6
CONTINUOUS
 10
120.140896
 20
52.964018
 40
0.1
 50
90.0
 51
180.0
  0
LINE
  8
型材断面
  6
CONTINUOUS
 62
    47
 10
120.140892
 20
53.064018
 11
120.20756
 21
53.064018
  0
LINE
  8
型材断面
  6
CONTINUOUS
 62
    47
 10
120.317683
 20
52.907282
 11
121.70756
 21
52.907282
  0
LINE
  8
型材断面
  6
CONTINUOUS
 62
    47
 10
121.70756
 20
52.907282
 11
121.70756
 21
40.867282
  0
LINE
  8
型材断面
  6
CONTINUOUS
 62
    47
 10
120.20756
 20
53.064018
 11
120.20756
 21
40.867282
  0
LINE
  8
型材断面
  6
CONTINUOUS
 62
    47
 10
120.040892
 20
52.964018
 11
120.040892
 21
40.867282
  0
LINE
  8
型材断面
  6
CONTINUOUS
 62
    47
 10
121.007562
 20
28.827073
 11
120.20756
 21
28.827073
  0
ARC
  8
型材断面
  6
CONTINUOUS
 10
120.140896
 20
28.770551
 40
0.1
 50
180.0
 51
270.0
  0
LINE
  8
型材断面
  6
CONTINUOUS
 62
    47
 10
120.140892
 20
28.67055
 11
120.20756
 21
28.67055
  0
LINE
  8
型材断面
  6
CONTINUOUS
 62
    47
 10
120.317683
 20
28.827283
 11
121.70756
 21
28.827283
  0
LINE
  8
型材断面
  6
CONTINUOUS
 62
    47
 10
121.70756
 20
28.827283
 11
121.70756
 21
40.867282
  0
LINE
  8
型材断面
  6
CONTINUOUS
 62
    47
 10
120.20756
 20
28.67055
 11
120.20756
 21
40.867282
  0
LINE
  8
型材断面
  6
CONTINUOUS
 62
    47
 10
120.040892
 20
28.77055
 11
120.040892
 21
40.867282
  0
LINE
  8
型材断面
  6
CONTINUOUS
 62
    47
 10
122.787575
 20
29.13374
 11
121.70756
 21
29.13374
  0
LINE
  8
型材断面
  6
CONTINUOUS
 62
    47
 10
122.787575
 20
52.600828
 11
121.70756
 21
52.600828
  0
LINE
  8
型材断面
  6
CONTINUOUS
 62
    47
 10
124.090895
 20
53.867312
 11
123.9239
 21
53.867312
  0
LINE
  8
型材断面
  6
CONTINUOUS
 62
    47
 10
123.857592
 20
52.600828
 11
123.9239
 21
53.867312
  0
LINE
  8
型材断面
  6
CONTINUOUS
 62
    47
 10
124.090895
 20
27.867255
 11
123.9239
 21
27.867255
  0
LINE
  8
型材断面
  6
CONTINUOUS
 62
    47
 10
123.857592
 20
29.13374
 11
123.9239
 21
27.867255
  0
LINE
  8
型材断面
  6
CONTINUOUS
 10
-23.65691
 20
27.133922
 11
-23.65691
 21
40.867282
  0
LINE
  8
型材断面
  6
CONTINUOUS
 10
-24.390243
 20
27.867255
 11
-24.390243
 21
40.867282
  0
LINE
  8
型材断面
  6
CONTINUOUS
 10
-23.65691
 20
54.600645
 11
-23.65691
 21
40.867282
  0
LINE
  8
型材断面
  6
CONTINUOUS
 10
-24.390243
 20
53.867312
 11
-24.390243
 21
40.867282
  0
LINE
  8
型材断面
  6
DASHDOT
 10
-94.056938
 20
50.867282
 11
-27.39027
 21
50.867282
  0
LINE
  8
型材断面
  6
CONTINUOUS
 10
-25.42924
 20
28.67055
 11
-25.193538
 21
28.906252
  0
LINE
  8
型材断面
  6
CONTINUOUS
 10
-27.929453
 20
31.170762
 11
-27.69375
 21
31.406465
  0
LINE
  8
型材断面
  6
CONTINUOUS
 10
-27.69375
 20
31.406465
 11
-25.193538
 21
28.906252
  0
LINE
  8
型材断面
  6
CONTINUOUS
 10
-27.929453
 20
31.170762
 11
-25.42924
 21
28.67055
  0
LINE
  8
型材断面
  6
CONTINUOUS
 10
-23.65691
 20
27.133922
 11
-25.31139
 21
28.788402
  0
LINE
  8
型材断面
  6
CONTINUOUS
 10
-25.42924
 20
53.064018
 11
-25.193538
 21
52.828312
  0
LINE
  8
型材断面
  6
CONTINUOUS
 10
-27.929453
 20
50.563805
 11
-27.69375
 21
50.328103
  0
LINE
  8
型材断面
  6
CONTINUOUS
 10
-27.69375
 20
50.328103
 11
-25.193538
 21
52.828312
  0
LINE
  8
型材断面
  6
CONTINUOUS
 10
-27.929453
 20
50.563805
 11
-25.42924
 21
53.064018
  0
LINE
  8
型材断面
  6
CONTINUOUS
 10
-23.65691
 20
54.600645
 11
-25.31139
 21
52.946165
  0
LINE
  8
型材断面
  6
CONTINUOUS
 10
-25.193538
 20
28.906252
 11
-25.193538
 21
52.828312
  0
LINE
  8
型材断面
  6
CONTINUOUS
 10
-27.69375
 20
41.28395
 11
-25.193538
 21
41.28395
  0
LINE
  8
型材断面
  6
CONTINUOUS
 10
-27.69375
 20
40.450618
 11
-25.193538
 21
40.450618
  0
LINE
  8
型材断面
  6
CONTINUOUS
 10
-27.69375
 20
31.406465
 11
-27.69375
 21
40.450618
  0
LINE
  8
型材断面
  6
CONTINUOUS
 10
-27.69375
 20
41.28395
 11
-27.69375
 21
50.328103
  0
LINE
  8
型材断面
  6
CONTINUOUS
 62
    47
 10
-26.343577
 20
-70.124463
 11
-25.623365
 21
-70.124463
  0
LINE
  8
型材断面
  6
CONTINUOUS
 62
    47
 10
-25.666727
 20
-68.831142
 11
-25.656728
 21
-68.821143
  0
LINE
  8
型材断面
  6
CONTINUOUS
 62
    47
 10
-25.666727
 20
-68.831142
 11
-25.656728
 21
-68.841143
  0
LINE
  8
型材断面
  6
CONTINUOUS
 62
    47
 10
-25.666727
 20
-69.473375
 11
-25.656728
 21
-69.463375
  0
LINE
  8
型材断面
  6
CONTINUOUS
 62
    47
 10
-25.666727
 20
-69.473375
 11
-25.656728
 21
-69.483375
  0
LINE
  8
型材断面
  6
CONTINUOUS
 62
    47
 10
-25.656728
 20
-69.89116
 11
-25.656728
 21
-69.483375
  0
LINE
  8
型材断面
  6
CONTINUOUS
 62
    47
 10
-25.656728
 20
-69.463375
 11
-25.656728
 21
-68.841143
  0
LINE
  8
型材断面
  6
CONTINUOUS
 62
    47
 10
-24.1569
 20
-73.52458
 11
-24.1569
 21
-73.191245
  0
LINE
  8
型材断面
  6
CONTINUOUS
 62
    47
 10
-26.090063
 20
-72.524578
 11
-26.68691
 21
-72.524578
  0
LINE
  8
型材断面
  6
CONTINUOUS
 62
    47
 10
-25.85691
 20
-72.524565
 11
-23.65691
 21
-72.691245
  0
LINE
  8
型材断面
  6
CONTINUOUS
 62
    47
 10
-23.65691
 20
-73.191245
 11
-23.65691
 21
-72.691245
  0
LINE
  8
型材断面
  6
CONTINUOUS
 62
    47
 10
-24.390243
 20
-70.39112
 11
-24.390243
 21
-70.257805
  0
LINE
  8
型材断面
  6
CONTINUOUS
 62
    47
 10
-25.85691
 20
-70.39112
 11
-25.85691
 21
-72.524578
  0
LINE
  8
型材断面
  6
CONTINUOUS
 62
    47
 10
-25.35006
 20
-67.04113
 11
-25.35006
 21
-66.241128
  0
ARC
  8
型材断面
  6
CONTINUOUS
 10
-25.293536
 20
-66.174459
 40
0.1
 50
0.0
 51
90.0
  0
LINE
  8
型材断面
  6
CONTINUOUS
 62
    47
 10
-25.193538
 20
-66.17446
 11
-25.193538
 21
-66.241128
  0
LINE
  8
型材断面
  6
CONTINUOUS
 62
    47
 10
-25.35027
 20
-66.35125
 11
-25.35027
 21
-67.741128
  0
LINE
  8
型材断面
  6
CONTINUOUS
 62
    47
 10
-25.656728
 20
-68.821143
 11
-25.656728
 21
-67.741128
  0
LINE
  8
型材断面
  6
CONTINUOUS
 62
    47
 10
-24.390243
 20
-70.124463
 11
-24.390243
 21
-69.957467
  0
LINE
  8
型材断面
  6
CONTINUOUS
 62
    47
 10
-25.656728
 20
-69.89116
 11
-24.390243
 21
-69.957467
  0
LINE
  8
型材断面
  6
DASHDOT
 10
130.329942
 20
30.867282
 11
-94.056938
 21
30.867282
  0
LINE
  8
型材断面
  6
DASHDOT
 10
130.329942
 20
40.867282
 11
-94.056938
 21
40.867282
  0
LINE
  8
型材断面
  6
DASHDOT
 10
130.329942
 20
50.867282
 11
-94.056938
 21
50.867282
  0
LINE
  8
型材断面
  6
CONTINUOUS
 10
-23.65691
 20
-72.691245
 11
-60.723605
 21
-72.691245
  0
LINE
  8
型材断面
  6
CONTINUOUS
 10
-25.85691
 20
-72.524578
 11
-60.723605
 21
-72.524578
  0
LINE
  8
型材断面
  6
CONTINUOUS
 10
-23.65691
 20
-73.191245
 11
-60.723605
 21
-73.191245
  0
LINE
  8
型材断面
  6
CONTINUOUS
 10
-24.1569
 20
-73.52458
 11
-60.723605
 21
-73.52458
  0
LINE
  8
型材断面
  6
CONTINUOUS
 62
    47
 10
-24.390243
 20
-70.257805
 11
-60.723605
 21
-70.257805
  0
LINE
  8
型材断面
  6
CONTINUOUS
 10
-24.390243
 20
-69.957817
 11
-60.723605
 21
-69.957817
  0
LINE
  8
型材断面
  6
CONTINUOUS
 62
    47
 10
-24.390243
 20
-70.39112
 11
-60.723605
 21
-70.39112
  0
LINE
  8
型材断面
  6
CONTINUOUS
 62
    47
 10
-24.390243
 20
-70.124463
 11
-60.723605
 21
-70.124463
  0
LINE
  8
型材断面
  6
CONTINUOUS
 10
-25.656728
 20
-69.89116
 11
-60.723605
 21
-69.89116
  0
LINE
  8
型材断面
  6
CONTINUOUS
 62
    47
 10
-25.35027
 20
-67.741128
 11
-60.723605
 21
-67.741128
  0
LINE
  8
型材断面
  6
CONTINUOUS
 62
    47
 10
-25.193538
 20
-66.241128
 11
-60.723605
 21
-66.241128
  0
LINE
  8
型材断面
  6
CONTINUOUS
 62
    47
 10
-25.293538
 20
-66.07446
 11
-60.723605
 21
-66.07446
  0
LINE
  8
型材断面
  6
CONTINUOUS
 10
-25.42924
 20
28.67055
 11
-60.723605
 21
28.67055
  0
LINE
  8
型材断面
  6
CONTINUOUS
 10
-23.65691
 20
27.133922
 11
-60.723605
 21
27.133922
  0
LINE
  8
型材断面
  6
CONTINUOUS
 10
-24.390243
 20
27.867255
 11
-60.723605
 21
27.867255
  0
LINE
  8
型材断面
  6
CONTINUOUS
 62
    47
 10
-95.103633
 20
-70.124463
 11
-95.823845
 21
-70.124463
  0
LINE
  8
型材断面
  6
CONTINUOUS
 62
    47
 10
-95.780483
 20
-68.831142
 11
-95.790482
 21
-68.821143
  0
LINE
  8
型材断面
  6
CONTINUOUS
 62
    47
 10
-95.780483
 20
-68.831142
 11
-95.790482
 21
-68.841143
  0
LINE
  8
型材断面
  6
CONTINUOUS
 62
    47
 10
-95.780483
 20
-69.473375
 11
-95.790482
 21
-69.463375
  0
LINE
  8
型材断面
  6
CONTINUOUS
 62
    47
 10
-95.780483
 20
-69.473375
 11
-95.790482
 21
-69.483375
  0
LINE
  8
型材断面
  6
CONTINUOUS
 62
    47
 10
-95.790482
 20
-69.89116
 11
-95.790482
 21
-69.483375
  0
LINE
  8
型材断面
  6
CONTINUOUS
 62
    47
 10
-95.790482
 20
-69.463375
 11
-95.790482
 21
-68.841143
  0
LINE
  8
型材断面
  6
CONTINUOUS
 62
    47
 10
-97.29031
 20
-73.52458
 11
-97.29031
 21
-73.191245
  0
LINE
  8
型材断面
  6
CONTINUOUS
 62
    47
 10
-95.357147
 20
-72.524578
 11
-94.7603
 21
-72.524578
  0
LINE
  8
型材断面
  6
CONTINUOUS
 62
    47
 10
-95.5903
 20
-72.524565
 11
-97.7903
 21
-72.691245
  0
LINE
  8
型材断面
  6
CONTINUOUS
 62
    47
 10
-97.7903
 20
-73.191245
 11
-97.7903
 21
-72.691245
  0
LINE
  8
型材断面
  6
CONTINUOUS
 62
    47
 10
-97.056967
 20
-70.39112
 11
-97.056967
 21
-70.257805
  0
LINE
  8
型材断面
  6
CONTINUOUS
 62
    47
 10
-95.5903
 20
-70.39112
 11
-95.5903
 21
-72.524578
  0
LINE
  8
型材断面
  6
CONTINUOUS
 62
    47
 10
-96.09715
 20
-67.04113
 11
-96.09715
 21
-66.241128
  0
ARC
  8
型材断面
  6
CONTINUOUS
 10
-96.153673
 20
-66.174459
 40
0.1
 50
90.0
 51
180.0
  0
LINE
  8
型材断面
  6
CONTINUOUS
 62
    47
 10
-96.253672
 20
-66.17446
 11
-96.253672
 21
-66.241128
  0
LINE
  8
型材断面
  6
CONTINUOUS
 62
    47
 10
-96.09694
 20
-66.35125
 11
-96.09694
 21
-67.741128
  0
LINE
  8
型材断面
  6
CONTINUOUS
 62
    47
 10
-95.790482
 20
-68.821143
 11
-95.790482
 21
-67.741128
  0
LINE
  8
型材断面
  6
CONTINUOUS
 62
    47
 10
-97.056967
 20
-70.124463
 11
-97.056967
 21
-69.957467
  0
LINE
  8
型材断面
  6
CONTINUOUS
 62
    47
 10
-95.790482
 20
-69.89116
 11
-97.056967
 21
-69.957467
  0
LINE
  8
型材断面
  6
CONTINUOUS
 10
-97.7903
 20
-72.691245
 11
-60.723605
 21
-72.691245
  0
LINE
  8
型材断面
  6
CONTINUOUS
 10
-95.5903
 20
-72.524578
 11
-60.723605
 21
-72.524578
  0
LINE
  8
型材断面
  6
CONTINUOUS
 10
-97.7903
 20
-73.191245
 11
-60.723605
 21
-73.191245
  0
LINE
  8
型材断面
  6
CONTINUOUS
 10
-97.29031
 20
-73.52458
 11
-60.723605
 21
-73.52458
  0
LINE
  8
型材断面
  6
CONTINUOUS
 62
    47
 10
-97.056967
 20
-70.257805
 11
-60.723605
 21
-70.257805
  0
LINE
  8
型材断面
  6
CONTINUOUS
 10
-97.056967
 20
-69.957817
 11
-60.723605
 21
-69.957817
  0
LINE
  8
型材断面
  6
CONTINUOUS
 62
    47
 10
-97.056967
 20
-70.39112
 11
-60.723605
 21
-70.39112
  0
LINE
  8
型材断面
  6
CONTINUOUS
 62
    47
 10
-97.056967
 20
-70.124463
 11
-60.723605
 21
-70.124463
  0
LINE
  8
型材断面
  6
CONTINUOUS
 10
-95.790482
 20
-69.89116
 11
-60.723605
 21
-69.89116
  0
LINE
  8
型材断面
  6
CONTINUOUS
 62
    47
 10
-96.09694
 20
-67.741128
 11
-60.723605
 21
-67.741128
  0
LINE
  8
型材断面
  6
CONTINUOUS
 62
    47
 10
-96.253672
 20
-66.241128
 11
-60.723605
 21
-66.241128
  0
LINE
  8
型材断面
  6
CONTINUOUS
 62
    47
 10
-96.153672
 20
-66.07446
 11
-60.723605
 21
-66.07446
  0
LINE
  8
型材断面
  6
CONTINUOUS
 10
-24.390243
 20
53.867312
 11
-60.723605
 21
53.867312
  0
LINE
  8
型材断面
  6
CONTINUOUS
 10
-23.65691
 20
54.600645
 11
-60.723605
 21
54.600645
  0
LINE
  8
型材断面
  6
CONTINUOUS
 10
-25.42924
 20
53.064018
 11
-60.723605
 21
53.064018
  0
LINE
  8
型材断面
  6
CONTINUOUS
 10
-97.7903
 20
27.133922
 11
-97.7903
 21
40.867282
  0
LINE
  8
型材断面
  6
CONTINUOUS
 10
-97.056967
 20
27.867255
 11
-97.056967
 21
40.867282
  0
LINE
  8
型材断面
  6
CONTINUOUS
 10
-97.7903
 20
54.600645
 11
-97.7903
 21
40.867282
  0
LINE
  8
型材断面
  6
CONTINUOUS
 10
-97.056967
 20
53.867312
 11
-97.056967
 21
40.867282
  0
LINE
  8
型材断面
  6
CONTINUOUS
 10
-96.01797
 20
28.67055
 11
-96.253672
 21
28.906252
  0
LINE
  8
型材断面
  6
CONTINUOUS
 10
-93.517757
 20
31.170762
 11
-93.75346
 21
31.406465
  0
LINE
  8
型材断面
  6
CONTINUOUS
 10
-93.75346
 20
31.406465
 11
-96.253672
 21
28.906252
  0
LINE
  8
型材断面
  6
CONTINUOUS
 10
-93.517757
 20
31.170762
 11
-96.01797
 21
28.67055
  0
LINE
  8
型材断面
  6
CONTINUOUS
 10
-97.7903
 20
27.133922
 11
-96.13582
 21
28.788402
  0
LINE
  8
型材断面
  6
CONTINUOUS
 10
-96.01797
 20
53.064018
 11
-96.253672
 21
52.828312
  0
LINE
  8
型材断面
  6
CONTINUOUS
 10
-93.517757
 20
50.563805
 11
-93.75346
 21
50.328103
  0
LINE
  8
型材断面
  6
CONTINUOUS
 10
-93.75346
 20
50.328103
 11
-96.253672
 21
52.828312
  0
LINE
  8
型材断面
  6
CONTINUOUS
 10
-93.517757
 20
50.563805
 11
-96.01797
 21
53.064018
  0
LINE
  8
型材断面
  6
CONTINUOUS
 10
-97.7903
 20
54.600645
 11
-96.13582
 21
52.946165
  0
LINE
  8
型材断面
  6
CONTINUOUS
 10
-96.253672
 20
28.906252
 11
-96.253672
 21
52.828312
  0
LINE
  8
型材断面
  6
CONTINUOUS
 10
-93.75346
 20
41.28395
 11
-96.253672
 21
41.28395
  0
LINE
  8
型材断面
  6
CONTINUOUS
 10
-93.75346
 20
40.450618
 11
-96.253672
 21
40.450618
  0
LINE
  8
型材断面
  6
CONTINUOUS
 10
-93.75346
 20
31.406465
 11
-93.75346
 21
40.450618
  0
LINE
  8
型材断面
  6
CONTINUOUS
 10
-93.75346
 20
41.28395
 11
-93.75346
 21
50.328103
  0
LINE
  8
型材断面
  6
CONTINUOUS
 10
-96.01797
 20
28.67055
 11
-60.723605
 21
28.67055
  0
LINE
  8
型材断面
  6
CONTINUOUS
 10
-97.7903
 20
27.133922
 11
-60.723605
 21
27.133922
  0
LINE
  8
型材断面
  6
CONTINUOUS
 10
-97.056967
 20
27.867255
 11
-60.723605
 21
27.867255
  0
LINE
  8
型材断面
  6
CONTINUOUS
 10
-97.056967
 20
53.867312
 11
-60.723605
 21
53.867312
  0
LINE
  8
型材断面
  6
CONTINUOUS
 10
-97.7903
 20
54.600645
 11
-60.723605
 21
54.600645
  0
LINE
  8
型材断面
  6
CONTINUOUS
 10
-96.01797
 20
53.064018
 11
-60.723605
 21
53.064018
  0
LINE
  8
型材断面
  6
DASHDOT
 10
-60.723605
 20
50.867282
 11
-60.723605
 21
-77.528333
  0
LINE
  8
型材断面
  6
DASHDOT
 10
-94.056938
 20
50.867282
 11
-94.056938
 21
-77.528333
  0
LINE
  8
型材断面
  6
DASHDOT
 10
-27.39027
 20
-77.528333
 11
-27.39027
 21
50.867282
  0
LINE
  8
型材断面
  6
CONTINUOUS
 10
-77.390272
 20
53.497413
 11
-78.885902
 21
56.08792
  0
LINE
  8
型材断面
  6
CONTINUOUS
 10
-77.390272
 20
53.497413
 11
-75.894643
 21
56.08792
  0
LINE
  8
型材断面
  6
CONTINUOUS
 10
-75.894643
 20
56.08792
 11
-78.885902
 21
56.08792
  0
LINE
  8
型材断面
  6
CONTINUOUS
 10
-134.909148
 20
88.844755
 11
-134.313093
 21
86.254248
  0
LINE
  8
型材断面
  6
CONTINUOUS
 10
-134.909148
 20
88.844755
 11
-135.505205
 21
86.254248
  0
LINE
  8
型材断面
  6
CONTINUOUS
 10
-135.505205
 20
86.254248
 11
-134.313093
 21
86.254248
  0
LINE
  8
型材断面
  6
CONTINUOUS
 10
-140.931735
 20
82.975355
 11
-94.689958
 21
82.975355
  0
LINE
  8
型材断面
  6
CONTINUOUS
 10
-134.909148
 20
95.37463
 11
-136.404777
 21
92.784123
  0
LINE
  8
型材断面
  6
CONTINUOUS
 10
-134.909148
 20
95.37463
 11
-133.413518
 21
92.784123
  0
LINE
  8
型材断面
  6
CONTINUOUS
 10
-133.413518
 20
92.784123
 11
-136.404777
 21
92.784123
  0
LINE
  8
型材断面
  6
CONTINUOUS
 10
-140.931735
 20
91.845528
 11
-94.689958
 21
91.845528
  0
LINE
  8
型材断面
  6
CONTINUOUS
 10
-140.931735
 20
77.187322
 11
-94.689958
 21
77.187322
  0
LINE
  8
型材断面
  6
CONTINUOUS
 10
-96.68707
 20
40.867282
 11
-99.277578
 21
42.362912
  0
LINE
  8
型材断面
  6
CONTINUOUS
 10
-96.68707
 20
40.867282
 11
-99.277578
 21
39.371652
  0
LINE
  8
型材断面
  6
CONTINUOUS
 10
-99.277578
 20
39.371652
 11
-99.277578
 21
42.362912
  0
LINE
  8
型材断面
  6
CONTINUOUS
 10
-77.390272
 20
28.237153
 11
-78.885902
 21
25.646645
  0
LINE
  8
型材断面
  6
CONTINUOUS
 10
-77.390272
 20
28.237153
 11
-75.894643
 21
25.646645
  0
LINE
  8
型材断面
  6
CONTINUOUS
 10
-75.894643
 20
25.646645
 11
-78.885902
 21
25.646645
  0
LINE
  8
型材断面
  6
CONTINUOUS
 10
-44.056938
 20
53.497413
 11
-42.561308
 21
56.08792
  0
LINE
  8
型材断面
  6
CONTINUOUS
 10
-44.056938
 20
53.497413
 11
-45.552567
 21
56.08792
  0
LINE
  8
型材断面
  6
CONTINUOUS
 10
-45.552567
 20
56.08792
 11
-42.561308
 21
56.08792
  0
LINE
  8
型材断面
  6
CONTINUOUS
 10
-24.76014
 20
40.867282
 11
-22.169632
 21
42.362912
  0
LINE
  8
型材断面
  6
CONTINUOUS
 10
-24.76014
 20
40.867282
 11
-22.169632
 21
39.371652
  0
LINE
  8
型材断面
  6
CONTINUOUS
 10
-22.169632
 20
39.371652
 11
-22.169632
 21
42.362912
  0
LINE
  8
型材断面
  6
CONTINUOUS
 10
-44.056938
 20
28.237153
 11
-42.561308
 21
25.646645
  0
LINE
  8
型材断面
  6
CONTINUOUS
 10
-44.056938
 20
28.237153
 11
-45.552567
 21
25.646645
  0
LINE
  8
型材断面
  6
CONTINUOUS
 10
-45.552567
 20
25.646645
 11
-42.561308
 21
25.646645
  0
POLYLINE
  8
型材断面
  6
DASHDOT
 66
     1
  0
VERTEX
  8
型材断面
 10
-94.05694
 20
30.867282
  0
VERTEX
  8
型材断面
 10
-60.723605
 20
50.867282
  0
VERTEX
  8
型材断面
 10
-27.390272
 20
30.867282
  0
SEQEND
  0
LINE
  8
型材断面
  6
CONTINUOUS
 10
-29.390272
 20
28.26047
 11
-29.98633
 21
25.669965
  0
LINE
  8
型材断面
  6
CONTINUOUS
 10
-29.390272
 20
28.26047
 11
-28.794215
 21
25.669965
  0
LINE
  8
型材断面
  6
CONTINUOUS
 10
-28.794215
 20
25.669965
 11
-29.98633
 21
25.669965
  0
LINE
  8
型材断面
  6
CONTINUOUS
 10
-92.056938
 20
28.26047
 11
-91.46088
 21
25.669965
  0
LINE
  8
型材断面
  6
CONTINUOUS
 10
-92.056938
 20
28.26047
 11
-92.652995
 21
25.669965
  0
LINE
  8
型材断面
  6
CONTINUOUS
 10
-92.652995
 20
25.669965
 11
-91.46088
 21
25.669965
  0
LINE
  8
型材断面
  6
CONTINUOUS
 10
-77.80694
 20
53.064018
 11
-77.80694
 21
50.563805
  0
LINE
  8
型材断面
  6
CONTINUOUS
 10
-76.973605
 20
53.064018
 11
-76.973605
 21
50.563805
  0
LINE
  8
型材断面
  6
CONTINUOUS
 10
-44.473605
 20
53.064018
 11
-44.473605
 21
50.563805
  0
LINE
  8
型材断面
  6
CONTINUOUS
 10
-43.64027
 20
53.064018
 11
-43.64027
 21
50.563805
  0
LINE
  8
型材断面
  6
CONTINUOUS
 10
-43.64027
 20
28.67055
 11
-43.64027
 21
31.170762
  0
LINE
  8
型材断面
  6
CONTINUOUS
 10
-44.473605
 20
28.67055
 11
-44.473605
 21
31.170762
  0
LINE
  8
型材断面
  6
CONTINUOUS
 10
-77.80694
 20
28.67055
 11
-77.80694
 21
31.170762
  0
LINE
  8
型材断面
  6
CONTINUOUS
 10
-76.973605
 20
28.67055
 11
-76.973605
 21
31.170762
  0
LINE
  8
型材断面
  6
CONTINUOUS
 10
-61.973605
 20
32.004095
 11
-59.473605
 21
32.004095
  0
LINE
  8
型材断面
  6
CONTINUOUS
 10
-61.973605
 20
49.73047
 11
-59.473605
 21
49.73047
  0
LINE
  8
型材断面
  6
CONTINUOUS
 10
-59.473605
 20
32.004095
 11
-59.473605
 21
49.73047
  0
LINE
  8
型材断面
  6
CONTINUOUS
 10
-61.973605
 20
32.004095
 11
-61.973605
 21
49.73047
  0
LINE
  8
型材断面
  6
CONTINUOUS
 10
-27.929453
 20
31.170762
 11
-43.64027
 21
31.170762
  0
LINE
  8
型材断面
  6
CONTINUOUS
 10
-44.473605
 20
31.170762
 11
-60.723605
 21
31.170762
  0
LINE
  8
型材断面
  6
CONTINUOUS
 10
-27.929453
 20
50.563805
 11
-43.64027
 21
50.563805
  0
LINE
  8
型材断面
  6
CONTINUOUS
 10
-44.473605
 20
50.563805
 11
-60.723605
 21
50.563805
  0
LINE
  8
型材断面
  6
CONTINUOUS
 10
-93.517757
 20
50.563805
 11
-77.80694
 21
50.563805
  0
LINE
  8
型材断面
  6
CONTINUOUS
 10
-76.973605
 20
50.563805
 11
-60.723605
 21
50.563805
  0
LINE
  8
型材断面
  6
CONTINUOUS
 10
-93.517757
 20
31.170762
 11
-77.80694
 21
31.170762
  0
LINE
  8
型材断面
  6
CONTINUOUS
 10
-76.973605
 20
31.170762
 11
-60.723605
 21
31.170762
  0
INSERT
  2
*GRP_0002
  8
ガラス
  6
CONTINUOUS
 10
0.0
 20
0.0
  0
LINE
  8
ガラス
  6
CONTINUOUS
 10
-42.773982
 20
42.279135
 11
-45.404947
 21
39.648172
  0
LINE
  8
ガラス
  6
CONTINUOUS
 10
-43.430158
 20
40.304345
 11
-44.748772
 21
41.622968
  0
LINE
  8
ガラス
  6
CONTINUOUS
 10
-44.283202
 20
40.334795
 11
-43.266685
 21
41.351312
  0
LINE
  8
ガラス
  6
CONTINUOUS
 10
-43.89573
 20
41.592515
 11
-44.912242
 21
40.576
  0
LINE
  8
ガラス
  6
CONTINUOUS
 10
-76.616262
 20
42.279135
 11
-79.247228
 21
39.648172
  0
LINE
  8
ガラス
  6
CONTINUOUS
 10
-77.272437
 20
40.304345
 11
-78.591053
 21
41.622968
  0
LINE
  8
ガラス
  6
CONTINUOUS
 10
-78.125483
 20
40.334795
 11
-77.108965
 21
41.351312
  0
LINE
  8
ガラス
  6
CONTINUOUS
 10
-77.73801
 20
41.592515
 11
-78.754522
 21
40.576
  0
POLYLINE
  8
ガラス
  6
CONTINUOUS
 66
     1
 70
     1
  0
VERTEX
  8
ガラス
 10
118.805643
 20
-53.455918
  0
VERTEX
  8
ガラス
 10
85.928975
 20
-53.455918
  0
VERTEX
  8
ガラス
 10
85.928975
 20
-73.622585
  0
VERTEX
  8
ガラス
 10
118.805643
 20
-73.622585
  0
SEQEND
  0
TEXT
  7
TextStyle03
  8
文字
  6
CONTINUOUS
 10
64.95
 20
116.5
  1
シリーズ：ＴＦＦＨＬ
 40
5.0
 72
     5
 11
120.575
 21
116.5
  0
TEXT
  7
TextStyle03
  8
文字
  6
CONTINUOUS
 10
64.95
 20
110.875
  1
　　　　　（片側開閉）600×2000タイプ
 40
5.0
 72
     5
 11
168.3875
 21
110.875
  0
TEXT
  7
TextStyle03
  8
文字
  6
CONTINUOUS
 10
64.95
 20
105.25
  1
図面名　：外観姿図
 40
5.0
 72
     5
 11
114.95
 21
105.25
  0
TEXT
  7
TextStyle03
  8
文字
  6
CONTINUOUS
 10
64.95
 20
99.625
  1
　　　　　　
 40
5.0
 72
     5
 11
98.075
 21
99.625
  0
TEXT
  7
TextStyle03
  8
文字
  6
CONTINUOUS
 10
114.175
 20
21.4
  1
45°
 40
3.0
 50
90.0
 72
     5
 11
114.175
 21
27.775
  0
TEXT
  7
TextStyle03
  8
文字
  6
CONTINUOUS
 10
-132.125
 20
93.0
  1
は排水穴位置を示す
 40
3.0
 72
     5
 11
-102.125
 21
93.0
  0
TEXT
  7
TextStyle03
  8
文字
  6
CONTINUOUS
 10
-132.125
 20
87.475
  1
はケーシング位置を示す
 40
3.0
 72
     5
 11
-95.375
 21
87.475
  0
TEXT
  7
TextStyle03
  8
文字
  6
CONTINUOUS
 10
-132.125
 20
84.1
  1
２ヶ所中1ヶ所に設定
 40
3.0
 72
     5
 11
-100.4375
 21
84.1
  0
TEXT
  7
TextStyle03
  8
文字
  6
CONTINUOUS
 10
-115.125
 20
19.325
  1
アンカーピッチ
 40
3.0
 50
90.0
 72
     5
 11
-115.125
 21
42.575
  0
TEXT
  7
TextStyle03
  8
文字
  6
CONTINUOUS
 10
-86.6
 20
87.725
  1
アンカーピッチ
 40
3.0
 72
     5
 11
-63.35
 21
87.725
  0
TEXT
  7
TextStyle03
  8
文字
  6
CONTINUOUS
 10
-135.85
 20
78.125
  1
アンカー数量　１０ヶ所
 40
3.0
 72
     5
 11
-99.1
 21
78.125
  0
TEXT
  7
TextStyle03
  8
文字
  6
CONTINUOUS
 10
100.075
 20
-66.525
  1
網入り6.8t
 40
3.0
 72
     5
 11
116.7625
 21
-66.525
  0
TEXT
  7
TextStyle03
  8
文字
  6
CONTINUOUS
 10
106.7
 20
-71.775
  1
×２枚
 40
3.0
 72
     5
 11
116.45
 21
-71.775
  0
INSERT
  2
*DIM_0003
  8
寸法
  6
CONTINUOUS
 10
0.0
 20
0.0
  0
INSERT
  2
*DIM_0004
  8
寸法
  6
CONTINUOUS
 10
0.0
 20
0.0
  0
INSERT
  2
*DIM_0005
  8
寸法
  6
CONTINUOUS
 10
0.0
 20
0.0
  0
INSERT
  2
*DIM_0006
  8
寸法
  6
CONTINUOUS
 10
0.0
 20
0.0
  0
INSERT
  2
*DIM_0008
  8
寸法
  6
CONTINUOUS
 10
0.0
 20
0.0
  0
INSERT
  2
*DIM_0009
  8
寸法
  6
CONTINUOUS
 10
0.0
 20
0.0
  0
INSERT
  2
*DIM_0010
  8
寸法
  6
CONTINUOUS
 10
0.0
 20
0.0
  0
INSERT
  2
*DIM_0011
  8
寸法
  6
CONTINUOUS
 10
0.0
 20
0.0
  0
INSERT
  2
*DIM_0012
  8
寸法
  6
CONTINUOUS
 10
0.0
 20
0.0
  0
INSERT
  2
*DIM_0013
  8
寸法
  6
CONTINUOUS
 10
0.0
 20
0.0
  0
INSERT
  2
*DIM_0014
  8
寸法
  6
CONTINUOUS
 10
0.0
 20
0.0
  0
INSERT
  2
*DIM_0015
  8
寸法
  6
CONTINUOUS
 10
0.0
 20
0.0
  0
INSERT
  2
*DIM_0016
  8
寸法
  6
CONTINUOUS
 10
0.0
 20
0.0
  0
INSERT
  2
*DIM_0017
  8
寸法
  6
CONTINUOUS
 10
0.0
 20
0.0
  0
INSERT
  2
*DIM_0018
  8
寸法
  6
CONTINUOUS
 10
0.0
 20
0.0
  0
INSERT
  2
*DIM_0019
  8
寸法
  6
CONTINUOUS
 10
0.0
 20
0.0
  0
INSERT
  2
*GRP_0007
  8
別途部材
  6
CONTINUOUS
 10
0.0
 20
0.0
  0
ENDSEC
  0
EOF
