  0
SECTION
  2
HEADER
  9
$EXTMIN
 10
-210.0
 20
-148.5
  9
$EXTMAX
 10
210.0
 20
148.5
  9
$PDMODE
 70
    32
  9
$PDSIZE
 40
1.5
  9
$LTSCALE
 40
10.0
  0
ENDSEC
  0
SECTION
  2
TABLES
  0
TABLE
  2
LTYPE
 70
    15
  0
LTYPE
  2
CONTINUOUS
 70
    64
  3
実線
 72
    65
 73
     0
 40
0.0
  0
LTYPE
  2
DASHED
 70
    64
  3
破線A
 72
    65
 73
     2
 40
0.6
 49
0.4
 49
-0.2
  0
LTYPE
  2
DASHEDX2
 70
    64
  3
破線B
 72
    65
 73
     2
 40
1.3
 49
0.9
 49
-0.4
  0
LTYPE
  2
DASHDOT
 70
    64
  3
１点鎖線A
 72
    65
 73
     4
 40
0.5375
 49
0.375
 49
-0.05
 49
0.0625
 49
-0.05
  0
LTYPE
  2
DASHDOTX2
 70
    64
  3
１点鎖線B
 72
    65
 73
     4
 40
1.075
 49
0.75
 49
-0.1
 49
0.125
 49
-0.1
  0
LTYPE
  2
DIVIDE2
 70
    64
  3
２点鎖線A
 72
    65
 73
     6
 40
0.5125
 49
0.3
 49
-0.0375
 49
0.05
 49
-0.0375
 49
0.05
 49
-0.0375
  0
LTYPE
  2
DIVIDE
 70
    64
  3
２点鎖線B
 72
    65
 73
     6
 40
1.05
 49
0.55
 49
-0.1
 49
0.1
 49
-0.1
 49
0.1
 49
-0.1
  0
LTYPE
  2
DOT
 70
    64
  3
点線A
 72
    65
 73
     2
 40
0.1125
 49
0.0625
 49
-0.05
  0
LTYPE
  2
DOTX2
 70
    64
  3
点線B
 72
    65
 73
     2
 40
0.275
 49
0.15
 49
-0.125
  0
LTYPE
  2
CONTINUOUS
 70
    64
  3
実線
 72
    65
 73
     0
 40
0.0
  0
LTYPE
  2
CONTINUOUS
 70
    64
  3
実線
 72
    65
 73
     0
 40
0.0
  0
LTYPE
  2
CONTINUOUS
 70
    64
  3
実線
 72
    65
 73
     0
 40
0.0
  0
LTYPE
  2
CONTINUOUS
 70
    64
  3
実線
 72
    65
 73
     0
 40
0.0
  0
LTYPE
  2
CONTINUOUS
 70
    64
  3
実線
 72
    65
 73
     0
 40
0.0
  0
LTYPE
  2
CONTINUOUS
 70
    64
  3
実線
 72
    65
 73
     0
 40
0.0
  0
ENDTAB
  0
TABLE
  2
LAYER
 70
    34
  0
LAYER
  2
通り芯
 70
     0
 62
    15
  6
CONTINUOUS
  0
LAYER
  2
補助線
 70
     0
 62
    16
  6
DOT
  0
LAYER
  2
躯体
 70
     0
 62
    31
  6
CONTINUOUS
  0
LAYER
  2
型材
 70
     0
 62
    32
  6
CONTINUOUS
  0
LAYER
  2
型材断面
 70
     0
 62
    47
  6
CONTINUOUS
  0
LAYER
  2
ガラス
 70
     0
 62
    48
  6
CONTINUOUS
  0
LAYER
  2
ゴム等
 70
     0
 62
    63
  6
CONTINUOUS
  0
LAYER
  2
ボルト／ビス
 70
     0
 62
    64
  6
CONTINUOUS
  0
LAYER
  2
文字
 70
     0
 62
    79
  6
CONTINUOUS
  0
LAYER
  2
寸法
 70
     0
 62
    80
  6
CONTINUOUS
  0
LAYER
  2
ﾊｯﾁﾝｸﾞ
 70
     0
 62
    95
  6
CONTINUOUS
  0
LAYER
  2
別途部材
 70
     0
 62
    96
  6
CONTINUOUS
  0
LAYER
  2
曲げ物
 70
     0
 62
   111
  6
CONTINUOUS
  0
LAYER
  2
鉄骨等
 70
     0
 62
   112
  6
CONTINUOUS
  0
LAYER
  2
St
 70
     0
 62
   127
  6
CONTINUOUS
  0
LAYER
  2
その他部品等
 70
     0
 62
   128
  6
CONTINUOUS
  0
LAYER
  2
ｶﾞｽｹｯﾄ
 70
     0
 62
   143
  6
CONTINUOUS
  0
LAYER
  2
ｽｹｯﾁ
 70
     0
 62
    14
  6
CONTINUOUS
  0
LAYER
  2
0
 70
     0
 62
    17
  6
CONTINUOUS
  0
LAYER
  2
1
 70
     0
 62
    30
  6
CONTINUOUS
  0
LAYER
  2
4
 70
     0
 62
    33
  6
CONTINUOUS
  0
LAYER
  2
ﾚｲﾔ3
 70
     0
 62
    46
  6
CONTINUOUS
  0
LAYER
  2
外形線
 70
     0
 62
    49
  6
CONTINUOUS
  0
LAYER
  2
部品
 70
     0
 62
    14
  6
CONTINUOUS
  0
LAYER
  2
サッシ芯
 70
     0
 62
    17
  6
DASHDOTX2
  0
LAYER
  2
寸法線
 70
     0
 62
    62
  6
CONTINUOUS
  0
LAYER
  2
姿図外形線
 70
     0
 62
    65
  6
CONTINUOUS
  0
LAYER
  2
姿補助線
 70
     0
 62
    30
  6
CONTINUOUS
  0
LAYER
  2
透視線
 70
     0
 62
    78
  6
DOT
  0
LAYER
  2
用紙
 70
     0
 62
    81
  6
CONTINUOUS
  0
LAYER
  2
実線図枠
 70
     0
 62
    94
  6
CONTINUOUS
  0
LAYER
  2
補助図枠
 70
     0
 62
    97
  6
CONTINUOUS
  0
LAYER
  2
建具記号
 70
     0
 62
   110
  6
CONTINUOUS
  0
LAYER
  2
補助文字
 70
     0
 62
   113
  6
CONTINUOUS
  0
ENDTAB
  0
TABLE
  2
STYLE
 70
    10
  0
STYLE
  2
STANDARD
 70
     0
 40
1.0
 41
1.0
 42
1.0
 50
0.0
 71
     0
  3
TXT
  4
BIGFONT
  0
STYLE
  2
TATE
 70
     4
 40
1.0
 41
1.0
 42
1.0
 50
0.0
 71
     0
  3
TXT
  4
BIGFONT
  0
STYLE
  2
TextStyle03
 70
     0
 40
1.0
 41
1.0
 42
1.0
 50
0.0
 71
     0
  3
MONOTXT
  4
BIGFONT
  0
STYLE
  2
TextStyle04
 70
     0
 40
1.0
 41
1.0
 42
1.0
 50
0.0
 71
     0
  3
MONOTXT
  4
BIGFONT
  0
STYLE
  2
TextStyle05
 70
     0
 40
1.0
 41
1.0
 42
1.0
 50
0.0
 71
     0
  3
MONOTXT
  4
BIGFONT
  0
STYLE
  2
TextStyle06
 70
     0
 40
1.0
 41
1.0
 42
1.0
 50
0.0
 71
     0
  3
MONOTXT
  4
BIGFONT
  0
STYLE
  2
TextStyle07
 70
     0
 40
1.0
 41
1.0
 42
1.0
 50
0.0
 71
     0
  3
MONOTXT
  4
BIGFONT
  0
STYLE
  2
TextStyle08
 70
     0
 40
1.0
 41
1.0
 42
1.0
 50
0.0
 71
     0
  3
MONOTXT
  4
BIGFONT
  0
STYLE
  2
TextStyle09
 70
     0
 40
1.0
 41
1.0
 42
1.0
 50
0.0
 71
     0
  3
MONOTXT
  4
BIGFONT
  0
STYLE
  2
TextStyle10
 70
     0
 40
1.0
 41
1.0
 42
1.0
 50
0.0
 71
     0
  3
MONOTXT
  4
BIGFONT
  0
ENDTAB
  0
ENDSEC
  0
SECTION
  2
BLOCKS
  0
BLOCK
  2
*GRP_0001
 70
    65
 10
0.0
 20
0.0
  0
LINE
  8
型材断面
  6
CONTINUOUS
 10
195.0
 20
133.5
 11
195.0
 21
-133.5
  0
LINE
  8
型材断面
  6
CONTINUOUS
 10
195.0
 20
-133.5
 11
-185.0
 21
-133.5
  0
LINE
  8
型材断面
  6
CONTINUOUS
 10
-185.0
 20
-133.5
 11
-185.0
 21
133.5
  0
LINE
  8
型材断面
  6
CONTINUOUS
 10
195.0
 20
133.5
 11
-185.0
 21
133.5
  0
LINE
  8
型材断面
  6
CONTINUOUS
 10
145.0
 20
-133.5
 11
145.0
 21
-118.5
  0
LINE
  8
型材断面
  6
CONTINUOUS
 10
195.0
 20
-118.5
 11
145.0
 21
-118.5
  0
ENDBLK
  0
BLOCK
  2
*GRP_0002
 70
    65
 10
0.0
 20
0.0
  0
LINE
  8
型材断面
  6
DOT
 62
    47
 10
120.27588
 20
66.715642
 11
120.27588
 21
66.729782
  0
LINE
  8
型材断面
  6
DOT
 62
    47
 10
120.27588
 20
66.715642
 11
120.290022
 21
66.715642
  0
LINE
  8
型材断面
  6
DOT
 62
    47
 10
120.730007
 20
66.261515
 11
120.730007
 21
66.275657
  0
LINE
  8
型材断面
  6
DOT
 62
    47
 10
120.730007
 20
66.261515
 11
120.74415
 21
66.261515
  0
LINE
  8
型材断面
  6
DOT
 62
    47
 10
121.032495
 20
65.973168
 11
120.74415
 21
66.261515
  0
LINE
  8
型材断面
  6
DOT
 62
    47
 10
120.730007
 20
66.275657
 11
120.290022
 21
66.715642
  0
LINE
  8
型材断面
  6
DOT
 62
    47
 10
121.97517
 20
66.821573
 11
122.093008
 21
66.703737
  0
LINE
  8
型材断面
  6
DOT
 62
    47
 10
121.032495
 20
65.973168
 11
121.9799
 21
66.826303
  0
LINE
  8
型材断面
  6
DOT
 10
121.97517
 20
66.821573
 11
104.533185
 21
49.379585
  0
LINE
  8
型材断面
  6
DOT
 10
121.032495
 20
65.973168
 11
104.48605
 21
49.42672
  0
LINE
  8
型材断面
  6
DOT
 62
    47
 10
122.093008
 20
66.703737
 11
104.65102
 21
49.26175
  0
LINE
  8
型材断面
  6
DOT
 62
    47
 10
88.59025
 20
33.200978
 11
88.08098
 21
32.691712
  0
LINE
  8
型材断面
  6
DOT
 62
    47
 10
87.19713
 20
33.636888
 11
87.182985
 21
33.636888
  0
LINE
  8
型材断面
  6
DOT
 62
    47
 10
87.19713
 20
33.636888
 11
87.19713
 21
33.622747
  0
LINE
  8
型材断面
  6
DOT
 62
    47
 10
87.651255
 20
33.182762
 11
87.637112
 21
33.182762
  0
LINE
  8
型材断面
  6
DOT
 62
    47
 10
87.651255
 20
33.182762
 11
87.651255
 21
33.16862
  0
LINE
  8
型材断面
  6
DOT
 62
    47
 10
87.939603
 20
32.880272
 11
87.651255
 21
33.16862
  0
LINE
  8
型材断面
  6
DOT
 62
    47
 10
87.637112
 20
33.182762
 11
87.19713
 21
33.622747
  0
LINE
  8
型材断面
  6
DOT
 62
    47
 10
87.091198
 20
31.937598
 11
87.209032
 21
31.819763
  0
LINE
  8
型材断面
  6
DOT
 62
    47
 10
87.939603
 20
32.880272
 11
87.08647
 21
31.93287
  0
LINE
  8
型材断面
  6
DOT
 10
87.091198
 20
31.937598
 11
104.533185
 21
49.379585
  0
LINE
  8
型材断面
  6
DOT
 10
87.939603
 20
32.880272
 11
104.48605
 21
49.42672
  0
LINE
  8
型材断面
  6
DOT
 62
    47
 10
87.209032
 20
31.819763
 11
104.65102
 21
49.26175
  0
LINE
  8
型材断面
  6
DOT
 62
    47
 10
119.234067
 20
68.20529
 11
118.668383
 21
68.770977
  0
ARC
  8
型材断面
  6
DOT
 10
118.661207
 20
68.858084
 40
0.1
 50
45.0
 51
135.0
  0
LINE
  8
型材断面
  6
DOT
 62
    47
 10
118.73192
 20
68.928795
 11
118.77906
 21
68.881653
  0
LINE
  8
型材断面
  6
DOT
 62
    47
 10
118.7461
 20
68.692958
 11
119.728893
 21
67.710167
  0
LINE
  8
型材断面
  6
DOT
 62
    47
 10
118.77906
 20
68.881653
 11
101.905088
 21
52.007683
  0
LINE
  8
型材断面
  6
DOT
 62
    47
 10
118.590497
 20
68.928795
 11
101.787235
 21
52.125533
  0
LINE
  8
型材断面
  6
DOT
 62
    47
 10
119.728893
 20
67.710167
 11
102.965747
 21
50.947022
  0
LINE
  8
型材断面
  6
DOT
 62
    47
 10
85.70748
 20
34.678702
 11
85.141792
 21
35.244388
  0
ARC
  8
型材断面
  6
DOT
 10
85.054685
 20
35.251562
 40
0.1
 50
135.0
 51
225.0
  0
LINE
  8
型材断面
  6
DOT
 62
    47
 10
84.983975
 20
35.18085
 11
85.031115
 21
35.13371
  0
LINE
  8
型材断面
  6
DOT
 62
    47
 10
85.21981
 20
35.166668
 11
86.202602
 21
34.183878
  0
LINE
  8
型材断面
  6
DOT
 62
    47
 10
85.031115
 20
35.13371
 11
101.905088
 21
52.007683
  0
LINE
  8
型材断面
  6
DOT
 62
    47
 10
84.983975
 20
35.322272
 11
101.787235
 21
52.125533
  0
LINE
  8
型材断面
  6
DOT
 62
    47
 10
86.202602
 20
34.183878
 11
102.965747
 21
50.947022
  0
LINE
  8
型材断面
  6
DOT
 62
    47
 10
87.182985
 20
33.636888
 11
86.4193
 21
34.400575
  0
LINE
  8
型材断面
  6
DOT
 62
    47
 10
120.27588
 20
66.729782
 11
119.512195
 21
67.493468
  0
ENDBLK
  0
BLOCK
  2
*DIM_0003
 70
    65
 10
0.0
 20
0.0
  0
LINE
  8
寸法
  6
CONTINUOUS
 10
72.904165
 20
20.235388
 11
72.904165
 21
63.56872
  0
POINT
  8
寸法
 10
72.904165
 20
20.235388
  0
POINT
  8
寸法
 10
72.904165
 20
63.56872
  0
TEXT
  7
TextStyle03
  8
寸法
  6
CONTINUOUS
 10
72.525
 20
30.18125
  1
呼称寸法　1300
 40
3.0
 50
90.0
 72
     5
 11
72.525
 21
53.61875
  0
ENDBLK
  0
BLOCK
  2
*DIM_0004
 70
    65
 10
0.0
 20
0.0
  0
LINE
  8
寸法
  6
CONTINUOUS
 10
119.885695
 20
16.502028
 11
72.904165
 21
16.502028
  0
LINE
  8
寸法
  6
CONTINUOUS
 10
72.904165
 20
20.235388
 11
72.904165
 21
16.502028
  0
POINT
  8
寸法
 10
72.904165
 20
20.235388
  0
POINT
  8
寸法
 10
72.904165
 20
16.502028
  0
TEXT
  7
TextStyle03
  8
寸法
  6
CONTINUOUS
 10
72.525
 20
15.9375
  1
112
 40
3.0
 50
90.0
 72
     5
 11
72.525
 21
20.8125
  0
ENDBLK
  0
BLOCK
  2
*DIM_0005
 70
    65
 10
0.0
 20
0.0
  0
LINE
  8
寸法
  6
CONTINUOUS
 10
119.885695
 20
67.302082
 11
72.904165
 21
67.302082
  0
LINE
  8
寸法
  6
CONTINUOUS
 10
72.904165
 20
63.56872
 11
72.904165
 21
67.302082
  0
POINT
  8
寸法
 10
72.904165
 20
63.56872
  0
POINT
  8
寸法
 10
72.904165
 20
67.302082
  0
TEXT
  7
TextStyle03
  8
寸法
  6
CONTINUOUS
 10
72.525
 20
62.9875
  1
112
 40
3.0
 50
90.0
 72
     5
 11
72.525
 21
67.8625
  0
ENDBLK
  0
BLOCK
  2
*GRP_0006
 70
    65
 10
0.0
 20
0.0
  0
LINE
  8
別途部材
  6
CONTINUOUS
 62
    96
 10
124.168902
 20
65.202268
 11
124.168902
 21
65.102268
  0
LINE
  8
別途部材
  6
CONTINUOUS
 62
    96
 10
122.067822
 20
65.302268
 11
122.137495
 21
66.633072
  0
LINE
  8
別途部材
  6
CONTINUOUS
 62
    96
 10
122.68557
 20
66.642267
 11
122.568902
 21
66.908933
  0
LINE
  8
別途部材
  6
CONTINUOUS
 62
    96
 10
122.58557
 20
66.62135
 11
122.51805
 21
66.775683
  0
LINE
  8
別途部材
  6
CONTINUOUS
 62
    96
 10
122.038725
 20
66.659188
 11
122.169175
 21
66.91939
  0
LINE
  8
別途部材
  6
CONTINUOUS
 62
    96
 10
122.137495
 20
66.633072
 11
122.269655
 21
66.896682
  0
LINE
  8
別途部材
  6
CONTINUOUS
 62
    96
 10
122.305257
 20
66.831803
 11
122.24161
 21
66.754673
  0
LINE
  8
別途部材
  6
DASHDOTX2
 62
    96
 10
122.368902
 20
66.908933
 11
122.055417
 21
66.908933
  0
LINE
  8
別途部材
  6
DASHDOTX2
 62
    96
 10
122.368902
 20
66.908933
 11
122.699362
 21
66.908933
  0
LINE
  8
別途部材
  6
DASHDOTX2
 62
    96
 10
122.368902
 20
66.908933
 11
122.368902
 21
66.645463
  0
LINE
  8
別途部材
  6
DASHDOTX2
 62
    96
 10
122.368902
 20
66.908933
 11
122.368902
 21
67.187242
  0
LINE
  8
別途部材
  6
CONTINUOUS
 62
    96
 10
122.58557
 20
65.102268
 11
122.58557
 21
66.62135
  0
LINE
  8
別途部材
  6
CONTINUOUS
 62
    96
 10
122.68557
 20
65.202268
 11
122.68557
 21
66.642267
  0
LINE
  8
別途部材
  6
CONTINUOUS
 62
    96
 10
120.83449
 20
65.402268
 11
121.97292
 21
65.402268
  0
LINE
  8
別途部材
  6
CONTINUOUS
 62
    96
 10
120.83449
 20
65.302268
 11
120.83449
 21
65.402268
  0
LINE
  8
別途部材
  6
CONTINUOUS
 62
    96
 10
120.83449
 20
65.302268
 11
122.067822
 21
65.302268
  0
CIRCLE
  8
別途部材
  6
CONTINUOUS
 62
    96
 10
122.368902
 20
66.908933
 40
0.1
  0
ARC
  8
別途部材
  6
CONTINUOUS
 62
    96
 10
122.3689
 20
66.908935
 40
0.2
 50
218.780606
 51
537.001556
  0
LINE
  8
別途部材
  6
CONTINUOUS
 62
    96
 10
122.58557
 20
65.102268
 11
124.168902
 21
65.102268
  0
LINE
  8
別途部材
  6
CONTINUOUS
 62
    96
 10
122.68557
 20
65.202268
 11
124.168902
 21
65.202268
  0
LINE
  8
別途部材
  6
CONTINUOUS
 62
    96
 10
122.038725
 20
66.659188
 11
121.97292
 21
65.402268
  0
ENDBLK
  0
BLOCK
  2
*DIM_0007
 70
    65
 10
0.0
 20
0.0
  0
LINE
  8
寸法
  6
CONTINUOUS
 10
9.67642
 20
-82.47314
 11
9.67642
 21
-53.220367
  0
LINE
  8
寸法
  6
CONTINUOUS
 10
5.94306
 20
-53.220367
 11
9.67642
 21
-53.220367
  0
POINT
  8
寸法
 10
5.94306
 20
-53.220367
  0
POINT
  8
寸法
 10
9.67642
 20
-53.220367
  0
TEXT
  7
TextStyle03
  8
寸法
  6
CONTINUOUS
 10
5.3625
 20
-52.85
  1
112
 40
3.0
 72
     5
 11
10.2375
 21
-52.85
  0
ENDBLK
  0
BLOCK
  2
*DIM_0008
 70
    65
 10
0.0
 20
0.0
  0
LINE
  8
寸法
  6
CONTINUOUS
 10
14.67642
 20
-83.82314
 11
26.157497
 21
-83.82314
  0
LINE
  8
寸法
  6
CONTINUOUS
 10
12.942102
 20
-76.706355
 11
26.157497
 21
-76.706355
  0
LINE
  8
寸法
  6
CONTINUOUS
 10
26.157497
 20
-83.82314
 11
26.157497
 21
-76.706355
  0
POINT
  8
寸法
 10
26.157497
 20
-83.82314
  0
POINT
  8
寸法
 10
26.157497
 20
-76.706355
  0
TEXT
  7
TextStyle03
  8
寸法
  6
CONTINUOUS
 10
29.15
 20
-84.4
  1
213.5
 40
3.0
 50
90.0
 72
     5
 11
29.15
 21
-76.15
  0
ENDBLK
  0
BLOCK
  2
*DIM_0009
 70
    65
 10
0.0
 20
0.0
  0
LINE
  8
寸法
  6
CONTINUOUS
 10
-131.12363
 20
-82.47314
 11
-131.12363
 21
-53.220367
  0
LINE
  8
寸法
  6
CONTINUOUS
 10
-127.390268
 20
-53.220367
 11
-131.12363
 21
-53.220367
  0
POINT
  8
寸法
 10
-127.390268
 20
-53.220367
  0
POINT
  8
寸法
 10
-131.12363
 20
-53.220367
  0
TEXT
  7
TextStyle03
  8
寸法
  6
CONTINUOUS
 10
-131.7125
 20
-52.85
  1
112
 40
3.0
 72
     5
 11
-126.8375
 21
-52.85
  0
ENDBLK
  0
BLOCK
  2
*DIM_0010
 70
    65
 10
0.0
 20
0.0
  0
LINE
  8
寸法
  6
CONTINUOUS
 10
-127.390268
 20
-53.220367
 11
5.94306
 21
-53.220367
  0
POINT
  8
寸法
 10
-127.390268
 20
-53.220367
  0
POINT
  8
寸法
 10
5.94306
 20
-53.220367
  0
TEXT
  7
TextStyle03
  8
寸法
  6
CONTINUOUS
 10
-72.44375
 20
-52.85
  1
呼称寸法　4000
 40
3.0
 72
     5
 11
-49.00625
 21
-52.85
  0
ENDBLK
  0
BLOCK
  2
*DIM_0011
 70
    65
 10
0.0
 20
0.0
  0
LINE
  8
寸法
  6
BYBLOCK
 62
     0
 10
-110.723603
 20
16.60526
 11
-110.723603
 21
11.710025
  0
LINE
  8
寸法
  6
BYBLOCK
 62
     0
 10
-10.723607
 20
16.60526
 11
-10.723607
 21
11.710025
  0
LINE
  8
寸法
  6
BYBLOCK
 62
     0
 10
-110.723603
 20
11.710025
 11
-10.723607
 21
11.710025
  0
POINT
  8
寸法
 62
     0
 10
-110.723603
 20
11.710025
  0
POINT
  8
寸法
 62
     0
 10
-10.723607
 20
11.710025
  0
TEXT
  7
TextStyle03
  8
寸法
  6
CONTINUOUS
 62
     0
 10
-64.00625
 20
12.05
  1
3000
 40
3.0
 72
     5
 11
-57.44375
 21
12.05
  0
ENDBLK
  0
BLOCK
  2
*DIM_0012
 70
    65
 10
0.0
 20
0.0
  0
LINE
  8
寸法
  6
BYBLOCK
 62
     0
 10
-130.39027
 20
30.235388
 11
-159.335435
 21
30.235388
  0
LINE
  8
寸法
  6
BYBLOCK
 62
     0
 10
-130.39027
 20
53.568722
 11
-159.335435
 21
53.568722
  0
LINE
  8
寸法
  6
BYBLOCK
 62
     0
 10
-159.335435
 20
30.235388
 11
-159.335435
 21
53.568722
  0
POINT
  8
寸法
 62
     0
 10
-159.335435
 20
30.235388
  0
POINT
  8
寸法
 62
     0
 10
-159.335435
 20
53.568722
  0
TEXT
  7
TextStyle03
  8
寸法
  6
CONTINUOUS
 62
     0
 10
-159.65
 20
39.4375
  1
700
 40
3.0
 50
90.0
 72
     5
 11
-159.65
 21
44.3125
  0
ENDBLK
  0
BLOCK
  2
*DIM_0013
 70
    65
 10
0.0
 20
0.0
  0
LINE
  8
寸法
  6
BYBLOCK
 62
     0
 10
-119.056938
 20
66.56872
 11
-119.056938
 21
95.676793
  0
LINE
  8
寸法
  6
BYBLOCK
 62
     0
 10
-95.723605
 20
66.56872
 11
-95.723605
 21
95.676793
  0
LINE
  8
寸法
  6
BYBLOCK
 62
     0
 10
-119.056938
 20
95.676793
 11
-95.723605
 21
95.676793
  0
POINT
  8
寸法
 62
     0
 10
-119.056938
 20
95.676793
  0
POINT
  8
寸法
 62
     0
 10
-95.723605
 20
95.676793
  0
TEXT
  7
TextStyle03
  8
寸法
  6
CONTINUOUS
 62
     0
 10
-109.8125
 20
96.025
  1
700
 40
3.0
 72
     5
 11
-104.9375
 21
96.025
  0
ENDBLK
  0
BLOCK
  2
*DIM_0014
 70
    65
 10
0.0
 20
0.0
  0
LINE
  8
寸法
  6
BYBLOCK
 62
     0
 10
-72.390272
 20
66.56872
 11
-72.390272
 21
95.676793
  0
LINE
  8
寸法
  6
BYBLOCK
 62
     0
 10
-95.723605
 20
95.676793
 11
-72.390272
 21
95.676793
  0
POINT
  8
寸法
 62
     0
 10
-72.390272
 20
95.676793
  0
TEXT
  7
TextStyle03
  8
寸法
  6
CONTINUOUS
 62
     0
 10
-86.4875
 20
96.025
  1
700
 40
3.0
 72
     5
 11
-81.6125
 21
96.025
  0
ENDBLK
  0
BLOCK
  2
*DIM_0015
 70
    65
 10
0.0
 20
0.0
  0
LINE
  8
寸法
  6
BYBLOCK
 62
     0
 10
-49.056938
 20
66.56872
 11
-49.056938
 21
95.676793
  0
LINE
  8
寸法
  6
BYBLOCK
 62
     0
 10
-72.390272
 20
95.676793
 11
-49.056938
 21
95.676793
  0
POINT
  8
寸法
 62
     0
 10
-49.056938
 20
95.676793
  0
TEXT
  7
TextStyle03
  8
寸法
  6
CONTINUOUS
 62
     0
 10
-63.1625
 20
96.025
  1
700
 40
3.0
 72
     5
 11
-58.2875
 21
96.025
  0
ENDBLK
  0
BLOCK
  2
*DIM_0016
 70
    65
 10
0.0
 20
0.0
  0
LINE
  8
寸法
  6
BYBLOCK
 62
     0
 10
-25.723605
 20
66.56872
 11
-25.723605
 21
95.676793
  0
LINE
  8
寸法
  6
BYBLOCK
 62
     0
 10
-49.056938
 20
95.676793
 11
-25.723605
 21
95.676793
  0
POINT
  8
寸法
 62
     0
 10
-25.723605
 20
95.676793
  0
TEXT
  7
TextStyle03
  8
寸法
  6
CONTINUOUS
 62
     0
 10
-39.8125
 20
96.025
  1
700
 40
3.0
 72
     5
 11
-34.9375
 21
96.025
  0
ENDBLK
  0
BLOCK
  2
*DIM_0017
 70
    65
 10
0.0
 20
0.0
  0
LINE
  8
寸法
  6
BYBLOCK
 62
     0
 10
-2.390272
 20
66.56872
 11
-2.390272
 21
95.676793
  0
LINE
  8
寸法
  6
BYBLOCK
 62
     0
 10
-25.723605
 20
95.676793
 11
-2.390272
 21
95.676793
  0
POINT
  8
寸法
 62
     0
 10
-2.390272
 20
95.676793
  0
TEXT
  7
TextStyle03
  8
寸法
  6
CONTINUOUS
 62
     0
 10
-16.4875
 20
96.025
  1
700
 40
3.0
 72
     5
 11
-11.6125
 21
96.025
  0
ENDBLK
  0
BLOCK
  2
*DIM_0018
 70
    65
 10
0.0
 20
0.0
  0
LINE
  8
寸法
  6
BYBLOCK
 62
     0
 10
3.943063
 20
14.628575
 11
3.943063
 21
11.603533
  0
LINE
  8
寸法
  6
BYBLOCK
 62
     0
 10
5.943063
 20
11.603533
 11
3.943063
 21
11.603533
  0
POINT
  8
寸法
 62
     0
 10
5.943063
 20
11.603533
  0
POINT
  8
寸法
 62
     0
 10
3.943063
 20
11.603533
  0
TEXT
  7
TextStyle03
  8
寸法
  6
CONTINUOUS
 62
     0
 10
2.03125
 20
7.825
  1
60
 40
3.0
 72
     5
 11
5.21875
 21
7.825
  0
ENDBLK
  0
BLOCK
  2
*DIM_0019
 70
    65
 10
0.0
 20
0.0
  0
LINE
  8
寸法
  6
CONTINUOUS
 10
-125.390272
 20
14.628575
 11
-125.390272
 21
11.603533
  0
LINE
  8
寸法
  6
CONTINUOUS
 10
-127.390272
 20
11.603533
 11
-125.390272
 21
11.603533
  0
POINT
  8
寸法
 10
-127.390272
 20
11.603533
  0
POINT
  8
寸法
 10
-125.390272
 20
11.603533
  0
TEXT
  7
TextStyle03
  8
寸法
  6
CONTINUOUS
 10
-126.59375
 20
7.8
  1
60
 40
3.0
 72
     5
 11
-123.40625
 21
7.8
  0
ENDBLK
  0
BLOCK
  2
*DIM_0020
 70
    65
 10
0.0
 20
0.0
  0
LINE
  8
寸法
  6
CONTINUOUS
 10
88.810848
 20
-30.39708
 11
88.810848
 21
-20.37966
  0
LINE
  8
寸法
  6
CONTINUOUS
 10
121.377515
 20
-30.39708
 11
121.377515
 21
-20.37966
  0
LINE
  8
寸法
  6
CONTINUOUS
 10
88.810848
 20
-20.37966
 11
121.377515
 21
-20.37966
  0
POINT
  8
寸法
 10
88.810848
 20
-20.37966
  0
POINT
  8
寸法
 10
121.377515
 20
-20.37966
  0
TEXT
  7
TextStyle03
  8
寸法
  6
CONTINUOUS
 10
102.6375
 20
-20.025
  1
977
 40
3.0
 72
     5
 11
107.5125
 21
-20.025
  0
ENDBLK
  0
BLOCK
  2
*DIM_0021
 70
    65
 10
0.0
 20
0.0
  0
LINE
  8
寸法
  6
CONTINUOUS
 10
126.377515
 20
-35.39708
 11
137.020723
 21
-35.39708
  0
LINE
  8
寸法
  6
CONTINUOUS
 10
126.377515
 20
-78.89708
 11
137.020723
 21
-78.89708
  0
LINE
  8
寸法
  6
CONTINUOUS
 10
137.020723
 20
-35.39708
 11
137.020723
 21
-78.89708
  0
POINT
  8
寸法
 10
137.020723
 20
-35.39708
  0
POINT
  8
寸法
 10
137.020723
 20
-78.89708
  0
TEXT
  7
TextStyle03
  8
寸法
  6
CONTINUOUS
 10
136.625
 20
-60.43125
  1
1305
 40
3.0
 50
90.0
 72
     5
 11
136.625
 21
-53.86875
  0
ENDBLK
  0
ENDSEC
  0
SECTION
  2
ENTITIES
  0
POLYLINE
  8
通り芯
  6
CONTINUOUS
 66
     1
 70
     1
  0
VERTEX
  8
通り芯
 10
-210.0
 20
-148.5
  0
VERTEX
  8
通り芯
 10
210.0
 20
-148.5
  0
VERTEX
  8
通り芯
 10
210.0
 20
148.5
  0
VERTEX
  8
通り芯
 10
-210.0
 20
148.5
  0
SEQEND
  0
INSERT
  2
*GRP_0001
  8
型材断面
  6
CONTINUOUS
 10
0.0
 20
0.0
  0
LINE
  8
型材断面
  6
CONTINUOUS
 62
    47
 10
122.31891
 20
64.615415
 11
122.31891
 21
65.335628
  0
LINE
  8
型材断面
  6
CONTINUOUS
 62
    47
 10
121.02559
 20
65.292265
 11
121.01559
 21
65.302265
  0
LINE
  8
型材断面
  6
CONTINUOUS
 62
    47
 10
121.02559
 20
65.292265
 11
121.03559
 21
65.302265
  0
LINE
  8
型材断面
  6
CONTINUOUS
 62
    47
 10
121.667822
 20
65.292265
 11
121.657822
 21
65.302265
  0
LINE
  8
型材断面
  6
CONTINUOUS
 62
    47
 10
121.667822
 20
65.292265
 11
121.677823
 21
65.302265
  0
LINE
  8
型材断面
  6
CONTINUOUS
 62
    47
 10
122.085607
 20
65.302265
 11
121.677823
 21
65.302265
  0
LINE
  8
型材断面
  6
CONTINUOUS
 62
    47
 10
121.657822
 20
65.302265
 11
121.03559
 21
65.302265
  0
LINE
  8
型材断面
  6
CONTINUOUS
 62
    47
 10
125.719028
 20
66.802093
 11
125.385695
 21
66.802093
  0
LINE
  8
型材断面
  6
CONTINUOUS
 62
    47
 10
124.719025
 20
64.86893
 11
124.719025
 21
64.272083
  0
LINE
  8
型材断面
  6
CONTINUOUS
 62
    47
 10
124.719012
 20
65.102082
 11
124.885695
 21
67.302082
  0
LINE
  8
型材断面
  6
CONTINUOUS
 62
    47
 10
125.385695
 20
67.302082
 11
124.885695
 21
67.302082
  0
LINE
  8
型材断面
  6
CONTINUOUS
 62
    47
 10
122.58557
 20
66.56875
 11
122.452253
 21
66.56875
  0
LINE
  8
型材断面
  6
CONTINUOUS
 62
    47
 10
122.58557
 20
65.102082
 11
124.719025
 21
65.102082
  0
LINE
  8
型材断面
  6
CONTINUOUS
 62
    47
 10
122.58557
 20
66.56875
 11
122.58557
 21
41.902055
  0
LINE
  8
型材断面
  6
CONTINUOUS
 10
122.152265
 20
66.56875
 11
122.152265
 21
41.902055
  0
LINE
  8
型材断面
  6
CONTINUOUS
 10
122.085607
 20
65.302265
 11
122.085607
 21
41.902055
  0
LINE
  8
型材断面
  6
CONTINUOUS
 62
    47
 10
122.452253
 20
66.56875
 11
122.452253
 21
41.902055
  0
LINE
  8
型材断面
  6
CONTINUOUS
 62
    47
 10
122.31891
 20
66.56875
 11
122.31891
 21
41.902055
  0
LINE
  8
型材断面
  6
CONTINUOUS
 10
124.719025
 20
65.102082
 11
124.719025
 21
41.902055
  0
LINE
  8
型材断面
  6
CONTINUOUS
 10
124.885695
 20
67.302082
 11
124.885695
 21
41.902055
  0
LINE
  8
型材断面
  6
CONTINUOUS
 10
125.385695
 20
67.302082
 11
125.385695
 21
41.902055
  0
LINE
  8
型材断面
  6
CONTINUOUS
 10
125.719028
 20
66.802093
 11
125.719028
 21
41.902055
  0
LINE
  8
型材断面
  6
CONTINUOUS
 62
    47
 10
122.31891
 20
19.188695
 11
122.31891
 21
18.468483
  0
LINE
  8
型材断面
  6
CONTINUOUS
 62
    47
 10
121.02559
 20
18.511845
 11
121.01559
 21
18.501845
  0
LINE
  8
型材断面
  6
CONTINUOUS
 62
    47
 10
121.02559
 20
18.511845
 11
121.03559
 21
18.501845
  0
LINE
  8
型材断面
  6
CONTINUOUS
 62
    47
 10
121.667822
 20
18.511845
 11
121.657822
 21
18.501845
  0
LINE
  8
型材断面
  6
CONTINUOUS
 62
    47
 10
121.667822
 20
18.511845
 11
121.677823
 21
18.501845
  0
LINE
  8
型材断面
  6
CONTINUOUS
 62
    47
 10
122.085607
 20
18.501845
 11
121.677823
 21
18.501845
  0
LINE
  8
型材断面
  6
CONTINUOUS
 62
    47
 10
121.657822
 20
18.501845
 11
121.03559
 21
18.501845
  0
LINE
  8
型材断面
  6
CONTINUOUS
 62
    47
 10
125.719028
 20
17.002017
 11
125.385695
 21
17.002017
  0
LINE
  8
型材断面
  6
CONTINUOUS
 62
    47
 10
124.719025
 20
18.93518
 11
124.719025
 21
19.532028
  0
LINE
  8
型材断面
  6
CONTINUOUS
 62
    47
 10
124.719012
 20
18.702028
 11
124.885695
 21
16.502028
  0
LINE
  8
型材断面
  6
CONTINUOUS
 62
    47
 10
125.385695
 20
16.502028
 11
124.885695
 21
16.502028
  0
LINE
  8
型材断面
  6
CONTINUOUS
 62
    47
 10
122.58557
 20
17.23536
 11
122.452253
 21
17.23536
  0
LINE
  8
型材断面
  6
CONTINUOUS
 62
    47
 10
122.58557
 20
18.702028
 11
124.719025
 21
18.702028
  0
LINE
  8
型材断面
  6
CONTINUOUS
 62
    47
 10
122.58557
 20
17.23536
 11
122.58557
 21
41.902055
  0
LINE
  8
型材断面
  6
CONTINUOUS
 10
122.152265
 20
17.23536
 11
122.152265
 21
41.902055
  0
LINE
  8
型材断面
  6
CONTINUOUS
 10
122.085607
 20
18.501845
 11
122.085607
 21
41.902055
  0
LINE
  8
型材断面
  6
CONTINUOUS
 62
    47
 10
122.452253
 20
17.23536
 11
122.452253
 21
41.902055
  0
LINE
  8
型材断面
  6
CONTINUOUS
 62
    47
 10
122.31891
 20
17.23536
 11
122.31891
 21
41.902055
  0
LINE
  8
型材断面
  6
CONTINUOUS
 10
124.719025
 20
18.702028
 11
124.719025
 21
41.902055
  0
LINE
  8
型材断面
  6
CONTINUOUS
 10
124.885695
 20
16.502028
 11
124.885695
 21
41.902055
  0
LINE
  8
型材断面
  6
CONTINUOUS
 10
125.385695
 20
16.502028
 11
125.385695
 21
41.902055
  0
LINE
  8
型材断面
  6
CONTINUOUS
 10
125.719028
 20
17.002017
 11
125.719028
 21
41.902055
  0
ARC
  8
型材断面
  6
DASHDOT
 10
122.368902
 20
66.908934
 40
49.673598
 50
224.942338
 51
269.942337
  0
LINE
  8
型材断面
  6
CONTINUOUS
 62
    47
 10
119.235578
 20
65.608933
 11
118.435575
 21
65.608933
  0
ARC
  8
型材断面
  6
CONTINUOUS
 10
118.368908
 20
65.665456
 40
0.1
 50
90.0
 51
180.0
  0
LINE
  8
型材断面
  6
CONTINUOUS
 62
    47
 10
118.36891
 20
65.765455
 11
118.435575
 21
65.765455
  0
LINE
  8
型材断面
  6
CONTINUOUS
 62
    47
 10
118.5457
 20
65.608722
 11
119.935575
 21
65.608722
  0
LINE
  8
型材断面
  6
CONTINUOUS
 62
    47
 10
118.435575
 20
65.765455
 11
118.435575
 21
41.902055
  0
LINE
  8
型材断面
  6
CONTINUOUS
 62
    47
 10
118.26891
 20
65.665455
 11
118.26891
 21
41.902055
  0
LINE
  8
型材断面
  6
CONTINUOUS
 62
    47
 10
119.935575
 20
65.608722
 11
119.935575
 21
41.902055
  0
LINE
  8
型材断面
  6
CONTINUOUS
 62
    47
 10
119.235578
 20
18.195177
 11
118.435575
 21
18.195177
  0
ARC
  8
型材断面
  6
CONTINUOUS
 10
118.368908
 20
18.138656
 40
0.1
 50
180.0
 51
270.0
  0
LINE
  8
型材断面
  6
CONTINUOUS
 62
    47
 10
118.36891
 20
18.038655
 11
118.435575
 21
18.038655
  0
LINE
  8
型材断面
  6
CONTINUOUS
 62
    47
 10
118.5457
 20
18.195387
 11
119.935575
 21
18.195387
  0
LINE
  8
型材断面
  6
CONTINUOUS
 62
    47
 10
118.435575
 20
18.038655
 11
118.435575
 21
41.902055
  0
LINE
  8
型材断面
  6
CONTINUOUS
 62
    47
 10
118.26891
 20
18.138655
 11
118.26891
 21
41.902055
  0
LINE
  8
型材断面
  6
CONTINUOUS
 62
    47
 10
119.935575
 20
18.195387
 11
119.935575
 21
41.902055
  0
LINE
  8
型材断面
  6
CONTINUOUS
 62
    47
 10
121.01559
 20
18.501845
 11
119.935575
 21
18.501845
  0
LINE
  8
型材断面
  6
CONTINUOUS
 62
    47
 10
121.01559
 20
65.302265
 11
119.935575
 21
65.302265
  0
INSERT
  2
*GRP_0002
  8
型材断面
  6
DOT
 10
0.0
 20
0.0
  0
LINE
  8
型材断面
  6
CONTINUOUS
 62
    47
 10
122.31891
 20
66.56875
 11
122.151915
 21
66.56875
  0
LINE
  8
型材断面
  6
CONTINUOUS
 62
    47
 10
122.085607
 20
65.302265
 11
122.151915
 21
66.56875
  0
LINE
  8
型材断面
  6
CONTINUOUS
 62
    47
 10
122.31891
 20
17.23536
 11
122.151915
 21
17.23536
  0
LINE
  8
型材断面
  6
CONTINUOUS
 62
    47
 10
122.085607
 20
18.501845
 11
122.151915
 21
17.23536
  0
LINE
  8
型材断面
  6
DASHDOT
 10
-60.723605
 20
-88.160228
 11
-60.723605
 21
63.56872
  0
LINE
  8
型材断面
  6
CONTINUOUS
 10
7.90409
 20
18.038655
 11
8.139792
 21
18.274358
  0
LINE
  8
型材断面
  6
CONTINUOUS
 10
5.403878
 20
20.538868
 11
5.63958
 21
20.77457
  0
LINE
  8
型材断面
  6
CONTINUOUS
 10
5.63958
 20
20.77457
 11
8.139792
 21
18.274358
  0
LINE
  8
型材断面
  6
CONTINUOUS
 10
5.403878
 20
20.538868
 11
7.90409
 21
18.038655
  0
LINE
  8
型材断面
  6
CONTINUOUS
 10
9.67642
 20
16.502028
 11
8.02194
 21
18.156508
  0
LINE
  8
型材断面
  6
CONTINUOUS
 62
    47
 10
6.989753
 20
-80.756358
 11
7.709965
 21
-80.756358
  0
LINE
  8
型材断面
  6
CONTINUOUS
 62
    47
 10
7.666603
 20
-79.463037
 11
7.676603
 21
-79.453038
  0
LINE
  8
型材断面
  6
CONTINUOUS
 62
    47
 10
7.666603
 20
-79.463037
 11
7.676603
 21
-79.473038
  0
LINE
  8
型材断面
  6
CONTINUOUS
 62
    47
 10
7.666603
 20
-80.10527
 11
7.676603
 21
-80.09527
  0
LINE
  8
型材断面
  6
CONTINUOUS
 62
    47
 10
7.666603
 20
-80.10527
 11
7.676603
 21
-80.11527
  0
LINE
  8
型材断面
  6
CONTINUOUS
 62
    47
 10
7.676603
 20
-80.523055
 11
7.676603
 21
-80.11527
  0
LINE
  8
型材断面
  6
CONTINUOUS
 62
    47
 10
7.676603
 20
-80.09527
 11
7.676603
 21
-79.473038
  0
LINE
  8
型材断面
  6
CONTINUOUS
 62
    47
 10
9.17643
 20
-84.156475
 11
9.17643
 21
-83.82314
  0
LINE
  8
型材断面
  6
CONTINUOUS
 62
    47
 10
7.243268
 20
-83.156473
 11
6.64642
 21
-83.156473
  0
LINE
  8
型材断面
  6
CONTINUOUS
 62
    47
 10
7.47642
 20
-83.15646
 11
9.67642
 21
-83.32314
  0
LINE
  8
型材断面
  6
CONTINUOUS
 62
    47
 10
9.67642
 20
-83.82314
 11
9.67642
 21
-83.32314
  0
LINE
  8
型材断面
  6
CONTINUOUS
 62
    47
 10
8.943088
 20
-81.023015
 11
8.943088
 21
-80.8897
  0
LINE
  8
型材断面
  6
CONTINUOUS
 62
    47
 10
7.47642
 20
-81.023015
 11
7.47642
 21
-83.156473
  0
LINE
  8
型材断面
  6
CONTINUOUS
 62
    47
 10
7.98327
 20
-77.673025
 11
7.98327
 21
-76.873023
  0
ARC
  8
型材断面
  6
CONTINUOUS
 10
8.039794
 20
-76.806354
 40
0.1
 50
0.0
 51
90.0
  0
LINE
  8
型材断面
  6
CONTINUOUS
 62
    47
 10
8.139792
 20
-76.806355
 11
8.139792
 21
-76.873023
  0
LINE
  8
型材断面
  6
CONTINUOUS
 62
    47
 10
7.98306
 20
-76.983145
 11
7.98306
 21
-78.373023
  0
LINE
  8
型材断面
  6
CONTINUOUS
 62
    47
 10
7.676603
 20
-79.453038
 11
7.676603
 21
-78.373023
  0
LINE
  8
型材断面
  6
CONTINUOUS
 62
    47
 10
8.943088
 20
-80.756358
 11
8.943088
 21
-80.589362
  0
LINE
  8
型材断面
  6
CONTINUOUS
 62
    47
 10
7.676603
 20
-80.523055
 11
8.943088
 21
-80.589362
  0
LINE
  8
型材断面
  6
CONTINUOUS
 10
9.67642
 20
-83.32314
 11
-60.723605
 21
-83.32314
  0
LINE
  8
型材断面
  6
CONTINUOUS
 10
7.47642
 20
-83.156473
 11
-60.723605
 21
-83.156473
  0
LINE
  8
型材断面
  6
CONTINUOUS
 10
9.67642
 20
-83.82314
 11
-60.723605
 21
-83.82314
  0
LINE
  8
型材断面
  6
CONTINUOUS
 10
9.17643
 20
-84.156475
 11
-60.723605
 21
-84.156475
  0
LINE
  8
型材断面
  6
CONTINUOUS
 62
    47
 10
8.943088
 20
-80.8897
 11
-60.723605
 21
-80.8897
  0
LINE
  8
型材断面
  6
CONTINUOUS
 10
8.943088
 20
-80.589713
 11
-60.723605
 21
-80.589713
  0
LINE
  8
型材断面
  6
CONTINUOUS
 62
    47
 10
8.943088
 20
-81.023015
 11
-60.723605
 21
-81.023015
  0
LINE
  8
型材断面
  6
CONTINUOUS
 62
    47
 10
8.943088
 20
-80.756358
 11
-60.723605
 21
-80.756358
  0
LINE
  8
型材断面
  6
CONTINUOUS
 10
7.676603
 20
-80.523055
 11
-60.723605
 21
-80.523055
  0
LINE
  8
型材断面
  6
CONTINUOUS
 62
    47
 10
7.98306
 20
-78.373023
 11
-60.723605
 21
-78.373023
  0
LINE
  8
型材断面
  6
CONTINUOUS
 62
    47
 10
8.139792
 20
-76.873023
 11
-60.723605
 21
-76.873023
  0
LINE
  8
型材断面
  6
CONTINUOUS
 62
    47
 10
8.039792
 20
-76.706355
 11
-60.723605
 21
-76.706355
  0
LINE
  8
型材断面
  6
CONTINUOUS
 10
7.90409
 20
18.038655
 11
-60.723605
 21
18.038655
  0
LINE
  8
型材断面
  6
CONTINUOUS
 10
9.67642
 20
16.502028
 11
-60.723605
 21
16.502028
  0
LINE
  8
型材断面
  6
CONTINUOUS
 10
8.943088
 20
17.23536
 11
-60.723605
 21
17.23536
  0
LINE
  8
型材断面
  6
CONTINUOUS
 10
7.90409
 20
65.765455
 11
8.139792
 21
65.52975
  0
LINE
  8
型材断面
  6
CONTINUOUS
 10
5.403878
 20
63.265243
 11
5.63958
 21
63.02954
  0
LINE
  8
型材断面
  6
CONTINUOUS
 10
5.63958
 20
63.02954
 11
8.139792
 21
65.52975
  0
LINE
  8
型材断面
  6
CONTINUOUS
 10
5.403878
 20
63.265243
 11
7.90409
 21
65.765455
  0
LINE
  8
型材断面
  6
CONTINUOUS
 10
9.67642
 20
67.302082
 11
8.02194
 21
65.647602
  0
LINE
  8
型材断面
  6
CONTINUOUS
 10
8.943088
 20
66.56875
 11
-60.723605
 21
66.56875
  0
LINE
  8
型材断面
  6
CONTINUOUS
 10
9.67642
 20
67.302082
 11
-60.723605
 21
67.302082
  0
LINE
  8
型材断面
  6
CONTINUOUS
 10
7.90409
 20
65.765455
 11
-60.723605
 21
65.765455
  0
LINE
  8
型材断面
  6
CONTINUOUS
 10
5.63958
 20
42.318722
 11
8.139792
 21
42.318722
  0
LINE
  8
型材断面
  6
CONTINUOUS
 10
5.63958
 20
41.48539
 11
8.139792
 21
41.48539
  0
LINE
  8
型材断面
  6
CONTINUOUS
 10
9.67642
 20
41.902055
 11
9.67642
 21
67.302082
  0
LINE
  8
型材断面
  6
CONTINUOUS
 10
8.943088
 20
41.902055
 11
8.943088
 21
66.56875
  0
LINE
  8
型材断面
  6
CONTINUOUS
 10
5.63958
 20
42.318722
 11
5.63958
 21
63.02954
  0
LINE
  8
型材断面
  6
CONTINUOUS
 10
8.139792
 20
18.274358
 11
8.139792
 21
65.52975
  0
LINE
  8
型材断面
  6
CONTINUOUS
 10
8.943088
 20
17.23536
 11
8.943088
 21
41.902055
  0
LINE
  8
型材断面
  6
CONTINUOUS
 10
9.67642
 20
16.502028
 11
9.67642
 21
41.902055
  0
LINE
  8
型材断面
  6
CONTINUOUS
 10
5.63958
 20
20.77457
 11
5.63958
 21
41.48539
  0
LINE
  8
型材断面
  6
DASHDOT
 10
5.94306
 20
-88.160228
 11
5.94306
 21
63.56872
  0
LINE
  8
型材断面
  6
DASHDOT
 10
130.329942
 20
20.235388
 11
-127.390268
 21
20.235388
  0
LINE
  8
型材断面
  6
CONTINUOUS
 62
    47
 10
-128.436963
 20
-80.756358
 11
-129.157175
 21
-80.756358
  0
LINE
  8
型材断面
  6
CONTINUOUS
 62
    47
 10
-129.113813
 20
-79.463037
 11
-129.123812
 21
-79.453038
  0
LINE
  8
型材断面
  6
CONTINUOUS
 62
    47
 10
-129.113813
 20
-79.463037
 11
-129.123812
 21
-79.473038
  0
LINE
  8
型材断面
  6
CONTINUOUS
 62
    47
 10
-129.113813
 20
-80.10527
 11
-129.123812
 21
-80.09527
  0
LINE
  8
型材断面
  6
CONTINUOUS
 62
    47
 10
-129.113813
 20
-80.10527
 11
-129.123812
 21
-80.11527
  0
LINE
  8
型材断面
  6
CONTINUOUS
 62
    47
 10
-129.123812
 20
-80.523055
 11
-129.123812
 21
-80.11527
  0
LINE
  8
型材断面
  6
CONTINUOUS
 62
    47
 10
-129.123812
 20
-80.09527
 11
-129.123812
 21
-79.473038
  0
LINE
  8
型材断面
  6
CONTINUOUS
 62
    47
 10
-130.62364
 20
-84.156475
 11
-130.62364
 21
-83.82314
  0
LINE
  8
型材断面
  6
CONTINUOUS
 62
    47
 10
-128.690477
 20
-83.156473
 11
-128.09363
 21
-83.156473
  0
LINE
  8
型材断面
  6
CONTINUOUS
 62
    47
 10
-128.92363
 20
-83.15646
 11
-131.12363
 21
-83.32314
  0
LINE
  8
型材断面
  6
CONTINUOUS
 62
    47
 10
-131.12363
 20
-83.82314
 11
-131.12363
 21
-83.32314
  0
LINE
  8
型材断面
  6
CONTINUOUS
 62
    47
 10
-130.390298
 20
-81.023015
 11
-130.390298
 21
-80.8897
  0
LINE
  8
型材断面
  6
CONTINUOUS
 62
    47
 10
-128.92363
 20
-81.023015
 11
-128.92363
 21
-83.156473
  0
LINE
  8
型材断面
  6
CONTINUOUS
 62
    47
 10
-129.43048
 20
-77.673025
 11
-129.43048
 21
-76.873023
  0
ARC
  8
型材断面
  6
CONTINUOUS
 10
-129.487003
 20
-76.806354
 40
0.1
 50
90.0
 51
180.0
  0
LINE
  8
型材断面
  6
CONTINUOUS
 62
    47
 10
-129.587003
 20
-76.806355
 11
-129.587003
 21
-76.873023
  0
LINE
  8
型材断面
  6
CONTINUOUS
 62
    47
 10
-129.43027
 20
-76.983145
 11
-129.43027
 21
-78.373023
  0
LINE
  8
型材断面
  6
CONTINUOUS
 62
    47
 10
-129.123812
 20
-79.453038
 11
-129.123812
 21
-78.373023
  0
LINE
  8
型材断面
  6
CONTINUOUS
 62
    47
 10
-130.390298
 20
-80.756358
 11
-130.390298
 21
-80.589362
  0
LINE
  8
型材断面
  6
CONTINUOUS
 62
    47
 10
-129.123812
 20
-80.523055
 11
-130.390298
 21
-80.589362
  0
LINE
  8
型材断面
  6
CONTINUOUS
 10
-131.12363
 20
-83.32314
 11
-60.723605
 21
-83.32314
  0
LINE
  8
型材断面
  6
CONTINUOUS
 10
-128.92363
 20
-83.156473
 11
-60.723605
 21
-83.156473
  0
LINE
  8
型材断面
  6
CONTINUOUS
 10
-131.12363
 20
-83.82314
 11
-60.723605
 21
-83.82314
  0
LINE
  8
型材断面
  6
CONTINUOUS
 10
-130.62364
 20
-84.156475
 11
-60.723605
 21
-84.156475
  0
LINE
  8
型材断面
  6
CONTINUOUS
 62
    47
 10
-130.390298
 20
-80.8897
 11
-60.723605
 21
-80.8897
  0
LINE
  8
型材断面
  6
CONTINUOUS
 10
-130.390298
 20
-80.589713
 11
-60.723605
 21
-80.589713
  0
LINE
  8
型材断面
  6
CONTINUOUS
 62
    47
 10
-130.390298
 20
-81.023015
 11
-60.723605
 21
-81.023015
  0
LINE
  8
型材断面
  6
CONTINUOUS
 62
    47
 10
-130.390298
 20
-80.756358
 11
-60.723605
 21
-80.756358
  0
LINE
  8
型材断面
  6
CONTINUOUS
 10
-129.123812
 20
-80.523055
 11
-60.723605
 21
-80.523055
  0
LINE
  8
型材断面
  6
CONTINUOUS
 62
    47
 10
-129.43027
 20
-78.373023
 11
-60.723605
 21
-78.373023
  0
LINE
  8
型材断面
  6
CONTINUOUS
 62
    47
 10
-129.587003
 20
-76.873023
 11
-60.723605
 21
-76.873023
  0
LINE
  8
型材断面
  6
CONTINUOUS
 62
    47
 10
-129.487003
 20
-76.706355
 11
-60.723605
 21
-76.706355
  0
LINE
  8
型材断面
  6
CONTINUOUS
 10
-129.3513
 20
18.038655
 11
-129.587003
 21
18.274358
  0
LINE
  8
型材断面
  6
CONTINUOUS
 10
-126.851087
 20
20.538868
 11
-127.08679
 21
20.77457
  0
LINE
  8
型材断面
  6
CONTINUOUS
 10
-127.08679
 20
20.77457
 11
-129.587003
 21
18.274358
  0
LINE
  8
型材断面
  6
CONTINUOUS
 10
-126.851087
 20
20.538868
 11
-129.3513
 21
18.038655
  0
LINE
  8
型材断面
  6
CONTINUOUS
 10
-131.12363
 20
16.502028
 11
-129.46915
 21
18.156508
  0
LINE
  8
型材断面
  6
CONTINUOUS
 10
-129.3513
 20
18.038655
 11
-60.723605
 21
18.038655
  0
LINE
  8
型材断面
  6
CONTINUOUS
 10
-131.12363
 20
16.502028
 11
-60.723605
 21
16.502028
  0
LINE
  8
型材断面
  6
CONTINUOUS
 10
-130.390298
 20
17.23536
 11
-60.723605
 21
17.23536
  0
LINE
  8
型材断面
  6
DASHDOT
 10
130.329942
 20
63.56872
 11
-127.390268
 21
63.56872
  0
LINE
  8
型材断面
  6
CONTINUOUS
 10
-129.3513
 20
65.765455
 11
-129.587003
 21
65.52975
  0
LINE
  8
型材断面
  6
CONTINUOUS
 10
-126.851087
 20
63.265243
 11
-127.08679
 21
63.02954
  0
LINE
  8
型材断面
  6
CONTINUOUS
 10
-127.08679
 20
63.02954
 11
-129.587003
 21
65.52975
  0
LINE
  8
型材断面
  6
CONTINUOUS
 10
-126.851087
 20
63.265243
 11
-129.3513
 21
65.765455
  0
LINE
  8
型材断面
  6
CONTINUOUS
 10
-131.12363
 20
67.302082
 11
-129.46915
 21
65.647602
  0
LINE
  8
型材断面
  6
CONTINUOUS
 10
-130.390298
 20
66.56875
 11
-60.723605
 21
66.56875
  0
LINE
  8
型材断面
  6
CONTINUOUS
 10
-131.12363
 20
67.302082
 11
-60.723605
 21
67.302082
  0
LINE
  8
型材断面
  6
CONTINUOUS
 10
-129.3513
 20
65.765455
 11
-60.723605
 21
65.765455
  0
LINE
  8
型材断面
  6
DASHDOT
 10
130.329942
 20
41.902055
 11
-127.390268
 21
41.902055
  0
LINE
  8
型材断面
  6
CONTINUOUS
 10
-127.08679
 20
42.318722
 11
-129.587003
 21
42.318722
  0
LINE
  8
型材断面
  6
CONTINUOUS
 10
-127.08679
 20
41.48539
 11
-129.587003
 21
41.48539
  0
LINE
  8
型材断面
  6
CONTINUOUS
 10
-127.08679
 20
42.318722
 11
-127.08679
 21
63.02954
  0
LINE
  8
型材断面
  6
CONTINUOUS
 10
-129.587003
 20
18.274358
 11
-129.587003
 21
65.52975
  0
LINE
  8
型材断面
  6
CONTINUOUS
 10
-131.12363
 20
41.902055
 11
-131.12363
 21
67.302082
  0
LINE
  8
型材断面
  6
CONTINUOUS
 10
-130.390298
 20
41.902055
 11
-130.390298
 21
66.56875
  0
LINE
  8
型材断面
  6
CONTINUOUS
 10
-131.12363
 20
16.502028
 11
-131.12363
 21
41.902055
  0
LINE
  8
型材断面
  6
CONTINUOUS
 10
-130.390298
 20
17.23536
 11
-130.390298
 21
41.902055
  0
LINE
  8
型材断面
  6
CONTINUOUS
 10
-127.08679
 20
20.77457
 11
-127.08679
 21
41.48539
  0
LINE
  8
型材断面
  6
DASHDOT
 10
-127.390268
 20
-88.160228
 11
-127.390268
 21
63.56872
  0
LINE
  8
型材断面
  6
DASHDOT
 10
-127.390268
 20
63.56872
 11
5.94306
 21
63.56872
  0
LINE
  8
型材断面
  6
CONTINUOUS
 10
-130.0204
 20
41.902055
 11
-132.610908
 21
43.397685
  0
LINE
  8
型材断面
  6
CONTINUOUS
 10
-130.0204
 20
41.902055
 11
-132.610908
 21
40.406425
  0
LINE
  8
型材断面
  6
CONTINUOUS
 10
-132.610908
 20
40.406425
 11
-132.610908
 21
43.397685
  0
LINE
  8
型材断面
  6
CONTINUOUS
 10
-110.723603
 20
66.19885
 11
-112.219233
 21
68.789358
  0
LINE
  8
型材断面
  6
CONTINUOUS
 10
-110.723603
 20
66.19885
 11
-109.227973
 21
68.789358
  0
LINE
  8
型材断面
  6
CONTINUOUS
 10
-109.227973
 20
68.789358
 11
-112.219233
 21
68.789358
  0
LINE
  8
型材断面
  6
CONTINUOUS
 10
-168.242478
 20
101.546192
 11
-167.646422
 21
98.955685
  0
LINE
  8
型材断面
  6
CONTINUOUS
 10
-168.242478
 20
101.546192
 11
-168.838535
 21
98.955685
  0
LINE
  8
型材断面
  6
CONTINUOUS
 10
-168.838535
 20
98.955685
 11
-167.646422
 21
98.955685
  0
LINE
  8
型材断面
  6
CONTINUOUS
 10
-174.265065
 20
95.676793
 11
-128.023287
 21
95.676793
  0
LINE
  8
型材断面
  6
CONTINUOUS
 10
-168.242478
 20
108.076067
 11
-169.738108
 21
105.48556
  0
LINE
  8
型材断面
  6
CONTINUOUS
 10
-168.242478
 20
108.076067
 11
-166.746847
 21
105.48556
  0
LINE
  8
型材断面
  6
CONTINUOUS
 10
-166.746847
 20
105.48556
 11
-169.738108
 21
105.48556
  0
LINE
  8
型材断面
  6
CONTINUOUS
 10
-174.265065
 20
104.546965
 11
-128.023287
 21
104.546965
  0
LINE
  8
型材断面
  6
CONTINUOUS
 10
-174.265065
 20
89.88876
 11
-128.023287
 21
89.88876
  0
LINE
  8
型材断面
  6
CONTINUOUS
 10
-110.723603
 20
17.60526
 11
-112.219233
 21
15.014753
  0
LINE
  8
型材断面
  6
CONTINUOUS
 10
-110.723603
 20
17.60526
 11
-109.227973
 21
15.014753
  0
LINE
  8
型材断面
  6
CONTINUOUS
 10
-109.227973
 20
15.014753
 11
-112.219233
 21
15.014753
  0
LINE
  8
型材断面
  6
CONTINUOUS
 10
8.57319
 20
41.902055
 11
11.163697
 21
43.397685
  0
LINE
  8
型材断面
  6
CONTINUOUS
 10
8.57319
 20
41.902055
 11
11.163697
 21
40.406425
  0
LINE
  8
型材断面
  6
CONTINUOUS
 10
11.163697
 20
40.406425
 11
11.163697
 21
43.397685
  0
LINE
  8
型材断面
  6
CONTINUOUS
 10
-10.723607
 20
66.19885
 11
-9.227977
 21
68.789358
  0
LINE
  8
型材断面
  6
CONTINUOUS
 10
-10.723607
 20
66.19885
 11
-12.219237
 21
68.789358
  0
LINE
  8
型材断面
  6
CONTINUOUS
 10
-12.219237
 20
68.789358
 11
-9.227977
 21
68.789358
  0
LINE
  8
型材断面
  6
CONTINUOUS
 10
-10.723607
 20
17.60526
 11
-9.227977
 21
15.014753
  0
LINE
  8
型材断面
  6
CONTINUOUS
 10
-10.723607
 20
17.60526
 11
-12.219237
 21
15.014753
  0
LINE
  8
型材断面
  6
CONTINUOUS
 10
-12.219237
 20
15.014753
 11
-9.227977
 21
15.014753
  0
POLYLINE
  8
型材断面
  6
DASHDOT
 66
     1
  0
VERTEX
  8
型材断面
 10
-127.39027
 20
20.235388
  0
VERTEX
  8
型材断面
 10
-60.723605
 20
63.56872
  0
VERTEX
  8
型材断面
 10
5.943063
 20
20.235388
  0
SEQEND
  0
LINE
  8
型材断面
  6
DASHDOT
 10
-94.368602
 20
20.235388
 11
-94.368602
 21
63.56872
  0
LINE
  8
型材断面
  6
DASHDOT
 10
-27.078607
 20
20.235388
 11
-27.078607
 21
63.56872
  0
LINE
  8
型材断面
  6
CONTINUOUS
 10
-111.296105
 20
18.038655
 11
-111.296105
 21
20.538868
  0
LINE
  8
型材断面
  6
CONTINUOUS
 10
-110.46277
 20
18.038655
 11
-110.46277
 21
20.538868
  0
LINE
  8
型材断面
  6
CONTINUOUS
 10
-77.129438
 20
18.038655
 11
-77.129438
 21
20.538868
  0
LINE
  8
型材断面
  6
CONTINUOUS
 10
-77.962773
 20
18.038655
 11
-77.962773
 21
20.538868
  0
LINE
  8
型材断面
  6
CONTINUOUS
 10
-43.484437
 20
18.038655
 11
-43.484437
 21
20.538868
  0
LINE
  8
型材断面
  6
CONTINUOUS
 10
-44.317772
 20
18.038655
 11
-44.317772
 21
20.538868
  0
LINE
  8
型材断面
  6
CONTINUOUS
 10
-10.98444
 20
18.038655
 11
-10.98444
 21
20.538868
  0
LINE
  8
型材断面
  6
CONTINUOUS
 10
-10.151105
 20
18.038655
 11
-10.151105
 21
20.538868
  0
LINE
  8
型材断面
  6
CONTINUOUS
 10
-111.296105
 20
65.765455
 11
-111.296105
 21
63.265243
  0
LINE
  8
型材断面
  6
CONTINUOUS
 10
-110.46277
 20
65.765455
 11
-110.46277
 21
63.265243
  0
LINE
  8
型材断面
  6
CONTINUOUS
 10
-77.129438
 20
65.765455
 11
-77.129438
 21
63.265243
  0
LINE
  8
型材断面
  6
CONTINUOUS
 10
-77.962773
 20
65.765455
 11
-77.962773
 21
63.265243
  0
LINE
  8
型材断面
  6
CONTINUOUS
 10
-43.484437
 20
65.765455
 11
-43.484437
 21
63.265243
  0
LINE
  8
型材断面
  6
CONTINUOUS
 10
-44.317772
 20
65.765455
 11
-44.317772
 21
63.265243
  0
LINE
  8
型材断面
  6
CONTINUOUS
 10
-10.98444
 20
65.765455
 11
-10.98444
 21
63.265243
  0
LINE
  8
型材断面
  6
CONTINUOUS
 10
-10.151105
 20
65.765455
 11
-10.151105
 21
63.265243
  0
LINE
  8
型材断面
  6
CONTINUOUS
 10
-93.118602
 20
21.3722
 11
-95.618602
 21
21.3722
  0
LINE
  8
型材断面
  6
CONTINUOUS
 10
-93.118602
 20
62.43191
 11
-95.618602
 21
62.43191
  0
LINE
  8
型材断面
  6
CONTINUOUS
 10
-93.118602
 20
21.3722
 11
-93.118602
 21
62.43191
  0
LINE
  8
型材断面
  6
CONTINUOUS
 10
-95.618602
 20
21.3722
 11
-95.618602
 21
62.43191
  0
LINE
  8
型材断面
  6
CONTINUOUS
 10
-59.473605
 20
21.3722
 11
-61.973605
 21
21.3722
  0
LINE
  8
型材断面
  6
CONTINUOUS
 10
-59.473605
 20
62.43191
 11
-61.973605
 21
62.43191
  0
LINE
  8
型材断面
  6
CONTINUOUS
 10
-59.473605
 20
21.3722
 11
-59.473605
 21
62.43191
  0
LINE
  8
型材断面
  6
CONTINUOUS
 10
-61.973605
 20
21.3722
 11
-61.973605
 21
62.43191
  0
LINE
  8
型材断面
  6
CONTINUOUS
 10
-25.828607
 20
21.3722
 11
-28.328607
 21
21.3722
  0
LINE
  8
型材断面
  6
CONTINUOUS
 10
-25.828607
 20
62.43191
 11
-28.328607
 21
62.43191
  0
LINE
  8
型材断面
  6
CONTINUOUS
 10
-25.828607
 20
21.3722
 11
-25.828607
 21
62.43191
  0
LINE
  8
型材断面
  6
CONTINUOUS
 10
-28.328607
 20
21.3722
 11
-28.328607
 21
62.43191
  0
LINE
  8
型材断面
  6
CONTINUOUS
 10
5.403878
 20
20.538868
 11
-10.151105
 21
20.538868
  0
LINE
  8
型材断面
  6
CONTINUOUS
 10
5.403878
 20
63.265243
 11
-10.151105
 21
63.265243
  0
LINE
  8
型材断面
  6
CONTINUOUS
 10
-10.98444
 20
63.265243
 11
-43.484437
 21
63.265243
  0
LINE
  8
型材断面
  6
CONTINUOUS
 10
-44.317772
 20
63.265243
 11
-60.723605
 21
63.265243
  0
LINE
  8
型材断面
  6
CONTINUOUS
 10
-10.98444
 20
20.538868
 11
-43.484437
 21
20.538868
  0
LINE
  8
型材断面
  6
CONTINUOUS
 10
-44.317772
 20
20.538868
 11
-60.723605
 21
20.538868
  0
LINE
  8
型材断面
  6
CONTINUOUS
 10
-77.129438
 20
20.538868
 11
-60.723605
 21
20.538868
  0
LINE
  8
型材断面
  6
CONTINUOUS
 10
-77.129438
 20
63.265243
 11
-60.723605
 21
63.265243
  0
LINE
  8
型材断面
  6
CONTINUOUS
 10
-126.851087
 20
63.265243
 11
-111.296105
 21
63.265243
  0
LINE
  8
型材断面
  6
CONTINUOUS
 10
-110.46277
 20
63.265243
 11
-77.962773
 21
63.265243
  0
LINE
  8
型材断面
  6
CONTINUOUS
 10
-126.851087
 20
20.538868
 11
-111.296105
 21
20.538868
  0
LINE
  8
型材断面
  6
CONTINUOUS
 10
-110.46277
 20
20.538868
 11
-77.962773
 21
20.538868
  0
LINE
  8
型材断面
  6
CONTINUOUS
 10
3.943063
 20
17.628575
 11
3.347005
 21
15.03807
  0
LINE
  8
型材断面
  6
CONTINUOUS
 10
3.943063
 20
17.628575
 11
4.53912
 21
15.03807
  0
LINE
  8
型材断面
  6
CONTINUOUS
 10
4.53912
 20
15.03807
 11
3.347005
 21
15.03807
  0
LINE
  8
型材断面
  6
CONTINUOUS
 10
-125.390272
 20
17.628575
 11
-124.794215
 21
15.03807
  0
LINE
  8
型材断面
  6
CONTINUOUS
 10
-125.390272
 20
17.628575
 11
-125.98633
 21
15.03807
  0
LINE
  8
型材断面
  6
CONTINUOUS
 10
-125.98633
 20
15.03807
 11
-124.794215
 21
15.03807
  0
POLYLINE
  8
ガラス
  6
CONTINUOUS
 66
     1
 70
     1
  0
VERTEX
  8
ガラス
 10
121.377515
 20
-35.39708
  0
VERTEX
  8
ガラス
 10
88.810848
 20
-35.39708
  0
VERTEX
  8
ガラス
 10
88.810848
 20
-78.89708
  0
VERTEX
  8
ガラス
 10
121.377515
 20
-78.89708
  0
SEQEND
  0
TEXT
  7
TextStyle03
  8
文字
  6
CONTINUOUS
 10
104.25
 20
12.375
  1
45°
 40
3.0
 50
90.0
 72
     5
 11
104.25
 21
18.75
  0
TEXT
  7
TextStyle03
  8
文字
  6
CONTINUOUS
 10
64.95
 20
116.5
  1
シリーズ：ＴＦＦＨＬ
 40
5.0
 72
     5
 11
120.575
 21
116.5
  0
TEXT
  7
TextStyle03
  8
文字
  6
CONTINUOUS
 10
64.95
 20
110.875
  1
　　　　　（片側開閉）1300×4000タイプ
 40
5.0
 72
     5
 11
171.2
 21
110.875
  0
TEXT
  7
TextStyle03
  8
文字
  6
CONTINUOUS
 10
64.95
 20
105.25
  1
図面名　：外観姿図
 40
5.0
 72
     5
 11
114.95
 21
105.25
  0
TEXT
  7
TextStyle03
  8
文字
  6
CONTINUOUS
 10
64.95
 20
99.625
  1
　　　　　　
 40
5.0
 72
     5
 11
98.075
 21
99.625
  0
TEXT
  7
TextStyle03
  8
文字
  6
CONTINUOUS
 10
-165.425
 20
105.675
  1
は排水穴位置を示す
 40
3.0
 72
     5
 11
-135.425
 21
105.675
  0
TEXT
  7
TextStyle03
  8
文字
  6
CONTINUOUS
 10
-165.425
 20
100.15
  1
はケーシング位置を示す
 40
3.0
 72
     5
 11
-128.675
 21
100.15
  0
TEXT
  7
TextStyle03
  8
文字
  6
CONTINUOUS
 10
-165.425
 20
96.775
  1
２ヶ所中1ヶ所に設定
 40
3.0
 72
     5
 11
-133.7375
 21
96.775
  0
TEXT
  7
TextStyle03
  8
文字
  6
CONTINUOUS
 10
-164.85
 20
30.8
  1
アンカーピッチ
 40
3.0
 50
90.0
 72
     5
 11
-164.85
 21
54.05
  0
TEXT
  7
TextStyle03
  8
文字
  6
CONTINUOUS
 10
-119.275
 20
101.575
  1
アンカーピッチ
 40
3.0
 72
     5
 11
-96.025
 21
101.575
  0
TEXT
  7
TextStyle03
  8
文字
  6
CONTINUOUS
 10
-169.15
 20
90.8
  1
アンカー数量　１６ヶ所
 40
3.0
 72
     5
 11
-132.4
 21
90.8
  0
TEXT
  7
TextStyle03
  8
文字
  6
CONTINUOUS
 10
102.6
 20
-71.525
  1
網入り6.8t
 40
3.0
 72
     5
 11
119.2875
 21
-71.525
  0
TEXT
  7
TextStyle03
  8
文字
  6
CONTINUOUS
 10
109.225
 20
-76.775
  1
×４枚
 40
3.0
 72
     5
 11
118.975
 21
-76.775
  0
INSERT
  2
*DIM_0003
  8
寸法
  6
CONTINUOUS
 10
0.0
 20
0.0
  0
INSERT
  2
*DIM_0004
  8
寸法
  6
CONTINUOUS
 10
0.0
 20
0.0
  0
INSERT
  2
*DIM_0005
  8
寸法
  6
CONTINUOUS
 10
0.0
 20
0.0
  0
INSERT
  2
*DIM_0007
  8
寸法
  6
CONTINUOUS
 10
0.0
 20
0.0
  0
INSERT
  2
*DIM_0008
  8
寸法
  6
CONTINUOUS
 10
0.0
 20
0.0
  0
INSERT
  2
*DIM_0009
  8
寸法
  6
CONTINUOUS
 10
0.0
 20
0.0
  0
INSERT
  2
*DIM_0010
  8
寸法
  6
CONTINUOUS
 10
0.0
 20
0.0
  0
INSERT
  2
*DIM_0011
  8
寸法
  6
CONTINUOUS
 10
0.0
 20
0.0
  0
INSERT
  2
*DIM_0012
  8
寸法
  6
CONTINUOUS
 10
0.0
 20
0.0
  0
INSERT
  2
*DIM_0013
  8
寸法
  6
CONTINUOUS
 10
0.0
 20
0.0
  0
INSERT
  2
*DIM_0014
  8
寸法
  6
CONTINUOUS
 10
0.0
 20
0.0
  0
INSERT
  2
*DIM_0015
  8
寸法
  6
CONTINUOUS
 10
0.0
 20
0.0
  0
INSERT
  2
*DIM_0016
  8
寸法
  6
CONTINUOUS
 10
0.0
 20
0.0
  0
INSERT
  2
*DIM_0017
  8
寸法
  6
CONTINUOUS
 10
0.0
 20
0.0
  0
INSERT
  2
*DIM_0018
  8
寸法
  6
CONTINUOUS
 10
0.0
 20
0.0
  0
INSERT
  2
*DIM_0019
  8
寸法
  6
CONTINUOUS
 10
0.0
 20
0.0
  0
INSERT
  2
*DIM_0020
  8
寸法
  6
CONTINUOUS
 10
0.0
 20
0.0
  0
INSERT
  2
*DIM_0021
  8
寸法
  6
CONTINUOUS
 10
0.0
 20
0.0
  0
INSERT
  2
*GRP_0006
  8
別途部材
  6
CONTINUOUS
 10
0.0
 20
0.0
  0
LINE
  8
曲げ物
  6
CONTINUOUS
 10
-9.331207
 20
43.858343
 11
-13.02652
 21
40.16303
  0
LINE
  8
曲げ物
  6
CONTINUOUS
 10
-10.034677
 20
42.322233
 11
-11.490408
 21
40.866503
  0
LINE
  8
曲げ物
  6
CONTINUOUS
 10
-10.867317
 20
43.154873
 11
-12.323048
 21
41.699143
  0
LINE
  8
曲げ物
  6
CONTINUOUS
 10
-40.485525
 20
43.858343
 11
-44.180837
 21
40.16303
  0
LINE
  8
曲げ物
  6
CONTINUOUS
 10
-41.188995
 20
42.322233
 11
-42.644725
 21
40.866503
  0
LINE
  8
曲げ物
  6
CONTINUOUS
 10
-42.021635
 20
43.154873
 11
-43.477365
 21
41.699143
  0
LINE
  8
曲げ物
  6
CONTINUOUS
 10
-75.14979
 20
43.858343
 11
-78.845103
 21
40.16303
  0
LINE
  8
曲げ物
  6
CONTINUOUS
 10
-75.85326
 20
42.322233
 11
-77.30899
 21
40.866503
  0
LINE
  8
曲げ物
  6
CONTINUOUS
 10
-76.6859
 20
43.154873
 11
-78.14163
 21
41.699143
  0
LINE
  8
曲げ物
  6
CONTINUOUS
 10
-108.381347
 20
43.858343
 11
-112.07666
 21
40.16303
  0
LINE
  8
曲げ物
  6
CONTINUOUS
 10
-109.084818
 20
42.322233
 11
-110.540547
 21
40.866503
  0
LINE
  8
曲げ物
  6
CONTINUOUS
 10
-109.917458
 20
43.154873
 11
-111.373188
 21
41.699143
  0
ENDSEC
  0
EOF
