  0
SECTION
  2
HEADER
  9
$EXTMIN
 10
-210.0
 20
-148.5
  9
$EXTMAX
 10
210.0
 20
148.5
  9
$PDMODE
 70
    32
  9
$PDSIZE
 40
1.5
  9
$LTSCALE
 40
10.0
  0
ENDSEC
  0
SECTION
  2
TABLES
  0
TABLE
  2
LTYPE
 70
    15
  0
LTYPE
  2
CONTINUOUS
 70
    64
  3
実線
 72
    65
 73
     0
 40
0.0
  0
LTYPE
  2
DASHED
 70
    64
  3
破線A
 72
    65
 73
     2
 40
0.6
 49
0.4
 49
-0.2
  0
LTYPE
  2
DASHEDX2
 70
    64
  3
破線B
 72
    65
 73
     2
 40
1.3
 49
0.9
 49
-0.4
  0
LTYPE
  2
DASHDOT
 70
    64
  3
１点鎖線A
 72
    65
 73
     4
 40
0.5375
 49
0.375
 49
-0.05
 49
0.0625
 49
-0.05
  0
LTYPE
  2
DASHDOTX2
 70
    64
  3
１点鎖線B
 72
    65
 73
     4
 40
1.075
 49
0.75
 49
-0.1
 49
0.125
 49
-0.1
  0
LTYPE
  2
DIVIDE2
 70
    64
  3
２点鎖線A
 72
    65
 73
     6
 40
0.5125
 49
0.3
 49
-0.0375
 49
0.05
 49
-0.0375
 49
0.05
 49
-0.0375
  0
LTYPE
  2
DIVIDE
 70
    64
  3
２点鎖線B
 72
    65
 73
     6
 40
1.05
 49
0.55
 49
-0.1
 49
0.1
 49
-0.1
 49
0.1
 49
-0.1
  0
LTYPE
  2
DOT
 70
    64
  3
点線A
 72
    65
 73
     2
 40
0.1125
 49
0.0625
 49
-0.05
  0
LTYPE
  2
DOTX2
 70
    64
  3
点線B
 72
    65
 73
     2
 40
0.275
 49
0.15
 49
-0.125
  0
LTYPE
  2
CONTINUOUS
 70
    64
  3
実線
 72
    65
 73
     0
 40
0.0
  0
LTYPE
  2
CONTINUOUS
 70
    64
  3
実線
 72
    65
 73
     0
 40
0.0
  0
LTYPE
  2
CONTINUOUS
 70
    64
  3
実線
 72
    65
 73
     0
 40
0.0
  0
LTYPE
  2
CONTINUOUS
 70
    64
  3
実線
 72
    65
 73
     0
 40
0.0
  0
LTYPE
  2
CONTINUOUS
 70
    64
  3
実線
 72
    65
 73
     0
 40
0.0
  0
LTYPE
  2
CONTINUOUS
 70
    64
  3
実線
 72
    65
 73
     0
 40
0.0
  0
ENDTAB
  0
TABLE
  2
LAYER
 70
    36
  0
LAYER
  2
通り芯
 70
     0
 62
    15
  6
CONTINUOUS
  0
LAYER
  2
補助線
 70
     0
 62
    16
  6
DOT
  0
LAYER
  2
躯体
 70
     0
 62
    31
  6
CONTINUOUS
  0
LAYER
  2
型材
 70
     0
 62
    32
  6
CONTINUOUS
  0
LAYER
  2
型材断面
 70
     0
 62
    47
  6
CONTINUOUS
  0
LAYER
  2
ガラス
 70
     0
 62
    48
  6
CONTINUOUS
  0
LAYER
  2
ゴム等
 70
     0
 62
    63
  6
CONTINUOUS
  0
LAYER
  2
ボルト／ビス
 70
     0
 62
    64
  6
CONTINUOUS
  0
LAYER
  2
文字
 70
     0
 62
    79
  6
CONTINUOUS
  0
LAYER
  2
寸法
 70
     0
 62
    80
  6
CONTINUOUS
  0
LAYER
  2
ﾊｯﾁﾝｸﾞ
 70
     0
 62
    95
  6
CONTINUOUS
  0
LAYER
  2
別途部材
 70
     0
 62
    96
  6
CONTINUOUS
  0
LAYER
  2
曲げ物
 70
     0
 62
   111
  6
CONTINUOUS
  0
LAYER
  2
鉄骨等
 70
     0
 62
   112
  6
CONTINUOUS
  0
LAYER
  2
St
 70
     0
 62
   127
  6
CONTINUOUS
  0
LAYER
  2
その他部品等
 70
     0
 62
   128
  6
CONTINUOUS
  0
LAYER
  2
ｶﾞｽｹｯﾄ
 70
     0
 62
   143
  6
CONTINUOUS
  0
LAYER
  2
ｽｹｯﾁ
 70
     0
 62
    14
  6
CONTINUOUS
  0
LAYER
  2
0
 70
     0
 62
    17
  6
CONTINUOUS
  0
LAYER
  2
1
 70
     0
 62
    30
  6
CONTINUOUS
  0
LAYER
  2
4
 70
     0
 62
    33
  6
CONTINUOUS
  0
LAYER
  2
ﾚｲﾔ3
 70
     0
 62
    46
  6
CONTINUOUS
  0
LAYER
  2
外形線
 70
     0
 62
    49
  6
CONTINUOUS
  0
LAYER
  2
部品
 70
     0
 62
    14
  6
CONTINUOUS
  0
LAYER
  2
サッシ芯
 70
     0
 62
    17
  6
DASHDOTX2
  0
LAYER
  2
寸法線
 70
     0
 62
    62
  6
CONTINUOUS
  0
LAYER
  2
姿図外形線
 70
     0
 62
    65
  6
CONTINUOUS
  0
LAYER
  2
姿補助線
 70
     0
 62
    30
  6
CONTINUOUS
  0
LAYER
  2
透視線
 70
     0
 62
    78
  6
DOT
  0
LAYER
  2
用紙
 70
     0
 62
    81
  6
CONTINUOUS
  0
LAYER
  2
実線図枠
 70
     0
 62
    94
  6
CONTINUOUS
  0
LAYER
  2
補助図枠
 70
     0
 62
    97
  6
CONTINUOUS
  0
LAYER
  2
建具記号
 70
     0
 62
   110
  6
CONTINUOUS
  0
LAYER
  2
補助文字
 70
     0
 62
   113
  6
CONTINUOUS
  0
LAYER
  2
LAYER001
 70
     0
 62
     7
  6
CONTINUOUS
  0
LAYER
  2
LAYER010
 70
     0
 62
    11
  6
CONTINUOUS
  0
ENDTAB
  0
TABLE
  2
STYLE
 70
    10
  0
STYLE
  2
STANDARD
 70
     0
 40
1.0
 41
1.0
 42
1.0
 50
0.0
 71
     0
  3
TXT
  4
BIGFONT
  0
STYLE
  2
TATE
 70
     4
 40
1.0
 41
1.0
 42
1.0
 50
0.0
 71
     0
  3
TXT
  4
BIGFONT
  0
STYLE
  2
TextStyle03
 70
     0
 40
1.0
 41
1.0
 42
1.0
 50
0.0
 71
     0
  3
MONOTXT
  4
BIGFONT
  0
STYLE
  2
TextStyle04
 70
     0
 40
1.0
 41
1.0
 42
1.0
 50
0.0
 71
     0
  3
MONOTXT
  4
BIGFONT
  0
STYLE
  2
TextStyle05
 70
     0
 40
1.0
 41
1.0
 42
1.0
 50
0.0
 71
     0
  3
MONOTXT
  4
BIGFONT
  0
STYLE
  2
TextStyle06
 70
     0
 40
1.0
 41
1.0
 42
1.0
 50
0.0
 71
     0
  3
MONOTXT
  4
BIGFONT
  0
STYLE
  2
TextStyle07
 70
     0
 40
1.0
 41
1.0
 42
1.0
 50
0.0
 71
     0
  3
MONOTXT
  4
BIGFONT
  0
STYLE
  2
TextStyle08
 70
     0
 40
1.0
 41
1.0
 42
1.0
 50
0.0
 71
     0
  3
MONOTXT
  4
BIGFONT
  0
STYLE
  2
TextStyle09
 70
     0
 40
1.0
 41
1.0
 42
1.0
 50
0.0
 71
     0
  3
MONOTXT
  4
BIGFONT
  0
STYLE
  2
TextStyle10
 70
     0
 40
1.0
 41
1.0
 42
1.0
 50
0.0
 71
     0
  3
MONOTXT
  4
BIGFONT
  0
ENDTAB
  0
ENDSEC
  0
SECTION
  2
BLOCKS
  0
BLOCK
  2
*HAT_0001
 70
    65
 10
0.0
 20
0.0
  0
LINE
  8
ゴム等
 10
-26.375
 20
-17.075
 11
-27.875
 21
-15.525
  0
LINE
  8
ゴム等
 10
-28.625
 20
-14.825
 11
-30.375
 21
-13.025
  0
LINE
  8
ゴム等
 10
-26.375
 20
-18.775
 11
-32.075
 21
-13.025
  0
LINE
  8
ゴム等
 10
-26.375
 20
-20.425
 11
-33.775
 21
-13.025
  0
LINE
  8
ゴム等
 10
-27.975
 20
-20.525
 11
-34.025
 21
-14.475
  0
LINE
  8
ゴム等
 10
-29.675
 20
-20.525
 11
-34.675
 21
-15.525
  0
LINE
  8
ゴム等
 10
-31.625
 20
-20.275
 11
-36.325
 21
-15.525
  0
LINE
  8
ゴム等
 10
-33.025
 20
-20.525
 11
-36.375
 21
-17.225
  0
LINE
  8
ゴム等
 10
-34.725
 20
-20.525
 11
-36.375
 21
-18.925
  0
ENDBLK
  0
BLOCK
  2
*HAT_0002
 70
    65
 10
0.0
 20
0.0
  0
LINE
  8
ゴム等
 10
-77.125
 20
-27.925
 11
-75.975
 21
-26.775
  0
LINE
  8
ゴム等
 10
-75.625
 20
-26.475
 11
-74.475
 21
-25.325
  0
LINE
  8
ゴム等
 10
-78.825
 20
-27.925
 11
-77.825
 21
-26.925
  0
LINE
  8
ゴム等
 10
-75.475
 20
-24.625
 11
-74.525
 21
-23.625
  0
LINE
  8
ゴム等
 10
-80.525
 20
-27.925
 11
-79.525
 21
-26.925
  0
LINE
  8
ゴム等
 10
-75.775
 20
-23.225
 11
-75.075
 21
-22.525
  0
LINE
  8
ゴム等
 10
-82.175
 20
-27.925
 11
-81.175
 21
-26.925
  0
LINE
  8
ゴム等
 10
-77.175
 20
-22.925
 11
-76.225
 21
-21.975
  0
LINE
  8
ゴム等
 10
-83.875
 20
-27.925
 11
-82.875
 21
-26.925
  0
LINE
  8
ゴム等
 10
-78.875
 20
-22.925
 11
-77.875
 21
-21.925
  0
LINE
  8
ゴム等
 10
-85.375
 20
-27.725
 11
-84.575
 21
-26.925
  0
LINE
  8
ゴム等
 10
-80.575
 20
-22.925
 11
-77.375
 21
-19.725
  0
LINE
  8
ゴム等
 10
-86.225
 20
-26.925
 11
-85.475
 21
-26.125
  0
LINE
  8
ゴム等
 10
-82.275
 20
-22.925
 11
-78.275
 21
-18.925
  0
LINE
  8
ゴム等
 10
-86.475
 20
-25.475
 11
-85.475
 21
-24.475
  0
LINE
  8
ゴム等
 10
-83.975
 20
-22.925
 11
-82.975
 21
-21.925
  0
LINE
  8
ゴム等
 10
-82.625
 20
-21.625
 11
-79.975
 21
-18.925
  0
LINE
  8
ゴム等
 10
-86.475
 20
-23.775
 11
-84.675
 21
-21.975
  0
LINE
  8
ゴム等
 10
-83.225
 20
-20.475
 11
-81.675
 21
-18.925
  0
LINE
  8
ゴム等
 10
-83.775
 20
-19.375
 11
-83.375
 21
-18.925
  0
ENDBLK
  0
BLOCK
  2
*HAT_0003
 70
    65
 10
0.0
 20
0.0
  0
LINE
  8
ゴム等
 10
-47.025
 20
-27.925
 11
-45.475
 21
-26.425
  0
LINE
  8
ゴム等
 10
-48.675
 20
-27.925
 11
-45.475
 21
-24.725
  0
LINE
  8
ゴム等
 10
-50.375
 20
-27.925
 11
-45.475
 21
-23.025
  0
LINE
  8
ゴム等
 10
-52.075
 20
-27.925
 11
-46.075
 21
-21.925
  0
LINE
  8
ゴム等
 10
-53.775
 20
-27.925
 11
-47.775
 21
-21.925
  0
LINE
  8
ゴム等
 10
-55.475
 20
-27.925
 11
-49.475
 21
-21.925
  0
LINE
  8
ゴム等
 10
-57.175
 20
-27.925
 11
-51.175
 21
-21.925
  0
LINE
  8
ゴム等
 10
-58.875
 20
-27.925
 11
-52.875
 21
-21.925
  0
LINE
  8
ゴム等
 10
-60.475
 20
-27.875
 11
-54.575
 21
-21.925
  0
LINE
  8
ゴム等
 10
-60.475
 20
-26.175
 11
-56.275
 21
-21.925
  0
LINE
  8
ゴム等
 10
-60.475
 20
-24.475
 11
-57.975
 21
-21.925
  0
LINE
  8
ゴム等
 10
-60.475
 20
-22.775
 11
-59.625
 21
-21.925
  0
ENDBLK
  0
BLOCK
  2
*HAT_0004
 70
    65
 10
0.0
 20
0.0
  0
LINE
  8
ゴム等
 10
-40.825
 20
-39.825
 11
-39.275
 21
-38.325
  0
LINE
  8
ゴム等
 10
-38.575
 20
-37.575
 11
-36.775
 21
-35.825
  0
LINE
  8
ゴム等
 10
-42.525
 20
-39.825
 11
-36.775
 21
-34.125
  0
LINE
  8
ゴム等
 10
-44.175
 20
-39.825
 11
-36.775
 21
-32.425
  0
LINE
  8
ゴム等
 10
-44.275
 20
-38.225
 11
-38.225
 21
-32.175
  0
LINE
  8
ゴム等
 10
-44.275
 20
-36.525
 11
-39.275
 21
-31.525
  0
LINE
  8
ゴム等
 10
-44.025
 20
-34.575
 11
-39.275
 21
-29.875
  0
LINE
  8
ゴム等
 10
-44.275
 20
-33.175
 11
-40.975
 21
-29.825
  0
LINE
  8
ゴム等
 10
-44.275
 20
-31.475
 11
-42.675
 21
-29.825
  0
ENDBLK
  0
BLOCK
  2
*HAT_0005
 70
    65
 10
0.0
 20
0.0
  0
LINE
  8
ゴム等
 10
-37.025
 20
65.175
 11
-35.475
 21
66.675
  0
LINE
  8
ゴム等
 10
-34.775
 20
67.425
 11
-32.975
 21
69.175
  0
LINE
  8
ゴム等
 10
-38.725
 20
65.175
 11
-32.975
 21
70.875
  0
LINE
  8
ゴム等
 10
-40.375
 20
65.175
 11
-32.975
 21
72.575
  0
LINE
  8
ゴム等
 10
-40.475
 20
66.775
 11
-34.425
 21
72.825
  0
LINE
  8
ゴム等
 10
-40.475
 20
68.475
 11
-35.475
 21
73.475
  0
LINE
  8
ゴム等
 10
-40.225
 20
70.425
 11
-35.475
 21
75.125
  0
LINE
  8
ゴム等
 10
-40.475
 20
71.825
 11
-37.175
 21
75.175
  0
LINE
  8
ゴム等
 10
-40.475
 20
73.525
 11
-38.875
 21
75.175
  0
ENDBLK
  0
BLOCK
  2
*HAT_0006
 70
    65
 10
0.0
 20
0.0
  0
LINE
  8
ゴム等
 10
-12.4
 20
-86.775
 11
-13.9
 21
-88.325
  0
LINE
  8
ゴム等
 10
-14.65
 20
-89.025
 11
-16.4
 21
-90.825
  0
LINE
  8
ゴム等
 10
-12.4
 20
-85.075
 11
-18.1
 21
-90.825
  0
LINE
  8
ゴム等
 10
-12.4
 20
-83.425
 11
-19.8
 21
-90.825
  0
LINE
  8
ゴム等
 10
-14.0
 20
-83.325
 11
-20.05
 21
-89.375
  0
LINE
  8
ゴム等
 10
-15.7
 20
-83.325
 11
-20.7
 21
-88.325
  0
LINE
  8
ゴム等
 10
-17.65
 20
-83.575
 11
-22.35
 21
-88.325
  0
LINE
  8
ゴム等
 10
-19.05
 20
-83.325
 11
-22.4
 21
-86.625
  0
LINE
  8
ゴム等
 10
-20.75
 20
-83.325
 11
-22.4
 21
-84.925
  0
ENDBLK
  0
BLOCK
  2
*HAT_0007
 70
    65
 10
0.0
 20
0.0
  0
LINE
  8
ゴム等
 10
-41.15
 20
-17.4
 11
-40.25
 21
-16.5
  0
LINE
  8
ゴム等
 10
-42.55
 20
-17.4
 11
-40.25
 21
-15.1
  0
LINE
  8
ゴム等
 10
-43.975
 20
-17.4
 11
-40.25
 21
-13.675
  0
LINE
  8
ゴム等
 10
-45.375
 20
-17.4
 11
-40.25
 21
-12.25
  0
LINE
  8
ゴム等
 10
-46.8
 20
-17.4
 11
-40.25
 21
-10.85
  0
LINE
  8
ゴム等
 10
-48.2
 20
-17.4
 11
-40.25
 21
-9.45
  0
LINE
  8
ゴム等
 10
-49.625
 20
-17.4
 11
-40.25
 21
-8.025
  0
LINE
  8
ゴム等
 10
-50.25
 20
-16.625
 11
-40.25
 21
-6.625
  0
LINE
  8
ゴム等
 10
-50.25
 20
-15.2
 11
-40.25
 21
-5.2
  0
LINE
  8
ゴム等
 10
-50.25
 20
-13.8
 11
-40.25
 21
-3.8
  0
LINE
  8
ゴム等
 10
-50.25
 20
-12.375
 11
-40.25
 21
-2.375
  0
LINE
  8
ゴム等
 10
-50.25
 20
-10.975
 11
-40.25
 21
-0.975
  0
LINE
  8
ゴム等
 10
-50.25
 20
-9.55
 11
-40.25
 21
0.45
  0
LINE
  8
ゴム等
 10
-50.25
 20
-8.15
 11
-40.25
 21
1.85
  0
LINE
  8
ゴム等
 10
-50.25
 20
-6.725
 11
-40.25
 21
3.275
  0
LINE
  8
ゴム等
 10
-50.25
 20
-5.325
 11
-40.25
 21
4.675
  0
LINE
  8
ゴム等
 10
-50.25
 20
-3.9
 11
-40.25
 21
6.1
  0
LINE
  8
ゴム等
 10
-50.25
 20
-2.5
 11
-40.25
 21
7.5
  0
LINE
  8
ゴム等
 10
-50.25
 20
-1.075
 11
-40.25
 21
8.925
  0
LINE
  8
ゴム等
 10
-50.25
 20
0.325
 11
-40.25
 21
10.325
  0
LINE
  8
ゴム等
 10
-50.25
 20
1.75
 11
-40.25
 21
11.75
  0
LINE
  8
ゴム等
 10
-50.25
 20
3.15
 11
-40.25
 21
13.15
  0
LINE
  8
ゴム等
 10
-50.25
 20
4.55
 11
-40.25
 21
14.575
  0
LINE
  8
ゴム等
 10
-50.25
 20
5.975
 11
-40.25
 21
15.975
  0
LINE
  8
ゴム等
 10
-50.25
 20
7.375
 11
-40.25
 21
17.4
  0
LINE
  8
ゴム等
 10
-50.25
 20
8.8
 11
-40.25
 21
18.8
  0
LINE
  8
ゴム等
 10
-50.25
 20
10.2
 11
-40.25
 21
20.2
  0
LINE
  8
ゴム等
 10
-50.25
 20
11.625
 11
-40.25
 21
21.625
  0
LINE
  8
ゴム等
 10
-50.25
 20
13.025
 11
-40.675
 21
22.6
  0
LINE
  8
ゴム等
 10
-50.25
 20
14.45
 11
-42.1
 21
22.6
  0
LINE
  8
ゴム等
 10
-50.25
 20
15.85
 11
-43.5
 21
22.6
  0
LINE
  8
ゴム等
 10
-50.25
 20
17.275
 11
-44.925
 21
22.6
  0
LINE
  8
ゴム等
 10
-50.25
 20
18.675
 11
-46.325
 21
22.6
  0
LINE
  8
ゴム等
 10
-50.25
 20
20.1
 11
-47.75
 21
22.6
  0
LINE
  8
ゴム等
 10
-50.25
 20
21.5
 11
-49.15
 21
22.6
  0
ENDBLK
  0
BLOCK
  2
*HAT_0008
 70
    65
 10
0.0
 20
0.0
  0
LINE
  8
ゴム等
 10
-35.35
 20
-81.9
 11
-34.225
 21
-80.8
  0
LINE
  8
ゴム等
 10
-36.75
 20
-81.9
 11
-34.225
 21
-79.375
  0
LINE
  8
ゴム等
 10
-38.175
 20
-81.9
 11
-34.225
 21
-77.975
  0
LINE
  8
ゴム等
 10
-39.575
 20
-81.9
 11
-34.225
 21
-76.55
  0
LINE
  8
ゴム等
 10
-41.0
 20
-81.9
 11
-34.225
 21
-75.15
  0
LINE
  8
ゴム等
 10
-42.4
 20
-81.9
 11
-34.225
 21
-73.725
  0
LINE
  8
ゴム等
 10
-43.825
 20
-81.9
 11
-34.225
 21
-72.325
  0
LINE
  8
ゴム等
 10
-44.225
 20
-80.9
 11
-34.225
 21
-70.9
  0
LINE
  8
ゴム等
 10
-44.225
 20
-79.5
 11
-34.225
 21
-69.5
  0
LINE
  8
ゴム等
 10
-44.225
 20
-78.075
 11
-34.225
 21
-68.1
  0
LINE
  8
ゴム等
 10
-44.225
 20
-76.675
 11
-34.225
 21
-66.675
  0
LINE
  8
ゴム等
 10
-44.225
 20
-75.275
 11
-34.225
 21
-65.275
  0
LINE
  8
ゴム等
 10
-44.225
 20
-73.85
 11
-34.225
 21
-63.85
  0
LINE
  8
ゴム等
 10
-44.225
 20
-72.45
 11
-34.225
 21
-62.45
  0
LINE
  8
ゴム等
 10
-44.225
 20
-71.025
 11
-34.225
 21
-61.025
  0
LINE
  8
ゴム等
 10
-44.225
 20
-69.625
 11
-34.225
 21
-59.625
  0
LINE
  8
ゴム等
 10
-44.225
 20
-68.2
 11
-34.225
 21
-58.2
  0
LINE
  8
ゴム等
 10
-44.225
 20
-66.8
 11
-34.225
 21
-56.8
  0
LINE
  8
ゴム等
 10
-44.225
 20
-65.375
 11
-34.225
 21
-55.375
  0
LINE
  8
ゴム等
 10
-44.225
 20
-63.975
 11
-34.225
 21
-53.975
  0
LINE
  8
ゴム等
 10
-44.225
 20
-62.55
 11
-34.225
 21
-52.55
  0
LINE
  8
ゴム等
 10
-44.225
 20
-61.15
 11
-34.225
 21
-51.15
  0
LINE
  8
ゴム等
 10
-44.225
 20
-59.725
 11
-34.225
 21
-49.725
  0
LINE
  8
ゴム等
 10
-44.225
 20
-58.325
 11
-34.225
 21
-48.325
  0
LINE
  8
ゴム等
 10
-44.225
 20
-56.9
 11
-34.225
 21
-46.9
  0
LINE
  8
ゴム等
 10
-44.225
 20
-55.5
 11
-35.35
 21
-46.6
  0
LINE
  8
ゴム等
 10
-44.225
 20
-54.075
 11
-36.75
 21
-46.6
  0
LINE
  8
ゴム等
 10
-44.225
 20
-52.675
 11
-38.175
 21
-46.6
  0
LINE
  8
ゴム等
 10
-44.225
 20
-51.25
 11
-39.575
 21
-46.6
  0
LINE
  8
ゴム等
 10
-44.225
 20
-49.85
 11
-41.0
 21
-46.6
  0
LINE
  8
ゴム等
 10
-44.225
 20
-48.425
 11
-42.4
 21
-46.6
  0
LINE
  8
ゴム等
 10
-44.225
 20
-47.025
 11
-43.825
 21
-46.6
  0
ENDBLK
  0
BLOCK
  2
*HAT_0009
 70
    65
 10
0.0
 20
0.0
  0
LINE
  8
ﾊｯﾁﾝｸﾞ
 10
8.325
 20
87.5
 11
8.825
 21
88.0
  0
LINE
  8
ﾊｯﾁﾝｸﾞ
 10
5.5
 20
87.5
 11
8.825
 21
90.825
  0
LINE
  8
ﾊｯﾁﾝｸﾞ
 10
3.375
 20
88.2
 11
8.825
 21
93.675
  0
LINE
  8
ﾊｯﾁﾝｸﾞ
 10
3.375
 20
91.025
 11
8.75
 21
96.4
  0
LINE
  8
ﾊｯﾁﾝｸﾞ
 10
3.375
 20
93.875
 11
5.925
 21
96.4
  0
LINE
  8
ﾊｯﾁﾝｸﾞ
 10
3.375
 20
89.9
 11
5.775
 21
87.5
  0
LINE
  8
ﾊｯﾁﾝｸﾞ
 10
3.375
 20
92.725
 11
8.6
 21
87.5
  0
LINE
  8
ﾊｯﾁﾝｸﾞ
 10
3.375
 20
95.55
 11
8.825
 21
90.1
  0
LINE
  8
ﾊｯﾁﾝｸﾞ
 10
5.375
 20
96.4
 11
8.825
 21
92.925
  0
LINE
  8
ﾊｯﾁﾝｸﾞ
 10
8.2
 20
96.4
 11
8.825
 21
95.75
  0
ENDBLK
  0
BLOCK
  2
*HAT_0010
 70
    65
 10
0.0
 20
0.0
  0
LINE
  8
その他部品等
 10
-7.9
 20
-88.425
 11
-7.35
 21
-87.875
  0
LINE
  8
その他部品等
 10
-9.3
 20
-88.425
 11
-7.35
 21
-86.475
  0
LINE
  8
その他部品等
 10
-10.7
 20
-88.425
 11
-7.35
 21
-85.075
  0
LINE
  8
その他部品等
 10
-12.1
 20
-88.425
 11
-7.35
 21
-83.675
  0
LINE
  8
その他部品等
 10
-12.35
 20
-87.225
 11
-8.55
 21
-83.425
  0
LINE
  8
その他部品等
 10
-12.35
 20
-85.825
 11
-9.95
 21
-83.425
  0
LINE
  8
その他部品等
 10
-12.35
 20
-84.425
 11
-11.35
 21
-83.425
  0
LINE
  8
その他部品等
 10
-12.4
 20
-88.175
 11
-12.15
 21
-88.425
  0
LINE
  8
その他部品等
 10
-12.4
 20
-86.775
 11
-10.75
 21
-88.425
  0
LINE
  8
その他部品等
 10
-12.4
 20
-85.375
 11
-9.35
 21
-88.425
  0
LINE
  8
その他部品等
 10
-12.4
 20
-83.925
 11
-7.9
 21
-88.425
  0
LINE
  8
その他部品等
 10
-11.5
 20
-83.425
 11
-7.4
 21
-87.525
  0
LINE
  8
その他部品等
 10
-10.1
 20
-83.425
 11
-7.4
 21
-86.125
  0
LINE
  8
その他部品等
 10
-8.7
 20
-83.425
 11
-7.4
 21
-84.725
  0
ENDBLK
  0
BLOCK
  2
*HAT_0011
 70
    65
 10
0.0
 20
0.0
  0
LINE
  8
その他部品等
 10
-26.375
 20
-97.275
 11
-26.275
 21
-97.175
  0
LINE
  8
その他部品等
 10
-27.9
 20
-97.4
 11
-26.4
 21
-95.9
  0
LINE
  8
その他部品等
 10
-29.425
 20
-97.5
 11
-27.825
 21
-95.9
  0
LINE
  8
その他部品等
 10
-30.95
 20
-97.625
 11
-29.225
 21
-95.9
  0
LINE
  8
その他部品等
 10
-32.475
 20
-97.75
 11
-30.65
 21
-95.9
  0
LINE
  8
その他部品等
 10
-34.0
 20
-97.85
 11
-32.05
 21
-95.9
  0
LINE
  8
その他部品等
 10
-35.525
 20
-97.975
 11
-33.475
 21
-95.9
  0
LINE
  8
その他部品等
 10
-37.05
 20
-98.1
 11
-34.875
 21
-95.9
  0
LINE
  8
その他部品等
 10
-38.575
 20
-98.2
 11
-36.3
 21
-95.9
  0
LINE
  8
その他部品等
 10
-40.125
 20
-98.325
 11
-37.7
 21
-95.9
  0
LINE
  8
その他部品等
 10
-41.65
 20
-98.425
 11
-39.125
 21
-95.9
  0
LINE
  8
その他部品等
 10
-43.175
 20
-98.55
 11
-40.525
 21
-95.9
  0
LINE
  8
その他部品等
 10
-44.7
 20
-98.675
 11
-41.95
 21
-95.9
  0
LINE
  8
その他部品等
 10
-46.225
 20
-98.775
 11
-43.35
 21
-95.9
  0
LINE
  8
その他部品等
 10
-47.75
 20
-98.9
 11
-44.75
 21
-95.9
  0
LINE
  8
その他部品等
 10
-49.275
 20
-99.025
 11
-46.175
 21
-95.9
  0
LINE
  8
その他部品等
 10
-50.8
 20
-99.125
 11
-47.7
 21
-96.025
  0
LINE
  8
その他部品等
 10
-52.325
 20
-99.25
 11
-49.225
 21
-96.125
  0
LINE
  8
その他部品等
 10
-53.875
 20
-99.35
 11
-50.75
 21
-96.25
  0
LINE
  8
その他部品等
 10
-55.4
 20
-99.475
 11
-52.275
 21
-96.375
  0
LINE
  8
その他部品等
 10
-56.925
 20
-99.6
 11
-53.8
 21
-96.475
  0
LINE
  8
その他部品等
 10
-58.45
 20
-99.7
 11
-55.35
 21
-96.6
  0
LINE
  8
その他部品等
 10
-59.975
 20
-99.825
 11
-56.875
 21
-96.725
  0
LINE
  8
その他部品等
 10
-61.5
 20
-99.95
 11
-58.4
 21
-96.825
  0
LINE
  8
その他部品等
 10
-63.025
 20
-100.05
 11
-59.925
 21
-96.95
  0
LINE
  8
その他部品等
 10
-64.55
 20
-100.175
 11
-61.45
 21
-97.05
  0
LINE
  8
その他部品等
 10
-66.075
 20
-100.275
 11
-62.975
 21
-97.175
  0
LINE
  8
その他部品等
 10
-67.625
 20
-100.4
 11
-64.5
 21
-97.3
  0
LINE
  8
その他部品等
 10
-69.15
 20
-100.525
 11
-66.025
 21
-97.4
  0
LINE
  8
その他部品等
 10
-70.675
 20
-100.625
 11
-67.55
 21
-97.525
  0
LINE
  8
その他部品等
 10
-72.2
 20
-100.75
 11
-69.075
 21
-97.65
  0
LINE
  8
その他部品等
 10
-73.725
 20
-100.875
 11
-70.625
 21
-97.75
  0
LINE
  8
その他部品等
 10
-75.25
 20
-100.975
 11
-72.15
 21
-97.875
  0
LINE
  8
その他部品等
 10
-76.775
 20
-101.1
 11
-73.675
 21
-98.0
  0
LINE
  8
その他部品等
 10
-78.3
 20
-101.2
 11
-75.2
 21
-98.1
  0
LINE
  8
その他部品等
 10
-79.825
 20
-101.325
 11
-76.725
 21
-98.225
  0
LINE
  8
その他部品等
 10
-81.35
 20
-101.45
 11
-78.25
 21
-98.325
  0
LINE
  8
その他部品等
 10
-82.9
 20
-101.55
 11
-79.775
 21
-98.45
  0
LINE
  8
その他部品等
 10
-84.425
 20
-101.675
 11
-81.3
 21
-98.575
  0
LINE
  8
その他部品等
 10
-85.95
 20
-101.8
 11
-82.825
 21
-98.675
  0
LINE
  8
その他部品等
 10
-87.475
 20
-101.9
 11
-84.375
 21
-98.8
  0
LINE
  8
その他部品等
 10
-89.0
 20
-102.025
 11
-85.9
 21
-98.925
  0
LINE
  8
その他部品等
 10
-90.525
 20
-102.15
 11
-87.425
 21
-99.025
  0
LINE
  8
その他部品等
 10
-92.05
 20
-102.25
 11
-88.95
 21
-99.15
  0
LINE
  8
その他部品等
 10
-93.575
 20
-102.375
 11
-90.475
 21
-99.25
  0
LINE
  8
その他部品等
 10
-95.1
 20
-102.475
 11
-92.0
 21
-99.375
  0
LINE
  8
その他部品等
 10
-96.65
 20
-102.6
 11
-93.525
 21
-99.5
  0
LINE
  8
その他部品等
 10
-107.35
 20
-111.9
 11
-107.275
 21
-111.825
  0
LINE
  8
その他部品等
 10
-108.775
 20
-111.9
 11
-107.275
 21
-110.4
  0
LINE
  8
その他部品等
 10
-110.175
 20
-111.9
 11
-107.275
 21
-109.0
  0
LINE
  8
その他部品等
 10
-98.175
 20
-102.725
 11
-95.05
 21
-99.6
  0
LINE
  8
その他部品等
 10
-99.7
 20
-102.825
 11
-96.575
 21
-99.725
  0
LINE
  8
その他部品等
 10
-101.225
 20
-102.95
 11
-98.125
 21
-99.85
  0
LINE
  8
その他部品等
 10
-110.275
 20
-110.575
 11
-107.275
 21
-107.575
  0
LINE
  8
その他部品等
 10
-110.275
 20
-109.175
 11
-107.275
 21
-106.175
  0
LINE
  8
その他部品等
 10
-102.75
 20
-103.075
 11
-99.65
 21
-99.95
  0
LINE
  8
その他部品等
 10
-104.275
 20
-103.175
 11
-101.175
 21
-100.075
  0
LINE
  8
その他部品等
 10
-110.275
 20
-107.775
 11
-107.2
 21
-104.675
  0
LINE
  8
その他部品等
 10
-105.825
 20
-103.3
 11
-102.7
 21
-100.2
  0
LINE
  8
その他部品等
 10
-110.275
 20
-106.35
 11
-104.225
 21
-100.3
  0
LINE
  8
その他部品等
 10
-110.275
 20
-104.95
 11
-105.75
 21
-100.425
  0
LINE
  8
その他部品等
 10
-110.275
 20
-103.525
 11
-107.275
 21
-100.525
  0
LINE
  8
その他部品等
 10
-110.275
 20
-102.125
 11
-108.8
 21
-100.65
  0
LINE
  8
その他部品等
 10
-110.275
 20
-111.1
 11
-109.475
 21
-111.9
  0
LINE
  8
その他部品等
 10
-110.275
 20
-109.7
 11
-108.075
 21
-111.9
  0
LINE
  8
その他部品等
 10
-110.275
 20
-108.3
 11
-107.275
 21
-111.3
  0
LINE
  8
その他部品等
 10
-110.275
 20
-106.875
 11
-107.275
 21
-109.875
  0
LINE
  8
その他部品等
 10
-110.275
 20
-105.475
 11
-107.275
 21
-108.475
  0
LINE
  8
その他部品等
 10
-110.275
 20
-104.05
 11
-107.275
 21
-107.05
  0
LINE
  8
その他部品等
 10
-110.275
 20
-102.65
 11
-107.275
 21
-105.65
  0
LINE
  8
その他部品等
 10
-110.275
 20
-101.225
 11
-107.075
 21
-104.425
  0
LINE
  8
その他部品等
 10
-109.4
 20
-100.7
 11
-106.475
 21
-103.6
  0
LINE
  8
その他部品等
 10
-108.1
 20
-100.6
 11
-105.425
 21
-103.25
  0
LINE
  8
その他部品等
 10
-106.775
 20
-100.5
 11
-104.1
 21
-103.175
  0
LINE
  8
その他部品等
 10
-105.475
 20
-100.4
 11
-102.8
 21
-103.075
  0
LINE
  8
その他部品等
 10
-104.15
 20
-100.3
 11
-101.475
 21
-102.975
  0
LINE
  8
その他部品等
 10
-102.85
 20
-100.2
 11
-100.175
 21
-102.875
  0
LINE
  8
その他部品等
 10
-101.525
 20
-100.1
 11
-98.85
 21
-102.775
  0
LINE
  8
その他部品等
 10
-100.225
 20
-100.0
 11
-97.55
 21
-102.675
  0
LINE
  8
その他部品等
 10
-98.9
 20
-99.9
 11
-96.225
 21
-102.575
  0
LINE
  8
その他部品等
 10
-97.6
 20
-99.8
 11
-94.925
 21
-102.475
  0
LINE
  8
その他部品等
 10
-96.275
 20
-99.7
 11
-93.6
 21
-102.375
  0
LINE
  8
その他部品等
 10
-94.975
 20
-99.6
 11
-92.3
 21
-102.275
  0
LINE
  8
その他部品等
 10
-93.65
 20
-99.5
 11
-90.975
 21
-102.175
  0
LINE
  8
その他部品等
 10
-92.325
 20
-99.4
 11
-89.675
 21
-102.075
  0
LINE
  8
その他部品等
 10
-91.025
 20
-99.3
 11
-88.35
 21
-101.975
  0
LINE
  8
その他部品等
 10
-89.725
 20
-99.2
 11
-87.05
 21
-101.875
  0
LINE
  8
その他部品等
 10
-88.4
 20
-99.1
 11
-85.725
 21
-101.775
  0
LINE
  8
その他部品等
 10
-87.1
 20
-99.0
 11
-84.425
 21
-101.675
  0
LINE
  8
その他部品等
 10
-85.775
 20
-98.9
 11
-83.1
 21
-101.575
  0
LINE
  8
その他部品等
 10
-84.475
 20
-98.8
 11
-81.8
 21
-101.475
  0
LINE
  8
その他部品等
 10
-83.15
 20
-98.7
 11
-80.475
 21
-101.375
  0
LINE
  8
その他部品等
 10
-81.85
 20
-98.6
 11
-79.175
 21
-101.275
  0
LINE
  8
その他部品等
 10
-80.525
 20
-98.5
 11
-77.85
 21
-101.175
  0
LINE
  8
その他部品等
 10
-79.225
 20
-98.4
 11
-76.55
 21
-101.075
  0
LINE
  8
その他部品等
 10
-77.9
 20
-98.3
 11
-75.225
 21
-100.975
  0
LINE
  8
その他部品等
 10
-76.6
 20
-98.2
 11
-73.925
 21
-100.875
  0
LINE
  8
その他部品等
 10
-75.275
 20
-98.1
 11
-72.6
 21
-100.775
  0
LINE
  8
その他部品等
 10
-73.975
 20
-98.0
 11
-71.3
 21
-100.675
  0
LINE
  8
その他部品等
 10
-72.65
 20
-97.9
 11
-69.975
 21
-100.575
  0
LINE
  8
その他部品等
 10
-71.35
 20
-97.8
 11
-68.675
 21
-100.475
  0
LINE
  8
その他部品等
 10
-70.025
 20
-97.7
 11
-67.35
 21
-100.375
  0
LINE
  8
その他部品等
 10
-68.725
 20
-97.6
 11
-66.05
 21
-100.275
  0
LINE
  8
その他部品等
 10
-67.4
 20
-97.5
 11
-64.725
 21
-100.175
  0
LINE
  8
その他部品等
 10
-66.1
 20
-97.4
 11
-63.425
 21
-100.075
  0
LINE
  8
その他部品等
 10
-64.775
 20
-97.3
 11
-62.1
 21
-99.975
  0
LINE
  8
その他部品等
 10
-63.475
 20
-97.225
 11
-60.8
 21
-99.875
  0
LINE
  8
その他部品等
 10
-62.15
 20
-97.125
 11
-59.475
 21
-99.775
  0
LINE
  8
その他部品等
 10
-60.85
 20
-97.025
 11
-58.175
 21
-99.675
  0
LINE
  8
その他部品等
 10
-59.525
 20
-96.925
 11
-56.85
 21
-99.575
  0
LINE
  8
その他部品等
 10
-58.225
 20
-96.825
 11
-55.55
 21
-99.475
  0
LINE
  8
その他部品等
 10
-56.9
 20
-96.725
 11
-54.225
 21
-99.375
  0
LINE
  8
その他部品等
 10
-55.6
 20
-96.625
 11
-52.925
 21
-99.275
  0
LINE
  8
その他部品等
 10
-54.275
 20
-96.525
 11
-51.6
 21
-99.175
  0
LINE
  8
その他部品等
 10
-52.95
 20
-96.425
 11
-50.3
 21
-99.075
  0
LINE
  8
その他部品等
 10
-51.65
 20
-96.325
 11
-48.975
 21
-98.975
  0
LINE
  8
その他部品等
 10
-50.35
 20
-96.225
 11
-47.675
 21
-98.875
  0
LINE
  8
その他部品等
 10
-49.025
 20
-96.125
 11
-46.35
 21
-98.8
  0
LINE
  8
その他部品等
 10
-47.725
 20
-96.025
 11
-45.05
 21
-98.7
  0
LINE
  8
その他部品等
 10
-46.4
 20
-95.925
 11
-43.725
 21
-98.6
  0
LINE
  8
その他部品等
 10
-45.0
 20
-95.9
 11
-42.425
 21
-98.5
  0
LINE
  8
その他部品等
 10
-43.6
 20
-95.9
 11
-41.1
 21
-98.4
  0
LINE
  8
その他部品等
 10
-42.175
 20
-95.9
 11
-39.8
 21
-98.3
  0
LINE
  8
その他部品等
 10
-40.775
 20
-95.9
 11
-38.475
 21
-98.2
  0
LINE
  8
その他部品等
 10
-39.35
 20
-95.9
 11
-37.175
 21
-98.1
  0
LINE
  8
その他部品等
 10
-37.95
 20
-95.9
 11
-35.85
 21
-98.0
  0
LINE
  8
その他部品等
 10
-36.525
 20
-95.9
 11
-34.55
 21
-97.9
  0
LINE
  8
その他部品等
 10
-35.125
 20
-95.9
 11
-33.225
 21
-97.8
  0
LINE
  8
その他部品等
 10
-33.7
 20
-95.9
 11
-31.925
 21
-97.7
  0
LINE
  8
その他部品等
 10
-32.3
 20
-95.9
 11
-30.6
 21
-97.6
  0
LINE
  8
その他部品等
 10
-30.875
 20
-95.9
 11
-29.3
 21
-97.5
  0
LINE
  8
その他部品等
 10
-29.475
 20
-95.9
 11
-27.975
 21
-97.4
  0
LINE
  8
その他部品等
 10
-28.05
 20
-95.9
 11
-26.675
 21
-97.3
  0
LINE
  8
その他部品等
 10
-26.65
 20
-95.9
 11
-26.275
 21
-96.275
  0
ENDBLK
  0
BLOCK
  2
*HAT_0012
 70
    65
 10
0.0
 20
0.0
  0
LINE
  8
その他部品等
 10
-26.7
 20
-110.3
 11
-26.275
 21
-109.9
  0
LINE
  8
その他部品等
 10
-28.1
 20
-110.3
 11
-26.275
 21
-108.475
  0
LINE
  8
その他部品等
 10
-29.5
 20
-110.3
 11
-26.275
 21
-107.075
  0
LINE
  8
その他部品等
 10
-30.925
 20
-110.3
 11
-26.275
 21
-105.65
  0
LINE
  8
その他部品等
 10
-32.325
 20
-110.3
 11
-26.275
 21
-104.25
  0
LINE
  8
その他部品等
 10
-33.75
 20
-110.3
 11
-26.275
 21
-102.825
  0
LINE
  8
その他部品等
 10
-35.15
 20
-110.3
 11
-26.275
 21
-101.425
  0
LINE
  8
その他部品等
 10
-36.575
 20
-110.3
 11
-26.275
 21
-100.0
  0
LINE
  8
その他部品等
 10
-37.975
 20
-110.3
 11
-26.575
 21
-98.9
  0
LINE
  8
その他部品等
 10
-39.4
 20
-110.3
 11
-28.1
 21
-99.025
  0
LINE
  8
その他部品等
 10
-40.8
 20
-110.3
 11
-29.625
 21
-99.125
  0
LINE
  8
その他部品等
 10
-42.225
 20
-110.3
 11
-31.15
 21
-99.25
  0
LINE
  8
その他部品等
 10
-43.625
 20
-110.3
 11
-32.675
 21
-99.35
  0
LINE
  8
その他部品等
 10
-45.05
 20
-110.3
 11
-34.2
 21
-99.475
  0
LINE
  8
その他部品等
 10
-46.075
 20
-109.925
 11
-35.75
 21
-99.6
  0
LINE
  8
その他部品等
 10
-46.075
 20
-108.5
 11
-37.275
 21
-99.7
  0
LINE
  8
その他部品等
 10
-46.075
 20
-107.1
 11
-38.8
 21
-99.825
  0
LINE
  8
その他部品等
 10
-46.075
 20
-105.675
 11
-40.325
 21
-99.95
  0
LINE
  8
その他部品等
 10
-46.075
 20
-104.275
 11
-41.85
 21
-100.05
  0
LINE
  8
その他部品等
 10
-46.075
 20
-102.875
 11
-43.375
 21
-100.175
  0
LINE
  8
その他部品等
 10
-46.075
 20
-101.45
 11
-44.9
 21
-100.3
  0
LINE
  8
その他部品等
 10
-46.075
 20
-108.95
 11
-44.725
 21
-110.3
  0
LINE
  8
その他部品等
 10
-46.075
 20
-107.55
 11
-43.3
 21
-110.3
  0
LINE
  8
その他部品等
 10
-46.075
 20
-106.125
 11
-41.9
 21
-110.3
  0
LINE
  8
その他部品等
 10
-46.075
 20
-104.725
 11
-40.475
 21
-110.3
  0
LINE
  8
その他部品等
 10
-46.075
 20
-103.3
 11
-39.075
 21
-110.3
  0
LINE
  8
その他部品等
 10
-46.075
 20
-101.9
 11
-37.675
 21
-110.3
  0
LINE
  8
その他部品等
 10
-46.075
 20
-100.475
 11
-36.25
 21
-110.3
  0
LINE
  8
その他部品等
 10
-44.85
 20
-100.275
 11
-34.85
 21
-110.3
  0
LINE
  8
その他部品等
 10
-43.55
 20
-100.175
 11
-33.425
 21
-110.3
  0
LINE
  8
その他部品等
 10
-42.25
 20
-100.075
 11
-32.025
 21
-110.3
  0
LINE
  8
その他部品等
 10
-40.925
 20
-99.975
 11
-30.6
 21
-110.3
  0
LINE
  8
その他部品等
 10
-39.625
 20
-99.875
 11
-29.2
 21
-110.3
  0
LINE
  8
その他部品等
 10
-38.3
 20
-99.775
 11
-27.775
 21
-110.3
  0
LINE
  8
その他部品等
 10
-36.975
 20
-99.675
 11
-26.375
 21
-110.3
  0
LINE
  8
その他部品等
 10
-35.675
 20
-99.575
 11
-26.275
 21
-108.975
  0
LINE
  8
その他部品等
 10
-34.35
 20
-99.475
 11
-26.275
 21
-107.575
  0
LINE
  8
その他部品等
 10
-33.05
 20
-99.4
 11
-26.275
 21
-106.15
  0
LINE
  8
その他部品等
 10
-31.725
 20
-99.3
 11
-26.275
 21
-104.75
  0
LINE
  8
その他部品等
 10
-30.425
 20
-99.2
 11
-26.275
 21
-103.325
  0
LINE
  8
その他部品等
 10
-29.125
 20
-99.1
 11
-26.275
 21
-101.925
  0
LINE
  8
その他部品等
 10
-27.8
 20
-99.0
 11
-26.275
 21
-100.5
  0
LINE
  8
その他部品等
 10
-26.475
 20
-98.9
 11
-26.275
 21
-99.1
  0
ENDBLK
  0
BLOCK
  2
*HAT_0013
 70
    65
 10
0.0
 20
0.0
  0
LINE
  8
その他部品等
 10
-13.9
 20
-101.45
 11
-11.65
 21
-99.2
  0
LINE
  8
その他部品等
 10
-16.525
 20
-102.65
 11
-11.65
 21
-97.8
  0
LINE
  8
その他部品等
 10
-19.15
 20
-103.875
 11
-11.65
 21
-96.375
  0
LINE
  8
その他部品等
 10
-21.775
 20
-105.1
 11
-12.1
 21
-95.4
  0
LINE
  8
その他部品等
 10
-24.25
 20
-106.15
 11
-13.525
 21
-95.4
  0
LINE
  8
その他部品等
 10
-24.25
 20
-104.75
 11
-14.925
 21
-95.4
  0
LINE
  8
その他部品等
 10
-24.25
 20
-103.325
 11
-16.35
 21
-95.4
  0
LINE
  8
その他部品等
 10
-24.25
 20
-101.925
 11
-17.75
 21
-95.4
  0
LINE
  8
その他部品等
 10
-24.25
 20
-100.5
 11
-19.15
 21
-95.4
  0
LINE
  8
その他部品等
 10
-24.25
 20
-99.1
 11
-20.575
 21
-95.4
  0
LINE
  8
その他部品等
 10
-24.25
 20
-97.675
 11
-21.975
 21
-95.4
  0
LINE
  8
その他部品等
 10
-24.25
 20
-96.275
 11
-23.4
 21
-95.4
  0
LINE
  8
その他部品等
 10
-24.275
 20
-105.65
 11
-23.875
 21
-106.05
  0
LINE
  8
その他部品等
 10
-24.275
 20
-104.25
 11
-22.9
 21
-105.6
  0
LINE
  8
その他部品等
 10
-24.275
 20
-102.825
 11
-21.95
 21
-105.15
  0
LINE
  8
その他部品等
 10
-24.275
 20
-101.425
 11
-20.975
 21
-104.7
  0
LINE
  8
その他部品等
 10
-24.275
 20
-100.025
 11
-20.025
 21
-104.275
  0
LINE
  8
その他部品等
 10
-24.275
 20
-98.6
 11
-19.05
 21
-103.825
  0
LINE
  8
その他部品等
 10
-24.275
 20
-97.2
 11
-18.075
 21
-103.375
  0
LINE
  8
その他部品等
 10
-24.275
 20
-95.775
 11
-17.125
 21
-102.925
  0
LINE
  8
その他部品等
 10
-23.225
 20
-95.4
 11
-16.15
 21
-102.475
  0
LINE
  8
その他部品等
 10
-21.825
 20
-95.4
 11
-15.175
 21
-102.025
  0
LINE
  8
その他部品等
 10
-20.4
 20
-95.4
 11
-14.225
 21
-101.6
  0
LINE
  8
その他部品等
 10
-19.0
 20
-95.4
 11
-13.25
 21
-101.15
  0
LINE
  8
その他部品等
 10
-17.575
 20
-95.4
 11
-12.3
 21
-100.7
  0
LINE
  8
その他部品等
 10
-16.175
 20
-95.4
 11
-11.675
 21
-99.9
  0
LINE
  8
その他部品等
 10
-14.75
 20
-95.4
 11
-11.675
 21
-98.5
  0
LINE
  8
その他部品等
 10
-13.35
 20
-95.4
 11
-11.675
 21
-97.075
  0
LINE
  8
その他部品等
 10
-11.925
 20
-95.4
 11
-11.675
 21
-95.675
  0
ENDBLK
  0
BLOCK
  2
*GRP_0001
 70
    65
 10
0.0
 20
0.0
  0
LINE
  8
型材断面
  6
CONTINUOUS
 10
195.0
 20
133.5
 11
195.0
 21
-133.5
  0
LINE
  8
型材断面
  6
CONTINUOUS
 10
195.0
 20
-133.5
 11
-185.0
 21
-133.5
  0
LINE
  8
型材断面
  6
CONTINUOUS
 10
-185.0
 20
-133.5
 11
-185.0
 21
133.5
  0
LINE
  8
型材断面
  6
CONTINUOUS
 10
195.0
 20
133.5
 11
-185.0
 21
133.5
  0
LINE
  8
型材断面
  6
CONTINUOUS
 10
145.0
 20
-133.5
 11
145.0
 21
-118.5
  0
LINE
  8
型材断面
  6
CONTINUOUS
 10
195.0
 20
-118.5
 11
145.0
 21
-118.5
  0
ENDBLK
  0
BLOCK
  2
*GRP_0002
 70
    65
 10
0.0
 20
0.0
  0
LINE
  8
別途部材
  6
CONTINUOUS
 62
    47
 10
-33.3993
 20
-111.8901
 11
-90.899275
 21
-111.8901
  0
LINE
  8
別途部材
  6
CONTINUOUS
 62
    47
 10
-33.3993
 20
-110.2901
 11
-90.899275
 21
-110.2901
  0
LINE
  8
別途部材
  6
CONTINUOUS
 62
    47
 10
-76.3993
 20
-111.8901
 11
-82.634675
 21
-115.4901
  0
LINE
  8
別途部材
  6
CONTINUOUS
 62
    47
 10
-90.899275
 20
-115.4901
 11
-82.634675
 21
-115.4901
  0
LINE
  8
別途部材
  6
CONTINUOUS
 62
    47
 10
-90.899275
 20
-113.8901
 11
-83.0634
 21
-113.8901
  0
LINE
  8
別途部材
  6
CONTINUOUS
 62
    47
 10
-79.5993
 20
-111.8901
 11
-83.0634
 21
-113.8901
  0
LINE
  8
別途部材
  6
CONTINUOUS
 62
    47
 10
-90.899275
 20
-111.8901
 11
-90.899275
 21
-110.2901
  0
LINE
  8
別途部材
  6
CONTINUOUS
 62
    47
 10
-90.899275
 20
-113.8901
 11
-90.899275
 21
-115.4901
  0
LINE
  8
別途部材
  6
CONTINUOUS
 62
    47
 10
-47.8993
 20
-111.8901
 11
-41.663925
 21
-115.4901
  0
LINE
  8
別途部材
  6
CONTINUOUS
 62
    47
 10
-33.3993
 20
-115.4901
 11
-41.663925
 21
-115.4901
  0
LINE
  8
別途部材
  6
CONTINUOUS
 62
    47
 10
-33.3993
 20
-113.8901
 11
-41.235175
 21
-113.8901
  0
LINE
  8
別途部材
  6
CONTINUOUS
 62
    47
 10
-44.699275
 20
-111.8901
 11
-41.235175
 21
-113.8901
  0
LINE
  8
別途部材
  6
CONTINUOUS
 62
    47
 10
-33.3993
 20
-113.8901
 11
-33.3993
 21
-115.4901
  0
LINE
  8
別途部材
  6
CONTINUOUS
 62
    47
 10
-69.899275
 20
-128.2901
 11
-69.899275
 21
-111.8901
  0
LINE
  8
別途部材
  6
CONTINUOUS
 62
    47
 10
-68.2993
 20
-128.2901
 11
-68.2993
 21
-111.8901
  0
LINE
  8
別途部材
  6
CONTINUOUS
 62
    47
 10
-69.899275
 20
-128.2901
 11
-68.2993
 21
-128.2901
  0
LINE
  8
別途部材
  6
CONTINUOUS
 62
    47
 10
-33.3993
 20
-110.2901
 11
-33.3993
 21
-111.8901
  0
ENDBLK
  0
BLOCK
  2
*GRP_0003
 70
    65
 10
0.0
 20
0.0
  0
LINE
  8
ゴム等
  6
CONTINUOUS
 10
-33.749015
 20
-12.886525
 11
-34.249015
 21
-15.386525
  0
LINE
  8
ゴム等
  6
CONTINUOUS
 10
-28.449015
 20
-15.386525
 11
-28.949015
 21
-12.886525
  0
LINE
  8
ゴム等
  6
CONTINUOUS
 10
-26.349015
 20
-20.386525
 11
-26.349015
 21
-15.386525
  0
LINE
  8
ゴム等
  6
CONTINUOUS
 10
-36.349015
 20
-20.386525
 11
-36.349015
 21
-15.386525
  0
LINE
  8
ゴム等
  6
CONTINUOUS
 10
-33.749015
 20
-12.886525
 11
-28.949015
 21
-12.886525
  0
LINE
  8
ゴム等
  6
CONTINUOUS
 10
-26.349015
 20
-15.386525
 11
-28.449015
 21
-15.386525
  0
LINE
  8
ゴム等
  6
CONTINUOUS
 10
-34.249015
 20
-15.386525
 11
-36.349015
 21
-15.386525
  0
LINE
  8
ゴム等
  6
CONTINUOUS
 10
-31.349015
 20
-19.886525
 11
-30.849015
 21
-20.386525
  0
LINE
  8
ゴム等
  6
CONTINUOUS
 10
-31.349015
 20
-19.886525
 11
-31.849015
 21
-20.386525
  0
LINE
  8
ゴム等
  6
CONTINUOUS
 10
-36.349015
 20
-20.386525
 11
-31.849015
 21
-20.386525
  0
LINE
  8
ゴム等
  6
CONTINUOUS
 10
-30.849015
 20
-20.386525
 11
-26.349015
 21
-20.386525
  0
INSERT
  2
*HAT_0001
  8
ゴム等
 10
0.0
 20
0.0
  0
ENDBLK
  0
BLOCK
  2
*GRP_0004
 70
    65
 10
0.0
 20
0.0
  0
INSERT
  2
*HAT_0002
  8
ゴム等
 10
0.0
 20
0.0
  0
LINE
  8
ゴム等
  6
CONTINUOUS
 10
-83.95049
 20
-18.8869
 11
-76.951415
 21
-18.8869
  0
LINE
  8
ゴム等
  6
CONTINUOUS
 10
-76.951415
 20
-18.8869
 11
-78.45139
 21
-21.8869
  0
LINE
  8
ゴム等
  6
CONTINUOUS
 10
-83.95049
 20
-18.8869
 11
-82.45069
 21
-21.886525
  0
LINE
  8
ゴム等
  6
CONTINUOUS
 10
-84.45094
 20
-21.886525
 11
-82.45069
 21
-21.886525
  0
ARC
  8
ゴム等
  6
CONTINUOUS
 10
-84.450938
 20
-23.886497
 40
2.0
 50
90.0
 51
180.0
  0
LINE
  8
ゴム等
  6
CONTINUOUS
 10
-86.450965
 20
-25.8865
 11
-86.450965
 21
-23.8865
  0
ARC
  8
ゴム等
  6
CONTINUOUS
 10
-84.450938
 20
-25.886497
 40
2.0
 50
180.0
 51
270.0
  0
LINE
  8
ゴム等
  6
CONTINUOUS
 10
-84.45094
 20
-27.886525
 11
-76.45094
 21
-27.886525
  0
ARC
  8
ゴム等
  6
CONTINUOUS
 10
-76.450938
 20
-25.886497
 40
2.0
 50
270.0
 51
360.0
  0
LINE
  8
ゴム等
  6
CONTINUOUS
 10
-74.450965
 20
-25.8865
 11
-74.450965
 21
-23.8869
  0
LINE
  8
ゴム等
  6
CONTINUOUS
 10
-76.45094
 20
-21.8869
 11
-78.45139
 21
-21.8869
  0
ARC
  8
ゴム等
  6
CONTINUOUS
 10
-76.450938
 20
-23.886887
 40
2.0
 50
0.0
 51
90.0
  0
ARC
  8
ゴム等
  6
CONTINUOUS
 10
-84.45094
 20
-23.886495
 40
1.0
 50
90.0
 51
180.0
  0
LINE
  8
ゴム等
  6
CONTINUOUS
 10
-85.45094
 20
-25.886525
 11
-85.45094
 21
-23.8865
  0
ARC
  8
ゴム等
  6
CONTINUOUS
 10
-84.45094
 20
-25.8865
 40
1.0
 50
180.0
 51
270.0
  0
LINE
  8
ゴム等
  6
CONTINUOUS
 10
-76.45094
 20
-26.8865
 11
-84.450965
 21
-26.8865
  0
ARC
  8
ゴム等
  6
CONTINUOUS
 10
-76.450935
 20
-25.8865
 40
1.0
 50
270.0
 51
360.0
  0
LINE
  8
ゴム等
  6
CONTINUOUS
 10
-75.45094
 20
-23.8865
 11
-75.45094
 21
-25.886525
  0
LINE
  8
ゴム等
  6
CONTINUOUS
 10
-76.45094
 20
-22.8865
 11
-84.450965
 21
-22.8865
  0
ARC
  8
ゴム等
  6
CONTINUOUS
 10
-76.450935
 20
-23.886495
 40
1.0
 50
0.0
 51
90.0
  0
ENDBLK
  0
BLOCK
  2
*GRP_0005
 70
    65
 10
0.0
 20
0.0
  0
INSERT
  2
*HAT_0003
  8
ゴム等
 10
0.0
 20
0.0
  0
LINE
  8
ゴム等
  6
CONTINUOUS
 10
-45.45454
 20
-21.88653
 11
-45.45454
 21
-27.88653
  0
LINE
  8
ゴム等
  6
CONTINUOUS
 10
-45.45454
 20
-27.88653
 11
-60.45454
 21
-27.88653
  0
LINE
  8
ゴム等
  6
CONTINUOUS
 10
-60.45454
 20
-27.88653
 11
-60.45454
 21
-21.88653
  0
LINE
  8
ゴム等
  6
CONTINUOUS
 10
-45.45454
 20
-21.88653
 11
-60.45454
 21
-21.88653
  0
ENDBLK
  0
BLOCK
  2
*GRP_0006
 70
    65
 10
0.0
 20
0.0
  0
LINE
  8
ゴム等
  6
CONTINUOUS
 10
-36.75454
 20
-32.486005
 11
-39.25454
 21
-31.986005
  0
LINE
  8
ゴム等
  6
CONTINUOUS
 10
-39.25454
 20
-37.786005
 11
-36.75454
 21
-37.286005
  0
LINE
  8
ゴム等
  6
CONTINUOUS
 10
-44.25454
 20
-39.886005
 11
-39.25454
 21
-39.886005
  0
LINE
  8
ゴム等
  6
CONTINUOUS
 10
-44.25454
 20
-29.886005
 11
-39.25454
 21
-29.886005
  0
LINE
  8
ゴム等
  6
CONTINUOUS
 10
-36.75454
 20
-32.486005
 11
-36.75454
 21
-37.286005
  0
LINE
  8
ゴム等
  6
CONTINUOUS
 10
-39.25454
 20
-39.886005
 11
-39.25454
 21
-37.786005
  0
LINE
  8
ゴム等
  6
CONTINUOUS
 10
-39.25454
 20
-31.986005
 11
-39.25454
 21
-29.886005
  0
LINE
  8
ゴム等
  6
CONTINUOUS
 10
-43.75454
 20
-34.886005
 11
-44.25454
 21
-35.386005
  0
LINE
  8
ゴム等
  6
CONTINUOUS
 10
-43.75454
 20
-34.886005
 11
-44.25454
 21
-34.386005
  0
LINE
  8
ゴム等
  6
CONTINUOUS
 10
-44.25454
 20
-29.886005
 11
-44.25454
 21
-34.386005
  0
LINE
  8
ゴム等
  6
CONTINUOUS
 10
-44.25454
 20
-35.386005
 11
-44.25454
 21
-39.886005
  0
INSERT
  2
*HAT_0004
  8
ゴム等
 10
0.0
 20
0.0
  0
ENDBLK
  0
BLOCK
  2
*GRP_0007
 70
    65
 10
0.0
 20
0.0
  0
LINE
  8
ゴム等
  6
CONTINUOUS
 10
-32.954555
 20
72.513482
 11
-35.454555
 21
73.013482
  0
LINE
  8
ゴム等
  6
CONTINUOUS
 10
-35.454555
 20
67.213482
 11
-32.954555
 21
67.713482
  0
LINE
  8
ゴム等
  6
CONTINUOUS
 10
-40.454555
 20
65.113482
 11
-35.454555
 21
65.113482
  0
LINE
  8
ゴム等
  6
CONTINUOUS
 10
-40.454555
 20
75.113482
 11
-35.454555
 21
75.113482
  0
LINE
  8
ゴム等
  6
CONTINUOUS
 10
-32.954555
 20
72.513482
 11
-32.954555
 21
67.713482
  0
LINE
  8
ゴム等
  6
CONTINUOUS
 10
-35.454555
 20
65.113482
 11
-35.454555
 21
67.213482
  0
LINE
  8
ゴム等
  6
CONTINUOUS
 10
-35.454555
 20
73.013482
 11
-35.454555
 21
75.113482
  0
LINE
  8
ゴム等
  6
CONTINUOUS
 10
-39.954555
 20
70.113482
 11
-40.454555
 21
69.613482
  0
LINE
  8
ゴム等
  6
CONTINUOUS
 10
-39.954555
 20
70.113482
 11
-40.454555
 21
70.613482
  0
LINE
  8
ゴム等
  6
CONTINUOUS
 10
-40.454555
 20
75.113482
 11
-40.454555
 21
70.613482
  0
LINE
  8
ゴム等
  6
CONTINUOUS
 10
-40.454555
 20
69.613482
 11
-40.454555
 21
65.113482
  0
INSERT
  2
*HAT_0005
  8
ゴム等
 10
0.0
 20
0.0
  0
ENDBLK
  0
BLOCK
  2
*GRP_0008
 70
    65
 10
0.0
 20
0.0
  0
LINE
  8
ボルト／ビス
  6
CONTINUOUS
 62
    64
 10
-29.349015
 20
-20.086525
 11
-33.349015
 21
-20.086525
  0
LINE
  8
ボルト／ビス
  6
CONTINUOUS
 62
    64
 10
-28.349015
 20
-21.886525
 11
-29.349015
 21
-20.086525
  0
LINE
  8
ボルト／ビス
  6
CONTINUOUS
 62
    64
 10
-28.349015
 20
-21.886525
 11
-34.349015
 21
-21.886525
  0
LINE
  8
ボルト／ビス
  6
CONTINUOUS
 62
    64
 10
-34.349015
 20
-21.886525
 11
-33.349015
 21
-20.086525
  0
LINE
  8
ボルト／ビス
  6
CONTINUOUS
 62
    64
 10
-31.349015
 20
-23.370055
 11
-31.349015
 21
-4.174955
  0
LINE
  8
ボルト／ビス
  6
CONTINUOUS
 62
    64
 10
-29.349015
 20
-6.386525
 11
-29.849015
 21
-5.886525
  0
LINE
  8
ボルト／ビス
  6
CONTINUOUS
 62
    64
 10
-33.349015
 20
-6.386525
 11
-32.849015
 21
-5.886525
  0
LINE
  8
ボルト／ビス
  6
CONTINUOUS
 62
    64
 10
-29.849015
 20
-5.886525
 11
-32.849015
 21
-5.886525
  0
LINE
  8
ボルト／ビス
  6
CONTINUOUS
 62
    64
 10
-29.349015
 20
-6.386525
 11
-33.349015
 21
-6.386525
  0
LINE
  8
ボルト／ビス
  6
CONTINUOUS
 62
    64
 10
-32.849015
 20
-20.086525
 11
-32.849015
 21
-5.886525
  0
LINE
  8
ボルト／ビス
  6
CONTINUOUS
 62
    64
 10
-29.849015
 20
-20.086525
 11
-29.849015
 21
-5.886525
  0
LINE
  8
ボルト／ビス
  6
CONTINUOUS
 62
    64
 10
-29.349015
 20
-20.086525
 11
-29.349015
 21
-6.386525
  0
LINE
  8
ボルト／ビス
  6
CONTINUOUS
 62
    64
 10
-33.349015
 20
-20.086525
 11
-33.349015
 21
-6.386525
  0
ENDBLK
  0
BLOCK
  2
*GRP_0009
 70
    65
 10
0.0
 20
0.0
  0
LINE
  8
ボルト／ビス
  6
CONTINUOUS
 62
    64
 10
-44.45454
 20
-36.886005
 11
-44.45454
 21
-32.886005
  0
LINE
  8
ボルト／ビス
  6
CONTINUOUS
 62
    64
 10
-46.25454
 20
-37.886005
 11
-44.45454
 21
-36.886005
  0
LINE
  8
ボルト／ビス
  6
CONTINUOUS
 62
    64
 10
-46.25454
 20
-37.886005
 11
-46.25454
 21
-31.886005
  0
LINE
  8
ボルト／ビス
  6
CONTINUOUS
 62
    64
 10
-46.25454
 20
-31.886005
 11
-44.45454
 21
-32.886005
  0
LINE
  8
ボルト／ビス
  6
CONTINUOUS
 62
    64
 10
-47.73807
 20
-34.886005
 11
-28.54297
 21
-34.886005
  0
LINE
  8
ボルト／ビス
  6
CONTINUOUS
 62
    64
 10
-30.75454
 20
-36.886005
 11
-30.25454
 21
-36.386005
  0
LINE
  8
ボルト／ビス
  6
CONTINUOUS
 62
    64
 10
-30.75454
 20
-32.886005
 11
-30.25454
 21
-33.386005
  0
LINE
  8
ボルト／ビス
  6
CONTINUOUS
 62
    64
 10
-30.25454
 20
-36.386005
 11
-30.25454
 21
-33.386005
  0
LINE
  8
ボルト／ビス
  6
CONTINUOUS
 62
    64
 10
-30.75454
 20
-36.886005
 11
-30.75454
 21
-32.886005
  0
LINE
  8
ボルト／ビス
  6
CONTINUOUS
 62
    64
 10
-44.45454
 20
-33.386005
 11
-30.25454
 21
-33.386005
  0
LINE
  8
ボルト／ビス
  6
CONTINUOUS
 62
    64
 10
-44.45454
 20
-36.386005
 11
-30.25454
 21
-36.386005
  0
LINE
  8
ボルト／ビス
  6
CONTINUOUS
 62
    64
 10
-44.45454
 20
-36.886005
 11
-30.75454
 21
-36.886005
  0
LINE
  8
ボルト／ビス
  6
CONTINUOUS
 62
    64
 10
-44.45454
 20
-32.886005
 11
-30.75454
 21
-32.886005
  0
ENDBLK
  0
BLOCK
  2
*GRP_0010
 70
    65
 10
0.0
 20
0.0
  0
LINE
  8
ボルト／ビス
  6
CONTINUOUS
 62
    64
 10
-105.249065
 20
-112.090035
 11
-101.249065
 21
-112.090035
  0
LINE
  8
ボルト／ビス
  6
CONTINUOUS
 62
    64
 10
-106.249065
 20
-113.890035
 11
-105.249065
 21
-112.090035
  0
LINE
  8
ボルト／ビス
  6
CONTINUOUS
 62
    64
 10
-106.249065
 20
-113.890035
 11
-100.249065
 21
-113.890035
  0
LINE
  8
ボルト／ビス
  6
CONTINUOUS
 62
    64
 10
-100.249065
 20
-113.890035
 11
-101.249065
 21
-112.090035
  0
LINE
  8
ボルト／ビス
  6
CONTINUOUS
 62
    64
 10
-103.249065
 20
-115.373567
 11
-103.249065
 21
-105.011007
  0
LINE
  8
ボルト／ビス
  6
CONTINUOUS
 62
    64
 10
-105.249065
 20
-106.390035
 11
-104.749065
 21
-105.890035
  0
LINE
  8
ボルト／ビス
  6
CONTINUOUS
 62
    64
 10
-101.249065
 20
-106.390035
 11
-101.749065
 21
-105.890035
  0
LINE
  8
ボルト／ビス
  6
CONTINUOUS
 62
    64
 10
-104.749065
 20
-105.890035
 11
-101.749065
 21
-105.890035
  0
LINE
  8
ボルト／ビス
  6
CONTINUOUS
 62
    64
 10
-105.249065
 20
-106.390035
 11
-101.249065
 21
-106.390035
  0
LINE
  8
ボルト／ビス
  6
CONTINUOUS
 62
    64
 10
-104.749065
 20
-112.090035
 11
-104.749065
 21
-105.890035
  0
LINE
  8
ボルト／ビス
  6
CONTINUOUS
 62
    64
 10
-101.749065
 20
-112.090035
 11
-101.749065
 21
-105.890035
  0
LINE
  8
ボルト／ビス
  6
CONTINUOUS
 62
    64
 10
-101.249065
 20
-112.090035
 11
-101.249065
 21
-106.390035
  0
LINE
  8
ボルト／ビス
  6
CONTINUOUS
 62
    64
 10
-105.249065
 20
-112.090035
 11
-105.249065
 21
-106.390035
  0
ENDBLK
  0
BLOCK
  2
*GRP_0011
 70
    65
 10
0.0
 20
0.0
  0
LINE
  8
ボルト／ビス
  6
CONTINUOUS
 62
    64
 10
-36.649305
 20
-112.090035
 11
-32.649305
 21
-112.090035
  0
LINE
  8
ボルト／ビス
  6
CONTINUOUS
 62
    64
 10
-37.649305
 20
-113.890035
 11
-36.649305
 21
-112.090035
  0
LINE
  8
ボルト／ビス
  6
CONTINUOUS
 62
    64
 10
-37.649305
 20
-113.890035
 11
-31.649305
 21
-113.890035
  0
LINE
  8
ボルト／ビス
  6
CONTINUOUS
 62
    64
 10
-31.649305
 20
-113.890035
 11
-32.649305
 21
-112.090035
  0
LINE
  8
ボルト／ビス
  6
CONTINUOUS
 62
    64
 10
-34.649305
 20
-115.373567
 11
-34.649305
 21
-105.011007
  0
LINE
  8
ボルト／ビス
  6
CONTINUOUS
 62
    64
 10
-36.649305
 20
-106.390035
 11
-36.149305
 21
-105.890035
  0
LINE
  8
ボルト／ビス
  6
CONTINUOUS
 62
    64
 10
-32.649305
 20
-106.390035
 11
-33.149305
 21
-105.890035
  0
LINE
  8
ボルト／ビス
  6
CONTINUOUS
 62
    64
 10
-36.149305
 20
-105.890035
 11
-33.149305
 21
-105.890035
  0
LINE
  8
ボルト／ビス
  6
CONTINUOUS
 62
    64
 10
-36.649305
 20
-106.390035
 11
-32.649305
 21
-106.390035
  0
LINE
  8
ボルト／ビス
  6
CONTINUOUS
 62
    64
 10
-36.149305
 20
-112.090035
 11
-36.149305
 21
-105.890035
  0
LINE
  8
ボルト／ビス
  6
CONTINUOUS
 62
    64
 10
-33.149305
 20
-112.090035
 11
-33.149305
 21
-105.890035
  0
LINE
  8
ボルト／ビス
  6
CONTINUOUS
 62
    64
 10
-32.649305
 20
-112.090035
 11
-32.649305
 21
-106.390035
  0
LINE
  8
ボルト／ビス
  6
CONTINUOUS
 62
    64
 10
-36.649305
 20
-112.090035
 11
-36.649305
 21
-106.390035
  0
ENDBLK
  0
BLOCK
  2
*GRP_0012
 70
    65
 10
0.0
 20
0.0
  0
LINE
  8
ボルト／ビス
  6
CONTINUOUS
 62
    64
 10
-33.654555
 20
49.912467
 11
-33.654555
 21
53.912467
  0
LINE
  8
ボルト／ビス
  6
CONTINUOUS
 62
    64
 10
-35.454555
 20
48.912467
 11
-33.654555
 21
49.912467
  0
LINE
  8
ボルト／ビス
  6
CONTINUOUS
 62
    64
 10
-35.454555
 20
48.912467
 11
-35.454555
 21
54.912467
  0
LINE
  8
ボルト／ビス
  6
CONTINUOUS
 62
    64
 10
-35.454555
 20
54.912467
 11
-33.654555
 21
53.912467
  0
LINE
  8
ボルト／ビス
  6
CONTINUOUS
 62
    64
 10
-36.938085
 20
51.912467
 11
-24.33581
 21
51.912467
  0
LINE
  8
ボルト／ビス
  6
CONTINUOUS
 62
    64
 10
-25.954555
 20
49.912467
 11
-25.454555
 21
50.412467
  0
LINE
  8
ボルト／ビス
  6
CONTINUOUS
 62
    64
 10
-25.954555
 20
53.912467
 11
-25.454555
 21
53.412467
  0
LINE
  8
ボルト／ビス
  6
CONTINUOUS
 62
    64
 10
-25.454555
 20
50.412467
 11
-25.454555
 21
53.412467
  0
LINE
  8
ボルト／ビス
  6
CONTINUOUS
 62
    64
 10
-25.954555
 20
49.912467
 11
-25.954555
 21
53.912467
  0
LINE
  8
ボルト／ビス
  6
CONTINUOUS
 62
    64
 10
-33.654555
 20
53.412467
 11
-25.454555
 21
53.412467
  0
LINE
  8
ボルト／ビス
  6
CONTINUOUS
 62
    64
 10
-33.654555
 20
50.412467
 11
-25.454555
 21
50.412467
  0
LINE
  8
ボルト／ビス
  6
CONTINUOUS
 62
    64
 10
-33.654555
 20
49.912467
 11
-25.954555
 21
49.912467
  0
LINE
  8
ボルト／ビス
  6
CONTINUOUS
 62
    64
 10
-33.654555
 20
53.912467
 11
-25.954555
 21
53.912467
  0
ENDBLK
  0
BLOCK
  2
*GRP_0013
 70
    65
 10
0.0
 20
0.0
  0
LINE
  8
ボルト／ビス
  6
CONTINUOUS
 62
    64
 10
-42.454555
 20
66.613482
 11
-43.50272
 21
66.705185
  0
ARC
  8
ボルト／ビス
  6
CONTINUOUS
 62
    64
 10
-43.354555
 20
68.398716
 40
1.7
 50
180.0
 51
265.000011
  0
LINE
  8
ボルト／ビス
  6
CONTINUOUS
 62
    64
 10
-45.054555
 20
68.398715
 11
-45.054555
 21
70.113482
  0
LINE
  8
ボルト／ビス
  6
CONTINUOUS
 62
    64
 10
-42.454555
 20
73.613482
 11
-43.50272
 21
73.52178
  0
ARC
  8
ボルト／ビス
  6
CONTINUOUS
 62
    64
 10
-43.354555
 20
71.828249
 40
1.7
 50
94.999989
 51
180.0
  0
LINE
  8
ボルト／ビス
  6
CONTINUOUS
 62
    64
 10
-45.054555
 20
71.82825
 11
-45.054555
 21
70.113482
  0
LINE
  8
ボルト／ビス
  6
CONTINUOUS
 62
    64
 10
-44.66965
 20
67.716842
 11
-44.911812
 21
67.716842
  0
LINE
  8
ボルト／ビス
  6
CONTINUOUS
 62
    64
 10
-44.019567
 20
69.413482
 11
-44.019567
 21
70.113482
  0
LINE
  8
ボルト／ビス
  6
CONTINUOUS
 62
    64
 10
-44.66965
 20
69.013482
 11
-44.66965
 21
67.716842
  0
LINE
  8
ボルト／ビス
  6
CONTINUOUS
 62
    64
 10
-44.019567
 20
69.413482
 11
-44.26965
 21
69.413482
  0
ARC
  8
ボルト／ビス
  6
CONTINUOUS
 62
    64
 10
-44.26965
 20
69.013482
 40
0.4
 50
90.0
 51
180.0
  0
LINE
  8
ボルト／ビス
  6
CONTINUOUS
 62
    64
 10
-44.66965
 20
72.510123
 11
-44.911812
 21
72.510123
  0
LINE
  8
ボルト／ビス
  6
CONTINUOUS
 62
    64
 10
-44.019567
 20
70.813482
 11
-44.019567
 21
70.113482
  0
LINE
  8
ボルト／ビス
  6
CONTINUOUS
 62
    64
 10
-44.66965
 20
71.213482
 11
-44.66965
 21
72.510123
  0
LINE
  8
ボルト／ビス
  6
CONTINUOUS
 62
    64
 10
-44.019567
 20
70.813482
 11
-44.26965
 21
70.813482
  0
ARC
  8
ボルト／ビス
  6
CONTINUOUS
 62
    64
 10
-44.26965
 20
71.213482
 40
0.4
 50
180.0
 51
270.0
  0
LINE
  8
ボルト／ビス
  6
CONTINUOUS
 62
    64
 10
-42.454555
 20
66.613482
 11
-42.454555
 21
73.613482
  0
LINE
  8
ボルト／ビス
  6
CONTINUOUS
 62
    64
 10
-47.025943
 20
70.113482
 11
-26.811283
 21
70.113482
  0
LINE
  8
ボルト／ビス
  6
CONTINUOUS
 62
    64
 10
-28.954555
 20
68.113482
 11
-28.454555
 21
68.613482
  0
LINE
  8
ボルト／ビス
  6
CONTINUOUS
 62
    64
 10
-28.954555
 20
72.113482
 11
-28.454555
 21
71.613482
  0
LINE
  8
ボルト／ビス
  6
CONTINUOUS
 62
    64
 10
-28.954555
 20
68.113482
 11
-28.954555
 21
72.113482
  0
LINE
  8
ボルト／ビス
  6
CONTINUOUS
 62
    64
 10
-28.454555
 20
68.613482
 11
-28.454555
 21
71.613482
  0
LINE
  8
ボルト／ビス
  6
CONTINUOUS
 62
    64
 10
-42.454555
 20
72.113482
 11
-28.954555
 21
72.113482
  0
LINE
  8
ボルト／ビス
  6
CONTINUOUS
 62
    64
 10
-42.454555
 20
68.113482
 11
-28.954555
 21
68.113482
  0
LINE
  8
ボルト／ビス
  6
CONTINUOUS
 62
    64
 10
-42.454555
 20
68.613482
 11
-28.454555
 21
68.613482
  0
LINE
  8
ボルト／ビス
  6
CONTINUOUS
 62
    64
 10
-42.454555
 20
71.613482
 11
-28.454555
 21
71.613482
  0
ENDBLK
  0
BLOCK
  2
*DIM_0014
 70
    65
 10
0.0
 20
0.0
  0
LINE
  8
寸法
  6
BYBLOCK
 62
     0
 10
-91.44963
 20
-16.887165
 11
-149.208172
 21
-16.887165
  0
LINE
  8
寸法
  6
BYBLOCK
 62
     0
 10
-149.208172
 20
-14.88743
 11
-149.208172
 21
-16.887165
  0
POINT
  8
寸法
 62
     0
 10
-149.208172
 20
-16.887165
  0
TEXT
  7
TextStyle03
  8
寸法
  6
CONTINUOUS
 62
     0
 10
-149.6
 20
-16.65
  1
2
 40
3.0
 50
90.0
 72
     5
 11
-149.6
 21
-15.15
  0
ENDBLK
  0
BLOCK
  2
*DIM_0015
 70
    65
 10
0.0
 20
0.0
  0
LINE
  8
寸法
  6
BYBLOCK
 62
     0
 10
-91.44963
 20
-29.886255
 11
-149.208172
 21
-29.886255
  0
LINE
  8
寸法
  6
BYBLOCK
 62
     0
 10
-149.208172
 20
-16.887165
 11
-149.208172
 21
-29.886255
  0
POINT
  8
寸法
 62
     0
 10
-149.208172
 20
-29.886255
  0
TEXT
  7
TextStyle03
  8
寸法
  6
CONTINUOUS
 62
     0
 10
-149.6
 20
-24.99375
  1
13
 40
3.0
 50
90.0
 72
     5
 11
-149.6
 21
-21.80625
  0
ENDBLK
  0
BLOCK
  2
*DIM_0016
 70
    65
 10
0.0
 20
0.0
  0
LINE
  8
寸法
  6
BYBLOCK
 62
     0
 10
-47.249065
 20
-93.88998
 11
-149.208172
 21
-93.88998
  0
LINE
  8
寸法
  6
BYBLOCK
 62
     0
 10
-149.208172
 20
-29.886255
 11
-149.208172
 21
-93.88998
  0
POINT
  8
寸法
 62
     0
 10
-149.208172
 20
-93.88998
  0
TEXT
  7
TextStyle03
  8
寸法
  6
CONTINUOUS
 62
     0
 10
-149.6
 20
-63.49375
  1
64
 40
3.0
 50
90.0
 72
     5
 11
-149.6
 21
-60.30625
  0
ENDBLK
  0
BLOCK
  2
*DIM_0017
 70
    65
 10
0.0
 20
0.0
  0
LINE
  8
寸法
  6
BYBLOCK
 62
     0
 10
-112.249065
 20
-81.932743
 11
-112.249065
 21
126.205923
  0
LINE
  8
寸法
  6
BYBLOCK
 62
     0
 10
-0.24824
 20
126.205923
 11
-112.249065
 21
126.205923
  0
POINT
  8
寸法
 62
     0
 10
-0.24824
 20
126.205923
  0
POINT
  8
寸法
 62
     0
 10
-112.249065
 20
126.205923
  0
TEXT
  7
TextStyle03
  8
寸法
  6
CONTINUOUS
 62
     0
 10
-58.6875
 20
126.55
  1
112
 40
3.0
 72
     5
 11
-53.8125
 21
126.55
  0
ENDBLK
  0
BLOCK
  2
*DIM_0018
 70
    65
 10
0.0
 20
0.0
  0
LINE
  8
寸法
  6
BYBLOCK
 62
     0
 10
-112.249065
 20
120.373027
 11
-112.249065
 21
119.698685
  0
LINE
  8
寸法
  6
BYBLOCK
 62
     0
 10
14.74546
 20
-58.429292
 11
14.74546
 21
119.698685
  0
LINE
  8
寸法
  6
BYBLOCK
 62
     0
 10
-112.249065
 20
119.698685
 11
14.74546
 21
119.698685
  0
POINT
  8
寸法
 62
     0
 10
-112.249065
 20
119.698685
  0
POINT
  8
寸法
 62
     0
 10
14.74546
 20
119.698685
  0
TEXT
  7
TextStyle03
  8
寸法
  6
CONTINUOUS
 62
     0
 10
-51.2125
 20
120.05
  1
127
 40
3.0
 72
     5
 11
-46.3375
 21
120.05
  0
ENDBLK
  0
BLOCK
  2
*DIM_0019
 70
    65
 10
0.0
 20
0.0
  0
LINE
  8
寸法
  6
BYBLOCK
 62
     0
 10
-0.24824
 20
112.907895
 11
-0.24824
 21
113.799343
  0
LINE
  8
寸法
  6
BYBLOCK
 62
     0
 10
14.74546
 20
112.907895
 11
14.74546
 21
113.799343
  0
LINE
  8
寸法
  6
BYBLOCK
 62
     0
 10
-0.24824
 20
113.799343
 11
14.74546
 21
113.799343
  0
POINT
  8
寸法
 62
     0
 10
-0.24824
 20
113.799343
  0
POINT
  8
寸法
 62
     0
 10
14.74546
 20
113.799343
  0
TEXT
  7
TextStyle03
  8
寸法
  6
CONTINUOUS
 62
     0
 10
5.63125
 20
114.15
  1
15
 40
3.0
 72
     5
 11
8.81875
 21
114.15
  0
ENDBLK
  0
BLOCK
  2
*DIM_0020
 70
    65
 10
0.0
 20
0.0
  0
LINE
  8
寸法
  6
BYBLOCK
 62
     0
 10
-9.254555
 20
-15.386525
 11
65.53788
 21
-15.386525
  0
LINE
  8
寸法
  6
BYBLOCK
 62
     0
 10
65.53788
 20
35.113475
 11
65.53788
 21
-15.386525
  0
POINT
  8
寸法
 62
     0
 10
65.53788
 20
35.113475
  0
POINT
  8
寸法
 62
     0
 10
65.53788
 20
-15.386525
  0
TEXT
  7
TextStyle03
  8
寸法
  6
CONTINUOUS
 62
     0
 10
65.15
 20
6.54375
  1
50.5
 40
3.0
 50
90.0
 72
     5
 11
65.15
 21
13.10625
  0
ENDBLK
  0
BLOCK
  2
*DIM_0021
 70
    65
 10
0.0
 20
0.0
  0
LINE
  8
寸法
  6
BYBLOCK
 62
     0
 10
-9.25454
 20
-19.38615
 11
65.53788
 21
-19.38615
  0
LINE
  8
寸法
  6
BYBLOCK
 62
     0
 10
65.53788
 20
-15.386525
 11
65.53788
 21
-19.38615
  0
POINT
  8
寸法
 62
     0
 10
65.53788
 20
-19.38615
  0
TEXT
  7
TextStyle03
  8
寸法
  6
CONTINUOUS
 62
     0
 10
65.15
 20
-18.175
  1
4
 40
3.0
 50
90.0
 72
     5
 11
65.15
 21
-16.675
  0
ENDBLK
  0
BLOCK
  2
*DIM_0022
 70
    65
 10
0.0
 20
0.0
  0
LINE
  8
寸法
  6
BYBLOCK
 62
     0
 10
15.74546
 20
-83.38653
 11
65.53788
 21
-83.38653
  0
LINE
  8
寸法
  6
BYBLOCK
 62
     0
 10
65.53788
 20
-19.38615
 11
65.53788
 21
-83.38653
  0
POINT
  8
寸法
 62
     0
 10
65.53788
 20
-83.38653
  0
TEXT
  7
TextStyle03
  8
寸法
  6
CONTINUOUS
 62
     0
 10
65.15
 20
-53.01875
  1
64
 40
3.0
 50
90.0
 72
     5
 11
65.15
 21
-49.83125
  0
ENDBLK
  0
BLOCK
  2
*DIM_0023
 70
    65
 10
0.0
 20
0.0
  0
LINE
  8
寸法
  6
BYBLOCK
 62
     0
 10
-144.11065
 20
-16.887165
 11
-143.761965
 21
-16.887165
  0
LINE
  8
寸法
  6
BYBLOCK
 62
     0
 10
-93.149438
 20
-21.886503
 11
-143.761965
 21
-21.886503
  0
LINE
  8
寸法
  6
BYBLOCK
 62
     0
 10
-143.761965
 20
-16.887165
 11
-143.761965
 21
-21.886503
  0
POINT
  8
寸法
 62
     0
 10
-143.761965
 20
-16.887165
  0
POINT
  8
寸法
 62
     0
 10
-143.761965
 20
-21.886503
  0
TEXT
  7
TextStyle03
  8
寸法
  6
CONTINUOUS
 62
     0
 10
-144.125
 20
-20.125
  1
5
 40
3.0
 50
90.0
 72
     5
 11
-144.125
 21
-18.625
  0
ENDBLK
  0
BLOCK
  2
*DIM_0024
 70
    65
 10
0.0
 20
0.0
  0
LINE
  8
寸法
  6
BYBLOCK
 62
     0
 10
-93.14943
 20
-25.886762
 11
-143.761965
 21
-25.886762
  0
LINE
  8
寸法
  6
BYBLOCK
 62
     0
 10
-143.761965
 20
-21.886503
 11
-143.761965
 21
-25.886762
  0
POINT
  8
寸法
 62
     0
 10
-143.761965
 20
-25.886762
  0
TEXT
  7
TextStyle03
  8
寸法
  6
CONTINUOUS
 62
     0
 10
-144.125
 20
-24.625
  1
4
 40
3.0
 50
90.0
 72
     5
 11
-144.125
 21
-23.125
  0
ENDBLK
  0
BLOCK
  2
*DIM_0025
 70
    65
 10
0.0
 20
0.0
  0
LINE
  8
寸法
  6
BYBLOCK
 62
     0
 10
-94.44938
 20
-29.886255
 11
-143.761965
 21
-29.886255
  0
LINE
  8
寸法
  6
BYBLOCK
 62
     0
 10
-143.761965
 20
-25.886762
 11
-143.761965
 21
-29.886255
  0
POINT
  8
寸法
 62
     0
 10
-143.761965
 20
-29.886255
  0
TEXT
  7
TextStyle03
  8
寸法
  6
CONTINUOUS
 62
     0
 10
-144.125
 20
-28.625
  1
4
 40
3.0
 50
90.0
 72
     5
 11
-144.125
 21
-27.125
  0
ENDBLK
  0
BLOCK
  2
*DIM_0026
 70
    65
 10
0.0
 20
0.0
  0
LINE
  8
寸法
  6
BYBLOCK
 62
     0
 10
0.745445
 20
35.113475
 11
65.53788
 21
35.113475
  0
LINE
  8
寸法
  6
BYBLOCK
 62
     0
 10
1.745445
 20
45.113475
 11
65.53788
 21
45.113475
  0
LINE
  8
寸法
  6
BYBLOCK
 62
     0
 10
65.53788
 20
35.113475
 11
65.53788
 21
45.113475
  0
POINT
  8
寸法
 62
     0
 10
65.53788
 20
35.113475
  0
POINT
  8
寸法
 62
     0
 10
65.53788
 20
45.113475
  0
TEXT
  7
TextStyle03
  8
寸法
  6
CONTINUOUS
 62
     0
 10
65.15
 20
38.50625
  1
10
 40
3.0
 50
90.0
 72
     5
 11
65.15
 21
41.69375
  0
ENDBLK
  0
BLOCK
  2
*GRP_0027
 70
    65
 10
0.0
 20
0.0
  0
LINE
  8
ゴム等
  6
CONTINUOUS
 10
-19.74906
 20
-90.886535
 11
-20.24906
 21
-88.386535
  0
LINE
  8
ゴム等
  6
CONTINUOUS
 10
-14.44906
 20
-88.386535
 11
-14.94906
 21
-90.886535
  0
LINE
  8
ゴム等
  6
CONTINUOUS
 10
-12.34906
 20
-83.386535
 11
-12.34906
 21
-88.386535
  0
LINE
  8
ゴム等
  6
CONTINUOUS
 10
-22.34906
 20
-83.386535
 11
-22.34906
 21
-88.386535
  0
LINE
  8
ゴム等
  6
CONTINUOUS
 10
-19.74906
 20
-90.886535
 11
-14.94906
 21
-90.886535
  0
LINE
  8
ゴム等
  6
CONTINUOUS
 10
-12.34906
 20
-88.386535
 11
-14.44906
 21
-88.386535
  0
LINE
  8
ゴム等
  6
CONTINUOUS
 10
-20.24906
 20
-88.386535
 11
-22.34906
 21
-88.386535
  0
LINE
  8
ゴム等
  6
CONTINUOUS
 10
-17.34906
 20
-83.886535
 11
-16.84906
 21
-83.386535
  0
LINE
  8
ゴム等
  6
CONTINUOUS
 10
-17.34906
 20
-83.886535
 11
-17.84906
 21
-83.386535
  0
LINE
  8
ゴム等
  6
CONTINUOUS
 10
-22.34906
 20
-83.386535
 11
-17.84906
 21
-83.386535
  0
LINE
  8
ゴム等
  6
CONTINUOUS
 10
-16.84906
 20
-83.386535
 11
-12.34906
 21
-83.386535
  0
INSERT
  2
*HAT_0006
  8
ゴム等
 10
0.0
 20
0.0
  0
ENDBLK
  0
BLOCK
  2
*GRP_0028
 70
    65
 10
0.0
 20
0.0
  0
LINE
  8
型材断面
  6
CONTINUOUS
 62
    64
 10
-12.69107
 20
-96.253693
 11
-12.691065
 21
-95.389992
  0
LINE
  8
型材断面
  6
CONTINUOUS
 62
    64
 10
-22.007025
 20
-96.253662
 11
-22.00702
 21
-95.389952
  0
LINE
  8
型材断面
  6
CONTINUOUS
 62
    64
 10
-12.691065
 20
-95.389992
 11
-22.00702
 21
-95.389952
  0
LINE
  8
ボルト／ビス
  6
CONTINUOUS
 62
    64
 10
-22.34905
 20
-97.193353
 11
-19.42895
 21
-98.256197
  0
LINE
  8
ボルト／ビス
  6
CONTINUOUS
 62
    64
 10
-19.42895
 20
-98.256197
 11
-17.34906
 21
-98.256203
  0
LINE
  8
ボルト／ビス
  6
CONTINUOUS
 62
    64
 10
-22.34905
 20
-97.193353
 11
-17.349055
 21
-97.193372
  0
LINE
  8
ボルト／ビス
  6
CONTINUOUS
 62
    64
 10
-22.007025
 20
-96.253662
 11
-17.34905
 21
-96.253677
  0
LINE
  8
ボルト／ビス
  6
CONTINUOUS
 62
    64
 10
-12.349055
 20
-97.193397
 11
-15.269155
 21
-98.256213
  0
LINE
  8
ボルト／ビス
  6
CONTINUOUS
 62
    64
 10
-15.269155
 20
-98.256213
 11
-17.34906
 21
-98.256203
  0
LINE
  8
ボルト／ビス
  6
CONTINUOUS
 62
    64
 10
-12.349055
 20
-97.193397
 11
-17.349055
 21
-97.193372
  0
LINE
  8
ボルト／ビス
  6
CONTINUOUS
 62
    64
 10
-12.69107
 20
-96.253693
 11
-17.34905
 21
-96.253677
  0
LINE
  8
ボルト／ビス
  6
CONTINUOUS
 62
    64
 10
-12.349055
 20
-97.193397
 11
-12.69107
 21
-96.253693
  0
LINE
  8
ボルト／ビス
  6
CONTINUOUS
 62
    64
 10
-22.34905
 20
-97.193353
 11
-22.007025
 21
-96.253658
  0
ENDBLK
  0
BLOCK
  2
*GRP_0029
 70
    65
 10
0.0
 20
0.0
  0
LINE
  8
ボルト／ビス
  6
CONTINUOUS
 62
    64
 10
-13.84906
 20
-98.256203
 11
-13.94076
 21
-99.304367
  0
ARC
  8
ボルト／ビス
  6
CONTINUOUS
 62
    64
 10
-15.634297
 20
-99.156195
 40
1.7
 50
270.0
 51
355.000011
  0
LINE
  8
ボルト／ビス
  6
CONTINUOUS
 62
    64
 10
-15.634295
 20
-100.856203
 11
-17.34906
 21
-100.856203
  0
LINE
  8
ボルト／ビス
  6
CONTINUOUS
 62
    64
 10
-20.84906
 20
-98.256203
 11
-20.757355
 21
-99.304367
  0
ARC
  8
ボルト／ビス
  6
CONTINUOUS
 62
    64
 10
-19.063831
 20
-99.156195
 40
1.7
 50
184.999989
 51
270.0
  0
LINE
  8
ボルト／ビス
  6
CONTINUOUS
 62
    64
 10
-19.06383
 20
-100.856203
 11
-17.34906
 21
-100.856203
  0
LINE
  8
ボルト／ビス
  6
CONTINUOUS
 62
    64
 10
-14.95242
 20
-100.471298
 11
-14.95242
 21
-100.713458
  0
LINE
  8
ボルト／ビス
  6
CONTINUOUS
 62
    64
 10
-16.64906
 20
-99.821213
 11
-17.34906
 21
-99.821213
  0
LINE
  8
ボルト／ビス
  6
CONTINUOUS
 62
    64
 10
-16.24906
 20
-100.471298
 11
-14.95242
 21
-100.471298
  0
LINE
  8
ボルト／ビス
  6
CONTINUOUS
 62
    64
 10
-16.64906
 20
-99.821213
 11
-16.64906
 21
-100.071298
  0
ARC
  8
ボルト／ビス
  6
CONTINUOUS
 62
    64
 10
-16.249064
 20
-100.07129
 40
0.4
 50
180.0
 51
270.0
  0
LINE
  8
ボルト／ビス
  6
CONTINUOUS
 62
    64
 10
-19.7457
 20
-100.471298
 11
-19.7457
 21
-100.713458
  0
LINE
  8
ボルト／ビス
  6
CONTINUOUS
 62
    64
 10
-18.04906
 20
-99.821213
 11
-17.34906
 21
-99.821213
  0
LINE
  8
ボルト／ビス
  6
CONTINUOUS
 62
    64
 10
-18.44906
 20
-100.471298
 11
-19.7457
 21
-100.471298
  0
LINE
  8
ボルト／ビス
  6
CONTINUOUS
 62
    64
 10
-18.04906
 20
-99.821213
 11
-18.04906
 21
-100.071298
  0
ARC
  8
ボルト／ビス
  6
CONTINUOUS
 62
    64
 10
-18.449064
 20
-100.07129
 40
0.4
 50
270.0
 51
360.0
  0
LINE
  8
ボルト／ビス
  6
CONTINUOUS
 62
    64
 10
-13.84906
 20
-98.256203
 11
-20.84906
 21
-98.256203
  0
LINE
  8
ボルト／ビス
  6
CONTINUOUS
 62
    64
 10
-17.34906
 20
-102.827592
 11
-17.34906
 21
-70.704727
  0
LINE
  8
ボルト／ビス
  6
CONTINUOUS
 62
    64
 10
-15.34906
 20
-73.756203
 11
-15.84906
 21
-73.256203
  0
LINE
  8
ボルト／ビス
  6
CONTINUOUS
 62
    64
 10
-19.34906
 20
-73.756203
 11
-18.84906
 21
-73.256203
  0
LINE
  8
ボルト／ビス
  6
CONTINUOUS
 62
    64
 10
-15.34906
 20
-73.756203
 11
-19.34906
 21
-73.756203
  0
LINE
  8
ボルト／ビス
  6
CONTINUOUS
 62
    64
 10
-15.84906
 20
-73.256203
 11
-18.84906
 21
-73.256203
  0
LINE
  8
ボルト／ビス
  6
CONTINUOUS
 62
    64
 10
-18.84906
 20
-98.256203
 11
-18.84906
 21
-73.256203
  0
LINE
  8
ボルト／ビス
  6
CONTINUOUS
 62
    64
 10
-15.84906
 20
-98.256203
 11
-15.84906
 21
-73.256203
  0
LINE
  8
ボルト／ビス
  6
CONTINUOUS
 62
    64
 10
-15.34906
 20
-98.256203
 11
-15.34906
 21
-73.756203
  0
LINE
  8
ボルト／ビス
  6
CONTINUOUS
 62
    64
 10
-19.34906
 20
-98.256203
 11
-19.34906
 21
-73.756203
  0
ENDBLK
  0
BLOCK
  2
*DIM_0030
 70
    65
 10
0.0
 20
0.0
  0
LINE
  8
寸法
  6
BYBLOCK
 62
     0
 10
-113.249065
 20
-98.890035
 11
-149.208172
 21
-98.890035
  0
LINE
  8
寸法
  6
BYBLOCK
 62
     0
 10
-149.208172
 20
-93.88998
 11
-149.208172
 21
-98.890035
  0
POINT
  8
寸法
 62
     0
 10
-149.208172
 20
-93.88998
  0
POINT
  8
寸法
 62
     0
 10
-149.208172
 20
-98.890035
  0
TEXT
  7
TextStyle03
  8
寸法
  6
CONTINUOUS
 62
     0
 10
-149.6
 20
-97.15
  1
5
 40
3.0
 50
90.0
 72
     5
 11
-149.6
 21
-95.65
  0
ENDBLK
  0
BLOCK
  2
*DIM_0031
 70
    65
 10
0.0
 20
0.0
  0
LINE
  8
寸法
  6
BYBLOCK
 62
     0
 10
-114.249065
 20
-113.890035
 11
-149.208172
 21
-113.890035
  0
LINE
  8
寸法
  6
BYBLOCK
 62
     0
 10
-149.208172
 20
-98.890035
 11
-149.208172
 21
-113.890035
  0
POINT
  8
寸法
 62
     0
 10
-149.208172
 20
-113.890035
  0
TEXT
  7
TextStyle03
  8
寸法
  6
CONTINUOUS
 62
     0
 10
-149.6
 20
-107.99375
  1
15
 40
3.0
 50
90.0
 72
     5
 11
-149.6
 21
-104.80625
  0
ENDBLK
  0
BLOCK
  2
*GRP_0032
 70
    65
 10
0.0
 20
0.0
  0
LINE
  8
別途部材
  6
CONTINUOUS
 62
    96
 10
-76.48473
 20
-12.61831
 11
-76.69062
 21
-11.152755
  0
ARC
  8
別途部材
  6
CONTINUOUS
 62
    96
 10
-78.671175
 20
-11.430997
 40
2.0
 50
7.996999
 51
92.996996
  0
LINE
  8
別途部材
  6
CONTINUOUS
 62
    96
 10
-85.47242
 20
-13.08886
 11
-85.420695
 21
-11.60982
  0
ARC
  8
別途部材
  6
CONTINUOUS
 62
    96
 10
-83.421918
 20
-11.679724
 40
2.0
 50
92.996996
 51
177.996993
  0
LINE
  8
別途部材
  6
CONTINUOUS
 62
    96
 10
-76.48473
 20
-12.61831
 11
-85.47242
 21
-13.08886
  0
LINE
  8
別途部材
  6
CONTINUOUS
 62
    96
 10
-78.77574
 20
-9.433735
 11
-83.526485
 21
-9.68246
  0
LINE
  8
別途部材
  6
CONTINUOUS
 62
    96
 10
-77.9853
 20
-22.209885
 11
-78.458475
 21
-22.73534
  0
LINE
  8
別途部材
  6
CONTINUOUS
 62
    96
 10
-82.97846
 20
-22.4713
 11
-82.453005
 21
-22.944475
  0
LINE
  8
別途部材
  6
CONTINUOUS
 62
    96
 10
-82.97584
 20
-12.95815
 11
-82.453005
 21
-22.944475
  0
LINE
  8
別途部材
  6
CONTINUOUS
 62
    96
 10
-83.475155
 20
-12.984295
 11
-82.97846
 21
-22.4713
  0
LINE
  8
別途部材
  6
CONTINUOUS
 62
    96
 10
-78.481995
 20
-12.722875
 11
-77.9853
 21
-22.209885
  0
LINE
  8
別途部材
  6
CONTINUOUS
 62
    96
 10
-82.97846
 20
-22.4713
 11
-77.9853
 21
-22.209885
  0
LINE
  8
別途部材
  6
CONTINUOUS
 62
    96
 10
-78.98131
 20
-12.74902
 11
-78.458475
 21
-22.73534
  0
LINE
  8
別途部材
  6
CONTINUOUS
 62
    96
 10
-82.453005
 20
-22.944475
 11
-78.458475
 21
-22.73534
  0
LINE
  8
別途部材
  6
CONTINUOUS
 62
    96
 10
-81.39287
 20
-4.94042
 11
-80.45574
 21
-22.83991
  0
LINE
  8
別途部材
  6
CONTINUOUS
 62
    96
 10
-49.254545
 20
-77.386265
 11
-46.25454
 21
-77.386265
  0
LINE
  8
別途部材
  6
CONTINUOUS
 62
    96
 10
-52.254555
 20
-14.35385
 11
-92.178665
 21
-16.444085
  0
LINE
  8
別途部材
  6
CONTINUOUS
 62
    96
 10
-35.25455
 20
-48.886805
 11
-49.254545
 21
-48.886805
  0
LINE
  8
別途部材
  6
CONTINUOUS
 62
    96
 10
-52.254555
 20
16.91308
 11
-55.25457
 21
16.91308
  0
LINE
  8
別途部材
  6
CONTINUOUS
 62
    96
 10
-92.454515
 20
-32.886275
 11
-100.45455
 21
-29.386265
  0
LINE
  8
別途部材
  6
CONTINUOUS
 62
    96
 10
-91.827005
 20
-29.886255
 11
-96.457035
 21
-27.86064
  0
LINE
  8
別途部材
  6
CONTINUOUS
 62
    96
 10
-92.96216
 20
-13.480985
 11
-100.76825
 21
-17.39448
  0
LINE
  8
別途部材
  6
CONTINUOUS
 62
    96
 10
-92.178675
 20
-16.444085
 11
-100.08705
 21
-20.408865
  0
LINE
  8
別途部材
  6
CONTINUOUS
 62
    96
 10
-98.14059
 20
-21.4769
 11
-95.82666
 21
-19.567535
  0
LINE
  8
別途部材
  6
DASHDOTX2
 62
    96
 10
-100.45455
 20
-23.386275
 11
-100.45455
 21
-13.981695
  0
LINE
  8
別途部材
  6
DASHDOTX2
 62
    96
 10
-100.45455
 20
-23.386275
 11
-100.45455
 21
-33.30005
  0
LINE
  8
別途部材
  6
DASHDOTX2
 62
    96
 10
-100.45455
 20
-23.386275
 11
-92.55038
 21
-23.386275
  0
LINE
  8
別途部材
  6
DASHDOTX2
 62
    96
 10
-100.45455
 20
-23.386275
 11
-108.80381
 21
-23.386275
  0
LINE
  8
別途部材
  6
CONTINUOUS
 62
    96
 10
-46.25454
 20
-29.886255
 11
-91.827005
 21
-29.886255
  0
LINE
  8
別途部材
  6
CONTINUOUS
 62
    96
 10
-49.254545
 20
-32.886275
 11
-92.454515
 21
-32.886275
  0
LINE
  8
別途部材
  6
CONTINUOUS
 62
    96
 10
-55.25457
 20
22.646155
 11
-55.25457
 21
-11.5068
  0
LINE
  8
別途部材
  6
CONTINUOUS
 62
    96
 10
-52.254555
 20
22.646155
 11
-55.25457
 21
22.646155
  0
LINE
  8
別途部材
  6
CONTINUOUS
 62
    96
 10
-52.254555
 20
22.646155
 11
-52.254555
 21
-14.35385
  0
CIRCLE
  8
別途部材
  6
CONTINUOUS
 62
    96
 10
-100.45455
 20
-23.386275
 40
3.0
  0
ARC
  8
別途部材
  6
CONTINUOUS
 62
    96
 10
-100.454557
 20
-23.386269
 40
6.0
 50
92.998444
 51
411.219394
  0
LINE
  8
別途部材
  6
CONTINUOUS
 62
    96
 10
-46.25454
 20
-29.886255
 11
-46.25454
 21
-77.386265
  0
LINE
  8
別途部材
  6
CONTINUOUS
 62
    96
 10
-49.254545
 20
-32.886275
 11
-49.254545
 21
-77.386265
  0
LINE
  8
別途部材
  6
DASHDOTX2
 62
    96
 10
-53.60189
 20
-62.88702
 11
-30.54775
 21
-62.88702
  0
LINE
  8
別途部材
  6
DASHDOT
 62
    96
 10
-50.25455
 20
16.91308
 11
-57.25457
 21
16.91308
  0
LINE
  8
別途部材
  6
CONTINUOUS
 62
    96
 10
-55.25457
 20
20.41308
 11
-55.25457
 21
13.413085
  0
LINE
  8
別途部材
  6
CONTINUOUS
 62
    96
 10
-56.254565
 20
12.91308
 11
-55.754565
 21
12.91308
  0
LINE
  8
別途部材
  6
CONTINUOUS
 62
    96
 10
-56.254565
 20
20.913085
 11
-55.754565
 21
20.913085
  0
LINE
  8
別途部材
  6
CONTINUOUS
 62
    96
 10
-58.254575
 20
18.91309
 11
-58.254575
 21
14.913075
  0
LINE
  8
別途部材
  6
CONTINUOUS
 62
    96
 10
-57.4598
 20
16.713075
 11
-57.4598
 21
17.11309
  0
LINE
  8
別途部材
  6
CONTINUOUS
 62
    96
 10
-57.91652
 20
17.41308
 11
-57.759795
 21
17.41308
  0
LINE
  8
別途部材
  6
CONTINUOUS
 62
    96
 10
-57.91652
 20
16.413075
 11
-57.759795
 21
16.413075
  0
LINE
  8
別途部材
  6
CONTINUOUS
 62
    96
 10
-58.21652
 20
18.15079
 11
-58.254575
 21
18.15079
  0
LINE
  8
別途部材
  6
CONTINUOUS
 62
    96
 10
-58.11653
 20
18.050785
 11
-58.11653
 21
17.61309
  0
LINE
  8
別途部材
  6
CONTINUOUS
 62
    96
 10
-58.21652
 20
15.675375
 11
-58.254575
 21
15.675375
  0
LINE
  8
別途部材
  6
CONTINUOUS
 62
    96
 10
-58.11653
 20
15.775375
 11
-58.11653
 21
16.213075
  0
ARC
  8
別途部材
  6
CONTINUOUS
 62
    96
 10
-55.754571
 20
13.413083
 40
0.5
 50
270.00412
 51
360.005493
  0
ARC
  8
別途部材
  6
CONTINUOUS
 62
    96
 10
-55.754571
 20
20.413081
 40
0.5
 50
0.005493
 51
90.001373
  0
ARC
  8
別途部材
  6
CONTINUOUS
 62
    96
 10
-56.254573
 20
14.913076
 40
2.0
 50
180.002747
 51
270.00412
  0
ARC
  8
別途部材
  6
CONTINUOUS
 62
    96
 10
-56.254573
 20
18.913089
 40
2.0
 50
90.001373
 51
180.002747
  0
ARC
  8
別途部材
  6
CONTINUOUS
 62
    96
 10
-57.759799
 20
17.113088
 40
0.3
 50
0.005493
 51
90.001373
  0
ARC
  8
別途部材
  6
CONTINUOUS
 62
    96
 10
-57.759799
 20
16.713077
 40
0.3
 50
270.00412
 51
360.005493
  0
ARC
  8
別途部材
  6
CONTINUOUS
 62
    96
 10
-57.916527
 20
17.613089
 40
0.2
 50
180.002747
 51
270.00412
  0
ARC
  8
別途部材
  6
CONTINUOUS
 62
    96
 10
-57.916527
 20
16.213075
 40
0.2
 50
90.001373
 51
180.002747
  0
ARC
  8
別途部材
  6
CONTINUOUS
 62
    96
 10
-58.216523
 20
18.050786
 40
0.1
 50
0.005493
 51
90.001373
  0
ARC
  8
別途部材
  6
CONTINUOUS
 62
    96
 10
-58.216523
 20
15.775379
 40
0.1
 50
270.00412
 51
360.005493
  0
LINE
  8
別途部材
  6
CONTINUOUS
 62
    96
 10
-84.454545
 20
-27.886275
 11
-76.45454
 21
-27.886275
  0
LINE
  8
別途部材
  6
CONTINUOUS
 62
    96
 10
-82.95453
 20
-29.38628
 11
-77.95455
 21
-29.38628
  0
LINE
  8
別途部材
  6
CONTINUOUS
 62
    96
 10
-76.45454
 20
-27.886275
 11
-77.95455
 21
-29.38628
  0
LINE
  8
別途部材
  6
CONTINUOUS
 62
    96
 10
-84.454545
 20
-27.886275
 11
-82.95453
 21
-29.38628
  0
LINE
  8
別途部材
  6
DASHDOT
 62
    96
 10
-80.45453
 20
-26.35329
 11
-80.45453
 21
-39.645555
  0
LINE
  8
別途部材
  6
CONTINUOUS
 62
    96
 10
-82.95453
 20
-33.179155
 11
-77.95455
 21
-33.179155
  0
LINE
  8
別途部材
  6
CONTINUOUS
 62
    96
 10
-77.95455
 20
-33.179155
 11
-78.661655
 21
-33.886275
  0
LINE
  8
別途部材
  6
CONTINUOUS
 62
    96
 10
-82.95453
 20
-33.179155
 11
-82.24743
 21
-33.886275
  0
LINE
  8
別途部材
  6
CONTINUOUS
 62
    96
 10
-82.24743
 20
-33.886275
 11
-78.661655
 21
-33.886275
  0
LINE
  8
別途部材
  6
CONTINUOUS
 62
    96
 10
-77.95455
 20
-29.38628
 11
-77.95455
 21
-33.179155
  0
LINE
  8
別途部材
  6
CONTINUOUS
 62
    96
 10
-82.95453
 20
-29.38628
 11
-82.95453
 21
-33.179155
  0
LINE
  8
別途部材
  6
CONTINUOUS
 62
    96
 10
-82.24743
 20
-29.38628
 11
-82.24743
 21
-33.886275
  0
LINE
  8
別途部材
  6
CONTINUOUS
 62
    96
 10
-78.661655
 20
-29.38628
 11
-78.661655
 21
-33.886275
  0
LINE
  8
別途部材
  6
CONTINUOUS
 62
    96
 10
-24.254565
 20
16.91308
 11
-26.254565
 21
14.913075
  0
LINE
  8
別途部材
  6
CONTINUOUS
 62
    96
 10
-24.254565
 20
16.91308
 11
-26.254565
 21
18.91309
  0
LINE
  8
別途部材
  6
CONTINUOUS
 62
    96
 10
-28.867655
 20
18.91309
 11
-28.867655
 21
14.913075
  0
LINE
  8
別途部材
  6
CONTINUOUS
 62
    96
 10
-24.254565
 20
16.91308
 11
-24.608355
 21
17.061325
  0
LINE
  8
別途部材
  6
CONTINUOUS
 62
    96
 10
-24.608355
 20
17.061325
 11
-24.957485
 21
17.20099
  0
LINE
  8
別途部材
  6
CONTINUOUS
 62
    96
 10
-24.957485
 20
17.20099
 11
-25.306625
 21
17.20099
  0
LINE
  8
別途部材
  6
CONTINUOUS
 62
    96
 10
-25.306625
 20
17.20099
 11
-25.58589
 21
17.480275
  0
LINE
  8
別途部材
  6
CONTINUOUS
 62
    96
 10
-25.58589
 20
17.480275
 11
-25.72554
 21
17.759575
  0
LINE
  8
別途部材
  6
CONTINUOUS
 62
    96
 10
-25.72554
 20
17.759575
 11
-25.865195
 21
18.038865
  0
LINE
  8
別途部材
  6
CONTINUOUS
 62
    96
 10
-25.865195
 20
18.038865
 11
-26.004855
 21
18.318165
  0
LINE
  8
別途部材
  6
CONTINUOUS
 62
    96
 10
-26.004855
 20
18.318165
 11
-26.07468
 21
18.597465
  0
LINE
  8
別途部材
  6
CONTINUOUS
 62
    96
 10
-26.07468
 20
18.597465
 11
-26.144505
 21
18.876765
  0
LINE
  8
別途部材
  6
CONTINUOUS
 62
    96
 10
-26.144505
 20
18.876765
 11
-26.254565
 21
18.91309
  0
LINE
  8
別途部材
  6
CONTINUOUS
 62
    96
 10
-26.254565
 20
14.913075
 11
-27.30824
 21
15.874305
  0
LINE
  8
別途部材
  6
CONTINUOUS
 62
    96
 10
-27.30824
 20
15.874305
 11
-27.587525
 21
16.246705
  0
LINE
  8
別途部材
  6
CONTINUOUS
 62
    96
 10
-27.587525
 20
16.246705
 11
-27.866835
 21
16.61911
  0
LINE
  8
別途部材
  6
CONTINUOUS
 62
    96
 10
-27.866835
 20
16.61911
 11
-27.401335
 21
16.61911
  0
LINE
  8
別途部材
  6
CONTINUOUS
 62
    96
 10
-27.401335
 20
16.61911
 11
-26.935845
 21
16.61911
  0
LINE
  8
別途部材
  6
CONTINUOUS
 62
    96
 10
-26.935845
 20
16.61911
 11
-26.470335
 21
16.61911
  0
LINE
  8
別途部材
  6
CONTINUOUS
 62
    96
 10
-26.470335
 20
16.61911
 11
-26.004855
 21
16.61911
  0
LINE
  8
別途部材
  6
CONTINUOUS
 62
    96
 10
-26.004855
 20
16.61911
 11
-25.539365
 21
16.61911
  0
LINE
  8
別途部材
  6
CONTINUOUS
 62
    96
 10
-25.539365
 20
16.61911
 11
-25.073855
 21
16.61911
  0
LINE
  8
別途部材
  6
CONTINUOUS
 62
    96
 10
-25.073855
 20
16.61911
 11
-24.254565
 21
16.91308
  0
LINE
  8
別途部材
  6
CONTINUOUS
 62
    96
 10
-55.25457
 20
18.91309
 11
-26.30234
 21
18.91309
  0
LINE
  8
別途部材
  6
CONTINUOUS
 62
    96
 10
-55.25457
 20
15.620185
 11
-28.867655
 21
15.620185
  0
LINE
  8
別途部材
  6
CONTINUOUS
 62
    96
 10
-55.25457
 20
14.913075
 11
-26.254565
 21
14.913075
  0
LINE
  8
別途部材
  6
CONTINUOUS
 62
    96
 10
-55.25457
 20
18.20598
 11
-28.867655
 21
18.20598
  0
LINE
  8
別途部材
  6
DASHDOTX2
 62
    96
 10
-59.601905
 20
16.91308
 11
-24.254565
 21
16.91308
  0
LINE
  8
別途部材
  6
CONTINUOUS
 62
    96
 10
-52.254555
 20
-2.35385
 11
-55.25457
 21
-2.35385
  0
LINE
  8
別途部材
  6
DASHDOT
 62
    96
 10
-50.25455
 20
-2.35385
 11
-57.25457
 21
-2.35385
  0
LINE
  8
別途部材
  6
CONTINUOUS
 62
    96
 10
-55.25457
 20
1.14615
 11
-55.25457
 21
-5.853845
  0
LINE
  8
別途部材
  6
CONTINUOUS
 62
    96
 10
-56.254565
 20
-6.35385
 11
-55.754565
 21
-6.35385
  0
LINE
  8
別途部材
  6
CONTINUOUS
 62
    96
 10
-56.254565
 20
1.646155
 11
-55.754565
 21
1.646155
  0
LINE
  8
別途部材
  6
CONTINUOUS
 62
    96
 10
-58.254575
 20
-0.35384
 11
-58.254575
 21
-4.353855
  0
LINE
  8
別途部材
  6
CONTINUOUS
 62
    96
 10
-57.4598
 20
-2.553855
 11
-57.4598
 21
-2.15384
  0
LINE
  8
別途部材
  6
CONTINUOUS
 62
    96
 10
-57.91652
 20
-1.85385
 11
-57.759795
 21
-1.85385
  0
LINE
  8
別途部材
  6
CONTINUOUS
 62
    96
 10
-57.91652
 20
-2.853855
 11
-57.759795
 21
-2.853855
  0
LINE
  8
別途部材
  6
CONTINUOUS
 62
    96
 10
-58.21652
 20
-1.11614
 11
-58.254575
 21
-1.11614
  0
LINE
  8
別途部材
  6
CONTINUOUS
 62
    96
 10
-58.11653
 20
-1.216145
 11
-58.11653
 21
-1.65384
  0
LINE
  8
別途部材
  6
CONTINUOUS
 62
    96
 10
-58.21652
 20
-3.591555
 11
-58.254575
 21
-3.591555
  0
LINE
  8
別途部材
  6
CONTINUOUS
 62
    96
 10
-58.11653
 20
-3.491555
 11
-58.11653
 21
-3.053855
  0
ARC
  8
別途部材
  6
CONTINUOUS
 62
    96
 10
-55.754571
 20
-5.853847
 40
0.5
 50
270.00412
 51
360.005493
  0
ARC
  8
別途部材
  6
CONTINUOUS
 62
    96
 10
-55.754571
 20
1.146151
 40
0.5
 50
0.005493
 51
90.001373
  0
ARC
  8
別途部材
  6
CONTINUOUS
 62
    96
 10
-56.254573
 20
-4.353854
 40
2.0
 50
180.002747
 51
270.00412
  0
ARC
  8
別途部材
  6
CONTINUOUS
 62
    96
 10
-56.254573
 20
-0.353841
 40
2.0
 50
90.001373
 51
180.002747
  0
ARC
  8
別途部材
  6
CONTINUOUS
 62
    96
 10
-57.759799
 20
-2.153842
 40
0.3
 50
0.005493
 51
90.001373
  0
ARC
  8
別途部材
  6
CONTINUOUS
 62
    96
 10
-57.759799
 20
-2.553853
 40
0.3
 50
270.00412
 51
360.005493
  0
ARC
  8
別途部材
  6
CONTINUOUS
 62
    96
 10
-57.916527
 20
-1.653841
 40
0.2
 50
180.002747
 51
270.00412
  0
ARC
  8
別途部材
  6
CONTINUOUS
 62
    96
 10
-57.916527
 20
-3.053855
 40
0.2
 50
90.001373
 51
180.002747
  0
ARC
  8
別途部材
  6
CONTINUOUS
 62
    96
 10
-58.216523
 20
-1.216144
 40
0.1
 50
0.005493
 51
90.001373
  0
ARC
  8
別途部材
  6
CONTINUOUS
 62
    96
 10
-58.216523
 20
-3.491551
 40
0.1
 50
270.00412
 51
360.005493
  0
LINE
  8
別途部材
  6
CONTINUOUS
 62
    96
 10
-24.254565
 20
-2.35385
 11
-26.254565
 21
-4.353855
  0
LINE
  8
別途部材
  6
CONTINUOUS
 62
    96
 10
-24.254565
 20
-2.35385
 11
-26.254565
 21
-0.35384
  0
LINE
  8
別途部材
  6
CONTINUOUS
 62
    96
 10
-28.867655
 20
-0.35384
 11
-28.867655
 21
-4.353855
  0
LINE
  8
別途部材
  6
CONTINUOUS
 62
    96
 10
-24.254565
 20
-2.35385
 11
-24.608355
 21
-2.205605
  0
LINE
  8
別途部材
  6
CONTINUOUS
 62
    96
 10
-24.608355
 20
-2.205605
 11
-24.957485
 21
-2.06594
  0
LINE
  8
別途部材
  6
CONTINUOUS
 62
    96
 10
-24.957485
 20
-2.06594
 11
-25.306625
 21
-2.06594
  0
LINE
  8
別途部材
  6
CONTINUOUS
 62
    96
 10
-25.306625
 20
-2.06594
 11
-25.58589
 21
-1.786655
  0
LINE
  8
別途部材
  6
CONTINUOUS
 62
    96
 10
-25.58589
 20
-1.786655
 11
-25.72554
 21
-1.507355
  0
LINE
  8
別途部材
  6
CONTINUOUS
 62
    96
 10
-25.72554
 20
-1.507355
 11
-25.865195
 21
-1.228065
  0
LINE
  8
別途部材
  6
CONTINUOUS
 62
    96
 10
-25.865195
 20
-1.228065
 11
-26.004855
 21
-0.948765
  0
LINE
  8
別途部材
  6
CONTINUOUS
 62
    96
 10
-26.004855
 20
-0.948765
 11
-26.07468
 21
-0.669465
  0
LINE
  8
別途部材
  6
CONTINUOUS
 62
    96
 10
-26.07468
 20
-0.669465
 11
-26.144505
 21
-0.390165
  0
LINE
  8
別途部材
  6
CONTINUOUS
 62
    96
 10
-26.144505
 20
-0.390165
 11
-26.254565
 21
-0.35384
  0
LINE
  8
別途部材
  6
CONTINUOUS
 62
    96
 10
-26.254565
 20
-4.353855
 11
-27.30824
 21
-3.392625
  0
LINE
  8
別途部材
  6
CONTINUOUS
 62
    96
 10
-27.30824
 20
-3.392625
 11
-27.587525
 21
-3.020225
  0
LINE
  8
別途部材
  6
CONTINUOUS
 62
    96
 10
-27.587525
 20
-3.020225
 11
-27.866835
 21
-2.64782
  0
LINE
  8
別途部材
  6
CONTINUOUS
 62
    96
 10
-27.866835
 20
-2.64782
 11
-27.401335
 21
-2.64782
  0
LINE
  8
別途部材
  6
CONTINUOUS
 62
    96
 10
-27.401335
 20
-2.64782
 11
-26.935845
 21
-2.64782
  0
LINE
  8
別途部材
  6
CONTINUOUS
 62
    96
 10
-26.935845
 20
-2.64782
 11
-26.470335
 21
-2.64782
  0
LINE
  8
別途部材
  6
CONTINUOUS
 62
    96
 10
-26.470335
 20
-2.64782
 11
-26.004855
 21
-2.64782
  0
LINE
  8
別途部材
  6
CONTINUOUS
 62
    96
 10
-26.004855
 20
-2.64782
 11
-25.539365
 21
-2.64782
  0
LINE
  8
別途部材
  6
CONTINUOUS
 62
    96
 10
-25.539365
 20
-2.64782
 11
-25.073855
 21
-2.64782
  0
LINE
  8
別途部材
  6
CONTINUOUS
 62
    96
 10
-25.073855
 20
-2.64782
 11
-24.254565
 21
-2.35385
  0
LINE
  8
別途部材
  6
CONTINUOUS
 62
    96
 10
-55.25457
 20
-0.35384
 11
-26.30234
 21
-0.35384
  0
LINE
  8
別途部材
  6
CONTINUOUS
 62
    96
 10
-55.25457
 20
-3.646745
 11
-28.867655
 21
-3.646745
  0
LINE
  8
別途部材
  6
CONTINUOUS
 62
    96
 10
-55.25457
 20
-4.353855
 11
-26.254565
 21
-4.353855
  0
LINE
  8
別途部材
  6
CONTINUOUS
 62
    96
 10
-55.25457
 20
-1.06095
 11
-28.867655
 21
-1.06095
  0
LINE
  8
別途部材
  6
DASHDOTX2
 62
    96
 10
-59.601905
 20
-2.35385
 11
-24.254565
 21
-2.35385
  0
LINE
  8
別途部材
  6
CONTINUOUS
 62
    96
 10
-46.25453
 20
-48.886805
 11
-49.254545
 21
-48.886805
  0
LINE
  8
別途部材
  6
DASHDOT
 62
    96
 10
-44.254525
 20
-48.886805
 11
-51.254545
 21
-48.886805
  0
LINE
  8
別途部材
  6
CONTINUOUS
 62
    96
 10
-49.254545
 20
-45.386805
 11
-49.254545
 21
-52.3868
  0
LINE
  8
別途部材
  6
CONTINUOUS
 62
    96
 10
-50.25454
 20
-52.886805
 11
-49.75454
 21
-52.886805
  0
LINE
  8
別途部材
  6
CONTINUOUS
 62
    96
 10
-50.25454
 20
-44.8868
 11
-49.75454
 21
-44.8868
  0
LINE
  8
別途部材
  6
CONTINUOUS
 62
    96
 10
-52.25455
 20
-46.886795
 11
-52.25455
 21
-50.88681
  0
LINE
  8
別途部材
  6
CONTINUOUS
 62
    96
 10
-51.459775
 20
-49.08681
 11
-51.459775
 21
-48.686795
  0
LINE
  8
別途部材
  6
CONTINUOUS
 62
    96
 10
-51.916495
 20
-48.386805
 11
-51.75977
 21
-48.386805
  0
LINE
  8
別途部材
  6
CONTINUOUS
 62
    96
 10
-51.916495
 20
-49.38681
 11
-51.75977
 21
-49.38681
  0
LINE
  8
別途部材
  6
CONTINUOUS
 62
    96
 10
-52.216495
 20
-47.649095
 11
-52.25455
 21
-47.649095
  0
LINE
  8
別途部材
  6
CONTINUOUS
 62
    96
 10
-52.116505
 20
-47.7491
 11
-52.116505
 21
-48.186795
  0
LINE
  8
別途部材
  6
CONTINUOUS
 62
    96
 10
-52.216495
 20
-50.12451
 11
-52.25455
 21
-50.12451
  0
LINE
  8
別途部材
  6
CONTINUOUS
 62
    96
 10
-52.116505
 20
-50.02451
 11
-52.116505
 21
-49.58681
  0
ARC
  8
別途部材
  6
CONTINUOUS
 62
    96
 10
-49.754546
 20
-52.386802
 40
0.5
 50
270.00412
 51
360.005493
  0
ARC
  8
別途部材
  6
CONTINUOUS
 62
    96
 10
-49.754546
 20
-45.386804
 40
0.5
 50
0.005493
 51
90.001373
  0
ARC
  8
別途部材
  6
CONTINUOUS
 62
    96
 10
-50.254548
 20
-50.886809
 40
2.0
 50
180.002747
 51
270.00412
  0
ARC
  8
別途部材
  6
CONTINUOUS
 62
    96
 10
-50.254548
 20
-46.886796
 40
2.0
 50
90.001373
 51
180.002747
  0
ARC
  8
別途部材
  6
CONTINUOUS
 62
    96
 10
-51.759774
 20
-48.686797
 40
0.3
 50
0.005493
 51
90.001373
  0
ARC
  8
別途部材
  6
CONTINUOUS
 62
    96
 10
-51.759774
 20
-49.086808
 40
0.3
 50
270.00412
 51
360.005493
  0
ARC
  8
別途部材
  6
CONTINUOUS
 62
    96
 10
-51.916502
 20
-48.186796
 40
0.2
 50
180.002747
 51
270.00412
  0
ARC
  8
別途部材
  6
CONTINUOUS
 62
    96
 10
-51.916502
 20
-49.58681
 40
0.2
 50
90.001373
 51
180.002747
  0
ARC
  8
別途部材
  6
CONTINUOUS
 62
    96
 10
-52.216498
 20
-47.749099
 40
0.1
 50
0.005493
 51
90.001373
  0
ARC
  8
別途部材
  6
CONTINUOUS
 62
    96
 10
-52.216498
 20
-50.024506
 40
0.1
 50
270.00412
 51
360.005493
  0
LINE
  8
別途部材
  6
CONTINUOUS
 62
    96
 10
-18.25454
 20
-48.886805
 11
-20.25454
 21
-50.88681
  0
LINE
  8
別途部材
  6
CONTINUOUS
 62
    96
 10
-18.25454
 20
-48.886805
 11
-20.25454
 21
-46.886795
  0
LINE
  8
別途部材
  6
CONTINUOUS
 62
    96
 10
-22.86763
 20
-46.886795
 11
-22.86763
 21
-50.88681
  0
LINE
  8
別途部材
  6
CONTINUOUS
 62
    96
 10
-18.25454
 20
-48.886805
 11
-18.60833
 21
-48.73856
  0
LINE
  8
別途部材
  6
CONTINUOUS
 62
    96
 10
-18.60833
 20
-48.73856
 11
-18.95746
 21
-48.598895
  0
LINE
  8
別途部材
  6
CONTINUOUS
 62
    96
 10
-18.95746
 20
-48.598895
 11
-19.3066
 21
-48.598895
  0
LINE
  8
別途部材
  6
CONTINUOUS
 62
    96
 10
-19.3066
 20
-48.598895
 11
-19.585865
 21
-48.31961
  0
LINE
  8
別途部材
  6
CONTINUOUS
 62
    96
 10
-19.585865
 20
-48.31961
 11
-19.725515
 21
-48.04031
  0
LINE
  8
別途部材
  6
CONTINUOUS
 62
    96
 10
-19.725515
 20
-48.04031
 11
-19.86517
 21
-47.76102
  0
LINE
  8
別途部材
  6
CONTINUOUS
 62
    96
 10
-19.86517
 20
-47.76102
 11
-20.00483
 21
-47.48172
  0
LINE
  8
別途部材
  6
CONTINUOUS
 62
    96
 10
-20.00483
 20
-47.48172
 11
-20.074655
 21
-47.20242
  0
LINE
  8
別途部材
  6
CONTINUOUS
 62
    96
 10
-20.074655
 20
-47.20242
 11
-20.14448
 21
-46.92312
  0
LINE
  8
別途部材
  6
CONTINUOUS
 62
    96
 10
-20.14448
 20
-46.92312
 11
-20.25454
 21
-46.886795
  0
LINE
  8
別途部材
  6
CONTINUOUS
 62
    96
 10
-20.25454
 20
-50.88681
 11
-21.308215
 21
-49.92558
  0
LINE
  8
別途部材
  6
CONTINUOUS
 62
    96
 10
-21.308215
 20
-49.92558
 11
-21.5875
 21
-49.55318
  0
LINE
  8
別途部材
  6
CONTINUOUS
 62
    96
 10
-21.5875
 20
-49.55318
 11
-21.86681
 21
-49.180775
  0
LINE
  8
別途部材
  6
CONTINUOUS
 62
    96
 10
-21.86681
 20
-49.180775
 11
-21.40131
 21
-49.180775
  0
LINE
  8
別途部材
  6
CONTINUOUS
 62
    96
 10
-21.40131
 20
-49.180775
 11
-20.93582
 21
-49.180775
  0
LINE
  8
別途部材
  6
CONTINUOUS
 62
    96
 10
-20.93582
 20
-49.180775
 11
-20.47031
 21
-49.180775
  0
LINE
  8
別途部材
  6
CONTINUOUS
 62
    96
 10
-20.47031
 20
-49.180775
 11
-20.00483
 21
-49.180775
  0
LINE
  8
別途部材
  6
CONTINUOUS
 62
    96
 10
-20.00483
 20
-49.180775
 11
-19.53934
 21
-49.180775
  0
LINE
  8
別途部材
  6
CONTINUOUS
 62
    96
 10
-19.53934
 20
-49.180775
 11
-19.07383
 21
-49.180775
  0
LINE
  8
別途部材
  6
CONTINUOUS
 62
    96
 10
-19.07383
 20
-49.180775
 11
-18.25454
 21
-48.886805
  0
LINE
  8
別途部材
  6
CONTINUOUS
 62
    96
 10
-49.254545
 20
-46.886795
 11
-20.302315
 21
-46.886795
  0
LINE
  8
別途部材
  6
CONTINUOUS
 62
    96
 10
-49.254545
 20
-50.1797
 11
-22.86763
 21
-50.1797
  0
LINE
  8
別途部材
  6
CONTINUOUS
 62
    96
 10
-49.254545
 20
-50.88681
 11
-20.25454
 21
-50.88681
  0
LINE
  8
別途部材
  6
CONTINUOUS
 62
    96
 10
-49.254545
 20
-47.593905
 11
-22.86763
 21
-47.593905
  0
LINE
  8
別途部材
  6
DASHDOTX2
 62
    96
 10
-53.60188
 20
-48.886805
 11
-18.25454
 21
-48.886805
  0
LINE
  8
別途部材
  6
CONTINUOUS
 62
    96
 10
-46.25453
 20
-62.88702
 11
-49.254545
 21
-62.88702
  0
LINE
  8
別途部材
  6
DASHDOT
 62
    96
 10
-44.254525
 20
-62.88702
 11
-51.254545
 21
-62.88702
  0
LINE
  8
別途部材
  6
CONTINUOUS
 62
    96
 10
-49.254545
 20
-59.38702
 11
-49.254545
 21
-66.387015
  0
LINE
  8
別途部材
  6
CONTINUOUS
 62
    96
 10
-50.25454
 20
-66.88702
 11
-49.75454
 21
-66.88702
  0
LINE
  8
別途部材
  6
CONTINUOUS
 62
    96
 10
-50.25454
 20
-58.887015
 11
-49.75454
 21
-58.887015
  0
LINE
  8
別途部材
  6
CONTINUOUS
 62
    96
 10
-52.25455
 20
-60.88701
 11
-52.25455
 21
-64.887025
  0
LINE
  8
別途部材
  6
CONTINUOUS
 62
    96
 10
-51.459775
 20
-63.087025
 11
-51.459775
 21
-62.68701
  0
LINE
  8
別途部材
  6
CONTINUOUS
 62
    96
 10
-51.916495
 20
-62.38702
 11
-51.75977
 21
-62.38702
  0
LINE
  8
別途部材
  6
CONTINUOUS
 62
    96
 10
-51.916495
 20
-63.387025
 11
-51.75977
 21
-63.387025
  0
LINE
  8
別途部材
  6
CONTINUOUS
 62
    96
 10
-52.216495
 20
-61.64931
 11
-52.25455
 21
-61.64931
  0
LINE
  8
別途部材
  6
CONTINUOUS
 62
    96
 10
-52.116505
 20
-61.749315
 11
-52.116505
 21
-62.18701
  0
LINE
  8
別途部材
  6
CONTINUOUS
 62
    96
 10
-52.216495
 20
-64.124725
 11
-52.25455
 21
-64.124725
  0
LINE
  8
別途部材
  6
CONTINUOUS
 62
    96
 10
-52.116505
 20
-64.024725
 11
-52.116505
 21
-63.587025
  0
ARC
  8
別途部材
  6
CONTINUOUS
 62
    96
 10
-49.754546
 20
-66.387017
 40
0.5
 50
270.00412
 51
360.005493
  0
ARC
  8
別途部材
  6
CONTINUOUS
 62
    96
 10
-49.754546
 20
-59.387019
 40
0.5
 50
0.005493
 51
90.001373
  0
ARC
  8
別途部材
  6
CONTINUOUS
 62
    96
 10
-50.254548
 20
-64.887024
 40
2.0
 50
180.002747
 51
270.00412
  0
ARC
  8
別途部材
  6
CONTINUOUS
 62
    96
 10
-50.254548
 20
-60.887011
 40
2.0
 50
90.001373
 51
180.002747
  0
ARC
  8
別途部材
  6
CONTINUOUS
 62
    96
 10
-51.759774
 20
-62.687012
 40
0.3
 50
0.005493
 51
90.001373
  0
ARC
  8
別途部材
  6
CONTINUOUS
 62
    96
 10
-51.759774
 20
-63.087023
 40
0.3
 50
270.00412
 51
360.005493
  0
ARC
  8
別途部材
  6
CONTINUOUS
 62
    96
 10
-51.916502
 20
-62.187011
 40
0.2
 50
180.002747
 51
270.00412
  0
ARC
  8
別途部材
  6
CONTINUOUS
 62
    96
 10
-51.916502
 20
-63.587025
 40
0.2
 50
90.001373
 51
180.002747
  0
ARC
  8
別途部材
  6
CONTINUOUS
 62
    96
 10
-52.216498
 20
-61.749314
 40
0.1
 50
0.005493
 51
90.001373
  0
ARC
  8
別途部材
  6
CONTINUOUS
 62
    96
 10
-52.216498
 20
-64.024721
 40
0.1
 50
270.00412
 51
360.005493
  0
LINE
  8
別途部材
  6
CONTINUOUS
 62
    96
 10
-18.25454
 20
-62.88702
 11
-20.25454
 21
-64.887025
  0
LINE
  8
別途部材
  6
CONTINUOUS
 62
    96
 10
-18.25454
 20
-62.88702
 11
-20.25454
 21
-60.88701
  0
LINE
  8
別途部材
  6
CONTINUOUS
 62
    96
 10
-22.86763
 20
-60.88701
 11
-22.86763
 21
-64.887025
  0
LINE
  8
別途部材
  6
CONTINUOUS
 62
    96
 10
-18.25454
 20
-62.88702
 11
-18.60833
 21
-62.738775
  0
LINE
  8
別途部材
  6
CONTINUOUS
 62
    96
 10
-18.60833
 20
-62.738775
 11
-18.95746
 21
-62.59911
  0
LINE
  8
別途部材
  6
CONTINUOUS
 62
    96
 10
-18.95746
 20
-62.59911
 11
-19.3066
 21
-62.59911
  0
LINE
  8
別途部材
  6
CONTINUOUS
 62
    96
 10
-19.3066
 20
-62.59911
 11
-19.585865
 21
-62.319825
  0
LINE
  8
別途部材
  6
CONTINUOUS
 62
    96
 10
-19.585865
 20
-62.319825
 11
-19.725515
 21
-62.040525
  0
LINE
  8
別途部材
  6
CONTINUOUS
 62
    96
 10
-19.725515
 20
-62.040525
 11
-19.86517
 21
-61.761235
  0
LINE
  8
別途部材
  6
CONTINUOUS
 62
    96
 10
-19.86517
 20
-61.761235
 11
-20.00483
 21
-61.481935
  0
LINE
  8
別途部材
  6
CONTINUOUS
 62
    96
 10
-20.00483
 20
-61.481935
 11
-20.074655
 21
-61.202635
  0
LINE
  8
別途部材
  6
CONTINUOUS
 62
    96
 10
-20.074655
 20
-61.202635
 11
-20.14448
 21
-60.923335
  0
LINE
  8
別途部材
  6
CONTINUOUS
 62
    96
 10
-20.14448
 20
-60.923335
 11
-20.25454
 21
-60.88701
  0
LINE
  8
別途部材
  6
CONTINUOUS
 62
    96
 10
-20.25454
 20
-64.887025
 11
-21.308215
 21
-63.925795
  0
LINE
  8
別途部材
  6
CONTINUOUS
 62
    96
 10
-21.308215
 20
-63.925795
 11
-21.5875
 21
-63.553395
  0
LINE
  8
別途部材
  6
CONTINUOUS
 62
    96
 10
-21.5875
 20
-63.553395
 11
-21.86681
 21
-63.18099
  0
LINE
  8
別途部材
  6
CONTINUOUS
 62
    96
 10
-21.86681
 20
-63.18099
 11
-21.40131
 21
-63.18099
  0
LINE
  8
別途部材
  6
CONTINUOUS
 62
    96
 10
-21.40131
 20
-63.18099
 11
-20.93582
 21
-63.18099
  0
LINE
  8
別途部材
  6
CONTINUOUS
 62
    96
 10
-20.93582
 20
-63.18099
 11
-20.47031
 21
-63.18099
  0
LINE
  8
別途部材
  6
CONTINUOUS
 62
    96
 10
-20.47031
 20
-63.18099
 11
-20.00483
 21
-63.18099
  0
LINE
  8
別途部材
  6
CONTINUOUS
 62
    96
 10
-20.00483
 20
-63.18099
 11
-19.53934
 21
-63.18099
  0
LINE
  8
別途部材
  6
CONTINUOUS
 62
    96
 10
-19.53934
 20
-63.18099
 11
-19.07383
 21
-63.18099
  0
LINE
  8
別途部材
  6
CONTINUOUS
 62
    96
 10
-19.07383
 20
-63.18099
 11
-18.25454
 21
-62.88702
  0
LINE
  8
別途部材
  6
CONTINUOUS
 62
    96
 10
-49.254545
 20
-60.88701
 11
-20.302315
 21
-60.88701
  0
LINE
  8
別途部材
  6
CONTINUOUS
 62
    96
 10
-49.254545
 20
-64.179915
 11
-22.86763
 21
-64.179915
  0
LINE
  8
別途部材
  6
CONTINUOUS
 62
    96
 10
-49.254545
 20
-64.887025
 11
-20.25454
 21
-64.887025
  0
LINE
  8
別途部材
  6
CONTINUOUS
 62
    96
 10
-49.254545
 20
-61.59412
 11
-22.86763
 21
-61.59412
  0
LINE
  8
別途部材
  6
DASHDOTX2
 62
    96
 10
-53.60188
 20
-62.88702
 11
-18.25454
 21
-62.88702
  0
LINE
  8
別途部材
  6
CONTINUOUS
 62
    96
 10
-92.96216
 20
-13.480985
 11
-55.25457
 21
-11.5068
  0
ENDBLK
  0
BLOCK
  2
*GRP_0033
 70
    65
 10
0.0
 20
0.0
  0
POLYLINE
  8
寸法
  6
BYBLOCK
 62
     0
 66
     1
  0
VERTEX
  8
寸法
 10
-53.754555
 20
42.73528
  0
VERTEX
  8
寸法
 10
-52.254555
 20
45.333358
  0
VERTEX
  8
寸法
 10
-54.85263
 20
43.833358
  0
SEQEND
  0
POLYLINE
  8
寸法
  6
BYBLOCK
 62
     0
 66
     1
  0
VERTEX
  8
寸法
 10
-52.254555
 20
45.333358
  0
VERTEX
  8
寸法
 10
-57.673027
 20
39.914885
  0
VERTEX
  8
寸法
 10
-62.806195
 20
39.914885
  0
SEQEND
  0
ENDBLK
  0
BLOCK
  2
*GRP_0034
 70
    65
 10
0.0
 20
0.0
  0
POLYLINE
  8
寸法
  6
BYBLOCK
 62
     0
 66
     1
  0
VERTEX
  8
寸法
 10
-72.496418
 20
-10.773475
  0
VERTEX
  8
寸法
 10
-69.89834
 20
-12.273475
  0
VERTEX
  8
寸法
 10
-71.39834
 20
-9.6754
  0
SEQEND
  0
POLYLINE
  8
寸法
  6
BYBLOCK
 62
     0
 66
     1
  0
VERTEX
  8
寸法
 10
-69.89834
 20
-12.273475
  0
VERTEX
  8
寸法
 10
-84.945165
 20
2.77335
  0
VERTEX
  8
寸法
 10
-121.003603
 20
2.77335
  0
SEQEND
  0
ENDBLK
  0
BLOCK
  2
*GRP_0035
 70
    65
 10
0.0
 20
0.0
  0
POLYLINE
  8
寸法
  6
BYBLOCK
 62
     0
 66
     1
  0
VERTEX
  8
寸法
 10
-2.65648
 20
33.613475
  0
VERTEX
  8
寸法
 10
-5.254555
 20
35.113475
  0
VERTEX
  8
寸法
 10
-3.754555
 20
32.5154
  0
SEQEND
  0
POLYLINE
  8
寸法
  6
BYBLOCK
 62
     0
 66
     1
  0
VERTEX
  8
寸法
 10
-5.254555
 20
35.113475
  0
VERTEX
  8
寸法
 10
2.05673
 20
27.80219
  0
VERTEX
  8
寸法
 10
19.144958
 20
27.80219
  0
SEQEND
  0
ENDBLK
  0
BLOCK
  2
*GRP_0036
 70
    65
 10
0.0
 20
0.0
  0
POLYLINE
  8
寸法
  6
BYBLOCK
 62
     0
 66
     1
  0
VERTEX
  8
寸法
 10
-47.523075
 20
24.1
  0
VERTEX
  8
寸法
 10
-44.925
 20
22.6
  0
VERTEX
  8
寸法
 10
-46.425
 20
25.198075
  0
SEQEND
  0
POLYLINE
  8
寸法
  6
BYBLOCK
 62
     0
 66
     1
  0
VERTEX
  8
寸法
 10
-44.925
 20
22.6
  0
VERTEX
  8
寸法
 10
-55.270857
 20
32.945858
  0
VERTEX
  8
寸法
 10
-63.027017
 20
32.945858
  0
SEQEND
  0
ENDBLK
  0
BLOCK
  2
*GRP_0037
 70
    65
 10
0.0
 20
0.0
  0
POLYLINE
  8
寸法
  6
BYBLOCK
 62
     0
 66
     1
  0
VERTEX
  8
寸法
 10
-65.701225
 20
-121.5901
  0
VERTEX
  8
寸法
 10
-68.2993
 20
-120.0901
  0
VERTEX
  8
寸法
 10
-66.7993
 20
-122.688175
  0
SEQEND
  0
POLYLINE
  8
寸法
  6
BYBLOCK
 62
     0
 66
     1
  0
VERTEX
  8
寸法
 10
-68.2993
 20
-120.0901
  0
VERTEX
  8
寸法
 10
-61.081373
 20
-127.308028
  0
VERTEX
  8
寸法
 10
-46.34503
 20
-127.308028
  0
SEQEND
  0
ENDBLK
  0
BLOCK
  2
*GRP_0038
 70
    65
 10
0.0
 20
0.0
  0
POLYLINE
  8
寸法
  6
BYBLOCK
 62
     0
 66
     1
  0
VERTEX
  8
寸法
 10
-11.033903
 20
-87.817785
  0
VERTEX
  8
寸法
 10
-13.631977
 20
-86.317785
  0
VERTEX
  8
寸法
 10
-12.131977
 20
-88.915863
  0
SEQEND
  0
POLYLINE
  8
寸法
  6
BYBLOCK
 62
     0
 66
     1
  0
VERTEX
  8
寸法
 10
-13.631977
 20
-86.317785
  0
VERTEX
  8
寸法
 10
-3.37182
 20
-96.577945
  0
VERTEX
  8
寸法
 10
1.437032
 20
-96.577945
  0
SEQEND
  0
ENDBLK
  0
BLOCK
  2
*GRP_0039
 70
    65
 10
0.0
 20
0.0
  0
POLYLINE
  8
寸法
  6
BYBLOCK
 62
     0
 66
     1
  0
VERTEX
  8
寸法
 10
-76.277833
 20
-100.185303
  0
VERTEX
  8
寸法
 10
-73.679755
 20
-101.685303
  0
VERTEX
  8
寸法
 10
-75.179755
 20
-99.087227
  0
SEQEND
  0
POLYLINE
  8
寸法
  6
BYBLOCK
 62
     0
 66
     1
  0
VERTEX
  8
寸法
 10
-73.679755
 20
-101.685303
  0
VERTEX
  8
寸法
 10
-87.059977
 20
-88.30508
  0
VERTEX
  8
寸法
 10
-93.928385
 20
-88.30508
  0
SEQEND
  0
ENDBLK
  0
BLOCK
  2
*GRP_0040
 70
    65
 10
0.0
 20
0.0
  0
POLYLINE
  8
寸法
  6
BYBLOCK
 62
     0
 66
     1
  0
VERTEX
  8
寸法
 10
-63.410575
 20
-96.95
  0
VERTEX
  8
寸法
 10
-60.8125
 20
-98.45
  0
VERTEX
  8
寸法
 10
-62.3125
 20
-95.851925
  0
SEQEND
  0
POLYLINE
  8
寸法
  6
BYBLOCK
 62
     0
 66
     1
  0
VERTEX
  8
寸法
 10
-60.8125
 20
-98.45
  0
VERTEX
  8
寸法
 10
-76.578547
 20
-82.683953
  0
VERTEX
  8
寸法
 10
-81.128315
 20
-82.683953
  0
SEQEND
  0
ENDBLK
  0
BLOCK
  2
*GRP_0041
 70
    65
 10
0.0
 20
0.0
  0
POLYLINE
  8
寸法
  6
BYBLOCK
 62
     0
 66
     1
  0
VERTEX
  8
寸法
 10
-45.714005
 20
-73.159527
  0
VERTEX
  8
寸法
 10
-42.792868
 20
-73.842868
  0
VERTEX
  8
寸法
 10
-44.980977
 20
-71.790507
  0
SEQEND
  0
POLYLINE
  8
寸法
  6
BYBLOCK
 62
     0
 66
     1
  0
VERTEX
  8
寸法
 10
-42.792868
 20
-73.842868
  0
VERTEX
  8
寸法
 10
-57.616497
 20
-65.905692
  0
VERTEX
  8
寸法
 10
-62.466643
 20
-65.905692
  0
SEQEND
  0
ENDBLK
  0
BLOCK
  2
*GRP_0042
 70
    65
 10
0.0
 20
0.0
  0
POLYLINE
  8
寸法
  6
BYBLOCK
 62
     0
 66
     1
  0
VERTEX
  8
寸法
 10
-4.801925
 20
-87.625
  0
VERTEX
  8
寸法
 10
-7.4
 20
-86.125
  0
VERTEX
  8
寸法
 10
-5.9
 20
-88.723075
  0
SEQEND
  0
POLYLINE
  8
寸法
  6
BYBLOCK
 62
     0
 66
     1
  0
VERTEX
  8
寸法
 10
-7.4
 20
-86.125
  0
VERTEX
  8
寸法
 10
-3.671217
 20
-89.853783
  0
VERTEX
  8
寸法
 10
3.65598
 20
-89.853783
  0
SEQEND
  0
ENDBLK
  0
BLOCK
  2
*GRP_0043
 70
    65
 10
0.0
 20
0.0
  0
POLYLINE
  8
寸法
  6
BYBLOCK
 62
     0
 66
     1
  0
VERTEX
  8
寸法
 10
-14.750985
 20
-102.356203
  0
VERTEX
  8
寸法
 10
-17.34906
 20
-100.856203
  0
VERTEX
  8
寸法
 10
-15.84906
 20
-103.454277
  0
SEQEND
  0
POLYLINE
  8
寸法
  6
BYBLOCK
 62
     0
 66
     1
  0
VERTEX
  8
寸法
 10
-17.34906
 20
-100.856203
  0
VERTEX
  8
寸法
 10
-9.657675
 20
-108.547588
  0
VERTEX
  8
寸法
 10
1.42392
 20
-108.547588
  0
SEQEND
  0
ENDBLK
  0
BLOCK
  2
*GRP_0044
 70
    65
 10
0.0
 20
0.0
  0
POLYLINE
  8
寸法
  6
BYBLOCK
 62
     0
 66
     1
  0
VERTEX
  8
寸法
 10
-40.25454
 20
-27.28793
  0
VERTEX
  8
寸法
 10
-41.75454
 20
-29.886005
  0
VERTEX
  8
寸法
 10
-39.156465
 20
-28.386005
  0
SEQEND
  0
POLYLINE
  8
寸法
  6
BYBLOCK
 62
     0
 66
     1
  0
VERTEX
  8
寸法
 10
-41.75454
 20
-29.886005
  0
VERTEX
  8
寸法
 10
-37.244283
 20
-25.375748
  0
VERTEX
  8
寸法
 10
19.330762
 20
-25.375748
  0
SEQEND
  0
ENDBLK
  0
BLOCK
  2
*GRP_0045
 70
    65
 10
0.0
 20
0.0
  0
POLYLINE
  8
寸法
  6
BYBLOCK
 62
     0
 66
     1
  0
VERTEX
  8
寸法
 10
-23.75094
 20
-19.386525
  0
VERTEX
  8
寸法
 10
-26.349015
 20
-17.886525
  0
VERTEX
  8
寸法
 10
-24.849015
 20
-20.4846
  0
SEQEND
  0
LINE
  8
寸法
  6
BYBLOCK
 62
     0
 10
-26.349015
 20
-17.886525
 11
-18.859793
 21
-25.375748
  0
ENDBLK
  0
BLOCK
  2
*GRP_0046
 70
    65
 10
0.0
 20
0.0
  0
POLYLINE
  8
寸法
  6
BYBLOCK
 62
     0
 66
     1
  0
VERTEX
  8
寸法
 10
-113.749065
 20
-107.33943
  0
VERTEX
  8
寸法
 10
-112.249065
 20
-104.741355
  0
VERTEX
  8
寸法
 10
-114.84714
 20
-106.241355
  0
SEQEND
  0
POLYLINE
  8
寸法
  6
BYBLOCK
 62
     0
 66
     1
  0
VERTEX
  8
寸法
 10
-112.249065
 20
-104.741355
  0
VERTEX
  8
寸法
 10
-115.74701
 20
-108.2393
  0
VERTEX
  8
寸法
 10
-121.67003
 20
-108.2393
  0
SEQEND
  0
ENDBLK
  0
BLOCK
  2
*GRP_0047
 70
    65
 10
0.0
 20
0.0
  0
POLYLINE
  8
寸法
  6
BYBLOCK
 62
     0
 66
     1
  0
VERTEX
  8
寸法
 10
-7.656465
 20
-50.73624
  0
VERTEX
  8
寸法
 10
-10.25454
 20
-49.23624
  0
VERTEX
  8
寸法
 10
-8.75454
 20
-51.834315
  0
SEQEND
  0
POLYLINE
  8
寸法
  6
BYBLOCK
 62
     0
 66
     1
  0
VERTEX
  8
寸法
 10
-10.25454
 20
-49.23624
  0
VERTEX
  8
寸法
 10
-6.045103
 20
-53.445677
  0
VERTEX
  8
寸法
 10
-2.120965
 20
-53.445677
  0
SEQEND
  0
ENDBLK
  0
BLOCK
  2
*GRP_0048
 70
    65
 10
0.0
 20
0.0
  0
POLYLINE
  8
寸法
  6
BYBLOCK
 62
     0
 66
     1
  0
VERTEX
  8
寸法
 10
-22.884045
 20
-105.61579
  0
VERTEX
  8
寸法
 10
-21.667368
 20
-119.8744
  0
VERTEX
  8
寸法
 10
-19.051985
 20
-119.8744
  0
SEQEND
  0
ENDBLK
  0
BLOCK
  2
*GRP_0049
 70
    65
 10
0.0
 20
0.0
  0
LINE
  8
型材断面
  6
CONTINUOUS
 62
    47
 10
-26.349025
 20
-20.386525
 11
-26.349025
 21
-21.886525
  0
LINE
  8
型材断面
  6
CONTINUOUS
 62
    47
 10
-31.34902
 20
-21.586525
 11
-31.04902
 21
-21.886525
  0
LINE
  8
型材断面
  6
CONTINUOUS
 62
    47
 10
-31.34902
 20
-21.586525
 11
-31.64902
 21
-21.886525
  0
LINE
  8
型材断面
  6
CONTINUOUS
 62
    47
 10
-31.04902
 20
-21.886525
 11
-26.349025
 21
-21.886525
  0
ARC
  8
型材断面
  6
CONTINUOUS
 62
    47
 10
-78.127647
 20
-21.686526
 40
0.199974
 50
153.434949
 51
270.0
  0
ARC
  8
型材断面
  6
CONTINUOUS
 62
    47
 10
-82.774259
 20
-21.686526
 40
0.199974
 50
270.0
 51
386.565051
  0
LINE
  8
型材断面
  6
CONTINUOUS
 62
    47
 10
-85.150345
 20
-21.886525
 11
-82.77427
 21
-21.886525
  0
ARC
  8
型材断面
  6
CONTINUOUS
 62
    47
 10
-85.150345
 20
-21.586539
 40
0.299961
 50
180.0
 51
270.0
  0
LINE
  8
型材断面
  6
CONTINUOUS
 62
    47
 10
-75.451623
 20
-20.6869
 11
-73.45162
 21
-20.6869
  0
LINE
  8
型材断面
  6
CONTINUOUS
 62
    47
 10
-53.755405
 20
-21.38653
 11
-53.755405
 21
-20.6869
  0
ARC
  8
型材断面
  6
CONTINUOUS
 62
    47
 10
-53.255418
 20
-21.386527
 40
0.5
 50
180.0
 51
270.0
  0
LINE
  8
型材断面
  6
CONTINUOUS
 62
    47
 10
-78.127645
 20
-21.886525
 11
-73.951623
 21
-21.886525
  0
LINE
  8
型材断面
  6
CONTINUOUS
 62
    47
 10
-73.45162
 20
-21.38653
 11
-73.45162
 21
-20.6869
  0
ARC
  8
型材断面
  6
CONTINUOUS
 62
    47
 10
-73.951638
 20
-21.386527
 40
0.5
 50
270.0
 51
360.0
  0
LINE
  8
型材断面
  6
CONTINUOUS
 62
    47
 10
-73.45162
 20
-17.999957
 11
-73.45162
 21
-18.8869
  0
LINE
  8
型材断面
  6
CONTINUOUS
 62
    47
 10
-75.451623
 20
-18.8869
 11
-73.45162
 21
-18.8869
  0
LINE
  8
型材断面
  6
CONTINUOUS
 62
    47
 10
-53.755405
 20
-16.968745
 11
-53.755405
 21
-18.8869
  0
LINE
  8
型材断面
  6
CONTINUOUS
 62
    47
 10
-75.451623
 20
-20.6869
 11
-75.451623
 21
-18.8869
  0
LINE
  8
型材断面
  6
CONTINUOUS
 62
    47
 10
-64.60351
 20
-18.8869
 11
-62.603515
 21
-18.8869
  0
LINE
  8
型材断面
  6
CONTINUOUS
 62
    47
 10
-64.60351
 20
-18.8869
 11
-64.60351
 21
-17.536705
  0
LINE
  8
型材断面
  6
CONTINUOUS
 62
    47
 10
-62.603515
 20
-18.8869
 11
-62.603515
 21
-17.43199
  0
LINE
  8
型材断面
  6
CONTINUOUS
 62
    47
 10
-53.755405
 20
-16.968745
 11
-62.603515
 21
-17.43199
  0
LINE
  8
型材断面
  6
CONTINUOUS
 62
    47
 10
-85.450323
 20
-21.586555
 11
-85.450323
 21
-18.628165
  0
LINE
  8
型材断面
  6
CONTINUOUS
 62
    47
 10
-64.60351
 20
-17.536705
 11
-73.45162
 21
-17.999957
  0
LINE
  8
型材断面
  6
CONTINUOUS
 62
    47
 10
-83.968458
 20
-18.850983
 11
-76.744345
 21
-18.472757
  0
LINE
  8
型材断面
  6
CONTINUOUS
 62
    47
 10
-78.30652
 20
-21.5971
 11
-76.744345
 21
-18.472757
  0
LINE
  8
型材断面
  6
CONTINUOUS
 62
    47
 10
-82.595395
 20
-21.5971
 11
-83.968458
 21
-18.850983
  0
LINE
  8
型材断面
  6
CONTINUOUS
 62
    47
 10
-53.755405
 20
-18.8869
 11
-51.755403
 21
-18.8869
  0
LINE
  8
型材断面
  6
CONTINUOUS
 62
    47
 10
-51.755403
 20
-18.8869
 11
-51.755403
 21
-20.6869
  0
LINE
  8
型材断面
  6
CONTINUOUS
 62
    47
 10
-53.755405
 20
-20.6869
 11
-51.755403
 21
-20.6869
  0
LINE
  8
型材断面
  6
CONTINUOUS
 62
    47
 10
-46.75456
 20
-17.386525
 11
-45.25456
 21
-17.386525
  0
LINE
  8
型材断面
  6
CONTINUOUS
 62
    47
 10
-45.25456
 20
-20.386525
 11
-45.25456
 21
-17.386525
  0
LINE
  8
型材断面
  6
CONTINUOUS
 62
    47
 10
-46.75456
 20
-17.386525
 11
-46.75456
 21
-20.386525
  0
LINE
  8
型材断面
  6
CONTINUOUS
 62
    47
 10
-46.75456
 20
-20.386525
 11
-50.254562
 21
-20.386525
  0
LINE
  8
型材断面
  6
CONTINUOUS
 62
    47
 10
-80.747215
 20
-16.679605
 11
-81.062493
 21
-16.3957
  0
LINE
  8
型材断面
  6
CONTINUOUS
 62
    47
 10
-80.747215
 20
-16.679605
 11
-80.46331
 21
-16.364328
  0
LINE
  8
型材断面
  6
CONTINUOUS
 62
    47
 10
-52.254565
 20
-14.887435
 11
-80.46331
 21
-16.364328
  0
LINE
  8
型材断面
  6
CONTINUOUS
 62
    47
 10
-26.349025
 20
-20.386525
 11
-45.25456
 21
-20.386525
  0
LINE
  8
型材断面
  6
CONTINUOUS
 62
    47
 10
-31.64902
 20
-21.886525
 11
-53.255418
 21
-21.886525
  0
LINE
  8
型材断面
  6
CONTINUOUS
 62
    47
 10
-51.954565
 20
16.913075
 11
-52.254565
 21
17.213075
  0
LINE
  8
型材断面
  6
CONTINUOUS
 62
    47
 10
-51.954565
 20
16.913075
 11
-52.254565
 21
16.613075
  0
LINE
  8
型材断面
  6
CONTINUOUS
 62
    47
 10
-51.954565
 20
-2.353855
 11
-52.254565
 21
-2.053855
  0
LINE
  8
型材断面
  6
CONTINUOUS
 62
    47
 10
-51.954565
 20
-2.353855
 11
-52.254565
 21
-2.653855
  0
LINE
  8
型材断面
  6
CONTINUOUS
 62
    47
 10
-52.254565
 20
-14.887435
 11
-52.254565
 21
-2.653855
  0
LINE
  8
型材断面
  6
CONTINUOUS
 62
    47
 10
-52.254565
 20
-2.053855
 11
-52.254565
 21
16.613075
  0
ARC
  8
型材断面
  6
CONTINUOUS
 62
    47
 10
-51.254564
 20
56.613542
 40
1.0
 50
90.0
 51
180.0
  0
LINE
  8
型材断面
  6
CONTINUOUS
 62
    47
 10
-46.75456
 20
56.113535
 11
-46.75456
 21
53.113535
  0
LINE
  8
型材断面
  6
CONTINUOUS
 62
    47
 10
-46.75456
 20
53.113535
 11
-45.25456
 21
53.113535
  0
LINE
  8
型材断面
  6
CONTINUOUS
 62
    47
 10
-45.25456
 20
56.113535
 11
-45.25456
 21
53.113535
  0
LINE
  8
型材断面
  6
CONTINUOUS
 62
    47
 10
-46.75456
 20
56.113535
 11
-50.254562
 21
56.113535
  0
LINE
  8
型材断面
  6
CONTINUOUS
 62
    47
 10
-51.25456
 20
57.613535
 11
-42.454562
 21
57.613535
  0
LINE
  8
型材断面
  6
CONTINUOUS
 62
    47
 10
-45.25456
 20
56.113535
 11
-40.45456
 21
56.113535
  0
LINE
  8
型材断面
  6
CONTINUOUS
 62
    47
 10
-42.454562
 20
75.113472
 11
-40.45456
 21
75.113472
  0
LINE
  8
型材断面
  6
CONTINUOUS
 62
    47
 10
-40.45456
 20
56.113535
 11
-40.45456
 21
75.113472
  0
LINE
  8
型材断面
  6
CONTINUOUS
 62
    47
 10
-42.154562
 20
70.11347
 11
-42.454562
 21
70.41347
  0
LINE
  8
型材断面
  6
CONTINUOUS
 62
    47
 10
-42.154562
 20
70.11347
 11
-42.454562
 21
69.81347
  0
LINE
  8
型材断面
  6
CONTINUOUS
 62
    47
 10
-42.454562
 20
57.613535
 11
-42.454562
 21
69.81347
  0
LINE
  8
型材断面
  6
CONTINUOUS
 62
    47
 10
-42.454562
 20
70.41347
 11
-42.454562
 21
75.113472
  0
LINE
  8
型材断面
  6
CONTINUOUS
 62
    47
 10
-50.254562
 20
-20.386525
 11
-50.254562
 21
56.113535
  0
LINE
  8
型材断面
  6
CONTINUOUS
 62
    47
 10
-52.254565
 20
17.213075
 11
-52.254565
 21
56.613537
  0
ARC
  8
型材断面
  6
CONTINUOUS
 62
    47
 10
-89.949124
 20
-21.586546
 40
0.299961
 50
180.0
 51
270.0
  0
LINE
  8
型材断面
  6
CONTINUOUS
 62
    47
 10
-88.5493
 20
-21.886532
 11
-89.9491
 21
-21.886532
  0
ARC
  8
型材断面
  6
CONTINUOUS
 62
    47
 10
-88.549305
 20
-21.586546
 40
0.299961
 50
270.0
 51
360.0
  0
LINE
  8
型材断面
  6
CONTINUOUS
 62
    47
 10
-88.249323
 20
-21.586555
 11
-88.249323
 21
-18.785207
  0
LINE
  8
型材断面
  6
CONTINUOUS
 62
    47
 10
-90.24907
 20
-21.586555
 11
-90.24907
 21
-16.887168
  0
LINE
  8
型材断面
  6
CONTINUOUS
 62
    47
 10
-85.450323
 20
-18.628165
 11
-88.249323
 21
-18.774708
  0
LINE
  8
型材断面
  6
CONTINUOUS
 62
    47
 10
-81.062493
 20
-16.3957
 11
-90.24907
 21
-16.876667
  0
ENDBLK
  0
BLOCK
  2
*GRP_0050
 70
    65
 10
0.0
 20
0.0
  0
LINE
  8
型材断面
  6
CONTINUOUS
 62
    47
 10
-97.249323
 20
-123.890013
 11
-95.749323
 21
-123.890013
  0
LINE
  8
型材断面
  6
CONTINUOUS
 62
    47
 10
-95.749323
 20
-123.890013
 11
-95.749323
 21
-113.88991
  0
LINE
  8
型材断面
  6
CONTINUOUS
 62
    47
 10
-97.249323
 20
-123.890013
 11
-97.249323
 21
-113.890038
  0
ARC
  8
型材断面
  6
CONTINUOUS
 62
    47
 10
-38.149314
 20
-112.390037
 40
0.5
 50
90.0
 51
180.0
  0
LINE
  8
型材断面
  6
CONTINUOUS
 62
    47
 10
-38.649302
 20
-112.390038
 11
-38.649302
 21
-113.390035
  0
ARC
  8
型材断面
  6
CONTINUOUS
 62
    47
 10
-38.149314
 20
-113.390037
 40
0.5
 50
180.0
 51
270.0
  0
LINE
  8
型材断面
  6
CONTINUOUS
 62
    47
 10
-24.249078
 20
-113.890038
 11
-24.249078
 21
-95.389983
  0
LINE
  8
型材断面
  6
CONTINUOUS
 62
    47
 10
-26.249072
 20
-111.890035
 11
-26.249072
 21
-95.889977
  0
LINE
  8
型材断面
  6
CONTINUOUS
 62
    47
 10
-38.1493
 20
-111.890035
 11
-26.249072
 21
-111.890035
  0
ARC
  8
型材断面
  6
CONTINUOUS
 62
    47
 10
-86.149314
 20
-112.3901
 40
0.5
 50
0.0
 51
90.0
  0
LINE
  8
型材断面
  6
CONTINUOUS
 62
    47
 10
-85.649298
 20
-112.390097
 11
-85.649298
 21
-113.389975
  0
ARC
  8
型材断面
  6
CONTINUOUS
 62
    47
 10
-86.149314
 20
-113.389975
 40
0.5
 50
270.0
 51
360.0
  0
LINE
  8
型材断面
  6
CONTINUOUS
 62
    47
 10
-45.949112
 20
-90.889983
 11
-46.249112
 21
-90.589983
  0
LINE
  8
型材断面
  6
CONTINUOUS
 62
    47
 10
-45.949112
 20
-90.889983
 11
-46.249112
 21
-91.189983
  0
LINE
  8
型材断面
  6
CONTINUOUS
 62
    47
 10
-44.249072
 20
-45.886255
 11
-44.249072
 21
-93.889983
  0
LINE
  8
型材断面
  6
CONTINUOUS
 62
    47
 10
-110.249072
 20
-111.890035
 11
-86.149315
 21
-111.890035
  0
LINE
  8
型材断面
  6
CONTINUOUS
 62
    47
 10
-95.749323
 20
-113.88991
 11
-86.149315
 21
-113.88991
  0
LINE
  8
型材断面
  6
CONTINUOUS
 62
    47
 10
-39.2545
 20
-93.889983
 11
-39.2545
 21
-92.389983
  0
LINE
  8
型材断面
  6
CONTINUOUS
 62
    47
 10
-40.7545
 20
-93.889983
 11
-40.7545
 21
-92.389983
  0
LINE
  8
型材断面
  6
CONTINUOUS
 62
    47
 10
-40.7545
 20
-92.389983
 11
-39.2545
 21
-92.389983
  0
LINE
  8
型材断面
  6
CONTINUOUS
 62
    47
 10
-40.7545
 20
-93.889983
 11
-44.249072
 21
-93.889983
  0
LINE
  8
型材断面
  6
CONTINUOUS
 62
    47
 10
-46.249075
 20
-91.189937
 11
-46.249075
 21
-93.889563
  0
LINE
  8
型材断面
  6
CONTINUOUS
 62
    47
 10
-103.249075
 20
-113.590038
 11
-102.949075
 21
-113.890038
  0
LINE
  8
型材断面
  6
CONTINUOUS
 62
    47
 10
-103.249075
 20
-113.590038
 11
-103.549075
 21
-113.890038
  0
LINE
  8
型材断面
  6
CONTINUOUS
 62
    47
 10
-97.249323
 20
-113.890038
 11
-102.949075
 21
-113.890038
  0
LINE
  8
型材断面
  6
CONTINUOUS
 62
    47
 10
-112.249075
 20
-113.890038
 11
-103.549075
 21
-113.890038
  0
LINE
  8
型材断面
  6
CONTINUOUS
 62
    47
 10
-34.649312
 20
-113.590038
 11
-34.949312
 21
-113.890038
  0
LINE
  8
型材断面
  6
CONTINUOUS
 62
    47
 10
-34.649312
 20
-113.590038
 11
-34.349312
 21
-113.890038
  0
LINE
  8
型材断面
  6
CONTINUOUS
 62
    47
 10
-38.1493
 20
-113.890038
 11
-34.949312
 21
-113.890038
  0
LINE
  8
型材断面
  6
CONTINUOUS
 62
    47
 10
-24.249078
 20
-113.890038
 11
-34.349312
 21
-113.890038
  0
LINE
  8
型材断面
  6
CONTINUOUS
 62
    47
 10
-80.449637
 20
-28.18648
 11
-80.14969
 21
-27.886532
  0
LINE
  8
型材断面
  6
CONTINUOUS
 62
    47
 10
-80.449637
 20
-28.18648
 11
-80.749615
 21
-27.886532
  0
LINE
  8
型材断面
  6
CONTINUOUS
 62
    47
 10
-80.14969
 20
-27.886532
 11
-45.454547
 21
-27.886532
  0
LINE
  8
型材断面
  6
CONTINUOUS
 62
    47
 10
-45.44905
 20
-25.88653
 11
-45.44905
 21
-27.886532
  0
LINE
  8
型材断面
  6
CONTINUOUS
 62
    47
 10
-45.949075
 20
-48.886802
 11
-46.249075
 21
-48.586802
  0
LINE
  8
型材断面
  6
CONTINUOUS
 62
    47
 10
-45.949075
 20
-48.886802
 11
-46.249075
 21
-49.186802
  0
LINE
  8
型材断面
  6
CONTINUOUS
 62
    47
 10
-45.949075
 20
-62.887022
 11
-46.249075
 21
-62.587022
  0
LINE
  8
型材断面
  6
CONTINUOUS
 62
    47
 10
-45.949075
 20
-62.887022
 11
-46.249075
 21
-63.187022
  0
LINE
  8
型材断面
  6
CONTINUOUS
 62
    47
 10
-46.249075
 20
-62.587022
 11
-46.249075
 21
-49.186802
  0
LINE
  8
型材断面
  6
CONTINUOUS
 62
    47
 10
-45.44905
 20
-25.88653
 11
-44.24905
 21
-25.88653
  0
LINE
  8
型材断面
  6
CONTINUOUS
 62
    47
 10
-46.249075
 20
-90.59002
 11
-46.249075
 21
-63.187022
  0
LINE
  8
型材断面
  6
CONTINUOUS
 62
    47
 10
-45.949075
 20
-34.886252
 11
-46.249075
 21
-34.586252
  0
LINE
  8
型材断面
  6
CONTINUOUS
 62
    47
 10
-45.949075
 20
-34.886252
 11
-46.249075
 21
-35.186252
  0
LINE
  8
型材断面
  6
CONTINUOUS
 62
    47
 10
-46.249075
 20
-29.886258
 11
-46.249075
 21
-34.586252
  0
LINE
  8
型材断面
  6
CONTINUOUS
 62
    47
 10
-46.249075
 20
-35.186252
 11
-46.249075
 21
-48.586802
  0
LINE
  8
型材断面
  6
CONTINUOUS
 62
    47
 10
-44.249072
 20
-45.386252
 11
-40.749078
 21
-45.386252
  0
LINE
  8
型材断面
  6
CONTINUOUS
 62
    47
 10
-44.249072
 20
-43.886252
 11
-39.249078
 21
-43.886252
  0
LINE
  8
型材断面
  6
CONTINUOUS
 62
    47
 10
-39.249078
 20
-46.586252
 11
-40.749078
 21
-46.586252
  0
LINE
  8
型材断面
  6
CONTINUOUS
 62
    47
 10
-40.749078
 20
-45.386252
 11
-40.749078
 21
-46.586252
  0
LINE
  8
型材断面
  6
CONTINUOUS
 62
    47
 10
-39.249078
 20
-46.586252
 11
-39.249078
 21
-43.886252
  0
LINE
  8
型材断面
  6
CONTINUOUS
 62
    47
 10
-44.24905
 20
-28.386528
 11
-44.24905
 21
-43.886252
  0
LINE
  8
型材断面
  6
CONTINUOUS
 62
    47
 10
-44.24905
 20
-85.386528
 11
-44.24905
 21
-45.386252
  0
LINE
  8
型材断面
  6
CONTINUOUS
 62
    47
 10
-44.24905
 20
-25.88653
 11
-44.24905
 21
-43.886252
  0
ARC
  8
型材断面
  6
CONTINUOUS
 62
    47
 10
-89.949121
 20
-26.186728
 40
0.299961
 50
90.0
 51
180.0
  0
LINE
  8
型材断面
  6
CONTINUOUS
 62
    47
 10
-89.349197
 20
-25.886777
 11
-89.949122
 21
-25.886777
  0
ARC
  8
型材断面
  6
CONTINUOUS
 62
    47
 10
-89.349199
 20
-26.186728
 40
0.299961
 50
0.0
 51
90.0
  0
LINE
  8
型材断面
  6
CONTINUOUS
 62
    47
 10
-89.04925
 20
-26.186733
 11
-89.04925
 21
-27.886532
  0
LINE
  8
型材断面
  6
CONTINUOUS
 62
    47
 10
-90.249078
 20
-26.186733
 11
-90.249078
 21
-29.886258
  0
LINE
  8
型材断面
  6
CONTINUOUS
 62
    47
 10
-80.749615
 20
-27.886532
 11
-89.04925
 21
-27.886532
  0
LINE
  8
型材断面
  6
CONTINUOUS
 62
    47
 10
-46.249075
 20
-29.886258
 11
-90.249078
 21
-29.886258
  0
LINE
  8
型材断面
  6
CONTINUOUS
 62
    47
 10
-11.649017
 20
-95.389983
 11
-11.649017
 21
-100.389977
  0
LINE
  8
型材断面
  6
CONTINUOUS
 62
    47
 10
-10.149017
 20
-100.389977
 11
-11.649017
 21
-100.389977
  0
LINE
  8
型材断面
  6
CONTINUOUS
 62
    47
 10
-10.149017
 20
-100.389977
 11
-10.149017
 21
-93.889983
  0
ARC
  8
型材断面
  6
CONTINUOUS
 62
    47
 10
-14.103165
 20
-88.686556
 40
0.3
 50
90.0
 51
168.690068
  0
LINE
  8
型材断面
  6
CONTINUOUS
 62
    47
 10
-14.103145
 20
-88.386535
 11
-12.349068
 21
-88.386535
  0
ARC
  8
型材断面
  6
CONTINUOUS
 62
    47
 10
-20.595007
 20
-88.686556
 40
0.3
 50
11.309932
 51
90.0
  0
LINE
  8
型材断面
  6
CONTINUOUS
 62
    47
 10
-20.594995
 20
-88.386535
 11
-22.349072
 21
-88.386535
  0
LINE
  8
型材断面
  6
CONTINUOUS
 62
    47
 10
-14.397295
 20
-88.627712
 11
-14.949093
 21
-91.386535
  0
LINE
  8
型材断面
  6
CONTINUOUS
 62
    47
 10
-20.300845
 20
-88.627712
 11
-19.749047
 21
-91.386535
  0
LINE
  8
型材断面
  6
CONTINUOUS
 62
    47
 10
-21.349068
 20
-89.386563
 11
-22.349072
 21
-89.386563
  0
LINE
  8
型材断面
  6
CONTINUOUS
 62
    47
 10
-21.349068
 20
-89.386563
 11
-21.349068
 21
-93.889983
  0
LINE
  8
型材断面
  6
CONTINUOUS
 62
    47
 10
-22.349072
 20
-88.386535
 11
-22.349072
 21
-89.386563
  0
LINE
  8
型材断面
  6
CONTINUOUS
 62
    47
 10
-19.049072
 20
-91.386535
 11
-19.049072
 21
-93.889983
  0
LINE
  8
型材断面
  6
CONTINUOUS
 62
    47
 10
-15.649068
 20
-91.386535
 11
-15.649068
 21
-93.889983
  0
LINE
  8
型材断面
  6
CONTINUOUS
 62
    47
 10
-19.049072
 20
-93.889983
 11
-15.649068
 21
-93.889983
  0
LINE
  8
型材断面
  6
CONTINUOUS
 62
    47
 10
-19.749047
 20
-91.386535
 11
-19.049072
 21
-91.386535
  0
LINE
  8
型材断面
  6
CONTINUOUS
 62
    47
 10
-15.649068
 20
-91.386535
 11
-14.949093
 21
-91.386535
  0
LINE
  8
型材断面
  6
CONTINUOUS
 62
    47
 10
-13.349072
 20
-89.386563
 11
-13.349072
 21
-93.889983
  0
LINE
  8
型材断面
  6
CONTINUOUS
 62
    47
 10
-7.349072
 20
-88.386535
 11
-7.349072
 21
-89.386563
  0
LINE
  8
型材断面
  6
CONTINUOUS
 62
    47
 10
-13.349072
 20
-89.386563
 11
-7.349072
 21
-89.386563
  0
LINE
  8
型材断面
  6
CONTINUOUS
 62
    47
 10
-13.349072
 20
-88.386535
 11
-7.349072
 21
-88.386535
  0
LINE
  8
型材断面
  6
CONTINUOUS
 62
    47
 10
-19.049072
 20
-93.889983
 11
-15.649068
 21
-93.889983
  0
LINE
  8
型材断面
  6
CONTINUOUS
 62
    47
 10
-17.34907
 20
-95.089983
 11
-17.64907
 21
-95.389983
  0
LINE
  8
型材断面
  6
CONTINUOUS
 62
    47
 10
-17.34907
 20
-95.089983
 11
-17.04907
 21
-95.389983
  0
LINE
  8
型材断面
  6
CONTINUOUS
 62
    47
 10
-10.149017
 20
-93.889983
 11
-13.349072
 21
-93.889983
  0
LINE
  8
型材断面
  6
CONTINUOUS
 62
    47
 10
-24.249078
 20
-95.389983
 11
-17.64907
 21
-95.389983
  0
LINE
  8
型材断面
  6
CONTINUOUS
 62
    47
 10
-11.649017
 20
-95.389983
 11
-17.04907
 21
-95.389983
  0
LINE
  8
型材断面
  6
CONTINUOUS
 62
    47
 10
-39.2545
 20
-93.889983
 11
-21.349068
 21
-93.889983
  0
LINE
  8
型材断面
  6
CONTINUOUS
 62
    47
 10
-110.249072
 20
-111.890035
 11
-110.249072
 21
-100.74424
  0
LINE
  8
型材断面
  6
CONTINUOUS
 62
    47
 10
-46.249075
 20
-93.889563
 11
-112.249075
 21
-98.890038
  0
LINE
  8
型材断面
  6
CONTINUOUS
 62
    47
 10
-112.249075
 20
-113.890038
 11
-112.249075
 21
-98.890038
  0
LINE
  8
型材断面
  6
CONTINUOUS
 62
    47
 10
-110.249072
 20
-100.74424
 11
-46.17895
 21
-95.889977
  0
LINE
  8
型材断面
  6
CONTINUOUS
 62
    47
 10
-26.249072
 20
-95.889977
 11
-46.17895
 21
-95.889977
  0
ENDBLK
  0
BLOCK
  2
*GRP_0051
 70
    65
 10
0.0
 20
0.0
  0
LINE
  8
型材断面
  6
CONTINUOUS
 62
    47
 10
-11.554922
 20
44.013478
 11
-11.554922
 21
46.313472
  0
LINE
  8
型材断面
  6
CONTINUOUS
 62
    47
 10
-12.254568
 20
37.113478
 11
-2.254562
 21
37.113478
  0
LINE
  8
型材断面
  6
CONTINUOUS
 62
    47
 10
-10.254565
 20
35.113475
 11
-0.254568
 21
35.113475
  0
LINE
  8
型材断面
  6
CONTINUOUS
 62
    47
 10
-2.254562
 20
42.013475
 11
-2.254562
 21
37.113478
  0
LINE
  8
型材断面
  6
CONTINUOUS
 62
    47
 10
-2.254562
 20
42.013475
 11
-38.254562
 21
42.013475
  0
LINE
  8
型材断面
  6
CONTINUOUS
 62
    47
 10
-40.254565
 20
44.013478
 11
-35.454565
 21
44.013478
  0
LINE
  8
型材断面
  6
CONTINUOUS
 62
    47
 10
-10.248257
 20
75.113472
 11
-10.248257
 21
74.109875
  0
LINE
  8
型材断面
  6
CONTINUOUS
 62
    47
 10
-10.748253
 20
73.609872
 11
-10.248257
 21
74.109875
  0
LINE
  8
型材断面
  6
CONTINUOUS
 62
    47
 10
-15.748255
 20
72.113472
 11
-14.251855
 21
73.609872
  0
LINE
  8
型材断面
  6
CONTINUOUS
 62
    47
 10
-10.748253
 20
73.609872
 11
-14.251855
 21
73.609872
  0
POLYLINE
  8
型材断面
  6
CONTINUOUS
 62
    47
 66
     1
  0
VERTEX
  8
型材断面
 10
-35.454565
 20
75.113472
  0
VERTEX
  8
型材断面
 10
-35.454565
 20
73.013472
  0
VERTEX
  8
型材断面
 10
-32.954568
 20
72.513478
  0
VERTEX
  8
型材断面
 10
-32.954568
 20
67.713478
  0
VERTEX
  8
型材断面
 10
-35.454565
 20
67.213475
  0
VERTEX
  8
型材断面
 10
-35.454565
 20
65.113475
  0
SEQEND
  0
LINE
  8
型材断面
  6
CONTINUOUS
 62
    47
 10
-33.454562
 20
61.01144
 11
-33.454562
 21
64.113478
  0
LINE
  8
型材断面
  6
CONTINUOUS
 62
    47
 10
-29.954568
 20
57.811437
 11
-28.454568
 21
57.811437
  0
LINE
  8
型材断面
  6
CONTINUOUS
 62
    47
 10
-29.954568
 20
44.013478
 11
-29.954568
 21
46.013472
  0
LINE
  8
型材断面
  6
CONTINUOUS
 62
    47
 10
-28.454568
 20
44.013478
 11
-28.454568
 21
46.013472
  0
LINE
  8
型材断面
  6
CONTINUOUS
 62
    47
 10
-28.454568
 20
46.013472
 11
-29.954568
 21
46.013472
  0
LINE
  8
型材断面
  6
CONTINUOUS
 62
    47
 10
-29.954568
 20
44.013478
 11
-33.454562
 21
44.013478
  0
LINE
  8
型材断面
  6
CONTINUOUS
 62
    47
 10
-15.748255
 20
72.113472
 11
-30.454562
 21
72.113472
  0
LINE
  8
型材断面
  6
CONTINUOUS
 62
    47
 10
-30.454562
 20
72.113472
 11
-30.454562
 21
67.113478
  0
LINE
  8
型材断面
  6
CONTINUOUS
 62
    47
 10
-33.454562
 20
64.113478
 11
-30.454562
 21
67.113478
  0
LINE
  8
型材断面
  6
CONTINUOUS
 62
    47
 10
-20.248247
 20
74.813472
 11
-20.548247
 21
75.113472
  0
LINE
  8
型材断面
  6
CONTINUOUS
 62
    47
 10
-20.248247
 20
74.813472
 11
-19.948247
 21
75.113472
  0
LINE
  8
型材断面
  6
CONTINUOUS
 62
    47
 10
-10.248257
 20
75.113472
 11
-19.948247
 21
75.113472
  0
LINE
  8
型材断面
  6
CONTINUOUS
 62
    47
 10
-35.154565
 20
51.912463
 11
-35.454565
 21
51.612463
  0
LINE
  8
型材断面
  6
CONTINUOUS
 62
    47
 10
-35.154565
 20
51.912463
 11
-35.454565
 21
52.212463
  0
LINE
  8
型材断面
  6
CONTINUOUS
 62
    47
 10
-35.454565
 20
44.013478
 11
-35.454565
 21
51.612463
  0
LINE
  8
型材断面
  6
CONTINUOUS
 62
    47
 10
-35.454565
 20
52.212463
 11
-35.454565
 21
67.109967
  0
ARC
  8
型材断面
  6
CONTINUOUS
 62
    47
 10
-34.594957
 20
-15.0865
 40
0.3
 50
270.0
 51
348.690068
  0
LINE
  8
型材断面
  6
CONTINUOUS
 62
    47
 10
-34.300803
 20
-15.145352
 11
-33.849003
 21
-12.886503
  0
LINE
  8
型材断面
  6
CONTINUOUS
 62
    47
 10
-35.349025
 20
-14.386503
 11
-36.349022
 21
-14.386503
  0
LINE
  8
型材断面
  6
CONTINUOUS
 62
    47
 10
-35.349025
 20
-14.386503
 11
-35.349025
 21
-12.886503
  0
LINE
  8
型材断面
  6
CONTINUOUS
 62
    47
 10
-36.349022
 20
-15.386522
 11
-36.349022
 21
-14.386503
  0
LINE
  8
型材断面
  6
CONTINUOUS
 62
    47
 10
-34.594952
 20
-15.386522
 11
-36.349022
 21
-15.386522
  0
ARC
  8
型材断面
  6
CONTINUOUS
 62
    47
 10
-28.103115
 20
-15.0865
 40
0.3
 50
191.309932
 51
270.0
  0
LINE
  8
型材断面
  6
CONTINUOUS
 62
    47
 10
-28.397253
 20
-15.145352
 11
-28.849053
 21
-12.886503
  0
LINE
  8
型材断面
  6
CONTINUOUS
 62
    47
 10
-27.349022
 20
-14.386503
 11
-26.349025
 21
-14.386503
  0
LINE
  8
型材断面
  6
CONTINUOUS
 62
    47
 10
-27.349022
 20
-14.386503
 11
-27.349022
 21
-12.886503
  0
LINE
  8
型材断面
  6
CONTINUOUS
 62
    47
 10
-26.349025
 20
-15.386522
 11
-26.349025
 21
-14.386503
  0
LINE
  8
型材断面
  6
CONTINUOUS
 62
    47
 10
-28.103103
 20
-15.386522
 11
-26.349025
 21
-15.386522
  0
LINE
  8
型材断面
  6
CONTINUOUS
 62
    47
 10
-33.849003
 20
-12.886503
 11
-28.849053
 21
-12.886503
  0
LINE
  8
型材断面
  6
CONTINUOUS
 62
    47
 10
-28.849045
 20
-12.886525
 11
-33.849003
 21
-12.886525
  0
LINE
  8
型材断面
  6
CONTINUOUS
 62
    47
 10
-20.599
 20
-12.886525
 11
-27.349022
 21
-12.886525
  0
LINE
  8
型材断面
  6
CONTINUOUS
 62
    47
 10
-11.754565
 20
-12.886525
 11
-11.754565
 21
-15.386522
  0
LINE
  8
型材断面
  6
CONTINUOUS
 62
    47
 10
-10.254565
 20
-15.386522
 11
-11.754565
 21
-15.386522
  0
LINE
  8
型材断面
  6
CONTINUOUS
 62
    47
 10
-27.349022
 20
-12.886525
 11
-11.754565
 21
-12.886525
  0
LINE
  8
型材断面
  6
CONTINUOUS
 62
    47
 10
-35.349025
 20
-12.886525
 11
-40.254565
 21
-12.886525
  0
LINE
  8
型材断面
  6
CONTINUOUS
 62
    47
 10
-40.254565
 20
44.013478
 11
-40.254565
 21
-12.886525
  0
LINE
  8
型材断面
  6
CONTINUOUS
 62
    47
 10
-10.254565
 20
35.113475
 11
-10.254565
 21
-15.386522
  0
LINE
  8
型材断面
  6
CONTINUOUS
 62
    47
 10
-38.254562
 20
42.013475
 11
-38.254562
 21
-10.886522
  0
LINE
  8
型材断面
  6
CONTINUOUS
 62
    47
 10
-12.254568
 20
35.613478
 11
-12.254568
 21
-10.886522
  0
LINE
  8
型材断面
  6
CONTINUOUS
 62
    47
 10
0.745437
 20
43.013472
 11
-0.254568
 21
43.013472
  0
LINE
  8
型材断面
  6
CONTINUOUS
 62
    47
 10
-0.254568
 20
35.113475
 11
-0.254568
 21
43.013472
  0
LINE
  8
型材断面
  6
CONTINUOUS
 62
    47
 10
-0.254568
 20
44.013478
 11
-0.254568
 21
45.113472
  0
LINE
  8
型材断面
  6
CONTINUOUS
 62
    47
 10
-0.254568
 20
45.113472
 11
0.745437
 21
45.113472
  0
LINE
  8
型材断面
  6
CONTINUOUS
 62
    47
 10
0.745437
 20
43.013472
 11
0.745437
 21
45.113472
  0
LINE
  8
型材断面
  6
CONTINUOUS
 62
    47
 10
-11.554922
 20
44.013478
 11
-28.454568
 21
44.013478
  0
ARC
  8
型材断面
  6
CONTINUOUS
 62
    47
 10
-12.954921
 20
46.413476
 40
0.1
 50
135.0
 51
270.0
  0
LINE
  8
型材断面
  6
CONTINUOUS
 62
    47
 10
-11.554922
 20
46.313472
 11
-12.954918
 21
46.313472
  0
LINE
  8
型材断面
  6
CONTINUOUS
 62
    47
 10
-13.025627
 20
46.484188
 11
-11.696342
 21
47.813472
  0
LINE
  8
型材断面
  6
CONTINUOUS
 62
    47
 10
-11.696342
 20
47.813472
 11
-10.054922
 21
47.813472
  0
LINE
  8
型材断面
  6
CONTINUOUS
 62
    47
 10
-10.054922
 20
44.013478
 11
-10.054922
 21
47.813472
  0
LINE
  8
型材断面
  6
CONTINUOUS
 62
    47
 10
-16.783352
 20
59.982148
 11
-17.812645
 21
61.01144
  0
ARC
  8
型材断面
  6
CONTINUOUS
 62
    47
 10
-16.854066
 20
59.911441
 40
0.1
 50
-90.0
 51
45.0
  0
LINE
  8
型材断面
  6
CONTINUOUS
 62
    47
 10
-18.054062
 20
59.81144
 11
-16.854062
 21
59.81144
  0
LINE
  8
型材断面
  6
CONTINUOUS
 62
    47
 10
-33.454562
 20
61.01144
 11
-17.812645
 21
61.01144
  0
LINE
  8
型材断面
  6
CONTINUOUS
 62
    47
 10
-19.554062
 20
51.513478
 11
-18.054062
 21
51.513478
  0
LINE
  8
型材断面
  6
CONTINUOUS
 62
    47
 10
-18.054062
 20
59.81144
 11
-18.054062
 21
51.513478
  0
LINE
  8
型材断面
  6
CONTINUOUS
 62
    47
 10
-33.454562
 20
44.013478
 11
-33.454562
 21
59.51144
  0
LINE
  8
型材断面
  6
CONTINUOUS
 62
    47
 10
-33.454562
 20
59.51144
 11
-29.954568
 21
59.51144
  0
LINE
  8
型材断面
  6
CONTINUOUS
 62
    47
 10
-29.954568
 20
57.811437
 11
-29.954568
 21
59.51144
  0
LINE
  8
型材断面
  6
CONTINUOUS
 62
    47
 10
-28.454568
 20
57.811437
 11
-28.454568
 21
59.51144
  0
LINE
  8
型材断面
  6
CONTINUOUS
 62
    47
 10
-28.454568
 20
59.51144
 11
-19.554062
 21
59.51144
  0
LINE
  8
型材断面
  6
CONTINUOUS
 62
    47
 10
-19.554062
 20
51.513478
 11
-19.554062
 21
59.51144
  0
LINE
  8
型材断面
  6
CONTINUOUS
 62
    47
 10
-0.254568
 20
44.013478
 11
-10.054922
 21
44.013478
  0
LINE
  8
型材断面
  6
CONTINUOUS
 62
    47
 10
-35.454565
 20
75.113472
 11
-20.548247
 21
75.113472
  0
LINE
  8
型材断面
  6
CONTINUOUS
 62
    47
 10
-18.254568
 20
-9.386522
 11
-16.754568
 21
-9.386522
  0
LINE
  8
型材断面
  6
CONTINUOUS
 62
    47
 10
-18.254568
 20
37.113478
 11
-18.254568
 21
33.613475
  0
LINE
  8
型材断面
  6
CONTINUOUS
 62
    47
 10
-18.254568
 20
33.613475
 11
-16.754568
 21
33.613475
  0
LINE
  8
型材断面
  6
CONTINUOUS
 62
    47
 10
-16.754568
 20
33.613475
 11
-16.754568
 21
35.613478
  0
LINE
  8
型材断面
  6
CONTINUOUS
 62
    47
 10
-16.754568
 20
-10.886522
 11
-16.754568
 21
-9.386522
  0
LINE
  8
型材断面
  6
CONTINUOUS
 62
    47
 10
-18.254568
 20
-10.886522
 11
-18.254568
 21
-9.386522
  0
LINE
  8
型材断面
  6
CONTINUOUS
 62
    47
 10
-2.754565
 20
37.113478
 11
-18.254568
 21
37.113478
  0
LINE
  8
型材断面
  6
CONTINUOUS
 62
    47
 10
-12.254568
 20
35.613478
 11
-16.754568
 21
35.613478
  0
LINE
  8
型材断面
  6
CONTINUOUS
 62
    47
 10
-38.254562
 20
-10.886522
 11
-18.254568
 21
-10.886522
  0
LINE
  8
型材断面
  6
CONTINUOUS
 62
    47
 10
-12.254568
 20
-10.886522
 11
-16.754568
 21
-10.886522
  0
ENDBLK
  0
BLOCK
  2
*GRP_0052
 70
    65
 10
0.0
 20
0.0
  0
LINE
  8
型材断面
  6
CONTINUOUS
 62
    47
 10
-11.754543
 20
-27.886532
 11
-11.754543
 21
-19.386153
  0
LINE
  8
型材断面
  6
CONTINUOUS
 62
    47
 10
-11.754543
 20
-19.386153
 11
-10.254543
 21
-19.386153
  0
LINE
  8
型材断面
  6
CONTINUOUS
 62
    47
 10
-11.754543
 20
-27.886532
 11
-34.254543
 21
-27.886532
  0
LINE
  8
型材断面
  6
CONTINUOUS
 62
    47
 10
-12.254537
 20
-29.386532
 11
-32.25454
 21
-29.386532
  0
ARC
  8
型材断面
  6
CONTINUOUS
 62
    47
 10
-38.954529
 20
-38.131926
 40
0.3
 50
101.309932
 51
180.0
  0
ARC
  8
型材断面
  6
CONTINUOUS
 62
    47
 10
-38.954529
 20
-31.640084
 40
0.3
 50
180.0
 51
258.690068
  0
LINE
  8
型材断面
  6
CONTINUOUS
 62
    47
 10
-39.254553
 20
-31.64008
 11
-39.254553
 21
-29.88601
  0
LINE
  8
型材断面
  6
CONTINUOUS
 62
    47
 10
-39.254553
 20
-29.88601
 11
-34.254543
 21
-29.88601
  0
LINE
  8
型材断面
  6
CONTINUOUS
 62
    47
 10
-36.754547
 20
-32.38603
 11
-36.754547
 21
-31.38601
  0
LINE
  8
型材断面
  6
CONTINUOUS
 62
    47
 10
-39.013375
 20
-31.93423
 11
-36.754547
 21
-32.38603
  0
LINE
  8
型材断面
  6
CONTINUOUS
 62
    47
 10
-39.013375
 20
-37.83778
 11
-36.75466
 21
-37.38601
  0
LINE
  8
型材断面
  6
CONTINUOUS
 62
    47
 10
-34.754537
 20
-31.38601
 11
-34.754537
 21
-37.38601
  0
LINE
  8
型材断面
  6
CONTINUOUS
 62
    47
 10
-36.754547
 20
-31.38601
 11
-34.754537
 21
-31.38601
  0
LINE
  8
型材断面
  6
CONTINUOUS
 62
    47
 10
-36.75466
 20
-37.38601
 11
-34.754537
 21
-37.38601
  0
LINE
  8
型材断面
  6
CONTINUOUS
 62
    47
 10
-34.254543
 20
-38.88601
 11
-39.254553
 21
-38.88601
  0
LINE
  8
型材断面
  6
CONTINUOUS
 62
    47
 10
-39.254553
 20
-38.13193
 11
-39.254553
 21
-38.88601
  0
LINE
  8
型材断面
  6
CONTINUOUS
 62
    47
 10
-34.254543
 20
-27.886532
 11
-34.254543
 21
-29.88601
  0
LINE
  8
型材断面
  6
CONTINUOUS
 62
    47
 10
-33.954543
 20
-78.886532
 11
-34.254543
 21
-78.586532
  0
LINE
  8
型材断面
  6
CONTINUOUS
 62
    47
 10
-33.954543
 20
-78.886532
 11
-34.254543
 21
-79.186532
  0
LINE
  8
型材断面
  6
CONTINUOUS
 62
    47
 10
-35.25454
 20
-83.386532
 11
-35.25454
 21
-81.886532
  0
LINE
  8
型材断面
  6
CONTINUOUS
 62
    47
 10
-35.25454
 20
-83.386532
 11
14.745463
 21
-83.386532
  0
LINE
  8
型材断面
  6
CONTINUOUS
 62
    47
 10
-34.254543
 20
-81.886532
 11
-35.25454
 21
-81.886532
  0
LINE
  8
型材断面
  6
CONTINUOUS
 62
    47
 10
-34.254543
 20
-79.186532
 11
-34.254543
 21
-81.886532
  0
LINE
  8
型材断面
  6
CONTINUOUS
 62
    47
 10
-34.254543
 20
-38.88601
 11
-34.254543
 21
-78.586532
  0
LINE
  8
型材断面
  6
CONTINUOUS
 62
    47
 10
-10.254543
 20
-19.386153
 11
-10.254543
 21
-81.38653
  0
LINE
  8
型材断面
  6
CONTINUOUS
 62
    47
 10
-12.254537
 20
-29.386532
 11
-12.254537
 21
-81.38653
  0
LINE
  8
型材断面
  6
CONTINUOUS
 62
    47
 10
-32.25454
 20
-29.386532
 11
-32.25454
 21
-81.38653
  0
LINE
  8
型材断面
  6
CONTINUOUS
 62
    47
 10
-32.25454
 20
-81.38653
 11
-12.254537
 21
-81.38653
  0
LINE
  8
型材断面
  6
CONTINUOUS
 62
    47
 10
-10.254543
 20
-81.38653
 11
13.245463
 21
-81.38653
  0
LINE
  8
型材断面
  6
CONTINUOUS
 62
    47
 10
13.245463
 20
-81.38653
 11
13.245463
 21
-73.386535
  0
LINE
  8
型材断面
  6
CONTINUOUS
 62
    47
 10
14.745463
 20
-83.386532
 11
14.745463
 21
-73.386535
  0
LINE
  8
St
  6
CONTINUOUS
 62
    47
 10
13.245463
 20
-73.386535
 11
14.745463
 21
-73.386535
  0
ENDBLK
  0
BLOCK
  2
*DIM_0053
 70
    65
 10
0.0
 20
0.0
  0
LINE
  8
寸法
  6
BYBLOCK
 62
     0
 10
55.923775
 20
-83.38653
 11
55.066427
 21
-83.38653
  0
LINE
  8
寸法
  6
BYBLOCK
 62
     0
 10
15.745463
 20
-73.386535
 11
55.066427
 21
-73.386535
  0
LINE
  8
寸法
  6
BYBLOCK
 62
     0
 10
55.066427
 20
-83.38653
 11
55.066427
 21
-73.386535
  0
POINT
  8
寸法
 62
     0
 10
55.066427
 20
-83.38653
  0
POINT
  8
寸法
 62
     0
 10
55.066427
 20
-73.386535
  0
TEXT
  7
TextStyle03
  8
寸法
  6
CONTINUOUS
 62
     0
 10
54.675
 20
-79.99375
  1
10
 40
3.0
 50
90.0
 72
     5
 11
54.675
 21
-76.80625
  0
ENDBLK
  0
BLOCK
  2
*DIM_0054
 70
    65
 10
0.0
 20
0.0
  0
LINE
  8
寸法
  6
BYBLOCK
 62
     0
 10
55.066427
 20
-73.386535
 11
55.066427
 21
-19.38615
  0
POINT
  8
寸法
 62
     0
 10
55.066427
 20
-73.386535
  0
POINT
  8
寸法
 62
     0
 10
55.066427
 20
-19.38615
  0
TEXT
  7
TextStyle03
  8
寸法
  6
CONTINUOUS
 62
     0
 10
54.675
 20
-47.99375
  1
54
 40
3.0
 50
90.0
 72
     5
 11
54.675
 21
-44.80625
  0
ENDBLK
  0
BLOCK
  2
*DIM_0055
 70
    65
 10
0.0
 20
0.0
  0
LINE
  8
寸法
  6
BYBLOCK
 62
     0
 10
-23.249078
 20
-113.890038
 11
65.53788
 21
-113.890038
  0
LINE
  8
寸法
  6
BYBLOCK
 62
     0
 10
65.53788
 20
-83.38653
 11
65.53788
 21
-113.890038
  0
POINT
  8
寸法
 62
     0
 10
65.53788
 20
-83.38653
  0
POINT
  8
寸法
 62
     0
 10
65.53788
 20
-113.890038
  0
TEXT
  7
TextStyle03
  8
寸法
  6
CONTINUOUS
 62
     0
 10
65.15
 20
-101.93125
  1
30.5
 40
3.0
 50
90.0
 72
     5
 11
65.15
 21
-95.36875
  0
ENDBLK
  0
BLOCK
  2
*DIM_0056
 70
    65
 10
0.0
 20
0.0
  0
LINE
  8
寸法
  6
BYBLOCK
 62
     0
 10
-94.749323
 20
-123.890013
 11
65.53788
 21
-123.890013
  0
LINE
  8
寸法
  6
BYBLOCK
 62
     0
 10
65.53788
 20
-113.890038
 11
65.53788
 21
-123.890013
  0
POINT
  8
寸法
 62
     0
 10
65.53788
 20
-123.890013
  0
TEXT
  7
TextStyle03
  8
寸法
  6
CONTINUOUS
 62
     0
 10
65.15
 20
-120.49375
  1
10
 40
3.0
 50
90.0
 72
     5
 11
65.15
 21
-117.30625
  0
ENDBLK
  0
BLOCK
  2
*DIM_0057
 70
    65
 10
0.0
 20
0.0
  0
LINE
  8
寸法
  6
BYBLOCK
 62
     0
 10
-112.249075
 20
-114.890038
 11
-112.249075
 21
-130.869398
  0
LINE
  8
寸法
  6
BYBLOCK
 62
     0
 10
-97.249323
 20
-124.890013
 11
-97.249323
 21
-130.869398
  0
LINE
  8
寸法
  6
BYBLOCK
 62
     0
 10
-112.249075
 20
-130.869398
 11
-97.249323
 21
-130.869398
  0
POINT
  8
寸法
 62
     0
 10
-112.249075
 20
-130.869398
  0
POINT
  8
寸法
 62
     0
 10
-97.249323
 20
-130.869398
  0
TEXT
  7
TextStyle03
  8
寸法
  6
CONTINUOUS
 62
     0
 10
-106.34375
 20
-130.5
  1
15
 40
3.0
 72
     5
 11
-103.15625
 21
-130.5
  0
ENDBLK
  0
BLOCK
  2
*DIM_0058
 70
    65
 10
0.0
 20
0.0
  0
LINE
  8
寸法
  6
BYBLOCK
 62
     0
 10
-98.249323
 20
-123.890013
 11
-157.878568
 21
-123.890013
  0
LINE
  8
寸法
  6
BYBLOCK
 62
     0
 10
-157.878568
 20
-113.890035
 11
-157.878568
 21
-123.890013
  0
POINT
  8
寸法
 62
     0
 10
-157.878568
 20
-113.890035
  0
POINT
  8
寸法
 62
     0
 10
-157.878568
 20
-123.890013
  0
TEXT
  7
TextStyle03
  8
寸法
  6
CONTINUOUS
 62
     0
 10
-158.275
 20
-120.49375
  1
10
 40
3.0
 50
90.0
 72
     5
 11
-158.275
 21
-117.30625
  0
ENDBLK
  0
BLOCK
  2
*GRP_0059
 70
    65
 10
0.0
 20
0.0
  0
POLYLINE
  8
ガラス
  6
CONTINUOUS
 66
     1
 70
     4
  0
VERTEX
  8
ガラス
 10
-38.15
 20
-83.125
 70
     8
  0
VERTEX
  8
ガラス
 10
-38.1
 20
-83.025
 70
     8
  0
VERTEX
  8
ガラス
 10
-38.075
 20
-82.95
 70
     8
  0
VERTEX
  8
ガラス
 10
-38.025
 20
-82.85
 70
     8
  0
VERTEX
  8
ガラス
 10
-38.0
 20
-82.775
 70
     8
  0
VERTEX
  8
ガラス
 10
-37.95
 20
-82.7
 70
     8
  0
VERTEX
  8
ガラス
 10
-37.925
 20
-82.6
 70
     8
  0
VERTEX
  8
ガラス
 10
-37.875
 20
-82.525
 70
     8
  0
VERTEX
  8
ガラス
 10
-37.85
 20
-82.45
 70
     8
  0
VERTEX
  8
ガラス
 10
-37.8
 20
-82.375
 70
     8
  0
VERTEX
  8
ガラス
 10
-37.75
 20
-82.275
 70
     8
  0
VERTEX
  8
ガラス
 10
-37.725
 20
-82.2
 70
     8
  0
VERTEX
  8
ガラス
 10
-37.675
 20
-82.125
 70
     8
  0
VERTEX
  8
ガラス
 10
-37.625
 20
-82.05
 70
     8
  0
VERTEX
  8
ガラス
 10
-37.575
 20
-81.975
 70
     8
  0
VERTEX
  8
ガラス
 10
-37.525
 20
-81.925
 70
     8
  0
VERTEX
  8
ガラス
 10
-37.475
 20
-81.85
 70
     8
  0
VERTEX
  8
ガラス
 10
-37.425
 20
-81.775
 70
     8
  0
VERTEX
  8
ガラス
 10
-37.35
 20
-81.725
 70
     8
  0
VERTEX
  8
ガラス
 10
-37.3
 20
-81.675
 70
     8
  0
VERTEX
  8
ガラス
 10
-37.25
 20
-81.6
 70
     8
  0
VERTEX
  8
ガラス
 10
-37.175
 20
-81.55
 70
     8
  0
VERTEX
  8
ガラス
 10
-37.1
 20
-81.5
 70
     8
  0
VERTEX
  8
ガラス
 10
-37.05
 20
-81.45
 70
     8
  0
VERTEX
  8
ガラス
 10
-36.975
 20
-81.425
 70
     8
  0
VERTEX
  8
ガラス
 10
-36.9
 20
-81.375
 70
     8
  0
VERTEX
  8
ガラス
 10
-36.825
 20
-81.35
 70
     8
  0
VERTEX
  8
ガラス
 10
-36.75
 20
-81.3
 70
     8
  0
VERTEX
  8
ガラス
 10
-36.675
 20
-81.275
 70
     8
  0
VERTEX
  8
ガラス
 10
-36.575
 20
-81.25
 70
     8
  0
VERTEX
  8
ガラス
 10
-36.5
 20
-81.2
 70
     8
  0
VERTEX
  8
ガラス
 10
-36.425
 20
-81.175
 70
     8
  0
VERTEX
  8
ガラス
 10
-36.325
 20
-81.15
 70
     8
  0
VERTEX
  8
ガラス
 10
-36.25
 20
-81.125
 70
     8
  0
VERTEX
  8
ガラス
 10
-36.15
 20
-81.1
 70
     8
  0
VERTEX
  8
ガラス
 10
-36.075
 20
-81.1
 70
     8
  0
VERTEX
  8
ガラス
 10
-35.975
 20
-81.075
 70
     8
  0
VERTEX
  8
ガラス
 10
-35.875
 20
-81.05
 70
     8
  0
VERTEX
  8
ガラス
 10
-35.8
 20
-81.025
 70
     8
  0
VERTEX
  8
ガラス
 10
-35.7
 20
-81.0
 70
     8
  0
VERTEX
  8
ガラス
 10
-35.6
 20
-81.0
 70
     8
  0
SEQEND
  0
POLYLINE
  8
ガラス
  6
CONTINUOUS
 66
     1
 70
     4
  0
VERTEX
  8
ガラス
 10
-35.6
 20
-81.0
 70
     8
  0
VERTEX
  8
ガラス
 10
-35.625
 20
-81.05
 70
     8
  0
VERTEX
  8
ガラス
 10
-35.65
 20
-81.1
 70
     8
  0
VERTEX
  8
ガラス
 10
-35.675
 20
-81.15
 70
     8
  0
VERTEX
  8
ガラス
 10
-35.7
 20
-81.225
 70
     8
  0
VERTEX
  8
ガラス
 10
-35.725
 20
-81.275
 70
     8
  0
VERTEX
  8
ガラス
 10
-35.75
 20
-81.325
 70
     8
  0
VERTEX
  8
ガラス
 10
-35.775
 20
-81.4
 70
     8
  0
VERTEX
  8
ガラス
 10
-35.8
 20
-81.45
 70
     8
  0
VERTEX
  8
ガラス
 10
-35.825
 20
-81.5
 70
     8
  0
VERTEX
  8
ガラス
 10
-35.85
 20
-81.55
 70
     8
  0
VERTEX
  8
ガラス
 10
-35.875
 20
-81.625
 70
     8
  0
VERTEX
  8
ガラス
 10
-35.9
 20
-81.675
 70
     8
  0
VERTEX
  8
ガラス
 10
-35.9
 20
-81.725
 70
     8
  0
VERTEX
  8
ガラス
 10
-35.925
 20
-81.8
 70
     8
  0
VERTEX
  8
ガラス
 10
-35.95
 20
-81.85
 70
     8
  0
VERTEX
  8
ガラス
 10
-35.975
 20
-81.9
 70
     8
  0
VERTEX
  8
ガラス
 10
-36.0
 20
-81.975
 70
     8
  0
VERTEX
  8
ガラス
 10
-36.0
 20
-82.025
 70
     8
  0
VERTEX
  8
ガラス
 10
-36.025
 20
-82.075
 70
     8
  0
VERTEX
  8
ガラス
 10
-36.05
 20
-82.15
 70
     8
  0
VERTEX
  8
ガラス
 10
-36.05
 20
-82.2
 70
     8
  0
VERTEX
  8
ガラス
 10
-36.075
 20
-82.25
 70
     8
  0
VERTEX
  8
ガラス
 10
-36.075
 20
-82.325
 70
     8
  0
VERTEX
  8
ガラス
 10
-36.1
 20
-82.375
 70
     8
  0
VERTEX
  8
ガラス
 10
-36.1
 20
-82.45
 70
     8
  0
VERTEX
  8
ガラス
 10
-36.125
 20
-82.5
 70
     8
  0
VERTEX
  8
ガラス
 10
-36.125
 20
-82.55
 70
     8
  0
VERTEX
  8
ガラス
 10
-36.15
 20
-82.625
 70
     8
  0
VERTEX
  8
ガラス
 10
-36.15
 20
-82.675
 70
     8
  0
VERTEX
  8
ガラス
 10
-36.175
 20
-82.75
 70
     8
  0
VERTEX
  8
ガラス
 10
-36.175
 20
-82.8
 70
     8
  0
VERTEX
  8
ガラス
 10
-36.175
 20
-82.85
 70
     8
  0
VERTEX
  8
ガラス
 10
-36.2
 20
-82.925
 70
     8
  0
VERTEX
  8
ガラス
 10
-36.2
 20
-82.975
 70
     8
  0
VERTEX
  8
ガラス
 10
-36.2
 20
-83.05
 70
     8
  0
VERTEX
  8
ガラス
 10
-36.225
 20
-83.1
 70
     8
  0
VERTEX
  8
ガラス
 10
-36.225
 20
-83.175
 70
     8
  0
VERTEX
  8
ガラス
 10
-36.225
 20
-83.225
 70
     8
  0
VERTEX
  8
ガラス
 10
-36.225
 20
-83.3
 70
     8
  0
VERTEX
  8
ガラス
 10
-36.25
 20
-83.35
 70
     8
  0
SEQEND
  0
ARC
  8
ガラス
  6
CONTINUOUS
 10
-37.177161
 20
-83.222297
 40
0.955135
 50
173.117443
 51
353.117443
  0
ENDBLK
  0
BLOCK
  2
*GRP_0060
 70
    65
 10
0.0
 20
0.0
  0
POLYLINE
  8
ガラス
  6
CONTINUOUS
 66
     1
 70
     4
  0
VERTEX
  8
ガラス
 10
-38.15
 20
-91.125
 70
     8
  0
VERTEX
  8
ガラス
 10
-38.1
 20
-91.025
 70
     8
  0
VERTEX
  8
ガラス
 10
-38.075
 20
-90.95
 70
     8
  0
VERTEX
  8
ガラス
 10
-38.025
 20
-90.85
 70
     8
  0
VERTEX
  8
ガラス
 10
-38.0
 20
-90.775
 70
     8
  0
VERTEX
  8
ガラス
 10
-37.95
 20
-90.7
 70
     8
  0
VERTEX
  8
ガラス
 10
-37.925
 20
-90.6
 70
     8
  0
VERTEX
  8
ガラス
 10
-37.875
 20
-90.525
 70
     8
  0
VERTEX
  8
ガラス
 10
-37.85
 20
-90.45
 70
     8
  0
VERTEX
  8
ガラス
 10
-37.8
 20
-90.35
 70
     8
  0
VERTEX
  8
ガラス
 10
-37.75
 20
-90.275
 70
     8
  0
VERTEX
  8
ガラス
 10
-37.725
 20
-90.2
 70
     8
  0
VERTEX
  8
ガラス
 10
-37.675
 20
-90.125
 70
     8
  0
VERTEX
  8
ガラス
 10
-37.625
 20
-90.05
 70
     8
  0
VERTEX
  8
ガラス
 10
-37.575
 20
-89.975
 70
     8
  0
VERTEX
  8
ガラス
 10
-37.525
 20
-89.9
 70
     8
  0
VERTEX
  8
ガラス
 10
-37.475
 20
-89.85
 70
     8
  0
VERTEX
  8
ガラス
 10
-37.425
 20
-89.775
 70
     8
  0
VERTEX
  8
ガラス
 10
-37.35
 20
-89.725
 70
     8
  0
VERTEX
  8
ガラス
 10
-37.3
 20
-89.65
 70
     8
  0
VERTEX
  8
ガラス
 10
-37.25
 20
-89.6
 70
     8
  0
VERTEX
  8
ガラス
 10
-37.175
 20
-89.55
 70
     8
  0
VERTEX
  8
ガラス
 10
-37.1
 20
-89.5
 70
     8
  0
VERTEX
  8
ガラス
 10
-37.05
 20
-89.45
 70
     8
  0
VERTEX
  8
ガラス
 10
-36.975
 20
-89.425
 70
     8
  0
VERTEX
  8
ガラス
 10
-36.9
 20
-89.375
 70
     8
  0
VERTEX
  8
ガラス
 10
-36.825
 20
-89.325
 70
     8
  0
VERTEX
  8
ガラス
 10
-36.75
 20
-89.3
 70
     8
  0
VERTEX
  8
ガラス
 10
-36.675
 20
-89.275
 70
     8
  0
VERTEX
  8
ガラス
 10
-36.575
 20
-89.225
 70
     8
  0
VERTEX
  8
ガラス
 10
-36.5
 20
-89.2
 70
     8
  0
VERTEX
  8
ガラス
 10
-36.425
 20
-89.175
 70
     8
  0
VERTEX
  8
ガラス
 10
-36.325
 20
-89.15
 70
     8
  0
VERTEX
  8
ガラス
 10
-36.25
 20
-89.125
 70
     8
  0
VERTEX
  8
ガラス
 10
-36.15
 20
-89.1
 70
     8
  0
VERTEX
  8
ガラス
 10
-36.075
 20
-89.075
 70
     8
  0
VERTEX
  8
ガラス
 10
-35.975
 20
-89.075
 70
     8
  0
VERTEX
  8
ガラス
 10
-35.875
 20
-89.05
 70
     8
  0
VERTEX
  8
ガラス
 10
-35.8
 20
-89.025
 70
     8
  0
VERTEX
  8
ガラス
 10
-35.7
 20
-89.0
 70
     8
  0
VERTEX
  8
ガラス
 10
-35.6
 20
-88.975
 70
     8
  0
SEQEND
  0
POLYLINE
  8
ガラス
  6
CONTINUOUS
 66
     1
 70
     4
  0
VERTEX
  8
ガラス
 10
-35.6
 20
-88.975
 70
     8
  0
VERTEX
  8
ガラス
 10
-35.625
 20
-89.05
 70
     8
  0
VERTEX
  8
ガラス
 10
-35.65
 20
-89.1
 70
     8
  0
VERTEX
  8
ガラス
 10
-35.675
 20
-89.15
 70
     8
  0
VERTEX
  8
ガラス
 10
-35.7
 20
-89.225
 70
     8
  0
VERTEX
  8
ガラス
 10
-35.725
 20
-89.275
 70
     8
  0
VERTEX
  8
ガラス
 10
-35.75
 20
-89.325
 70
     8
  0
VERTEX
  8
ガラス
 10
-35.775
 20
-89.375
 70
     8
  0
VERTEX
  8
ガラス
 10
-35.8
 20
-89.45
 70
     8
  0
VERTEX
  8
ガラス
 10
-35.825
 20
-89.5
 70
     8
  0
VERTEX
  8
ガラス
 10
-35.85
 20
-89.55
 70
     8
  0
VERTEX
  8
ガラス
 10
-35.875
 20
-89.625
 70
     8
  0
VERTEX
  8
ガラス
 10
-35.9
 20
-89.675
 70
     8
  0
VERTEX
  8
ガラス
 10
-35.9
 20
-89.725
 70
     8
  0
VERTEX
  8
ガラス
 10
-35.925
 20
-89.775
 70
     8
  0
VERTEX
  8
ガラス
 10
-35.95
 20
-89.85
 70
     8
  0
VERTEX
  8
ガラス
 10
-35.975
 20
-89.9
 70
     8
  0
VERTEX
  8
ガラス
 10
-36.0
 20
-89.95
 70
     8
  0
VERTEX
  8
ガラス
 10
-36.0
 20
-90.025
 70
     8
  0
VERTEX
  8
ガラス
 10
-36.025
 20
-90.075
 70
     8
  0
VERTEX
  8
ガラス
 10
-36.05
 20
-90.125
 70
     8
  0
VERTEX
  8
ガラス
 10
-36.05
 20
-90.2
 70
     8
  0
VERTEX
  8
ガラス
 10
-36.075
 20
-90.25
 70
     8
  0
VERTEX
  8
ガラス
 10
-36.075
 20
-90.325
 70
     8
  0
VERTEX
  8
ガラス
 10
-36.1
 20
-90.375
 70
     8
  0
VERTEX
  8
ガラス
 10
-36.1
 20
-90.425
 70
     8
  0
VERTEX
  8
ガラス
 10
-36.125
 20
-90.5
 70
     8
  0
VERTEX
  8
ガラス
 10
-36.125
 20
-90.55
 70
     8
  0
VERTEX
  8
ガラス
 10
-36.15
 20
-90.625
 70
     8
  0
VERTEX
  8
ガラス
 10
-36.15
 20
-90.675
 70
     8
  0
VERTEX
  8
ガラス
 10
-36.175
 20
-90.725
 70
     8
  0
VERTEX
  8
ガラス
 10
-36.175
 20
-90.8
 70
     8
  0
VERTEX
  8
ガラス
 10
-36.175
 20
-90.85
 70
     8
  0
VERTEX
  8
ガラス
 10
-36.2
 20
-90.925
 70
     8
  0
VERTEX
  8
ガラス
 10
-36.2
 20
-90.975
 70
     8
  0
VERTEX
  8
ガラス
 10
-36.2
 20
-91.05
 70
     8
  0
VERTEX
  8
ガラス
 10
-36.225
 20
-91.1
 70
     8
  0
VERTEX
  8
ガラス
 10
-36.225
 20
-91.15
 70
     8
  0
VERTEX
  8
ガラス
 10
-36.225
 20
-91.225
 70
     8
  0
VERTEX
  8
ガラス
 10
-36.225
 20
-91.275
 70
     8
  0
VERTEX
  8
ガラス
 10
-36.25
 20
-91.35
 70
     8
  0
SEQEND
  0
ARC
  8
ガラス
  6
CONTINUOUS
 10
-37.177161
 20
-91.218095
 40
0.955135
 50
173.117443
 51
353.117443
  0
ENDBLK
  0
BLOCK
  2
*GRP_0061
 70
    65
 10
0.0
 20
0.0
  0
POLYLINE
  8
ガラス
  6
CONTINUOUS
 66
     1
 70
     4
  0
VERTEX
  8
ガラス
 10
-45.025
 20
-91.875
 70
     8
  0
VERTEX
  8
ガラス
 10
-44.925
 20
-91.875
 70
     8
  0
VERTEX
  8
ガラス
 10
-44.825
 20
-91.85
 70
     8
  0
VERTEX
  8
ガラス
 10
-44.725
 20
-91.85
 70
     8
  0
VERTEX
  8
ガラス
 10
-44.65
 20
-91.825
 70
     8
  0
VERTEX
  8
ガラス
 10
-44.55
 20
-91.825
 70
     8
  0
VERTEX
  8
ガラス
 10
-44.45
 20
-91.825
 70
     8
  0
VERTEX
  8
ガラス
 10
-44.375
 20
-91.825
 70
     8
  0
VERTEX
  8
ガラス
 10
-44.275
 20
-91.8
 70
     8
  0
VERTEX
  8
ガラス
 10
-44.175
 20
-91.8
 70
     8
  0
VERTEX
  8
ガラス
 10
-44.1
 20
-91.8
 70
     8
  0
VERTEX
  8
ガラス
 10
-44.0
 20
-91.8
 70
     8
  0
VERTEX
  8
ガラス
 10
-43.925
 20
-91.8
 70
     8
  0
VERTEX
  8
ガラス
 10
-43.825
 20
-91.8
 70
     8
  0
VERTEX
  8
ガラス
 10
-43.75
 20
-91.825
 70
     8
  0
VERTEX
  8
ガラス
 10
-43.65
 20
-91.825
 70
     8
  0
VERTEX
  8
ガラス
 10
-43.575
 20
-91.85
 70
     8
  0
VERTEX
  8
ガラス
 10
-43.5
 20
-91.85
 70
     8
  0
VERTEX
  8
ガラス
 10
-43.425
 20
-91.875
 70
     8
  0
VERTEX
  8
ガラス
 10
-43.325
 20
-91.9
 70
     8
  0
VERTEX
  8
ガラス
 10
-43.25
 20
-91.925
 70
     8
  0
VERTEX
  8
ガラス
 10
-43.175
 20
-91.95
 70
     8
  0
VERTEX
  8
ガラス
 10
-43.1
 20
-91.975
 70
     8
  0
VERTEX
  8
ガラス
 10
-43.025
 20
-92.025
 70
     8
  0
VERTEX
  8
ガラス
 10
-42.95
 20
-92.075
 70
     8
  0
VERTEX
  8
ガラス
 10
-42.875
 20
-92.1
 70
     8
  0
VERTEX
  8
ガラス
 10
-42.825
 20
-92.15
 70
     8
  0
VERTEX
  8
ガラス
 10
-42.75
 20
-92.2
 70
     8
  0
VERTEX
  8
ガラス
 10
-42.675
 20
-92.275
 70
     8
  0
VERTEX
  8
ガラス
 10
-42.625
 20
-92.325
 70
     8
  0
VERTEX
  8
ガラス
 10
-42.55
 20
-92.375
 70
     8
  0
VERTEX
  8
ガラス
 10
-42.475
 20
-92.45
 70
     8
  0
VERTEX
  8
ガラス
 10
-42.425
 20
-92.5
 70
     8
  0
VERTEX
  8
ガラス
 10
-42.35
 20
-92.575
 70
     8
  0
VERTEX
  8
ガラス
 10
-42.3
 20
-92.625
 70
     8
  0
VERTEX
  8
ガラス
 10
-42.225
 20
-92.7
 70
     8
  0
VERTEX
  8
ガラス
 10
-42.175
 20
-92.775
 70
     8
  0
VERTEX
  8
ガラス
 10
-42.1
 20
-92.825
 70
     8
  0
VERTEX
  8
ガラス
 10
-42.05
 20
-92.9
 70
     8
  0
VERTEX
  8
ガラス
 10
-41.975
 20
-92.975
 70
     8
  0
VERTEX
  8
ガラス
 10
-41.925
 20
-93.05
 70
     8
  0
SEQEND
  0
POLYLINE
  8
ガラス
  6
CONTINUOUS
 66
     1
 70
     4
  0
VERTEX
  8
ガラス
 10
-41.925
 20
-93.05
 70
     8
  0
VERTEX
  8
ガラス
 10
-41.975
 20
-93.05
 70
     8
  0
VERTEX
  8
ガラス
 10
-42.05
 20
-93.05
 70
     8
  0
VERTEX
  8
ガラス
 10
-42.1
 20
-93.075
 70
     8
  0
VERTEX
  8
ガラス
 10
-42.175
 20
-93.075
 70
     8
  0
VERTEX
  8
ガラス
 10
-42.225
 20
-93.075
 70
     8
  0
VERTEX
  8
ガラス
 10
-42.3
 20
-93.075
 70
     8
  0
VERTEX
  8
ガラス
 10
-42.35
 20
-93.1
 70
     8
  0
VERTEX
  8
ガラス
 10
-42.425
 20
-93.1
 70
     8
  0
VERTEX
  8
ガラス
 10
-42.475
 20
-93.1
 70
     8
  0
VERTEX
  8
ガラス
 10
-42.525
 20
-93.125
 70
     8
  0
VERTEX
  8
ガラス
 10
-42.6
 20
-93.125
 70
     8
  0
VERTEX
  8
ガラス
 10
-42.65
 20
-93.125
 70
     8
  0
VERTEX
  8
ガラス
 10
-42.725
 20
-93.15
 70
     8
  0
VERTEX
  8
ガラス
 10
-42.775
 20
-93.15
 70
     8
  0
VERTEX
  8
ガラス
 10
-42.85
 20
-93.175
 70
     8
  0
VERTEX
  8
ガラス
 10
-42.9
 20
-93.175
 70
     8
  0
VERTEX
  8
ガラス
 10
-42.95
 20
-93.2
 70
     8
  0
VERTEX
  8
ガラス
 10
-43.025
 20
-93.2
 70
     8
  0
VERTEX
  8
ガラス
 10
-43.075
 20
-93.225
 70
     8
  0
VERTEX
  8
ガラス
 10
-43.125
 20
-93.225
 70
     8
  0
VERTEX
  8
ガラス
 10
-43.2
 20
-93.25
 70
     8
  0
VERTEX
  8
ガラス
 10
-43.25
 20
-93.25
 70
     8
  0
VERTEX
  8
ガラス
 10
-43.325
 20
-93.275
 70
     8
  0
VERTEX
  8
ガラス
 10
-43.375
 20
-93.3
 70
     8
  0
VERTEX
  8
ガラス
 10
-43.425
 20
-93.325
 70
     8
  0
VERTEX
  8
ガラス
 10
-43.5
 20
-93.325
 70
     8
  0
VERTEX
  8
ガラス
 10
-43.55
 20
-93.35
 70
     8
  0
VERTEX
  8
ガラス
 10
-43.6
 20
-93.375
 70
     8
  0
VERTEX
  8
ガラス
 10
-43.65
 20
-93.4
 70
     8
  0
VERTEX
  8
ガラス
 10
-43.725
 20
-93.425
 70
     8
  0
VERTEX
  8
ガラス
 10
-43.775
 20
-93.425
 70
     8
  0
VERTEX
  8
ガラス
 10
-43.825
 20
-93.45
 70
     8
  0
VERTEX
  8
ガラス
 10
-43.9
 20
-93.475
 70
     8
  0
VERTEX
  8
ガラス
 10
-43.95
 20
-93.5
 70
     8
  0
VERTEX
  8
ガラス
 10
-44.0
 20
-93.525
 70
     8
  0
VERTEX
  8
ガラス
 10
-44.05
 20
-93.55
 70
     8
  0
VERTEX
  8
ガラス
 10
-44.125
 20
-93.575
 70
     8
  0
VERTEX
  8
ガラス
 10
-44.175
 20
-93.6
 70
     8
  0
VERTEX
  8
ガラス
 10
-44.225
 20
-93.625
 70
     8
  0
VERTEX
  8
ガラス
 10
-44.3
 20
-93.65
 70
     8
  0
SEQEND
  0
ARC
  8
ガラス
  6
CONTINUOUS
 10
-44.638955
 20
-92.747504
 40
0.955135
 50
112.264588
 51
292.264588
  0
ENDBLK
  0
BLOCK
  2
*GRP_0062
 70
    65
 10
0.0
 20
0.0
  0
POLYLINE
  8
ガラス
  6
CONTINUOUS
 66
     1
 70
     4
  0
VERTEX
  8
ガラス
 10
-53.425
 20
-91.875
 70
     8
  0
VERTEX
  8
ガラス
 10
-53.325
 20
-91.875
 70
     8
  0
VERTEX
  8
ガラス
 10
-53.25
 20
-91.85
 70
     8
  0
VERTEX
  8
ガラス
 10
-53.15
 20
-91.85
 70
     8
  0
VERTEX
  8
ガラス
 10
-53.05
 20
-91.825
 70
     8
  0
VERTEX
  8
ガラス
 10
-52.95
 20
-91.825
 70
     8
  0
VERTEX
  8
ガラス
 10
-52.875
 20
-91.825
 70
     8
  0
VERTEX
  8
ガラス
 10
-52.775
 20
-91.825
 70
     8
  0
VERTEX
  8
ガラス
 10
-52.7
 20
-91.8
 70
     8
  0
VERTEX
  8
ガラス
 10
-52.6
 20
-91.8
 70
     8
  0
VERTEX
  8
ガラス
 10
-52.5
 20
-91.8
 70
     8
  0
VERTEX
  8
ガラス
 10
-52.425
 20
-91.8
 70
     8
  0
VERTEX
  8
ガラス
 10
-52.325
 20
-91.8
 70
     8
  0
VERTEX
  8
ガラス
 10
-52.25
 20
-91.8
 70
     8
  0
VERTEX
  8
ガラス
 10
-52.15
 20
-91.825
 70
     8
  0
VERTEX
  8
ガラス
 10
-52.075
 20
-91.825
 70
     8
  0
VERTEX
  8
ガラス
 10
-52.0
 20
-91.85
 70
     8
  0
VERTEX
  8
ガラス
 10
-51.9
 20
-91.85
 70
     8
  0
VERTEX
  8
ガラス
 10
-51.825
 20
-91.875
 70
     8
  0
VERTEX
  8
ガラス
 10
-51.75
 20
-91.9
 70
     8
  0
VERTEX
  8
ガラス
 10
-51.675
 20
-91.925
 70
     8
  0
VERTEX
  8
ガラス
 10
-51.6
 20
-91.95
 70
     8
  0
VERTEX
  8
ガラス
 10
-51.525
 20
-91.975
 70
     8
  0
VERTEX
  8
ガラス
 10
-51.45
 20
-92.025
 70
     8
  0
VERTEX
  8
ガラス
 10
-51.375
 20
-92.075
 70
     8
  0
VERTEX
  8
ガラス
 10
-51.3
 20
-92.1
 70
     8
  0
VERTEX
  8
ガラス
 10
-51.225
 20
-92.15
 70
     8
  0
VERTEX
  8
ガラス
 10
-51.15
 20
-92.2
 70
     8
  0
VERTEX
  8
ガラス
 10
-51.1
 20
-92.275
 70
     8
  0
VERTEX
  8
ガラス
 10
-51.025
 20
-92.325
 70
     8
  0
VERTEX
  8
ガラス
 10
-50.95
 20
-92.375
 70
     8
  0
VERTEX
  8
ガラス
 10
-50.9
 20
-92.45
 70
     8
  0
VERTEX
  8
ガラス
 10
-50.825
 20
-92.5
 70
     8
  0
VERTEX
  8
ガラス
 10
-50.775
 20
-92.575
 70
     8
  0
VERTEX
  8
ガラス
 10
-50.7
 20
-92.625
 70
     8
  0
VERTEX
  8
ガラス
 10
-50.65
 20
-92.7
 70
     8
  0
VERTEX
  8
ガラス
 10
-50.575
 20
-92.775
 70
     8
  0
VERTEX
  8
ガラス
 10
-50.525
 20
-92.825
 70
     8
  0
VERTEX
  8
ガラス
 10
-50.45
 20
-92.9
 70
     8
  0
VERTEX
  8
ガラス
 10
-50.4
 20
-92.975
 70
     8
  0
VERTEX
  8
ガラス
 10
-50.325
 20
-93.05
 70
     8
  0
SEQEND
  0
POLYLINE
  8
ガラス
  6
CONTINUOUS
 66
     1
 70
     4
  0
VERTEX
  8
ガラス
 10
-50.325
 20
-93.05
 70
     8
  0
VERTEX
  8
ガラス
 10
-50.4
 20
-93.05
 70
     8
  0
VERTEX
  8
ガラス
 10
-50.45
 20
-93.05
 70
     8
  0
VERTEX
  8
ガラス
 10
-50.525
 20
-93.075
 70
     8
  0
VERTEX
  8
ガラス
 10
-50.575
 20
-93.075
 70
     8
  0
VERTEX
  8
ガラス
 10
-50.65
 20
-93.075
 70
     8
  0
VERTEX
  8
ガラス
 10
-50.7
 20
-93.075
 70
     8
  0
VERTEX
  8
ガラス
 10
-50.775
 20
-93.1
 70
     8
  0
VERTEX
  8
ガラス
 10
-50.825
 20
-93.1
 70
     8
  0
VERTEX
  8
ガラス
 10
-50.875
 20
-93.1
 70
     8
  0
VERTEX
  8
ガラス
 10
-50.95
 20
-93.125
 70
     8
  0
VERTEX
  8
ガラス
 10
-51.0
 20
-93.125
 70
     8
  0
VERTEX
  8
ガラス
 10
-51.075
 20
-93.125
 70
     8
  0
VERTEX
  8
ガラス
 10
-51.125
 20
-93.15
 70
     8
  0
VERTEX
  8
ガラス
 10
-51.2
 20
-93.15
 70
     8
  0
VERTEX
  8
ガラス
 10
-51.25
 20
-93.175
 70
     8
  0
VERTEX
  8
ガラス
 10
-51.3
 20
-93.175
 70
     8
  0
VERTEX
  8
ガラス
 10
-51.375
 20
-93.2
 70
     8
  0
VERTEX
  8
ガラス
 10
-51.425
 20
-93.2
 70
     8
  0
VERTEX
  8
ガラス
 10
-51.5
 20
-93.225
 70
     8
  0
VERTEX
  8
ガラス
 10
-51.55
 20
-93.225
 70
     8
  0
VERTEX
  8
ガラス
 10
-51.6
 20
-93.25
 70
     8
  0
VERTEX
  8
ガラス
 10
-51.675
 20
-93.25
 70
     8
  0
VERTEX
  8
ガラス
 10
-51.725
 20
-93.275
 70
     8
  0
VERTEX
  8
ガラス
 10
-51.775
 20
-93.3
 70
     8
  0
VERTEX
  8
ガラス
 10
-51.85
 20
-93.325
 70
     8
  0
VERTEX
  8
ガラス
 10
-51.9
 20
-93.325
 70
     8
  0
VERTEX
  8
ガラス
 10
-51.95
 20
-93.35
 70
     8
  0
VERTEX
  8
ガラス
 10
-52.025
 20
-93.375
 70
     8
  0
VERTEX
  8
ガラス
 10
-52.075
 20
-93.4
 70
     8
  0
VERTEX
  8
ガラス
 10
-52.125
 20
-93.425
 70
     8
  0
VERTEX
  8
ガラス
 10
-52.2
 20
-93.425
 70
     8
  0
VERTEX
  8
ガラス
 10
-52.25
 20
-93.45
 70
     8
  0
VERTEX
  8
ガラス
 10
-52.3
 20
-93.475
 70
     8
  0
VERTEX
  8
ガラス
 10
-52.35
 20
-93.5
 70
     8
  0
VERTEX
  8
ガラス
 10
-52.425
 20
-93.525
 70
     8
  0
VERTEX
  8
ガラス
 10
-52.475
 20
-93.55
 70
     8
  0
VERTEX
  8
ガラス
 10
-52.525
 20
-93.575
 70
     8
  0
VERTEX
  8
ガラス
 10
-52.6
 20
-93.6
 70
     8
  0
VERTEX
  8
ガラス
 10
-52.65
 20
-93.625
 70
     8
  0
VERTEX
  8
ガラス
 10
-52.7
 20
-93.65
 70
     8
  0
SEQEND
  0
ARC
  8
ガラス
  6
CONTINUOUS
 10
-53.05072
 20
-92.747504
 40
0.955135
 50
112.264588
 51
292.264588
  0
ENDBLK
  0
BLOCK
  2
*GRP_0063
 70
    65
 10
0.0
 20
0.0
  0
POLYLINE
  8
ガラス
  6
CONTINUOUS
 66
     1
 70
     4
  0
VERTEX
  8
ガラス
 10
6.0
 20
-79.275
 70
     8
  0
VERTEX
  8
ガラス
 10
6.1
 20
-79.275
 70
     8
  0
VERTEX
  8
ガラス
 10
6.2
 20
-79.25
 70
     8
  0
VERTEX
  8
ガラス
 10
6.275
 20
-79.25
 70
     8
  0
VERTEX
  8
ガラス
 10
6.375
 20
-79.225
 70
     8
  0
VERTEX
  8
ガラス
 10
6.475
 20
-79.225
 70
     8
  0
VERTEX
  8
ガラス
 10
6.55
 20
-79.225
 70
     8
  0
VERTEX
  8
ガラス
 10
6.65
 20
-79.225
 70
     8
  0
VERTEX
  8
ガラス
 10
6.75
 20
-79.2
 70
     8
  0
VERTEX
  8
ガラス
 10
6.825
 20
-79.2
 70
     8
  0
VERTEX
  8
ガラス
 10
6.925
 20
-79.2
 70
     8
  0
VERTEX
  8
ガラス
 10
7.0
 20
-79.2
 70
     8
  0
VERTEX
  8
ガラス
 10
7.1
 20
-79.2
 70
     8
  0
VERTEX
  8
ガラス
 10
7.175
 20
-79.2
 70
     8
  0
VERTEX
  8
ガラス
 10
7.275
 20
-79.225
 70
     8
  0
VERTEX
  8
ガラス
 10
7.35
 20
-79.225
 70
     8
  0
VERTEX
  8
ガラス
 10
7.45
 20
-79.25
 70
     8
  0
VERTEX
  8
ガラス
 10
7.525
 20
-79.25
 70
     8
  0
VERTEX
  8
ガラス
 10
7.6
 20
-79.275
 70
     8
  0
VERTEX
  8
ガラス
 10
7.675
 20
-79.3
 70
     8
  0
VERTEX
  8
ガラス
 10
7.75
 20
-79.325
 70
     8
  0
VERTEX
  8
ガラス
 10
7.85
 20
-79.35
 70
     8
  0
VERTEX
  8
ガラス
 10
7.925
 20
-79.375
 70
     8
  0
VERTEX
  8
ガラス
 10
7.975
 20
-79.425
 70
     8
  0
VERTEX
  8
ガラス
 10
8.05
 20
-79.475
 70
     8
  0
VERTEX
  8
ガラス
 10
8.125
 20
-79.5
 70
     8
  0
VERTEX
  8
ガラス
 10
8.2
 20
-79.55
 70
     8
  0
VERTEX
  8
ガラス
 10
8.275
 20
-79.6
 70
     8
  0
VERTEX
  8
ガラス
 10
8.325
 20
-79.675
 70
     8
  0
VERTEX
  8
ガラス
 10
8.4
 20
-79.725
 70
     8
  0
VERTEX
  8
ガラス
 10
8.475
 20
-79.775
 70
     8
  0
VERTEX
  8
ガラス
 10
8.525
 20
-79.85
 70
     8
  0
VERTEX
  8
ガラス
 10
8.6
 20
-79.9
 70
     8
  0
VERTEX
  8
ガラス
 10
8.65
 20
-79.975
 70
     8
  0
VERTEX
  8
ガラス
 10
8.725
 20
-80.025
 70
     8
  0
VERTEX
  8
ガラス
 10
8.775
 20
-80.1
 70
     8
  0
VERTEX
  8
ガラス
 10
8.85
 20
-80.175
 70
     8
  0
VERTEX
  8
ガラス
 10
8.9
 20
-80.225
 70
     8
  0
VERTEX
  8
ガラス
 10
8.975
 20
-80.3
 70
     8
  0
VERTEX
  8
ガラス
 10
9.025
 20
-80.375
 70
     8
  0
VERTEX
  8
ガラス
 10
9.1
 20
-80.45
 70
     8
  0
SEQEND
  0
POLYLINE
  8
ガラス
  6
CONTINUOUS
 66
     1
 70
     4
  0
VERTEX
  8
ガラス
 10
9.1
 20
-80.45
 70
     8
  0
VERTEX
  8
ガラス
 10
9.025
 20
-80.45
 70
     8
  0
VERTEX
  8
ガラス
 10
8.975
 20
-80.45
 70
     8
  0
VERTEX
  8
ガラス
 10
8.9
 20
-80.475
 70
     8
  0
VERTEX
  8
ガラス
 10
8.85
 20
-80.475
 70
     8
  0
VERTEX
  8
ガラス
 10
8.8
 20
-80.475
 70
     8
  0
VERTEX
  8
ガラス
 10
8.725
 20
-80.475
 70
     8
  0
VERTEX
  8
ガラス
 10
8.675
 20
-80.5
 70
     8
  0
VERTEX
  8
ガラス
 10
8.6
 20
-80.5
 70
     8
  0
VERTEX
  8
ガラス
 10
8.55
 20
-80.5
 70
     8
  0
VERTEX
  8
ガラス
 10
8.475
 20
-80.525
 70
     8
  0
VERTEX
  8
ガラス
 10
8.425
 20
-80.525
 70
     8
  0
VERTEX
  8
ガラス
 10
8.35
 20
-80.525
 70
     8
  0
VERTEX
  8
ガラス
 10
8.3
 20
-80.55
 70
     8
  0
VERTEX
  8
ガラス
 10
8.25
 20
-80.55
 70
     8
  0
VERTEX
  8
ガラス
 10
8.175
 20
-80.575
 70
     8
  0
VERTEX
  8
ガラス
 10
8.125
 20
-80.575
 70
     8
  0
VERTEX
  8
ガラス
 10
8.05
 20
-80.6
 70
     8
  0
VERTEX
  8
ガラス
 10
8.0
 20
-80.6
 70
     8
  0
VERTEX
  8
ガラス
 10
7.95
 20
-80.625
 70
     8
  0
VERTEX
  8
ガラス
 10
7.875
 20
-80.625
 70
     8
  0
VERTEX
  8
ガラス
 10
7.825
 20
-80.65
 70
     8
  0
VERTEX
  8
ガラス
 10
7.775
 20
-80.65
 70
     8
  0
VERTEX
  8
ガラス
 10
7.7
 20
-80.675
 70
     8
  0
VERTEX
  8
ガラス
 10
7.65
 20
-80.7
 70
     8
  0
VERTEX
  8
ガラス
 10
7.6
 20
-80.725
 70
     8
  0
VERTEX
  8
ガラス
 10
7.525
 20
-80.725
 70
     8
  0
VERTEX
  8
ガラス
 10
7.475
 20
-80.75
 70
     8
  0
VERTEX
  8
ガラス
 10
7.425
 20
-80.775
 70
     8
  0
VERTEX
  8
ガラス
 10
7.35
 20
-80.8
 70
     8
  0
VERTEX
  8
ガラス
 10
7.3
 20
-80.825
 70
     8
  0
VERTEX
  8
ガラス
 10
7.25
 20
-80.825
 70
     8
  0
VERTEX
  8
ガラス
 10
7.175
 20
-80.85
 70
     8
  0
VERTEX
  8
ガラス
 10
7.125
 20
-80.875
 70
     8
  0
VERTEX
  8
ガラス
 10
7.075
 20
-80.9
 70
     8
  0
VERTEX
  8
ガラス
 10
7.025
 20
-80.925
 70
     8
  0
VERTEX
  8
ガラス
 10
6.95
 20
-80.95
 70
     8
  0
VERTEX
  8
ガラス
 10
6.9
 20
-80.975
 70
     8
  0
VERTEX
  8
ガラス
 10
6.85
 20
-81.0
 70
     8
  0
VERTEX
  8
ガラス
 10
6.775
 20
-81.025
 70
     8
  0
VERTEX
  8
ガラス
 10
6.725
 20
-81.05
 70
     8
  0
SEQEND
  0
ARC
  8
ガラス
  6
CONTINUOUS
 10
6.378692
 20
-80.148134
 40
0.955135
 50
112.264588
 51
292.264588
  0
ENDBLK
  0
BLOCK
  2
*GRP_0064
 70
    65
 10
0.0
 20
0.0
  0
POLYLINE
  8
ガラス
  6
CONTINUOUS
 66
     1
 70
     4
  0
VERTEX
  8
ガラス
 10
-6.525
 20
-79.275
 70
     8
  0
VERTEX
  8
ガラス
 10
-6.425
 20
-79.275
 70
     8
  0
VERTEX
  8
ガラス
 10
-6.325
 20
-79.25
 70
     8
  0
VERTEX
  8
ガラス
 10
-6.25
 20
-79.25
 70
     8
  0
VERTEX
  8
ガラス
 10
-6.15
 20
-79.225
 70
     8
  0
VERTEX
  8
ガラス
 10
-6.05
 20
-79.225
 70
     8
  0
VERTEX
  8
ガラス
 10
-5.975
 20
-79.225
 70
     8
  0
VERTEX
  8
ガラス
 10
-5.875
 20
-79.225
 70
     8
  0
VERTEX
  8
ガラス
 10
-5.775
 20
-79.2
 70
     8
  0
VERTEX
  8
ガラス
 10
-5.7
 20
-79.2
 70
     8
  0
VERTEX
  8
ガラス
 10
-5.6
 20
-79.2
 70
     8
  0
VERTEX
  8
ガラス
 10
-5.525
 20
-79.2
 70
     8
  0
VERTEX
  8
ガラス
 10
-5.425
 20
-79.2
 70
     8
  0
VERTEX
  8
ガラス
 10
-5.35
 20
-79.2
 70
     8
  0
VERTEX
  8
ガラス
 10
-5.25
 20
-79.225
 70
     8
  0
VERTEX
  8
ガラス
 10
-5.175
 20
-79.225
 70
     8
  0
VERTEX
  8
ガラス
 10
-5.075
 20
-79.25
 70
     8
  0
VERTEX
  8
ガラス
 10
-5.0
 20
-79.25
 70
     8
  0
VERTEX
  8
ガラス
 10
-4.925
 20
-79.275
 70
     8
  0
VERTEX
  8
ガラス
 10
-4.85
 20
-79.3
 70
     8
  0
VERTEX
  8
ガラス
 10
-4.775
 20
-79.325
 70
     8
  0
VERTEX
  8
ガラス
 10
-4.675
 20
-79.35
 70
     8
  0
VERTEX
  8
ガラス
 10
-4.6
 20
-79.375
 70
     8
  0
VERTEX
  8
ガラス
 10
-4.55
 20
-79.425
 70
     8
  0
VERTEX
  8
ガラス
 10
-4.475
 20
-79.475
 70
     8
  0
VERTEX
  8
ガラス
 10
-4.4
 20
-79.5
 70
     8
  0
VERTEX
  8
ガラス
 10
-4.325
 20
-79.55
 70
     8
  0
VERTEX
  8
ガラス
 10
-4.25
 20
-79.6
 70
     8
  0
VERTEX
  8
ガラス
 10
-4.2
 20
-79.675
 70
     8
  0
VERTEX
  8
ガラス
 10
-4.125
 20
-79.725
 70
     8
  0
VERTEX
  8
ガラス
 10
-4.05
 20
-79.775
 70
     8
  0
VERTEX
  8
ガラス
 10
-4.0
 20
-79.85
 70
     8
  0
VERTEX
  8
ガラス
 10
-3.925
 20
-79.9
 70
     8
  0
VERTEX
  8
ガラス
 10
-3.875
 20
-79.975
 70
     8
  0
VERTEX
  8
ガラス
 10
-3.8
 20
-80.025
 70
     8
  0
VERTEX
  8
ガラス
 10
-3.75
 20
-80.1
 70
     8
  0
VERTEX
  8
ガラス
 10
-3.675
 20
-80.175
 70
     8
  0
VERTEX
  8
ガラス
 10
-3.625
 20
-80.225
 70
     8
  0
VERTEX
  8
ガラス
 10
-3.55
 20
-80.3
 70
     8
  0
VERTEX
  8
ガラス
 10
-3.5
 20
-80.375
 70
     8
  0
VERTEX
  8
ガラス
 10
-3.425
 20
-80.45
 70
     8
  0
SEQEND
  0
POLYLINE
  8
ガラス
  6
CONTINUOUS
 66
     1
 70
     4
  0
VERTEX
  8
ガラス
 10
-3.425
 20
-80.45
 70
     8
  0
VERTEX
  8
ガラス
 10
-3.5
 20
-80.45
 70
     8
  0
VERTEX
  8
ガラス
 10
-3.55
 20
-80.45
 70
     8
  0
VERTEX
  8
ガラス
 10
-3.625
 20
-80.475
 70
     8
  0
VERTEX
  8
ガラス
 10
-3.675
 20
-80.475
 70
     8
  0
VERTEX
  8
ガラス
 10
-3.75
 20
-80.475
 70
     8
  0
VERTEX
  8
ガラス
 10
-3.8
 20
-80.475
 70
     8
  0
VERTEX
  8
ガラス
 10
-3.85
 20
-80.5
 70
     8
  0
VERTEX
  8
ガラス
 10
-3.925
 20
-80.5
 70
     8
  0
VERTEX
  8
ガラス
 10
-3.975
 20
-80.5
 70
     8
  0
VERTEX
  8
ガラス
 10
-4.05
 20
-80.525
 70
     8
  0
VERTEX
  8
ガラス
 10
-4.1
 20
-80.525
 70
     8
  0
VERTEX
  8
ガラス
 10
-4.175
 20
-80.525
 70
     8
  0
VERTEX
  8
ガラス
 10
-4.225
 20
-80.55
 70
     8
  0
VERTEX
  8
ガラス
 10
-4.275
 20
-80.55
 70
     8
  0
VERTEX
  8
ガラス
 10
-4.35
 20
-80.575
 70
     8
  0
VERTEX
  8
ガラス
 10
-4.4
 20
-80.575
 70
     8
  0
VERTEX
  8
ガラス
 10
-4.475
 20
-80.6
 70
     8
  0
VERTEX
  8
ガラス
 10
-4.525
 20
-80.6
 70
     8
  0
VERTEX
  8
ガラス
 10
-4.575
 20
-80.625
 70
     8
  0
VERTEX
  8
ガラス
 10
-4.65
 20
-80.625
 70
     8
  0
VERTEX
  8
ガラス
 10
-4.7
 20
-80.65
 70
     8
  0
VERTEX
  8
ガラス
 10
-4.75
 20
-80.65
 70
     8
  0
VERTEX
  8
ガラス
 10
-4.825
 20
-80.675
 70
     8
  0
VERTEX
  8
ガラス
 10
-4.875
 20
-80.7
 70
     8
  0
VERTEX
  8
ガラス
 10
-4.925
 20
-80.725
 70
     8
  0
VERTEX
  8
ガラス
 10
-5.0
 20
-80.725
 70
     8
  0
VERTEX
  8
ガラス
 10
-5.05
 20
-80.75
 70
     8
  0
VERTEX
  8
ガラス
 10
-5.1
 20
-80.775
 70
     8
  0
VERTEX
  8
ガラス
 10
-5.175
 20
-80.8
 70
     8
  0
VERTEX
  8
ガラス
 10
-5.225
 20
-80.825
 70
     8
  0
VERTEX
  8
ガラス
 10
-5.275
 20
-80.825
 70
     8
  0
VERTEX
  8
ガラス
 10
-5.35
 20
-80.85
 70
     8
  0
VERTEX
  8
ガラス
 10
-5.4
 20
-80.875
 70
     8
  0
VERTEX
  8
ガラス
 10
-5.45
 20
-80.9
 70
     8
  0
VERTEX
  8
ガラス
 10
-5.525
 20
-80.925
 70
     8
  0
VERTEX
  8
ガラス
 10
-5.575
 20
-80.95
 70
     8
  0
VERTEX
  8
ガラス
 10
-5.625
 20
-80.975
 70
     8
  0
VERTEX
  8
ガラス
 10
-5.675
 20
-81.0
 70
     8
  0
VERTEX
  8
ガラス
 10
-5.75
 20
-81.025
 70
     8
  0
VERTEX
  8
ガラス
 10
-5.8
 20
-81.05
 70
     8
  0
SEQEND
  0
ARC
  8
ガラス
  6
CONTINUOUS
 10
-6.146518
 20
-80.148134
 40
0.955135
 50
112.264588
 51
292.264588
  0
ENDBLK
  0
BLOCK
  2
*GRP_0065
 70
    65
 10
0.0
 20
0.0
  0
POLYLINE
  8
ガラス
  6
CONTINUOUS
 66
     1
 70
     4
  0
VERTEX
  8
ガラス
 10
-26.2
 20
-79.275
 70
     8
  0
VERTEX
  8
ガラス
 10
-26.125
 20
-79.275
 70
     8
  0
VERTEX
  8
ガラス
 10
-26.025
 20
-79.25
 70
     8
  0
VERTEX
  8
ガラス
 10
-25.925
 20
-79.25
 70
     8
  0
VERTEX
  8
ガラス
 10
-25.85
 20
-79.225
 70
     8
  0
VERTEX
  8
ガラス
 10
-25.75
 20
-79.225
 70
     8
  0
VERTEX
  8
ガラス
 10
-25.65
 20
-79.225
 70
     8
  0
VERTEX
  8
ガラス
 10
-25.575
 20
-79.225
 70
     8
  0
VERTEX
  8
ガラス
 10
-25.475
 20
-79.2
 70
     8
  0
VERTEX
  8
ガラス
 10
-25.375
 20
-79.2
 70
     8
  0
VERTEX
  8
ガラス
 10
-25.3
 20
-79.2
 70
     8
  0
VERTEX
  8
ガラス
 10
-25.2
 20
-79.2
 70
     8
  0
VERTEX
  8
ガラス
 10
-25.125
 20
-79.2
 70
     8
  0
VERTEX
  8
ガラス
 10
-25.025
 20
-79.2
 70
     8
  0
VERTEX
  8
ガラス
 10
-24.95
 20
-79.225
 70
     8
  0
VERTEX
  8
ガラス
 10
-24.85
 20
-79.225
 70
     8
  0
VERTEX
  8
ガラス
 10
-24.775
 20
-79.25
 70
     8
  0
VERTEX
  8
ガラス
 10
-24.7
 20
-79.25
 70
     8
  0
VERTEX
  8
ガラス
 10
-24.6
 20
-79.275
 70
     8
  0
VERTEX
  8
ガラス
 10
-24.525
 20
-79.3
 70
     8
  0
VERTEX
  8
ガラス
 10
-24.45
 20
-79.325
 70
     8
  0
VERTEX
  8
ガラス
 10
-24.375
 20
-79.35
 70
     8
  0
VERTEX
  8
ガラス
 10
-24.3
 20
-79.375
 70
     8
  0
VERTEX
  8
ガラス
 10
-24.225
 20
-79.425
 70
     8
  0
VERTEX
  8
ガラス
 10
-24.15
 20
-79.475
 70
     8
  0
VERTEX
  8
ガラス
 10
-24.075
 20
-79.5
 70
     8
  0
VERTEX
  8
ガラス
 10
-24.025
 20
-79.55
 70
     8
  0
VERTEX
  8
ガラス
 10
-23.95
 20
-79.6
 70
     8
  0
VERTEX
  8
ガラス
 10
-23.875
 20
-79.675
 70
     8
  0
VERTEX
  8
ガラス
 10
-23.8
 20
-79.725
 70
     8
  0
VERTEX
  8
ガラス
 10
-23.75
 20
-79.775
 70
     8
  0
VERTEX
  8
ガラス
 10
-23.675
 20
-79.85
 70
     8
  0
VERTEX
  8
ガラス
 10
-23.625
 20
-79.9
 70
     8
  0
VERTEX
  8
ガラス
 10
-23.55
 20
-79.975
 70
     8
  0
VERTEX
  8
ガラス
 10
-23.5
 20
-80.025
 70
     8
  0
VERTEX
  8
ガラス
 10
-23.425
 20
-80.1
 70
     8
  0
VERTEX
  8
ガラス
 10
-23.375
 20
-80.175
 70
     8
  0
VERTEX
  8
ガラス
 10
-23.3
 20
-80.225
 70
     8
  0
VERTEX
  8
ガラス
 10
-23.25
 20
-80.3
 70
     8
  0
VERTEX
  8
ガラス
 10
-23.175
 20
-80.375
 70
     8
  0
VERTEX
  8
ガラス
 10
-23.125
 20
-80.45
 70
     8
  0
SEQEND
  0
POLYLINE
  8
ガラス
  6
CONTINUOUS
 66
     1
 70
     4
  0
VERTEX
  8
ガラス
 10
-23.125
 20
-80.45
 70
     8
  0
VERTEX
  8
ガラス
 10
-23.175
 20
-80.45
 70
     8
  0
VERTEX
  8
ガラス
 10
-23.25
 20
-80.45
 70
     8
  0
VERTEX
  8
ガラス
 10
-23.3
 20
-80.475
 70
     8
  0
VERTEX
  8
ガラス
 10
-23.375
 20
-80.475
 70
     8
  0
VERTEX
  8
ガラス
 10
-23.425
 20
-80.475
 70
     8
  0
VERTEX
  8
ガラス
 10
-23.5
 20
-80.475
 70
     8
  0
VERTEX
  8
ガラス
 10
-23.55
 20
-80.5
 70
     8
  0
VERTEX
  8
ガラス
 10
-23.6
 20
-80.5
 70
     8
  0
VERTEX
  8
ガラス
 10
-23.675
 20
-80.5
 70
     8
  0
VERTEX
  8
ガラス
 10
-23.725
 20
-80.525
 70
     8
  0
VERTEX
  8
ガラス
 10
-23.8
 20
-80.525
 70
     8
  0
VERTEX
  8
ガラス
 10
-23.85
 20
-80.525
 70
     8
  0
VERTEX
  8
ガラス
 10
-23.925
 20
-80.55
 70
     8
  0
VERTEX
  8
ガラス
 10
-23.975
 20
-80.55
 70
     8
  0
VERTEX
  8
ガラス
 10
-24.025
 20
-80.575
 70
     8
  0
VERTEX
  8
ガラス
 10
-24.1
 20
-80.575
 70
     8
  0
VERTEX
  8
ガラス
 10
-24.15
 20
-80.6
 70
     8
  0
VERTEX
  8
ガラス
 10
-24.225
 20
-80.6
 70
     8
  0
VERTEX
  8
ガラス
 10
-24.275
 20
-80.625
 70
     8
  0
VERTEX
  8
ガラス
 10
-24.325
 20
-80.625
 70
     8
  0
VERTEX
  8
ガラス
 10
-24.4
 20
-80.65
 70
     8
  0
VERTEX
  8
ガラス
 10
-24.45
 20
-80.65
 70
     8
  0
VERTEX
  8
ガラス
 10
-24.5
 20
-80.675
 70
     8
  0
VERTEX
  8
ガラス
 10
-24.575
 20
-80.7
 70
     8
  0
VERTEX
  8
ガラス
 10
-24.625
 20
-80.725
 70
     8
  0
VERTEX
  8
ガラス
 10
-24.675
 20
-80.725
 70
     8
  0
VERTEX
  8
ガラス
 10
-24.75
 20
-80.75
 70
     8
  0
VERTEX
  8
ガラス
 10
-24.8
 20
-80.775
 70
     8
  0
VERTEX
  8
ガラス
 10
-24.85
 20
-80.8
 70
     8
  0
VERTEX
  8
ガラス
 10
-24.925
 20
-80.825
 70
     8
  0
VERTEX
  8
ガラス
 10
-24.975
 20
-80.825
 70
     8
  0
VERTEX
  8
ガラス
 10
-25.025
 20
-80.85
 70
     8
  0
VERTEX
  8
ガラス
 10
-25.075
 20
-80.875
 70
     8
  0
VERTEX
  8
ガラス
 10
-25.15
 20
-80.9
 70
     8
  0
VERTEX
  8
ガラス
 10
-25.2
 20
-80.925
 70
     8
  0
VERTEX
  8
ガラス
 10
-25.25
 20
-80.95
 70
     8
  0
VERTEX
  8
ガラス
 10
-25.325
 20
-80.975
 70
     8
  0
VERTEX
  8
ガラス
 10
-25.375
 20
-81.0
 70
     8
  0
VERTEX
  8
ガラス
 10
-25.425
 20
-81.025
 70
     8
  0
VERTEX
  8
ガラス
 10
-25.475
 20
-81.05
 70
     8
  0
SEQEND
  0
ARC
  8
ガラス
  6
CONTINUOUS
 10
-25.835594
 20
-80.148134
 40
0.955135
 50
112.264588
 51
292.264588
  0
ENDBLK
  0
BLOCK
  2
*GRP_0066
 70
    65
 10
0.0
 20
0.0
  0
LINE
  8
型材
  6
CONTINUOUS
 62
    47
 10
6.245322
 20
57.613363
 11
6.245322
 21
56.713363
  0
LINE
  8
型材
  6
CONTINUOUS
 62
    47
 10
6.845322
 20
58.213363
 11
6.245322
 21
57.613363
  0
LINE
  8
型材
  6
CONTINUOUS
 62
    47
 10
6.245322
 20
56.713363
 11
8.745327
 21
56.713378
  0
LINE
  8
型材
  6
CONTINUOUS
 62
    47
 10
6.845322
 20
58.213363
 11
10.245327
 21
58.21337
  0
LINE
  8
型材
  6
CONTINUOUS
 62
    47
 10
10.245327
 20
55.21337
 11
2.345428
 21
47.31347
  0
LINE
  8
型材
  6
CONTINUOUS
 62
    47
 10
10.245327
 20
58.213378
 11
10.245342
 21
55.213385
  0
LINE
  8
型材
  6
CONTINUOUS
 62
    47
 10
8.745327
 20
56.71337
 11
8.745327
 21
55.834692
  0
LINE
  8
型材
  6
CONTINUOUS
 62
    47
 10
0.745437
 20
46.613472
 11
0.745437
 21
47.834802
  0
LINE
  8
型材
  6
CONTINUOUS
 62
    47
 10
2.345442
 20
45.113472
 11
2.345442
 21
47.313485
  0
LINE
  8
型材
  6
CONTINUOUS
 62
    47
 10
1.245327
 20
57.613348
 11
1.245327
 21
56.713348
  0
LINE
  8
型材
  6
CONTINUOUS
 62
    47
 10
1.245327
 20
57.613348
 11
0.645327
 21
58.21334
  0
LINE
  8
型材
  6
CONTINUOUS
 62
    47
 10
0.645327
 20
58.21334
 11
-2.754677
 21
58.213333
  0
LINE
  8
型材
  6
CONTINUOUS
 62
    47
 10
1.245327
 20
56.713348
 11
-1.254662
 21
56.713333
  0
LINE
  8
型材
  6
CONTINUOUS
 62
    47
 10
-1.754568
 20
44.013478
 11
-1.754568
 21
46.613472
  0
LINE
  8
型材
  6
CONTINUOUS
 62
    47
 10
-0.254568
 20
44.013478
 11
-0.254568
 21
45.113472
  0
LINE
  8
型材
  6
CONTINUOUS
 62
    47
 10
-0.254568
 20
44.013478
 11
-1.754568
 21
44.013478
  0
LINE
  8
型材
  6
CONTINUOUS
 62
    47
 10
0.745437
 20
46.613472
 11
-1.754568
 21
46.613472
  0
LINE
  8
型材
  6
CONTINUOUS
 62
    47
 10
-11.554907
 20
46.013465
 11
-13.551542
 21
46.013465
  0
LINE
  8
型材
  6
CONTINUOUS
 62
    47
 10
-11.554907
 20
46.013465
 11
-11.554907
 21
44.01347
  0
LINE
  8
型材
  6
CONTINUOUS
 62
    47
 10
-11.554907
 20
44.01347
 11
-15.051542
 21
44.01347
  0
LINE
  8
型材
  6
CONTINUOUS
 62
    47
 10
-15.051542
 20
44.01347
 11
-15.051542
 21
58.213302
  0
LINE
  8
型材
  6
CONTINUOUS
 62
    47
 10
-15.051542
 20
58.213302
 11
-13.551542
 21
58.21331
  0
LINE
  8
型材
  6
CONTINUOUS
 62
    47
 10
0.745437
 20
47.834802
 11
4.623987
 21
51.713345
  0
LINE
  8
型材
  6
CONTINUOUS
 62
    47
 10
8.745313
 20
55.834677
 11
6.123987
 21
53.213352
  0
LINE
  8
型材
  6
CONTINUOUS
 62
    47
 10
-1.254662
 20
56.713385
 11
-1.254662
 21
53.213337
  0
LINE
  8
型材
  6
CONTINUOUS
 62
    47
 10
-13.551542
 20
58.21331
 11
-13.551542
 21
53.213315
  0
LINE
  8
型材
  6
CONTINUOUS
 62
    47
 10
4.623987
 20
51.713345
 11
-13.551542
 21
51.713307
  0
LINE
  8
型材
  6
CONTINUOUS
 62
    47
 10
-13.551542
 20
46.013465
 11
-13.551542
 21
51.713307
  0
LINE
  8
型材
  6
CONTINUOUS
 62
    47
 10
-2.754677
 20
58.213385
 11
-2.754648
 21
53.213337
  0
LINE
  8
型材
  6
CONTINUOUS
 62
    47
 10
6.123987
 20
53.213352
 11
-1.254662
 21
53.213337
  0
LINE
  8
型材
  6
CONTINUOUS
 62
    47
 10
-7.054907
 20
52.91333
 11
-7.354907
 21
53.21333
  0
LINE
  8
型材
  6
CONTINUOUS
 62
    47
 10
-7.054907
 20
52.91333
 11
-6.754907
 21
53.21333
  0
LINE
  8
型材
  6
CONTINUOUS
 62
    47
 10
-2.754648
 20
53.213337
 11
-6.754907
 21
53.21333
  0
LINE
  8
型材
  6
CONTINUOUS
 62
    47
 10
-7.354907
 20
53.21333
 11
-13.551542
 21
53.213315
  0
LINE
  8
型材
  6
CONTINUOUS
 62
    47
 10
-0.254568
 20
45.113472
 11
2.345442
 21
45.113472
  0
ENDBLK
  0
BLOCK
  2
*GRP_0067
 70
    65
 10
0.0
 20
0.0
  0
POLYLINE
  8
寸法
  6
CONTINUOUS
 66
     1
  0
VERTEX
  8
寸法
 10
-39.014337
 20
64.523825
  0
VERTEX
  8
寸法
 10
-37.514337
 20
67.121903
  0
VERTEX
  8
寸法
 10
-40.112413
 20
65.621903
  0
SEQEND
  0
POLYLINE
  8
寸法
  6
CONTINUOUS
 66
     1
  0
VERTEX
  8
寸法
 10
-37.514337
 20
67.121903
  0
VERTEX
  8
寸法
 10
-44.052052
 20
60.584185
  0
VERTEX
  8
寸法
 10
-70.60463
 20
60.584185
  0
SEQEND
  0
ENDBLK
  0
BLOCK
  2
*GRP_0068
 70
    65
 10
0.0
 20
0.0
  0
POLYLINE
  8
寸法
  6
CONTINUOUS
 66
     1
  0
VERTEX
  8
寸法
 10
8.922838
 20
51.914127
  0
VERTEX
  8
寸法
 10
6.324762
 20
53.414127
  0
VERTEX
  8
寸法
 10
7.824762
 20
50.81605
  0
SEQEND
  0
POLYLINE
  8
寸法
  6
CONTINUOUS
 66
     1
  0
VERTEX
  8
寸法
 10
6.324762
 20
53.414127
  0
VERTEX
  8
寸法
 10
10.55
 20
49.18889
  0
VERTEX
  8
寸法
 10
23.444445
 20
49.18889
  0
SEQEND
  0
ENDBLK
  0
BLOCK
  2
*DIM_0069
 70
    65
 10
0.0
 20
0.0
  0
LINE
  8
寸法
  6
CONTINUOUS
 10
15.245327
 20
58.21337
 11
65.53788
 21
58.21337
  0
LINE
  8
寸法
  6
CONTINUOUS
 10
65.53788
 20
45.113475
 11
65.53788
 21
58.21337
  0
POINT
  8
寸法
 10
65.53788
 20
45.113475
  0
POINT
  8
寸法
 10
65.53788
 20
58.21337
  0
TEXT
  7
TextStyle03
  8
寸法
  6
CONTINUOUS
 10
65.15
 20
48.36875
  1
13.1
 40
3.0
 50
90.0
 72
     5
 11
65.15
 21
54.93125
  0
ENDBLK
  0
BLOCK
  2
*DIM_0070
 70
    65
 10
0.0
 20
0.0
  0
LINE
  8
寸法
  6
CONTINUOUS
 10
-112.249075
 20
-93.890038
 11
-112.249075
 21
113.799343
  0
LINE
  8
寸法
  6
CONTINUOUS
 10
-90.24907
 20
113.799343
 11
-112.249075
 21
113.799343
  0
POINT
  8
寸法
 10
-112.249075
 20
113.799343
  0
TEXT
  7
TextStyle03
  8
寸法
  6
CONTINUOUS
 10
-102.84375
 20
114.15
  1
22
 40
3.0
 72
     5
 11
-99.65625
 21
114.15
  0
ENDBLK
  0
BLOCK
  2
*GRP_0071
 70
    65
 10
0.0
 20
0.0
  0
LINE
  8
ゴム等
  6
CONTINUOUS
 10
-31.954562
 20
80.113475
 11
-31.954562
 21
75.113472
  0
LINE
  8
ゴム等
  6
CONTINUOUS
 10
-31.954562
 20
80.113475
 11
-21.954565
 21
80.113475
  0
LINE
  8
ゴム等
  6
CONTINUOUS
 10
-21.954565
 20
80.113475
 11
-21.954565
 21
75.113472
  0
LINE
  8
ゴム等
  6
CONTINUOUS
 10
-31.954562
 20
75.113472
 11
-21.954565
 21
75.113472
  0
LINE
  8
ゴム等
  6
CONTINUOUS
 10
-21.954565
 20
76.443598
 11
-23.28469
 21
75.113472
  0
LINE
  8
ゴム等
  6
CONTINUOUS
 10
-21.954565
 20
77.857812
 11
-24.698905
 21
75.113472
  0
LINE
  8
ゴム等
  6
CONTINUOUS
 10
-21.954565
 20
79.27202
 11
-26.113112
 21
75.113472
  0
LINE
  8
ゴム等
  6
CONTINUOUS
 10
-25.355755
 20
80.113475
 11
-30.355757
 21
75.113472
  0
LINE
  8
ゴム等
  6
CONTINUOUS
 10
-23.94154
 20
80.113475
 11
-28.941543
 21
75.113472
  0
LINE
  8
ゴム等
  6
CONTINUOUS
 10
-22.527333
 20
80.113475
 11
-27.527327
 21
75.113472
  0
LINE
  8
ゴム等
  6
CONTINUOUS
 10
-26.76997
 20
80.113475
 11
-31.769973
 21
75.113472
  0
LINE
  8
ゴム等
  6
CONTINUOUS
 10
-28.184185
 20
80.113475
 11
-31.954562
 21
76.34309
  0
LINE
  8
ゴム等
  6
CONTINUOUS
 10
-29.598393
 20
80.113475
 11
-31.954562
 21
77.757305
  0
LINE
  8
ゴム等
  6
CONTINUOUS
 10
-31.012608
 20
80.113475
 11
-31.954562
 21
79.17152
  0
ENDBLK
  0
BLOCK
  2
*GRP_0072
 70
    65
 10
0.0
 20
0.0
  0
LINE
  8
ボルト／ビス
  6
CONTINUOUS
 62
    64
 10
-54.45457
 20
59.61347
 11
-55.502733
 21
59.705172
  0
ARC
  8
ボルト／ビス
  6
CONTINUOUS
 62
    64
 10
-55.35457
 20
61.398704
 40
1.7
 50
180.0
 51
265.000011
  0
LINE
  8
ボルト／ビス
  6
CONTINUOUS
 62
    64
 10
-57.054572
 20
61.398703
 11
-57.054572
 21
63.113472
  0
LINE
  8
ボルト／ビス
  6
CONTINUOUS
 62
    64
 10
-54.45457
 20
66.613475
 11
-55.502733
 21
66.521773
  0
ARC
  8
ボルト／ビス
  6
CONTINUOUS
 62
    64
 10
-55.35457
 20
64.828237
 40
1.7
 50
94.999989
 51
180.0
  0
LINE
  8
ボルト／ビス
  6
CONTINUOUS
 62
    64
 10
-57.054572
 20
64.828242
 11
-57.054572
 21
63.113472
  0
LINE
  8
ボルト／ビス
  6
CONTINUOUS
 62
    64
 10
-56.669665
 20
60.716833
 11
-56.911825
 21
60.716833
  0
LINE
  8
ボルト／ビス
  6
CONTINUOUS
 62
    64
 10
-56.01958
 20
62.413475
 11
-56.01958
 21
63.113472
  0
LINE
  8
ボルト／ビス
  6
CONTINUOUS
 62
    64
 10
-56.669665
 20
62.01347
 11
-56.669665
 21
60.716833
  0
LINE
  8
ボルト／ビス
  6
CONTINUOUS
 62
    64
 10
-56.01958
 20
62.413475
 11
-56.269668
 21
62.413475
  0
ARC
  8
ボルト／ビス
  6
CONTINUOUS
 62
    64
 10
-56.269665
 20
62.013471
 40
0.4
 50
90.0
 51
180.0
  0
LINE
  8
ボルト／ビス
  6
CONTINUOUS
 62
    64
 10
-56.669665
 20
65.510112
 11
-56.911825
 21
65.510112
  0
LINE
  8
ボルト／ビス
  6
CONTINUOUS
 62
    64
 10
-56.01958
 20
63.81347
 11
-56.01958
 21
63.113472
  0
LINE
  8
ボルト／ビス
  6
CONTINUOUS
 62
    64
 10
-56.669665
 20
64.213475
 11
-56.669665
 21
65.510112
  0
LINE
  8
ボルト／ビス
  6
CONTINUOUS
 62
    64
 10
-56.01958
 20
63.81347
 11
-56.269668
 21
63.81347
  0
ARC
  8
ボルト／ビス
  6
CONTINUOUS
 62
    64
 10
-56.269665
 20
64.213471
 40
0.4
 50
180.0
 51
270.0
  0
LINE
  8
ボルト／ビス
  6
CONTINUOUS
 62
    64
 10
-54.45457
 20
59.61347
 11
-54.45457
 21
66.613475
  0
LINE
  8
ボルト／ビス
  6
CONTINUOUS
 62
    64
 10
-38.954568
 20
61.11347
 11
-38.454572
 21
61.613472
  0
LINE
  8
ボルト／ビス
  6
CONTINUOUS
 62
    64
 10
-38.954568
 20
65.113475
 11
-38.454572
 21
64.613472
  0
LINE
  8
ボルト／ビス
  6
CONTINUOUS
 62
    64
 10
-38.954568
 20
61.11347
 11
-38.954568
 21
65.113475
  0
LINE
  8
ボルト／ビス
  6
CONTINUOUS
 62
    64
 10
-38.454572
 20
61.613472
 11
-38.454572
 21
64.613472
  0
LINE
  8
ボルト／ビス
  6
CONTINUOUS
 62
    64
 10
-54.45457
 20
65.113475
 11
-38.954568
 21
65.113475
  0
LINE
  8
ボルト／ビス
  6
CONTINUOUS
 62
    64
 10
-54.45457
 20
61.11347
 11
-38.954568
 21
61.11347
  0
LINE
  8
ボルト／ビス
  6
CONTINUOUS
 62
    64
 10
-54.45457
 20
61.613472
 11
-38.454572
 21
61.613472
  0
LINE
  8
ボルト／ビス
  6
CONTINUOUS
 62
    64
 10
-54.45457
 20
64.613472
 11
-38.454572
 21
64.613472
  0
LINE
  8
ボルト／ビス
  6
DASHDOT
 62
    64
 10
-60.054572
 20
63.113472
 11
-35.454572
 21
63.113472
  0
ENDBLK
  0
BLOCK
  2
*GRP_0073
 70
    65
 10
0.0
 20
0.0
  0
LINE
  8
曲げ物
  6
CONTINUOUS
 10
-24.954565
 20
90.113472
 11
-24.954565
 21
83.113475
  0
LINE
  8
曲げ物
  6
CONTINUOUS
 10
-24.954565
 20
83.113475
 11
-51.954565
 21
83.113475
  0
LINE
  8
曲げ物
  6
CONTINUOUS
 10
-51.954565
 20
83.113475
 11
-51.954565
 21
90.113472
  0
LINE
  8
曲げ物
  6
CONTINUOUS
 10
-24.954565
 20
90.113472
 11
-51.954565
 21
90.113472
  0
LINE
  8
曲げ物
  6
CONTINUOUS
 10
-53.454565
 20
91.613472
 11
-53.454565
 21
81.613475
  0
LINE
  8
曲げ物
  6
CONTINUOUS
 10
-53.454565
 20
81.613475
 11
-23.454565
 21
81.613475
  0
LINE
  8
曲げ物
  6
CONTINUOUS
 10
-23.454565
 20
81.613475
 11
-23.454565
 21
91.613472
  0
LINE
  8
曲げ物
  6
CONTINUOUS
 10
-53.454565
 20
91.613472
 11
-23.454565
 21
91.613472
  0
ENDBLK
  0
BLOCK
  2
*GRP_0074
 70
    65
 10
0.0
 20
0.0
  0
LINE
  8
別途部材
  6
CONTINUOUS
 10
-66.150212
 20
94.613495
 11
-64.650212
 21
94.613495
  0
LINE
  8
別途部材
  6
CONTINUOUS
 10
-66.150212
 20
96.613498
 11
-66.150212
 21
94.613495
  0
ARC
  8
別途部材
  6
CONTINUOUS
 10
-63.150215
 20
96.613504
 40
3.0
 50
90.0
 51
180.0
  0
LINE
  8
別途部材
  6
CONTINUOUS
 10
-64.650212
 20
96.613498
 11
-64.650212
 21
94.613495
  0
ARC
  8
別途部材
  6
CONTINUOUS
 10
-63.150215
 20
96.613504
 40
1.5
 50
90.0
 51
180.0
  0
LINE
  8
別途部材
  6
CONTINUOUS
 10
-63.150212
 20
98.113498
 11
-61.454568
 21
98.113498
  0
LINE
  8
別途部材
  6
CONTINUOUS
 10
0.849785
 20
96.413495
 11
0.849785
 21
97.613495
  0
LINE
  8
別途部材
  6
CONTINUOUS
 10
8.849787
 20
98.6135
 11
8.849787
 21
96.413495
  0
ARC
  8
別途部材
  6
CONTINUOUS
 10
7.849785
 20
98.613504
 40
1.0
 50
0.0
 51
90.0
  0
LINE
  8
別途部材
  6
CONTINUOUS
 10
8.849787
 20
96.413495
 11
0.849785
 21
96.413495
  0
LINE
  8
別途部材
  6
CONTINUOUS
 10
-63.150212
 20
99.613498
 11
7.84979
 21
99.613498
  0
LINE
  8
別途部材
  6
CONTINUOUS
 10
-18.954565
 20
97.613495
 11
0.849785
 21
97.613495
  0
ARC
  8
別途部材
  6
CONTINUOUS
 10
-18.954572
 20
94.613493
 40
3.0
 50
90.0
 51
180.0
  0
LINE
  8
別途部材
  6
CONTINUOUS
 10
-22.254565
 20
86.613478
 11
-21.954565
 21
86.913478
  0
LINE
  8
別途部材
  6
CONTINUOUS
 10
-22.254565
 20
86.613478
 11
-21.954565
 21
86.313478
  0
LINE
  8
別途部材
  6
CONTINUOUS
 10
-21.954565
 20
94.613495
 11
-21.954565
 21
86.913478
  0
LINE
  8
別途部材
  6
CONTINUOUS
 10
-21.954565
 20
86.313478
 11
-21.954565
 21
80.113475
  0
LINE
  8
別途部材
  6
CONTINUOUS
 10
-61.154568
 20
63.113472
 11
-61.454568
 21
63.413472
  0
LINE
  8
別途部材
  6
CONTINUOUS
 10
-61.154568
 20
63.113472
 11
-61.454568
 21
62.813472
  0
LINE
  8
別途部材
  6
CONTINUOUS
 10
-61.454568
 20
98.113498
 11
-61.454568
 21
63.413472
  0
LINE
  8
別途部材
  6
CONTINUOUS
 10
-61.454568
 20
62.813472
 11
-61.454568
 21
49.613495
  0
LINE
  8
別途部材
  6
CONTINUOUS
 10
-52.95457
 20
75.113472
 11
-52.95457
 21
58.11347
  0
LINE
  8
別途部材
  6
CONTINUOUS
 10
-54.45457
 20
58.11347
 11
-52.95457
 21
58.11347
  0
LINE
  8
別途部材
  6
CONTINUOUS
 10
-61.454568
 20
49.613495
 11
-59.954568
 21
49.613495
  0
LINE
  8
別途部材
  6
CONTINUOUS
 10
-52.95457
 20
75.113472
 11
-59.954568
 21
75.113472
  0
LINE
  8
別途部材
  6
CONTINUOUS
 10
-54.45457
 20
73.613472
 11
-59.954568
 21
73.613472
  0
LINE
  8
別途部材
  6
CONTINUOUS
 10
-59.954568
 20
73.613472
 11
-59.954568
 21
49.613495
  0
LINE
  8
別途部材
  6
CONTINUOUS
 10
-59.954568
 20
80.113475
 11
-59.954568
 21
75.113472
  0
LINE
  8
別途部材
  6
CONTINUOUS
 10
-54.15457
 20
63.113472
 11
-54.45457
 21
63.413472
  0
LINE
  8
別途部材
  6
CONTINUOUS
 10
-54.15457
 20
63.113472
 11
-54.45457
 21
62.813472
  0
LINE
  8
別途部材
  6
CONTINUOUS
 10
-54.45457
 20
73.613472
 11
-54.45457
 21
63.413472
  0
LINE
  8
別途部材
  6
CONTINUOUS
 10
-54.45457
 20
62.813472
 11
-54.45457
 21
58.11347
  0
LINE
  8
別途部材
  6
DOT
 10
-61.454568
 20
68.113475
 11
-59.954568
 21
68.113475
  0
LINE
  8
別途部材
  6
DOT
 10
-61.454568
 20
58.11347
 11
-59.954568
 21
58.11347
  0
LINE
  8
別途部材
  6
CONTINUOUS
 10
-59.954568
 20
98.113498
 11
-23.454565
 21
98.113498
  0
LINE
  8
別途部材
  6
DOT
 10
-61.079568
 20
68.113475
 11
-61.079568
 21
58.11347
  0
LINE
  8
別途部材
  6
DOT
 10
-60.704568
 20
68.113475
 11
-60.704568
 21
58.11347
  0
LINE
  8
別途部材
  6
DOT
 10
-60.329568
 20
68.113475
 11
-60.329568
 21
58.11347
  0
LINE
  8
別途部材
  6
CONTINUOUS
 10
-59.954568
 20
98.113498
 11
-59.954568
 21
81.613475
  0
LINE
  8
別途部材
  6
CONTINUOUS
 10
-23.454565
 20
98.113498
 11
-23.454565
 21
81.613475
  0
LINE
  8
別途部材
  6
CONTINUOUS
 10
-23.454565
 20
81.613475
 11
-59.954568
 21
81.613475
  0
LINE
  8
別途部材
  6
CONTINUOUS
 10
-45.204572
 20
80.413475
 11
-44.904572
 21
80.113475
  0
LINE
  8
別途部材
  6
CONTINUOUS
 10
-45.204572
 20
80.413475
 11
-45.504572
 21
80.113475
  0
LINE
  8
別途部材
  6
CONTINUOUS
 10
-32.70457
 20
80.413475
 11
-32.40457
 21
80.113475
  0
LINE
  8
別途部材
  6
CONTINUOUS
 10
-32.70457
 20
80.413475
 11
-33.00457
 21
80.113475
  0
LINE
  8
別途部材
  6
CONTINUOUS
 10
-44.904572
 20
80.113475
 11
-33.00457
 21
80.113475
  0
LINE
  8
別途部材
  6
CONTINUOUS
 10
-21.954565
 20
80.113475
 11
-32.40457
 21
80.113475
  0
LINE
  8
別途部材
  6
CONTINUOUS
 10
-59.954568
 20
80.113475
 11
-45.504572
 21
80.113475
  0
ENDBLK
  0
BLOCK
  2
*GRP_0075
 70
    65
 10
0.0
 20
0.0
  0
LINE
  8
ゴム等
  6
CONTINUOUS
 10
-47.454565
 20
57.613535
 11
-42.454562
 21
57.613535
  0
LINE
  8
ゴム等
  6
CONTINUOUS
 10
-47.454565
 20
57.613535
 11
-47.454565
 21
67.613532
  0
LINE
  8
ゴム等
  6
CONTINUOUS
 10
-47.454565
 20
67.613532
 11
-42.454562
 21
67.613532
  0
LINE
  8
ゴム等
  6
CONTINUOUS
 10
-42.454562
 20
57.613535
 11
-42.454562
 21
67.613532
  0
LINE
  8
ゴム等
  6
CONTINUOUS
 10
-43.784688
 20
67.613532
 11
-42.454562
 21
66.283408
  0
LINE
  8
ゴム等
  6
CONTINUOUS
 10
-45.198902
 20
67.613532
 11
-42.454562
 21
64.869192
  0
LINE
  8
ゴム等
  6
CONTINUOUS
 10
-46.61311
 20
67.613532
 11
-42.454562
 21
63.454985
  0
LINE
  8
ゴム等
  6
CONTINUOUS
 10
-47.454565
 20
64.212342
 11
-42.454562
 21
59.21234
  0
LINE
  8
ゴム等
  6
CONTINUOUS
 10
-47.454565
 20
65.626557
 11
-42.454562
 21
60.626555
  0
LINE
  8
ゴム等
  6
CONTINUOUS
 10
-47.454565
 20
67.040765
 11
-42.454562
 21
62.04077
  0
LINE
  8
ゴム等
  6
CONTINUOUS
 10
-47.454565
 20
62.798128
 11
-42.454562
 21
57.798125
  0
LINE
  8
ゴム等
  6
CONTINUOUS
 10
-47.454565
 20
61.383913
 11
-43.68418
 21
57.613535
  0
LINE
  8
ゴム等
  6
CONTINUOUS
 10
-47.454565
 20
59.969705
 11
-45.098395
 21
57.613535
  0
LINE
  8
ゴム等
  6
CONTINUOUS
 10
-47.454565
 20
58.55549
 11
-46.51261
 21
57.613535
  0
ENDBLK
  0
BLOCK
  2
*GRP_0076
 70
    65
 10
0.0
 20
0.0
  0
LINE
  8
ゴム等
  6
CONTINUOUS
 10
-47.454565
 20
57.613535
 11
-52.454568
 21
57.613535
  0
LINE
  8
ゴム等
  6
CONTINUOUS
 10
-47.454565
 20
57.613535
 11
-47.454565
 21
67.613532
  0
LINE
  8
ゴム等
  6
CONTINUOUS
 10
-47.454565
 20
67.613532
 11
-52.454568
 21
67.613532
  0
LINE
  8
ゴム等
  6
CONTINUOUS
 10
-52.454568
 20
57.613535
 11
-52.454568
 21
67.613532
  0
LINE
  8
ゴム等
  6
CONTINUOUS
 10
-51.124442
 20
67.613532
 11
-52.454568
 21
66.283408
  0
LINE
  8
ゴム等
  6
CONTINUOUS
 10
-49.710228
 20
67.613532
 11
-52.454568
 21
64.869192
  0
LINE
  8
ゴム等
  6
CONTINUOUS
 10
-48.29602
 20
67.613532
 11
-52.454568
 21
63.454985
  0
LINE
  8
ゴム等
  6
CONTINUOUS
 10
-47.454565
 20
64.212342
 11
-52.454568
 21
59.21234
  0
LINE
  8
ゴム等
  6
CONTINUOUS
 10
-47.454565
 20
65.626557
 11
-52.454568
 21
60.626555
  0
LINE
  8
ゴム等
  6
CONTINUOUS
 10
-47.454565
 20
67.040765
 11
-52.454568
 21
62.04077
  0
LINE
  8
ゴム等
  6
CONTINUOUS
 10
-47.454565
 20
62.798128
 11
-52.454568
 21
57.798125
  0
LINE
  8
ゴム等
  6
CONTINUOUS
 10
-47.454565
 20
61.383913
 11
-51.22495
 21
57.613535
  0
LINE
  8
ゴム等
  6
CONTINUOUS
 10
-47.454565
 20
59.969705
 11
-49.810735
 21
57.613535
  0
LINE
  8
ゴム等
  6
CONTINUOUS
 10
-47.454565
 20
58.55549
 11
-48.39652
 21
57.613535
  0
ENDBLK
  0
BLOCK
  2
*GRP_0077
 70
    65
 10
0.0
 20
0.0
  0
POLYLINE
  8
寸法
  6
CONTINUOUS
 66
     1
  0
VERTEX
  8
寸法
 10
-64.050605
 20
100.936212
  0
VERTEX
  8
寸法
 10
-61.45253
 20
99.436212
  0
VERTEX
  8
寸法
 10
-62.95253
 20
102.034288
  0
SEQEND
  0
POLYLINE
  8
寸法
  6
CONTINUOUS
 66
     1
  0
VERTEX
  8
寸法
 10
-61.45253
 20
99.436212
  0
VERTEX
  8
寸法
 10
-69.45595
 20
107.439632
  0
VERTEX
  8
寸法
 10
-74.285862
 20
107.439632
  0
SEQEND
  0
ENDBLK
  0
BLOCK
  2
*GRP_0078
 70
    65
 10
0.0
 20
0.0
  0
ARC
  8
型材断面
  6
CONTINUOUS
 62
    47
 10
3.745327
 20
57.213314
 40
1.0
 50
359.999795
 51
539.999795
  0
ARC
  8
型材断面
  6
CONTINUOUS
 62
    47
 10
1.745323
 20
56.213321
 40
1.0
 50
269.999795
 51
359.999795
  0
ARC
  8
型材断面
  6
CONTINUOUS
 62
    47
 10
5.745323
 20
56.213307
 40
1.0
 50
179.999795
 51
269.999795
  0
LINE
  8
型材断面
  6
CONTINUOUS
 62
    47
 10
-1.254662
 20
59.713318
 11
8.745335
 21
59.71328
  0
LINE
  8
型材断面
  6
CONTINUOUS
 62
    47
 10
4.745322
 20
56.2133
 11
4.74533
 21
57.213298
  0
LINE
  8
型材断面
  6
CONTINUOUS
 62
    47
 10
2.74532
 20
56.2133
 11
2.745327
 21
57.213305
  0
LINE
  8
型材断面
  6
CONTINUOUS
 62
    47
 10
-2.75467
 20
58.213325
 11
1.245327
 21
58.21331
  0
LINE
  8
型材断面
  6
CONTINUOUS
 62
    47
 10
6.24533
 20
58.213295
 11
10.245327
 21
58.21328
  0
LINE
  8
型材断面
  6
CONTINUOUS
 62
    47
 10
1.245327
 20
58.21331
 11
1.24532
 21
56.71331
  0
LINE
  8
型材断面
  6
CONTINUOUS
 62
    47
 10
-0.25468
 20
56.71331
 11
1.24532
 21
56.71331
  0
LINE
  8
型材断面
  6
CONTINUOUS
 62
    47
 10
7.745322
 20
56.71328
 11
6.245322
 21
56.713295
  0
LINE
  8
型材断面
  6
CONTINUOUS
 62
    47
 10
6.24533
 20
58.213295
 11
6.245322
 21
56.713295
  0
LINE
  8
型材断面
  6
CONTINUOUS
 62
    47
 10
10.245327
 20
58.21328
 11
10.24535
 21
64.713275
  0
LINE
  8
型材断面
  6
CONTINUOUS
 62
    47
 10
6.245345
 20
63.21329
 11
8.74535
 21
63.213283
  0
LINE
  8
型材断面
  6
CONTINUOUS
 62
    47
 10
1.24535
 20
63.213305
 11
-1.254655
 21
63.21332
  0
LINE
  8
型材断面
  6
CONTINUOUS
 62
    47
 10
-2.754648
 20
64.71332
 11
0.64535
 21
64.713313
  0
LINE
  8
型材断面
  6
CONTINUOUS
 62
    47
 10
1.24535
 20
64.113305
 11
1.24535
 21
63.213305
  0
LINE
  8
型材断面
  6
CONTINUOUS
 62
    47
 10
0.64535
 20
64.713313
 11
1.24535
 21
64.113305
  0
LINE
  8
型材断面
  6
CONTINUOUS
 62
    47
 10
6.245353
 20
64.11329
 11
6.245345
 21
63.21329
  0
LINE
  8
型材断面
  6
CONTINUOUS
 62
    47
 10
6.845353
 20
64.71329
 11
10.24535
 21
64.713275
  0
LINE
  8
型材断面
  6
CONTINUOUS
 62
    47
 10
6.245353
 20
64.11329
 11
6.845353
 21
64.71329
  0
LINE
  8
型材断面
  6
CONTINUOUS
 62
    47
 10
8.745335
 20
59.71328
 11
8.74535
 21
63.213283
  0
LINE
  8
型材断面
  6
CONTINUOUS
 62
    47
 10
-1.254662
 20
59.713318
 11
-1.254655
 21
63.21332
  0
LINE
  8
型材断面
  6
CONTINUOUS
 62
    47
 10
-2.75467
 20
58.213325
 11
-2.754648
 21
64.71332
  0
LINE
  8
型材断面
  6
CONTINUOUS
 62
    47
 10
7.745322
 20
55.713283
 11
7.745322
 21
56.71328
  0
LINE
  8
型材断面
  6
CONTINUOUS
 62
    47
 10
5.74532
 20
55.213295
 11
7.24532
 21
55.213287
  0
LINE
  8
型材断面
  6
CONTINUOUS
 62
    47
 10
7.745322
 20
55.713283
 11
7.24532
 21
55.213287
  0
LINE
  8
型材断面
  6
CONTINUOUS
 62
    47
 10
-0.25468
 20
55.713313
 11
-0.25468
 21
56.71331
  0
LINE
  8
型材断面
  6
CONTINUOUS
 62
    47
 10
0.245315
 20
55.21331
 11
1.745315
 21
55.21331
  0
LINE
  8
型材断面
  6
CONTINUOUS
 62
    47
 10
-0.25468
 20
55.713313
 11
0.245315
 21
55.21331
  0
ENDBLK
  0
BLOCK
  2
*GRP_0079
 70
    65
 10
0.0
 20
0.0
  0
POLYLINE
  8
ゴム等
 66
     1
  0
VERTEX
  8
ゴム等
 10
-1.754665
 20
69.713278
  0
VERTEX
  8
ゴム等
 10
2.245303
 20
69.713278
  0
VERTEX
  8
ゴム等
 10
2.745283
 20
68.713318
  0
VERTEX
  8
ゴム等
 10
4.745292
 20
68.713318
  0
VERTEX
  8
ゴム等
 10
5.245318
 20
69.713278
  0
VERTEX
  8
ゴム等
 10
9.245337
 20
69.713278
  0
VERTEX
  8
ゴム等
 10
9.245337
 20
64.713305
  0
VERTEX
  8
ゴム等
 10
6.245277
 20
64.713305
  0
VERTEX
  8
ゴム等
 10
6.245277
 20
63.564163
  0
VERTEX
  8
ゴム等
 10
6.74753
 20
63.061902
  0
VERTEX
  8
ゴム等
 10
4.745292
 20
59.963345
  0
VERTEX
  8
ゴム等
 10
2.74538
 20
59.963345
  0
VERTEX
  8
ゴム等
 10
0.743143
 20
63.061955
  0
VERTEX
  8
ゴム等
 10
1.24535
 20
63.564163
  0
VERTEX
  8
ゴム等
 10
1.24535
 20
64.713305
  0
VERTEX
  8
ゴム等
 10
-1.754665
 20
64.713305
  0
SEQEND
  0
LINE
  8
ゴム等
 10
-1.754665
 20
69.713278
 11
-1.754665
 21
64.713305
  0
ARC
  8
ゴム等
 10
3.445383
 20
64.513333
 40
0.7
 50
90.0
 51
180.0
  0
LINE
  8
ゴム等
 10
3.445385
 20
65.21333
 11
4.045295
 21
65.21333
  0
ARC
  8
ゴム等
 10
4.045293
 20
64.513333
 40
0.7
 50
0.0
 51
90.0
  0
LINE
  8
ゴム等
 10
4.745292
 20
64.513333
 11
4.745292
 21
61.913307
  0
ARC
  8
ゴム等
 10
4.045293
 20
61.913313
 40
0.7
 50
-90.0
 51
0.0
  0
LINE
  8
ゴム等
 10
2.74538
 20
64.513333
 11
2.74538
 21
61.913307
  0
LINE
  8
ゴム等
 10
4.045295
 20
61.21331
 11
3.445385
 21
61.21331
  0
ARC
  8
ゴム等
 10
3.445383
 20
61.913313
 40
0.7
 50
180.0
 51
270.0
  0
LINE
  8
ゴム等
 10
0.366657
 20
69.713278
 11
-1.754665
 21
67.591955
  0
LINE
  8
ゴム等
 10
2.326197
 20
69.551495
 11
-1.754665
 21
65.470632
  0
LINE
  8
ゴム等
 10
3.609342
 20
68.713318
 11
-0.390678
 21
64.713305
  0
LINE
  8
ゴム等
 10
6.730617
 20
69.713278
 11
1.24535
 21
64.22801
  0
LINE
  8
ゴム等
 10
9.245337
 20
65.864038
 11
8.094605
 21
64.713305
  0
LINE
  8
ゴム等
 10
6.59537
 20
63.21407
 11
3.344645
 21
59.963345
  0
LINE
  8
ゴム等
 10
8.851932
 20
69.713278
 11
4.302875
 21
65.164213
  0
LINE
  8
ゴム等
 10
2.74538
 20
63.606725
 11
1.315243
 21
62.176587
  0
LINE
  8
ゴム等
 10
9.245337
 20
67.98536
 11
4.745292
 21
63.485315
  0
LINE
  8
ゴム等
 10
2.14793
 20
60.887945
 11
2.833423
 21
61.573445
  0
ENDBLK
  0
BLOCK
  2
*DIM_0080
 70
    65
 10
0.0
 20
0.0
  0
LINE
  8
寸法
  6
CONTINUOUS
 10
15.24535
 20
64.713275
 11
65.53788
 21
64.713275
  0
LINE
  8
寸法
  6
CONTINUOUS
 10
65.53788
 20
58.21337
 11
65.53788
 21
64.713275
  0
POINT
  8
寸法
 10
65.53788
 20
58.21337
  0
POINT
  8
寸法
 10
65.53788
 20
64.713275
  0
TEXT
  7
TextStyle03
  8
寸法
  6
CONTINUOUS
 10
65.15
 20
59.0125
  1
6.5
 40
3.0
 50
90.0
 72
     5
 11
65.15
 21
63.8875
  0
ENDBLK
  0
BLOCK
  2
*DIM_0081
 70
    65
 10
0.0
 20
0.0
  0
LINE
  8
寸法
  6
CONTINUOUS
 10
36.114765
 20
69.713278
 11
65.53788
 21
69.713278
  0
LINE
  8
寸法
  6
CONTINUOUS
 10
65.53788
 20
64.713275
 11
65.53788
 21
69.713278
  0
POINT
  8
寸法
 10
65.53788
 20
69.713278
  0
TEXT
  7
TextStyle03
  8
寸法
  6
CONTINUOUS
 10
65.15
 20
66.45
  1
5
 40
3.0
 50
90.0
 72
     5
 11
65.15
 21
67.95
  0
ENDBLK
  0
BLOCK
  2
*DIM_0082
 70
    65
 10
0.0
 20
0.0
  0
LINE
  8
寸法
  6
CONTINUOUS
 10
36.114765
 20
87.513278
 11
65.53788
 21
87.513278
  0
LINE
  8
寸法
  6
CONTINUOUS
 10
65.53788
 20
69.713278
 11
65.53788
 21
87.513278
  0
POINT
  8
寸法
 10
65.53788
 20
87.513278
  0
TEXT
  7
TextStyle03
  8
寸法
  6
CONTINUOUS
 10
65.15
 20
75.31875
  1
17.8
 40
3.0
 50
90.0
 72
     5
 11
65.15
 21
81.88125
  0
ENDBLK
  0
BLOCK
  2
*DIM_0083
 70
    65
 10
0.0
 20
0.0
  0
LINE
  8
寸法
  6
CONTINUOUS
 10
13.849787
 20
96.413495
 11
65.53788
 21
96.413495
  0
LINE
  8
寸法
  6
CONTINUOUS
 10
65.53788
 20
87.513278
 11
65.53788
 21
96.413495
  0
POINT
  8
寸法
 10
65.53788
 20
96.413495
  0
TEXT
  7
TextStyle03
  8
寸法
  6
CONTINUOUS
 10
65.15
 20
89.5125
  1
8.9
 40
3.0
 50
90.0
 72
     5
 11
65.15
 21
94.3875
  0
ENDBLK
  0
BLOCK
  2
*DIM_0084
 70
    65
 10
0.0
 20
0.0
  0
LINE
  8
寸法
  6
CONTINUOUS
 10
11.825987
 20
99.613498
 11
65.53788
 21
99.613498
  0
LINE
  8
寸法
  6
CONTINUOUS
 10
65.53788
 20
96.413495
 11
65.53788
 21
99.613498
  0
POINT
  8
寸法
 10
65.53788
 20
99.613498
  0
TEXT
  7
TextStyle03
  8
寸法
  6
CONTINUOUS
 10
65.15
 20
100.0625
  1
3.2
 40
3.0
 50
90.0
 72
     5
 11
65.15
 21
104.9375
  0
ENDBLK
  0
BLOCK
  2
*DIM_0085
 70
    65
 10
0.0
 20
0.0
  0
LINE
  8
寸法
  6
CONTINUOUS
 10
-66.150212
 20
99.613495
 11
-66.150212
 21
113.799343
  0
LINE
  8
寸法
  6
CONTINUOUS
 10
-0.24824
 20
113.799343
 11
-66.150212
 21
113.799343
  0
POINT
  8
寸法
 10
-0.24824
 20
113.799343
  0
POINT
  8
寸法
 10
-66.150212
 20
113.799343
  0
TEXT
  7
TextStyle03
  8
寸法
  6
CONTINUOUS
 10
-36.48125
 20
114.15
  1
65.9
 40
3.0
 72
     5
 11
-29.91875
 21
114.15
  0
ENDBLK
  0
BLOCK
  2
*DIM_0086
 70
    65
 10
0.0
 20
0.0
  0
LINE
  8
寸法
  6
CONTINUOUS
 10
-90.24907
 20
-11.887168
 11
-90.24907
 21
113.799343
  0
LINE
  8
寸法
  6
CONTINUOUS
 10
-66.150212
 20
113.799343
 11
-90.24907
 21
113.799343
  0
POINT
  8
寸法
 10
-90.24907
 20
113.799343
  0
TEXT
  7
TextStyle03
  8
寸法
  6
CONTINUOUS
 10
-81.48125
 20
114.15
  1
24.1
 40
3.0
 72
     5
 11
-74.91875
 21
114.15
  0
ENDBLK
  0
BLOCK
  2
*DIM_0087
 70
    65
 10
0.0
 20
0.0
  0
LINE
  8
寸法
  6
CONTINUOUS
 10
-65.30036
 20
99.613498
 11
-157.878568
 21
99.613498
  0
LINE
  8
寸法
  6
CONTINUOUS
 10
-157.878568
 20
-113.890035
 11
-157.878568
 21
99.613498
  0
POINT
  8
寸法
 10
-157.878568
 20
-113.890035
  0
POINT
  8
寸法
 10
-157.878568
 20
99.613498
  0
TEXT
  7
TextStyle03
  8
寸法
  6
CONTINUOUS
 10
-158.275
 20
-11.275
  1
213.5
 40
3.0
 50
90.0
 72
     5
 11
-158.275
 21
-3.025
  0
ENDBLK
  0
BLOCK
  2
*DIM_0088
 70
    65
 10
0.0
 20
0.0
  0
LINE
  8
寸法
  6
CONTINUOUS
 10
-57.254565
 20
-14.887435
 11
-149.208172
 21
-14.887435
  0
LINE
  8
寸法
  6
CONTINUOUS
 10
-66.454568
 20
49.613495
 11
-149.208172
 21
49.613495
  0
LINE
  8
寸法
  6
CONTINUOUS
 10
-149.208172
 20
-14.887435
 11
-149.208172
 21
49.613495
  0
POINT
  8
寸法
 10
-149.208172
 20
-14.887435
  0
POINT
  8
寸法
 10
-149.208172
 20
49.613495
  0
TEXT
  7
TextStyle03
  8
寸法
  6
CONTINUOUS
 10
-149.6
 20
14.06875
  1
64.5
 40
3.0
 50
90.0
 72
     5
 11
-149.6
 21
20.63125
  0
ENDBLK
  0
BLOCK
  2
*DIM_0089
 70
    65
 10
0.0
 20
0.0
  0
LINE
  8
寸法
  6
CONTINUOUS
 10
-64.527783
 20
99.613498
 11
-149.208172
 21
99.613498
  0
LINE
  8
寸法
  6
CONTINUOUS
 10
-149.208172
 20
49.613495
 11
-149.208172
 21
99.613498
  0
POINT
  8
寸法
 10
-149.208172
 20
99.613498
  0
TEXT
  7
TextStyle03
  8
寸法
  6
CONTINUOUS
 10
-149.6
 20
73.00625
  1
50
 40
3.0
 50
90.0
 72
     5
 11
-149.6
 21
76.19375
  0
ENDBLK
  0
ENDSEC
  0
SECTION
  2
ENTITIES
  0
POLYLINE
  8
通り芯
  6
CONTINUOUS
 66
     1
 70
     1
  0
VERTEX
  8
通り芯
 10
-210.0
 20
-148.5
  0
VERTEX
  8
通り芯
 10
210.0
 20
-148.5
  0
VERTEX
  8
通り芯
 10
210.0
 20
148.5
  0
VERTEX
  8
通り芯
 10
-210.0
 20
148.5
  0
SEQEND
  0
INSERT
  2
*GRP_0001
  8
型材断面
  6
CONTINUOUS
 10
0.0
 20
0.0
  0
LINE
  8
型材断面
  6
CONTINUOUS
 10
-40.254555
 20
34.613475
 11
-40.254555
 21
-12.886525
  0
INSERT
  2
*GRP_0002
  8
型材断面
  6
CONTINUOUS
 62
    47
 10
0.0
 20
0.0
  0
LINE
  8
型材断面
  6
DASHDOT
 10
-0.24824
 20
69.11705
 11
-0.24824
 21
126.205923
  0
INSERT
  2
*GRP_0049
  8
型材断面
  6
CONTINUOUS
 62
    47
 10
0.0
 20
0.0
  0
INSERT
  2
*GRP_0050
  8
型材断面
  6
CONTINUOUS
 62
    47
 10
0.0
 20
0.0
  0
LINE
  8
型材断面
  6
DOT
 10
-12.25454
 20
-75.38653
 11
-10.25454
 21
-75.38653
  0
LINE
  8
型材断面
  6
DOT
 10
-11.75454
 20
-81.38653
 11
-11.75454
 21
-75.38653
  0
LINE
  8
型材断面
  6
DOT
 10
-11.25454
 20
-81.38653
 11
-11.25454
 21
-75.38653
  0
LINE
  8
型材断面
  6
DOT
 10
-10.75454
 20
-81.38653
 11
-10.75454
 21
-75.38653
  0
LINE
  8
型材断面
  6
DOT
 10
-32.25454
 20
-75.38653
 11
-34.25454
 21
-75.38653
  0
LINE
  8
型材断面
  6
DOT
 10
-33.75454
 20
-81.38653
 11
-33.75454
 21
-75.38653
  0
LINE
  8
型材断面
  6
DOT
 10
-33.25454
 20
-81.38653
 11
-33.25454
 21
-75.38653
  0
LINE
  8
型材断面
  6
DOT
 10
-32.75454
 20
-81.38653
 11
-32.75454
 21
-75.38653
  0
LINE
  8
型材断面
  6
DOT
 10
-34.25454
 20
-81.38653
 11
-32.25454
 21
-81.38653
  0
LINE
  8
型材断面
  6
DOT
 10
-12.25454
 20
-81.38653
 11
-10.25454
 21
-81.38653
  0
LINE
  8
型材断面
  6
DOT
 10
-44.249065
 20
-93.88998
 11
-46.249065
 21
-93.88998
  0
LINE
  8
型材断面
  6
DOT
 10
-44.249065
 20
-87.88998
 11
-46.249065
 21
-87.88998
  0
LINE
  8
型材断面
  6
DOT
 10
-44.749065
 20
-87.88998
 11
-44.749065
 21
-93.88998
  0
LINE
  8
型材断面
  6
DOT
 10
-45.249065
 20
-87.88998
 11
-45.249065
 21
-93.88998
  0
LINE
  8
型材断面
  6
DOT
 10
-45.749065
 20
-87.88998
 11
-45.749065
 21
-93.88998
  0
LINE
  8
型材断面
  6
DOT
 10
-40.75449
 20
-93.88998
 11
-39.25449
 21
-93.88998
  0
LINE
  8
型材断面
  6
DOT
 10
-40.37949
 20
-93.88998
 11
-40.37949
 21
-92.38998
  0
LINE
  8
型材断面
  6
DOT
 10
-40.00449
 20
-93.88998
 11
-40.00449
 21
-92.38998
  0
LINE
  8
型材断面
  6
DOT
 10
-39.62949
 20
-93.88998
 11
-39.62949
 21
-92.38998
  0
INSERT
  2
*GRP_0066
  8
型材断面
  6
CONTINUOUS
 62
    47
 10
0.0
 20
0.0
  0
INSERT
  2
*GRP_0078
  8
型材断面
  6
CONTINUOUS
 62
    47
 10
0.0
 20
0.0
  0
INSERT
  2
*GRP_0059
  8
ガラス
  6
CONTINUOUS
 10
0.0
 20
0.0
  0
INSERT
  2
*GRP_0060
  8
ガラス
  6
CONTINUOUS
 10
0.0
 20
0.0
  0
INSERT
  2
*GRP_0061
  8
ガラス
  6
CONTINUOUS
 10
0.0
 20
0.0
  0
INSERT
  2
*GRP_0062
  8
ガラス
  6
CONTINUOUS
 10
0.0
 20
0.0
  0
INSERT
  2
*GRP_0063
  8
ガラス
  6
CONTINUOUS
 10
0.0
 20
0.0
  0
INSERT
  2
*GRP_0064
  8
ガラス
  6
CONTINUOUS
 10
0.0
 20
0.0
  0
INSERT
  2
*GRP_0065
  8
ガラス
  6
CONTINUOUS
 10
0.0
 20
0.0
  0
LINE
  8
ガラス
  6
CONTINUOUS
 10
-2.754648
 20
69.713272
 11
-2.754648
 21
87.513278
  0
LINE
  8
ガラス
  6
CONTINUOUS
 10
3.245353
 20
82.513275
 11
3.245353
 21
76.513275
  0
LINE
  8
ガラス
  6
CONTINUOUS
 10
3.245353
 20
76.513275
 11
-2.754648
 21
82.513275
  0
LINE
  8
ガラス
  6
CONTINUOUS
 10
3.245353
 20
82.513275
 11
-2.754648
 21
76.513275
  0
LINE
  8
ガラス
  6
CONTINUOUS
 10
-2.754648
 20
70.713278
 11
31.114765
 21
70.713278
  0
LINE
  8
ガラス
  6
CONTINUOUS
 10
-2.754648
 20
69.713278
 11
31.114765
 21
69.713278
  0
LINE
  8
ガラス
  6
CONTINUOUS
 10
-2.754648
 20
75.513278
 11
31.114765
 21
75.513278
  0
LINE
  8
ガラス
  6
CONTINUOUS
 10
-2.754648
 20
76.513278
 11
31.114765
 21
76.513278
  0
LINE
  8
ガラス
  6
CONTINUOUS
 10
-2.754648
 20
82.513278
 11
31.114765
 21
82.513278
  0
LINE
  8
ガラス
  6
CONTINUOUS
 10
-2.754648
 20
83.513278
 11
31.114765
 21
83.513278
  0
LINE
  8
ガラス
  6
CONTINUOUS
 10
-2.754648
 20
86.513278
 11
31.114765
 21
86.513278
  0
LINE
  8
ガラス
  6
CONTINUOUS
 10
-2.754648
 20
87.513278
 11
31.114765
 21
87.513278
  0
INSERT
  2
*GRP_0003
  8
ゴム等
  6
CONTINUOUS
 10
0.0
 20
0.0
  0
INSERT
  2
*GRP_0004
  8
ゴム等
  6
CONTINUOUS
 10
0.0
 20
0.0
  0
INSERT
  2
*GRP_0005
  8
ゴム等
  6
CONTINUOUS
 10
0.0
 20
0.0
  0
INSERT
  2
*GRP_0006
  8
ゴム等
  6
CONTINUOUS
 10
0.0
 20
0.0
  0
INSERT
  2
*GRP_0007
  8
ゴム等
  6
CONTINUOUS
 10
0.0
 20
0.0
  0
LINE
  8
ゴム等
  6
CONTINUOUS
 10
-40.254555
 20
-17.386525
 11
-50.254555
 21
-17.386525
  0
LINE
  8
ゴム等
  6
CONTINUOUS
 10
-40.254555
 20
22.613475
 11
-50.254555
 21
22.613475
  0
LINE
  8
ゴム等
  6
CONTINUOUS
 10
-40.254555
 20
22.613475
 11
-40.254555
 21
-17.386525
  0
LINE
  8
ゴム等
  6
CONTINUOUS
 10
-50.254555
 20
22.613475
 11
-50.254555
 21
-17.386525
  0
INSERT
  2
*HAT_0007
  8
ゴム等
 10
0.0
 20
0.0
  0
LINE
  8
ゴム等
  6
CONTINUOUS
 10
-44.25454
 20
-46.586255
 11
-34.254555
 21
-46.586255
  0
LINE
  8
ゴム等
  6
CONTINUOUS
 10
-44.25454
 20
-81.88653
 11
-34.254555
 21
-81.88653
  0
INSERT
  2
*HAT_0008
  8
ゴム等
 10
0.0
 20
0.0
  0
INSERT
  2
*GRP_0027
  8
ゴム等
  6
CONTINUOUS
 10
0.0
 20
0.0
  0
INSERT
  2
*GRP_0071
  8
ゴム等
  6
CONTINUOUS
 10
0.0
 20
0.0
  0
INSERT
  2
*GRP_0075
  8
ゴム等
  6
CONTINUOUS
 10
0.0
 20
0.0
  0
INSERT
  2
*GRP_0076
  8
ゴム等
  6
CONTINUOUS
 10
0.0
 20
0.0
  0
INSERT
  2
*GRP_0079
  8
ゴム等
  6
CONTINUOUS
 10
0.0
 20
0.0
  0
INSERT
  2
*GRP_0008
  8
ボルト／ビス
  6
CONTINUOUS
 62
    64
 10
0.0
 20
0.0
  0
INSERT
  2
*GRP_0009
  8
ボルト／ビス
  6
CONTINUOUS
 62
    64
 10
0.0
 20
0.0
  0
INSERT
  2
*GRP_0010
  8
ボルト／ビス
  6
CONTINUOUS
 62
    64
 10
0.0
 20
0.0
  0
INSERT
  2
*GRP_0011
  8
ボルト／ビス
  6
CONTINUOUS
 62
    64
 10
0.0
 20
0.0
  0
INSERT
  2
*GRP_0012
  8
ボルト／ビス
  6
CONTINUOUS
 62
    64
 10
0.0
 20
0.0
  0
INSERT
  2
*GRP_0013
  8
ボルト／ビス
  6
CONTINUOUS
 62
    64
 10
0.0
 20
0.0
  0
INSERT
  2
*GRP_0028
  8
ボルト／ビス
  6
CONTINUOUS
 62
    64
 10
0.0
 20
0.0
  0
INSERT
  2
*GRP_0029
  8
ボルト／ビス
  6
CONTINUOUS
 62
    64
 10
0.0
 20
0.0
  0
INSERT
  2
*GRP_0072
  8
ボルト／ビス
  6
CONTINUOUS
 10
0.0
 20
0.0
  0
TEXT
  7
TextStyle03
  8
文字
  6
CONTINUOUS
 10
40.175
 20
126.175
  1
呼称寸法
 40
3.0
 72
     5
 11
53.3
 21
126.175
  0
TEXT
  7
TextStyle03
  8
文字
  6
CONTINUOUS
 10
35.175
 20
119.675
  1
有効開口寸法
 40
3.0
 72
     5
 11
55.05
 21
119.675
  0
TEXT
  7
TextStyle03
  8
文字
  6
CONTINUOUS
 10
-82.65
 20
31.3
  1
10×40(PVC)
 40
3.0
 72
     5
 11
-64.275
 21
31.3
  0
TEXT
  7
TextStyle03
  8
文字
  6
CONTINUOUS
 10
-81.55
 20
-67.55
  1
10×35(PVC)
 40
3.0
 72
     5
 11
-63.175
 21
-67.55
  0
TEXT
  7
TextStyle03
  8
文字
  6
CONTINUOUS
 10
21.35
 20
-27.825
  1
TKR-1401
 40
4.0
 72
     5
 11
39.1
 21
-27.825
  0
TEXT
  7
TextStyle03
  8
文字
  6
CONTINUOUS
 10
5.875
 20
-91.275
  1
全周シール（工場）
 40
3.0
 72
     5
 11
35.875
 21
-91.275
  0
TEXT
  7
TextStyle03
  8
文字
  6
CONTINUOUS
 10
3.05
 20
-98.9
  1
TKR-1401
 40
4.0
 72
     5
 11
20.8
 21
-98.9
  0
TEXT
  7
TextStyle03
  8
文字
  6
CONTINUOUS
 10
3.975
 20
-110.075
  1
ボンデッドワッシャ付
 40
3.0
 72
     5
 11
37.35
 21
-110.075
  0
TEXT
  7
TextStyle03
  8
文字
  6
CONTINUOUS
 10
-44.15
 20
-129.2
  1
KA-50C　末栄金属
 40
4.0
 72
     5
 11
-8.65
 21
-129.2
  0
TEXT
  7
TextStyle03
  8
文字
  6
CONTINUOUS
 10
-94.15
 20
-80.525
  1
コーナーシール
 40
3.0
 72
     5
 11
-70.9
 21
-80.525
  0
TEXT
  7
TextStyle03
  8
文字
  6
CONTINUOUS
 10
-94.15
 20
-83.9
  1
（工場）
 40
3.0
 72
     5
 11
-81.025
 21
-83.9
  0
TEXT
  7
TextStyle03
  8
文字
  6
CONTINUOUS
 10
-131.675
 20
-89.25
  1
コーナージョイント金物
 40
3.0
 72
     5
 11
-94.925
 21
-89.25
  0
TEXT
  7
TextStyle03
  8
文字
  6
CONTINUOUS
 10
-131.675
 20
-92.625
  1
St-1.6t
 40
3.0
 72
     5
 11
-120.05
 21
-92.625
  0
TEXT
  7
TextStyle03
  8
文字
  6
CONTINUOUS
 10
-76.15
 20
38.825
  1
TK-1135
 40
3.0
 72
     5
 11
-64.525
 21
38.825
  0
TEXT
  7
TextStyle03
  8
文字
  6
CONTINUOUS
 10
21.3
 20
26.275
  1
TK-1136
 40
3.0
 72
     5
 11
32.925
 21
26.275
  0
TEXT
  7
TextStyle03
  8
文字
  6
CONTINUOUS
 10
-134.775
 20
-109.5
  1
TK-1137
 40
3.0
 72
     5
 11
-123.15
 21
-109.5
  0
TEXT
  7
TextStyle03
  8
文字
  6
CONTINUOUS
 10
-0.675
 20
-55.0
  1
TK-1138
 40
3.0
 72
     5
 11
10.95
 21
-55.0
  0
TEXT
  7
TextStyle03
  8
文字
  6
CONTINUOUS
 10
-19.175
 20
-121.25
  1
コーナーシール（工場）
 40
3.0
 72
     5
 11
17.575
 21
-121.25
  0
TEXT
  7
TextStyle03
  8
文字
  6
CONTINUOUS
 10
-133.35
 20
1.225
  1
SUS丁番
 40
3.0
 72
     5
 11
-121.9125
 21
1.225
  0
TEXT
  7
TextStyle03
  8
文字
  6
CONTINUOUS
 10
-88.025
 20
58.55
  1
TKR-1401
 40
4.0
 72
     5
 11
-70.275
 21
58.55
  0
TEXT
  7
TextStyle03
  8
文字
  6
CONTINUOUS
 10
24.15
 20
48.2
  1
TK-1161
 40
3.0
 72
     5
 11
35.775
 21
48.2
  0
TEXT
  7
TextStyle03
  8
文字
  6
CONTINUOUS
 10
-86.425
 20
106.0
  1
TK-1167
 40
3.0
 72
     5
 11
-74.8
 21
106.0
  0
TEXT
  7
TextStyle03
  8
文字
  6
CONTINUOUS
 10
67.8
 20
104.35
  1
シリーズ：ＴＦＦＨ
 40
5.0
 72
     5
 11
117.8
 21
104.35
  0
TEXT
  7
TextStyle03
  8
文字
  6
CONTINUOUS
 10
67.8
 20
98.725
  1
　　　　　（片側開閉）
 40
5.0
 72
     5
 11
129.05
 21
98.725
  0
TEXT
  7
TextStyle03
  8
文字
  6
CONTINUOUS
 10
67.8
 20
93.1
  1
図面名　：下枠断面詳細図(丁番側)
 40
5.0
 72
     5
 11
157.4875
 21
93.1
  0
INSERT
  2
*DIM_0014
  8
寸法
  6
CONTINUOUS
 10
0.0
 20
0.0
  0
INSERT
  2
*DIM_0015
  8
寸法
  6
CONTINUOUS
 10
0.0
 20
0.0
  0
INSERT
  2
*DIM_0016
  8
寸法
  6
CONTINUOUS
 10
0.0
 20
0.0
  0
LINE
  8
寸法
  6
CONTINUOUS
 10
-0.24824
 20
126.205923
 11
80.62538
 21
126.205923
  0
POLYLINE
  8
寸法
  6
CONTINUOUS
 66
     1
  0
VERTEX
  8
寸法
 10
80.62538
 20
126.205923
  0
VERTEX
  8
寸法
 10
72.035247
 20
123.63816
  0
VERTEX
  8
寸法
 10
72.035247
 20
126.205923
  0
SEQEND
  0
POLYLINE
  8
寸法
  6
CONTINUOUS
 66
     1
  0
VERTEX
  8
寸法
 10
79.033275
 20
126.205923
  0
VERTEX
  8
寸法
 10
70.443143
 20
123.63816
  0
VERTEX
  8
寸法
 10
70.443143
 20
126.205923
  0
SEQEND
  0
POLYLINE
  8
寸法
  6
CONTINUOUS
 66
     1
  0
VERTEX
  8
寸法
 10
80.62538
 20
126.205923
  0
VERTEX
  8
寸法
 10
72.035247
 20
128.773685
  0
VERTEX
  8
寸法
 10
72.035247
 20
126.205923
  0
SEQEND
  0
POLYLINE
  8
寸法
  6
CONTINUOUS
 66
     1
  0
VERTEX
  8
寸法
 10
79.033275
 20
126.205923
  0
VERTEX
  8
寸法
 10
70.443143
 20
128.773685
  0
VERTEX
  8
寸法
 10
70.443143
 20
126.205923
  0
SEQEND
  0
POLYLINE
  8
寸法
  6
CONTINUOUS
 66
     1
  0
VERTEX
  8
寸法
 10
-0.24824
 20
126.205923
  0
VERTEX
  8
寸法
 10
8.341892
 20
123.63816
  0
VERTEX
  8
寸法
 10
8.341892
 20
126.205923
  0
SEQEND
  0
POLYLINE
  8
寸法
  6
CONTINUOUS
 66
     1
  0
VERTEX
  8
寸法
 10
-0.24824
 20
126.205923
  0
VERTEX
  8
寸法
 10
8.341892
 20
128.773685
  0
VERTEX
  8
寸法
 10
8.341892
 20
126.205923
  0
SEQEND
  0
INSERT
  2
*DIM_0017
  8
寸法
  6
CONTINUOUS
 10
0.0
 20
0.0
  0
INSERT
  2
*DIM_0018
  8
寸法
  6
CONTINUOUS
 10
0.0
 20
0.0
  0
LINE
  8
寸法
  6
CONTINUOUS
 10
80.62538
 20
119.698685
 11
14.74546
 21
119.698685
  0
POLYLINE
  8
寸法
  6
CONTINUOUS
 66
     1
  0
VERTEX
  8
寸法
 10
80.62538
 20
119.698685
  0
VERTEX
  8
寸法
 10
72.035247
 20
122.266447
  0
VERTEX
  8
寸法
 10
72.035247
 20
119.698685
  0
SEQEND
  0
POLYLINE
  8
寸法
  6
CONTINUOUS
 66
     1
  0
VERTEX
  8
寸法
 10
79.033275
 20
119.698685
  0
VERTEX
  8
寸法
 10
70.443143
 20
122.266447
  0
VERTEX
  8
寸法
 10
70.443143
 20
119.698685
  0
SEQEND
  0
INSERT
  2
*DIM_0019
  8
寸法
  6
CONTINUOUS
 10
0.0
 20
0.0
  0
INSERT
  2
*DIM_0020
  8
寸法
  6
CONTINUOUS
 10
0.0
 20
0.0
  0
INSERT
  2
*DIM_0021
  8
寸法
  6
CONTINUOUS
 10
0.0
 20
0.0
  0
INSERT
  2
*DIM_0022
  8
寸法
  6
CONTINUOUS
 10
0.0
 20
0.0
  0
INSERT
  2
*DIM_0023
  8
寸法
  6
CONTINUOUS
 10
0.0
 20
0.0
  0
INSERT
  2
*DIM_0024
  8
寸法
  6
CONTINUOUS
 10
0.0
 20
0.0
  0
INSERT
  2
*DIM_0025
  8
寸法
  6
CONTINUOUS
 10
0.0
 20
0.0
  0
INSERT
  2
*DIM_0026
  8
寸法
  6
CONTINUOUS
 10
0.0
 20
0.0
  0
INSERT
  2
*DIM_0030
  8
寸法
  6
CONTINUOUS
 10
0.0
 20
0.0
  0
INSERT
  2
*DIM_0031
  8
寸法
  6
CONTINUOUS
 10
0.0
 20
0.0
  0
INSERT
  2
*GRP_0033
  8
寸法
  6
CONTINUOUS
 10
0.0
 20
0.0
  0
INSERT
  2
*GRP_0034
  8
寸法
  6
CONTINUOUS
 10
0.0
 20
0.0
  0
INSERT
  2
*GRP_0035
  8
寸法
  6
CONTINUOUS
 10
0.0
 20
0.0
  0
INSERT
  2
*GRP_0036
  8
寸法
  6
CONTINUOUS
 10
0.0
 20
0.0
  0
INSERT
  2
*GRP_0037
  8
寸法
  6
CONTINUOUS
 10
0.0
 20
0.0
  0
INSERT
  2
*GRP_0038
  8
寸法
  6
CONTINUOUS
 10
0.0
 20
0.0
  0
INSERT
  2
*GRP_0039
  8
寸法
  6
CONTINUOUS
 10
0.0
 20
0.0
  0
INSERT
  2
*GRP_0040
  8
寸法
  6
CONTINUOUS
 10
0.0
 20
0.0
  0
INSERT
  2
*GRP_0041
  8
寸法
  6
CONTINUOUS
 10
0.0
 20
0.0
  0
INSERT
  2
*GRP_0042
  8
寸法
  6
CONTINUOUS
 10
0.0
 20
0.0
  0
INSERT
  2
*GRP_0043
  8
寸法
  6
CONTINUOUS
 10
0.0
 20
0.0
  0
INSERT
  2
*GRP_0044
  8
寸法
  6
CONTINUOUS
 10
0.0
 20
0.0
  0
INSERT
  2
*GRP_0045
  8
寸法
  6
CONTINUOUS
 10
0.0
 20
0.0
  0
INSERT
  2
*GRP_0046
  8
寸法
  6
CONTINUOUS
 10
0.0
 20
0.0
  0
INSERT
  2
*GRP_0047
  8
寸法
  6
CONTINUOUS
 10
0.0
 20
0.0
  0
INSERT
  2
*GRP_0048
  8
寸法
  6
CONTINUOUS
 10
0.0
 20
0.0
  0
INSERT
  2
*DIM_0053
  8
寸法
  6
CONTINUOUS
 10
0.0
 20
0.0
  0
INSERT
  2
*DIM_0054
  8
寸法
  6
CONTINUOUS
 10
0.0
 20
0.0
  0
INSERT
  2
*DIM_0055
  8
寸法
  6
CONTINUOUS
 10
0.0
 20
0.0
  0
INSERT
  2
*DIM_0056
  8
寸法
  6
CONTINUOUS
 10
0.0
 20
0.0
  0
INSERT
  2
*DIM_0057
  8
寸法
  6
CONTINUOUS
 10
0.0
 20
0.0
  0
INSERT
  2
*DIM_0058
  8
寸法
  6
CONTINUOUS
 10
0.0
 20
0.0
  0
INSERT
  2
*GRP_0067
  8
寸法
  6
CONTINUOUS
 10
0.0
 20
0.0
  0
INSERT
  2
*GRP_0068
  8
寸法
  6
CONTINUOUS
 10
0.0
 20
0.0
  0
INSERT
  2
*DIM_0069
  8
寸法
  6
CONTINUOUS
 10
0.0
 20
0.0
  0
INSERT
  2
*DIM_0070
  8
寸法
  6
CONTINUOUS
 10
0.0
 20
0.0
  0
INSERT
  2
*GRP_0077
  8
寸法
  6
CONTINUOUS
 10
0.0
 20
0.0
  0
INSERT
  2
*DIM_0080
  8
寸法
  6
CONTINUOUS
 10
0.0
 20
0.0
  0
INSERT
  2
*DIM_0081
  8
寸法
  6
CONTINUOUS
 10
0.0
 20
0.0
  0
INSERT
  2
*DIM_0082
  8
寸法
  6
CONTINUOUS
 10
0.0
 20
0.0
  0
INSERT
  2
*DIM_0083
  8
寸法
  6
CONTINUOUS
 10
0.0
 20
0.0
  0
INSERT
  2
*DIM_0084
  8
寸法
  6
CONTINUOUS
 10
0.0
 20
0.0
  0
INSERT
  2
*DIM_0085
  8
寸法
  6
CONTINUOUS
 10
0.0
 20
0.0
  0
INSERT
  2
*DIM_0086
  8
寸法
  6
CONTINUOUS
 10
0.0
 20
0.0
  0
INSERT
  2
*DIM_0087
  8
寸法
  6
CONTINUOUS
 10
0.0
 20
0.0
  0
INSERT
  2
*DIM_0088
  8
寸法
  6
CONTINUOUS
 10
0.0
 20
0.0
  0
INSERT
  2
*DIM_0089
  8
寸法
  6
CONTINUOUS
 10
0.0
 20
0.0
  0
INSERT
  2
*HAT_0009
  8
ﾊｯﾁﾝｸﾞ
 10
0.0
 20
0.0
  0
INSERT
  2
*GRP_0032
  8
別途部材
  6
CONTINUOUS
 10
0.0
 20
0.0
  0
INSERT
  2
*GRP_0073
  8
曲げ物
  6
CONTINUOUS
 10
0.0
 20
0.0
  0
LINE
  8
St
  6
CONTINUOUS
 10
-50.254555
 20
54.61354
 11
-47.254555
 21
54.61354
  0
LINE
  8
St
  6
CONTINUOUS
 10
-47.254555
 20
-20.386525
 11
-47.254555
 21
54.61354
  0
LINE
  8
St
  6
CONTINUOUS
 10
-30.454555
 20
44.013482
 11
-30.454555
 21
59.811448
  0
LINE
  8
St
  6
CONTINUOUS
 10
-41.24904
 20
-93.88998
 11
-41.24904
 21
-45.886255
  0
LINE
  8
St
  6
CONTINUOUS
 10
-44.249065
 20
-45.886255
 11
-41.24904
 21
-45.886255
  0
LINE
  8
St
  6
CONTINUOUS
 10
-2.754555
 20
41.513475
 11
-2.754555
 21
39.213475
  0
LINE
  8
St
  6
CONTINUOUS
 10
-2.754555
 20
39.213475
 11
-35.954555
 21
39.213475
  0
LINE
  8
St
  6
CONTINUOUS
 10
-2.754555
 20
41.513475
 11
-35.954555
 21
41.513475
  0
ARC
  8
St
  6
CONTINUOUS
 10
-35.954556
 20
39.213477
 40
2.3
 50
90.0
 51
180.0
  0
LINE
  8
St
  6
CONTINUOUS
 10
-38.254555
 20
39.213475
 11
-38.254555
 21
-8.586525
  0
ARC
  8
St
  6
CONTINUOUS
 10
-35.954556
 20
-8.586523
 40
2.3
 50
180.0
 51
270.0
  0
LINE
  8
St
  6
CONTINUOUS
 10
-35.954555
 20
39.213475
 11
-35.954555
 21
-8.586525
  0
LINE
  8
St
  6
CONTINUOUS
 10
-9.4157
 20
41.513475
 11
-11.715703
 21
39.213475
  0
LINE
  8
St
  6
CONTINUOUS
 10
-10.122805
 20
41.513475
 11
-12.422807
 21
39.213475
  0
LINE
  8
St
  6
CONTINUOUS
 10
-38.254555
 20
28.474295
 11
-35.954555
 21
30.774293
  0
LINE
  8
St
  6
CONTINUOUS
 10
-38.254555
 20
27.76719
 11
-35.954555
 21
30.067187
  0
LINE
  8
St
  6
CONTINUOUS
 10
-38.254555
 20
1.867898
 11
-35.954555
 21
4.167895
  0
LINE
  8
St
  6
CONTINUOUS
 10
-38.254555
 20
1.160793
 11
-35.954555
 21
3.46079
  0
LINE
  8
St
  6
CONTINUOUS
 10
-27.656245
 20
-10.886525
 11
-25.356243
 21
-8.586525
  0
LINE
  8
St
  6
CONTINUOUS
 10
-26.949137
 20
-10.886525
 11
-24.649135
 21
-8.586525
  0
LINE
  8
St
  6
CONTINUOUS
 10
-12.75454
 20
-30.38653
 11
-12.75454
 21
-32.68653
  0
LINE
  8
St
  6
CONTINUOUS
 10
-12.75454
 20
-79.089475
 11
-12.75454
 21
-81.389475
  0
ARC
  8
St
  6
CONTINUOUS
 10
-29.954542
 20
-32.686526
 40
2.3
 50
90.0
 51
180.0
  0
LINE
  8
St
  6
CONTINUOUS
 10
-29.95454
 20
-42.01985
 11
-32.254525
 21
-44.319835
  0
LINE
  8
St
  6
CONTINUOUS
 10
-29.95454
 20
-41.31275
 11
-32.254525
 21
-43.61273
  0
ARC
  8
St
  6
CONTINUOUS
 10
-29.954542
 20
-79.089471
 40
2.3
 50
180.0
 51
270.0
  0
LINE
  8
St
  6
CONTINUOUS
 10
-29.95454
 20
-69.84396
 11
-32.254525
 21
-72.143945
  0
LINE
  8
St
  6
CONTINUOUS
 10
-29.95454
 20
-69.13686
 11
-32.254525
 21
-71.43684
  0
LINE
  8
St
  6
CONTINUOUS
 10
-29.95454
 20
-32.68653
 11
-29.95454
 21
-79.089475
  0
LINE
  8
St
  6
CONTINUOUS
 10
-32.25454
 20
-32.68653
 11
-32.25454
 21
-79.089475
  0
LINE
  8
St
  6
CONTINUOUS
 10
-12.75454
 20
-32.68653
 11
-29.95454
 21
-32.68653
  0
LINE
  8
St
  6
CONTINUOUS
 10
-12.75454
 20
-30.38653
 11
-29.95454
 21
-30.38653
  0
LINE
  8
St
  6
CONTINUOUS
 10
-12.75454
 20
-79.089475
 11
-29.95454
 21
-79.089475
  0
LINE
  8
St
  6
CONTINUOUS
 10
-12.75454
 20
-81.389475
 11
-29.95454
 21
-81.389475
  0
LINE
  8
St
  6
CONTINUOUS
 10
-19.415685
 20
-30.38653
 11
-21.715687
 21
-32.68653
  0
LINE
  8
St
  6
CONTINUOUS
 10
-20.12279
 20
-30.38653
 11
-22.422793
 21
-32.68653
  0
LINE
  8
St
  6
CONTINUOUS
 10
-26.025785
 20
-81.38653
 11
-23.728727
 21
-79.089475
  0
LINE
  8
St
  6
CONTINUOUS
 10
-25.31868
 20
-81.38653
 11
-23.021623
 21
-79.089475
  0
LINE
  8
St
  6
CONTINUOUS
 10
-105.649065
 20
-110.290035
 11
-47.656485
 21
-110.290035
  0
ARC
  8
St
  6
CONTINUOUS
 10
-47.648058
 20
-110.290032
 40
1.6
 50
-90.0
 51
0.0
  0
LINE
  8
St
  6
CONTINUOUS
 10
-107.249065
 20
-111.890035
 11
-26.249065
 21
-111.890035
  0
LINE
  8
St
  6
DOT
 10
-47.656485
 20
-110.290035
 11
-26.249065
 21
-110.290035
  0
LINE
  8
St
  6
CONTINUOUS
 10
-78.681657
 20
-111.890035
 11
-77.081653
 21
-110.290035
  0
LINE
  8
St
  6
CONTINUOUS
 10
-77.974553
 20
-111.890035
 11
-76.374547
 21
-110.290035
  0
LINE
  8
St
  6
CONTINUOUS
 10
-51.66038
 20
-111.890035
 11
-50.060375
 21
-110.290035
  0
LINE
  8
St
  6
CONTINUOUS
 10
-50.953275
 20
-111.890035
 11
-49.35327
 21
-110.290035
  0
LINE
  8
St
  6
CONTINUOUS
 10
-105.649065
 20
-111.890035
 11
-105.649065
 21
-104.873395
  0
LINE
  8
St
  6
CONTINUOUS
 10
-107.249065
 20
-111.890035
 11
-107.249065
 21
-104.873398
  0
ARC
  8
St
  6
CONTINUOUS
 10
-105.649065
 20
-104.873397
 40
1.6
 50
94.332724
 51
180.0
  0
LINE
  8
St
  6
CONTINUOUS
 10
-105.769942
 20
-103.27797
 11
-26.249065
 21
-97.253088
  0
LINE
  8
St
  6
CONTINUOUS
 10
-105.649065
 20
-104.873395
 11
-26.249065
 21
-98.857675
  0
LINE
  8
St
  6
CONTINUOUS
 10
-28.16095
 20
-97.39794
 11
-28.16095
 21
-99.002527
  0
LINE
  8
St
  6
CONTINUOUS
 10
-47.656485
 20
-110.290035
 11
-47.656485
 21
-100.479602
  0
LINE
  8
St
  6
CONTINUOUS
 10
-46.048055
 20
-111.890035
 11
-46.048055
 21
-100.35774
  0
LINE
  8
St
  6
CONTINUOUS
 10
-48.52126
 20
-98.940535
 11
-50.257388
 21
-100.67666
  0
LINE
  8
St
  6
CONTINUOUS
 10
-49.28633
 20
-98.9985
 11
-51.02246
 21
-100.734625
  0
LINE
  8
St
  6
CONTINUOUS
 10
-76.005872
 20
-101.022902
 11
-77.742003
 21
-102.759022
  0
LINE
  8
St
  6
CONTINUOUS
 10
-76.770947
 20
-101.080868
 11
-78.507075
 21
-102.81699
  0
LINE
  8
St
  6
CONTINUOUS
 10
-35.954555
 20
-8.586525
 11
-18.754555
 21
-8.586525
  0
LINE
  8
St
  6
CONTINUOUS
 10
-18.754555
 20
-8.586525
 11
-18.754555
 21
-10.886525
  0
LINE
  8
St
  6
CONTINUOUS
 10
-35.954555
 20
-10.886525
 11
-18.754555
 21
-10.886525
  0
INSERT
  2
*GRP_0051
  8
St
  6
CONTINUOUS
 62
    47
 10
0.0
 20
0.0
  0
INSERT
  2
*GRP_0052
  8
St
  6
CONTINUOUS
 62
    47
 10
0.0
 20
0.0
  0
INSERT
  2
*GRP_0074
  8
St
  6
CONTINUOUS
 10
0.0
 20
0.0
  0
LINE
  8
その他部品等
  6
CONTINUOUS
 10
-7.34906
 20
-88.386535
 11
-7.34906
 21
-83.386535
  0
INSERT
  2
*HAT_0010
  8
その他部品等
 10
0.0
 20
0.0
  0
INSERT
  2
*HAT_0011
  8
その他部品等
 10
0.0
 20
0.0
  0
INSERT
  2
*HAT_0012
  8
その他部品等
 10
0.0
 20
0.0
  0
LINE
  8
その他部品等
  6
CONTINUOUS
 10
-11.649005
 20
-100.38998
 11
-24.249065
 21
-106.215657
  0
INSERT
  2
*HAT_0013
  8
その他部品等
 10
0.0
 20
0.0
  0
LINE
  8
その他部品等
  6
CONTINUOUS
 10
-1.15021
 20
97.613495
 11
-1.15021
 21
87.513278
  0
LINE
  8
その他部品等
  6
CONTINUOUS
 10
3.396508
 20
96.413495
 11
3.396508
 21
87.513278
  0
LINE
  8
その他部品等
  6
CONTINUOUS
 10
8.849787
 20
96.413495
 11
8.849787
 21
87.513278
  0
LINE
  8
その他部品等
  6
CONTINUOUS
 10
-1.15021
 20
97.613495
 11
3.396508
 21
87.513278
  0
ENDSEC
  0
EOF
