  0
SECTION
  2
HEADER
  9
$EXTMIN
 10
-210.0
 20
-148.5
  9
$EXTMAX
 10
210.0
 20
148.5
  9
$PDMODE
 70
    32
  9
$PDSIZE
 40
1.5
  9
$LTSCALE
 40
10.0
  0
ENDSEC
  0
SECTION
  2
TABLES
  0
TABLE
  2
LTYPE
 70
    15
  0
LTYPE
  2
CONTINUOUS
 70
    64
  3
実線
 72
    65
 73
     0
 40
0.0
  0
LTYPE
  2
DASHED
 70
    64
  3
破線A
 72
    65
 73
     2
 40
0.6
 49
0.4
 49
-0.2
  0
LTYPE
  2
DASHEDX2
 70
    64
  3
破線B
 72
    65
 73
     2
 40
1.3
 49
0.9
 49
-0.4
  0
LTYPE
  2
DASHDOT
 70
    64
  3
１点鎖線A
 72
    65
 73
     4
 40
0.5375
 49
0.375
 49
-0.05
 49
0.0625
 49
-0.05
  0
LTYPE
  2
DASHDOTX2
 70
    64
  3
１点鎖線B
 72
    65
 73
     4
 40
1.075
 49
0.75
 49
-0.1
 49
0.125
 49
-0.1
  0
LTYPE
  2
DIVIDE2
 70
    64
  3
２点鎖線A
 72
    65
 73
     6
 40
0.5125
 49
0.3
 49
-0.0375
 49
0.05
 49
-0.0375
 49
0.05
 49
-0.0375
  0
LTYPE
  2
DIVIDE
 70
    64
  3
２点鎖線B
 72
    65
 73
     6
 40
1.05
 49
0.55
 49
-0.1
 49
0.1
 49
-0.1
 49
0.1
 49
-0.1
  0
LTYPE
  2
DOT
 70
    64
  3
点線A
 72
    65
 73
     2
 40
0.1125
 49
0.0625
 49
-0.05
  0
LTYPE
  2
DOTX2
 70
    64
  3
点線B
 72
    65
 73
     2
 40
0.275
 49
0.15
 49
-0.125
  0
LTYPE
  2
CONTINUOUS
 70
    64
  3
実線
 72
    65
 73
     0
 40
0.0
  0
LTYPE
  2
CONTINUOUS
 70
    64
  3
実線
 72
    65
 73
     0
 40
0.0
  0
LTYPE
  2
CONTINUOUS
 70
    64
  3
実線
 72
    65
 73
     0
 40
0.0
  0
LTYPE
  2
CONTINUOUS
 70
    64
  3
実線
 72
    65
 73
     0
 40
0.0
  0
LTYPE
  2
CONTINUOUS
 70
    64
  3
実線
 72
    65
 73
     0
 40
0.0
  0
LTYPE
  2
CONTINUOUS
 70
    64
  3
実線
 72
    65
 73
     0
 40
0.0
  0
ENDTAB
  0
TABLE
  2
LAYER
 70
    34
  0
LAYER
  2
通り芯
 70
     0
 62
    15
  6
CONTINUOUS
  0
LAYER
  2
補助線
 70
     0
 62
    16
  6
DOT
  0
LAYER
  2
躯体
 70
     0
 62
    31
  6
CONTINUOUS
  0
LAYER
  2
型材
 70
     0
 62
    32
  6
CONTINUOUS
  0
LAYER
  2
型材断面
 70
     0
 62
    47
  6
CONTINUOUS
  0
LAYER
  2
ガラス
 70
     0
 62
    48
  6
CONTINUOUS
  0
LAYER
  2
ゴム等
 70
     0
 62
    63
  6
CONTINUOUS
  0
LAYER
  2
ボルト／ビス
 70
     0
 62
    64
  6
CONTINUOUS
  0
LAYER
  2
文字
 70
     0
 62
    79
  6
CONTINUOUS
  0
LAYER
  2
寸法
 70
     0
 62
    80
  6
CONTINUOUS
  0
LAYER
  2
ﾊｯﾁﾝｸﾞ
 70
     0
 62
    95
  6
CONTINUOUS
  0
LAYER
  2
別途部材
 70
     0
 62
    96
  6
CONTINUOUS
  0
LAYER
  2
曲げ物
 70
     0
 62
   111
  6
CONTINUOUS
  0
LAYER
  2
鉄骨等
 70
     0
 62
   112
  6
CONTINUOUS
  0
LAYER
  2
St
 70
     0
 62
   127
  6
CONTINUOUS
  0
LAYER
  2
その他部品等
 70
     0
 62
   128
  6
CONTINUOUS
  0
LAYER
  2
ｶﾞｽｹｯﾄ
 70
     0
 62
   143
  6
CONTINUOUS
  0
LAYER
  2
ｽｹｯﾁ
 70
     0
 62
    14
  6
CONTINUOUS
  0
LAYER
  2
0
 70
     0
 62
    17
  6
CONTINUOUS
  0
LAYER
  2
1
 70
     0
 62
    30
  6
CONTINUOUS
  0
LAYER
  2
4
 70
     0
 62
    33
  6
CONTINUOUS
  0
LAYER
  2
ﾚｲﾔ3
 70
     0
 62
    46
  6
CONTINUOUS
  0
LAYER
  2
外形線
 70
     0
 62
    49
  6
CONTINUOUS
  0
LAYER
  2
部品
 70
     0
 62
    14
  6
CONTINUOUS
  0
LAYER
  2
サッシ芯
 70
     0
 62
    17
  6
DASHDOTX2
  0
LAYER
  2
寸法線
 70
     0
 62
    62
  6
CONTINUOUS
  0
LAYER
  2
姿図外形線
 70
     0
 62
    65
  6
CONTINUOUS
  0
LAYER
  2
姿補助線
 70
     0
 62
    30
  6
CONTINUOUS
  0
LAYER
  2
透視線
 70
     0
 62
    78
  6
DOT
  0
LAYER
  2
用紙
 70
     0
 62
    81
  6
CONTINUOUS
  0
LAYER
  2
実線図枠
 70
     0
 62
    94
  6
CONTINUOUS
  0
LAYER
  2
補助図枠
 70
     0
 62
    97
  6
CONTINUOUS
  0
LAYER
  2
建具記号
 70
     0
 62
   110
  6
CONTINUOUS
  0
LAYER
  2
補助文字
 70
     0
 62
   113
  6
CONTINUOUS
  0
ENDTAB
  0
TABLE
  2
STYLE
 70
    10
  0
STYLE
  2
STANDARD
 70
     0
 40
1.0
 41
1.0
 42
1.0
 50
0.0
 71
     0
  3
TXT
  4
BIGFONT
  0
STYLE
  2
TATE
 70
     4
 40
1.0
 41
1.0
 42
1.0
 50
0.0
 71
     0
  3
TXT
  4
BIGFONT
  0
STYLE
  2
TextStyle03
 70
     0
 40
1.0
 41
1.0
 42
1.0
 50
0.0
 71
     0
  3
MONOTXT
  4
BIGFONT
  0
STYLE
  2
TextStyle04
 70
     0
 40
1.0
 41
1.0
 42
1.0
 50
0.0
 71
     0
  3
MONOTXT
  4
BIGFONT
  0
STYLE
  2
TextStyle05
 70
     0
 40
1.0
 41
1.0
 42
1.0
 50
0.0
 71
     0
  3
MONOTXT
  4
BIGFONT
  0
STYLE
  2
TextStyle06
 70
     0
 40
1.0
 41
1.0
 42
1.0
 50
0.0
 71
     0
  3
MONOTXT
  4
BIGFONT
  0
STYLE
  2
TextStyle07
 70
     0
 40
1.0
 41
1.0
 42
1.0
 50
0.0
 71
     0
  3
MONOTXT
  4
BIGFONT
  0
STYLE
  2
TextStyle08
 70
     0
 40
1.0
 41
1.0
 42
1.0
 50
0.0
 71
     0
  3
MONOTXT
  4
BIGFONT
  0
STYLE
  2
TextStyle09
 70
     0
 40
1.0
 41
1.0
 42
1.0
 50
0.0
 71
     0
  3
MONOTXT
  4
BIGFONT
  0
STYLE
  2
TextStyle10
 70
     0
 40
1.0
 41
1.0
 42
1.0
 50
0.0
 71
     0
  3
MONOTXT
  4
BIGFONT
  0
ENDTAB
  0
ENDSEC
  0
SECTION
  2
BLOCKS
  0
BLOCK
  2
*HAT_0001
 70
    65
 10
0.0
 20
0.0
  0
LINE
  8
ゴム等
 10
-71.225
 20
-9.25
 11
-69.725
 21
-7.7
  0
LINE
  8
ゴム等
 10
-68.975
 20
-7.0
 11
-67.225
 21
-5.2
  0
LINE
  8
ゴム等
 10
-71.225
 20
-10.95
 11
-65.525
 21
-5.2
  0
LINE
  8
ゴム等
 10
-71.225
 20
-12.6
 11
-63.825
 21
-5.2
  0
LINE
  8
ゴム等
 10
-69.625
 20
-12.7
 11
-63.575
 21
-6.65
  0
LINE
  8
ゴム等
 10
-67.925
 20
-12.7
 11
-62.925
 21
-7.7
  0
LINE
  8
ゴム等
 10
-65.975
 20
-12.45
 11
-61.275
 21
-7.7
  0
LINE
  8
ゴム等
 10
-64.575
 20
-12.7
 11
-61.225
 21
-9.4
  0
LINE
  8
ゴム等
 10
-62.875
 20
-12.7
 11
-61.225
 21
-11.1
  0
ENDBLK
  0
BLOCK
  2
*HAT_0002
 70
    65
 10
0.0
 20
0.0
  0
LINE
  8
ゴム等
 10
-20.475
 20
-20.1
 11
-21.625
 21
-18.95
  0
LINE
  8
ゴム等
 10
-21.975
 20
-18.65
 11
-23.125
 21
-17.5
  0
LINE
  8
ゴム等
 10
-18.775
 20
-20.1
 11
-19.775
 21
-19.1
  0
LINE
  8
ゴム等
 10
-22.125
 20
-16.8
 11
-23.075
 21
-15.8
  0
LINE
  8
ゴム等
 10
-17.075
 20
-20.1
 11
-18.075
 21
-19.1
  0
LINE
  8
ゴム等
 10
-21.825
 20
-15.4
 11
-22.525
 21
-14.7
  0
LINE
  8
ゴム等
 10
-15.425
 20
-20.1
 11
-16.425
 21
-19.1
  0
LINE
  8
ゴム等
 10
-20.425
 20
-15.1
 11
-21.375
 21
-14.15
  0
LINE
  8
ゴム等
 10
-13.725
 20
-20.1
 11
-14.725
 21
-19.1
  0
LINE
  8
ゴム等
 10
-18.725
 20
-15.1
 11
-19.725
 21
-14.1
  0
LINE
  8
ゴム等
 10
-12.225
 20
-19.9
 11
-13.025
 21
-19.1
  0
LINE
  8
ゴム等
 10
-17.025
 20
-15.1
 11
-20.225
 21
-11.9
  0
LINE
  8
ゴム等
 10
-11.375
 20
-19.1
 11
-12.125
 21
-18.3
  0
LINE
  8
ゴム等
 10
-15.325
 20
-15.1
 11
-19.325
 21
-11.1
  0
LINE
  8
ゴム等
 10
-11.125
 20
-17.65
 11
-12.125
 21
-16.65
  0
LINE
  8
ゴム等
 10
-13.625
 20
-15.1
 11
-14.625
 21
-14.1
  0
LINE
  8
ゴム等
 10
-14.975
 20
-13.8
 11
-17.625
 21
-11.1
  0
LINE
  8
ゴム等
 10
-11.125
 20
-15.95
 11
-12.925
 21
-14.15
  0
LINE
  8
ゴム等
 10
-14.375
 20
-12.65
 11
-15.925
 21
-11.1
  0
LINE
  8
ゴム等
 10
-13.825
 20
-11.55
 11
-14.225
 21
-11.1
  0
ENDBLK
  0
BLOCK
  2
*HAT_0003
 70
    65
 10
0.0
 20
0.0
  0
LINE
  8
ゴム等
 10
-50.575
 20
-20.1
 11
-52.125
 21
-18.6
  0
LINE
  8
ゴム等
 10
-48.925
 20
-20.1
 11
-52.125
 21
-16.9
  0
LINE
  8
ゴム等
 10
-47.225
 20
-20.1
 11
-52.125
 21
-15.2
  0
LINE
  8
ゴム等
 10
-45.525
 20
-20.1
 11
-51.525
 21
-14.1
  0
LINE
  8
ゴム等
 10
-43.825
 20
-20.1
 11
-49.825
 21
-14.1
  0
LINE
  8
ゴム等
 10
-42.125
 20
-20.1
 11
-48.125
 21
-14.1
  0
LINE
  8
ゴム等
 10
-40.425
 20
-20.1
 11
-46.425
 21
-14.1
  0
LINE
  8
ゴム等
 10
-38.725
 20
-20.1
 11
-44.725
 21
-14.1
  0
LINE
  8
ゴム等
 10
-37.125
 20
-20.05
 11
-43.025
 21
-14.1
  0
LINE
  8
ゴム等
 10
-37.125
 20
-18.35
 11
-41.325
 21
-14.1
  0
LINE
  8
ゴム等
 10
-37.125
 20
-16.65
 11
-39.625
 21
-14.1
  0
LINE
  8
ゴム等
 10
-37.125
 20
-14.95
 11
-37.975
 21
-14.1
  0
ENDBLK
  0
BLOCK
  2
*HAT_0004
 70
    65
 10
0.0
 20
0.0
  0
LINE
  8
ゴム等
 10
-56.775
 20
-32.0
 11
-58.325
 21
-30.5
  0
LINE
  8
ゴム等
 10
-59.025
 20
-29.75
 11
-60.825
 21
-28.0
  0
LINE
  8
ゴム等
 10
-55.075
 20
-32.0
 11
-60.825
 21
-26.3
  0
LINE
  8
ゴム等
 10
-53.425
 20
-32.0
 11
-60.825
 21
-24.6
  0
LINE
  8
ゴム等
 10
-53.325
 20
-30.4
 11
-59.375
 21
-24.35
  0
LINE
  8
ゴム等
 10
-53.325
 20
-28.7
 11
-58.325
 21
-23.7
  0
LINE
  8
ゴム等
 10
-53.575
 20
-26.75
 11
-58.325
 21
-22.05
  0
LINE
  8
ゴム等
 10
-53.325
 20
-25.35
 11
-56.625
 21
-22.0
  0
LINE
  8
ゴム等
 10
-53.325
 20
-23.65
 11
-54.925
 21
-22.0
  0
ENDBLK
  0
BLOCK
  2
*HAT_0005
 70
    65
 10
0.0
 20
0.0
  0
LINE
  8
ゴム等
 10
-60.575
 20
73.0
 11
-62.125
 21
74.5
  0
LINE
  8
ゴム等
 10
-62.825
 20
75.25
 11
-64.625
 21
77.0
  0
LINE
  8
ゴム等
 10
-58.875
 20
73.0
 11
-64.625
 21
78.7
  0
LINE
  8
ゴム等
 10
-57.225
 20
73.0
 11
-64.625
 21
80.4
  0
LINE
  8
ゴム等
 10
-57.125
 20
74.6
 11
-63.175
 21
80.65
  0
LINE
  8
ゴム等
 10
-57.125
 20
76.3
 11
-62.125
 21
81.3
  0
LINE
  8
ゴム等
 10
-57.375
 20
78.25
 11
-62.125
 21
82.95
  0
LINE
  8
ゴム等
 10
-57.125
 20
79.65
 11
-60.425
 21
83.0
  0
LINE
  8
ゴム等
 10
-57.125
 20
81.35
 11
-58.725
 21
83.0
  0
ENDBLK
  0
BLOCK
  2
*HAT_0006
 70
    65
 10
0.0
 20
0.0
  0
LINE
  8
ゴム等
 10
-85.225
 20
-78.975
 11
-83.725
 21
-80.525
  0
LINE
  8
ゴム等
 10
-82.975
 20
-81.225
 11
-81.225
 21
-83.025
  0
LINE
  8
ゴム等
 10
-85.225
 20
-77.275
 11
-79.525
 21
-83.025
  0
LINE
  8
ゴム等
 10
-85.225
 20
-75.625
 11
-77.825
 21
-83.025
  0
LINE
  8
ゴム等
 10
-83.625
 20
-75.525
 11
-77.575
 21
-81.575
  0
LINE
  8
ゴム等
 10
-81.925
 20
-75.525
 11
-76.925
 21
-80.525
  0
LINE
  8
ゴム等
 10
-79.975
 20
-75.775
 11
-75.275
 21
-80.525
  0
LINE
  8
ゴム等
 10
-78.575
 20
-75.525
 11
-75.225
 21
-78.825
  0
LINE
  8
ゴム等
 10
-76.875
 20
-75.525
 11
-75.225
 21
-77.125
  0
ENDBLK
  0
BLOCK
  2
*HAT_0007
 70
    65
 10
0.0
 20
0.0
  0
LINE
  8
ﾊｯﾁﾝｸﾞ
 10
-102.625
 20
95.3
 11
-101.025
 21
96.9
  0
LINE
  8
ﾊｯﾁﾝｸﾞ
 10
-105.45
 20
95.3
 11
-101.025
 21
99.725
  0
LINE
  8
ﾊｯﾁﾝｸﾞ
 10
-106.475
 20
97.1
 11
-101.025
 21
102.55
  0
LINE
  8
ﾊｯﾁﾝｸﾞ
 10
-106.475
 20
99.925
 11
-102.2
 21
104.225
  0
LINE
  8
ﾊｯﾁﾝｸﾞ
 10
-106.475
 20
102.75
 11
-105.025
 21
104.225
  0
LINE
  8
ﾊｯﾁﾝｸﾞ
 10
-106.475
 20
97.975
 11
-103.825
 21
95.325
  0
LINE
  8
ﾊｯﾁﾝｸﾞ
 10
-106.475
 20
100.8
 11
-101.025
 21
95.35
  0
LINE
  8
ﾊｯﾁﾝｸﾞ
 10
-106.475
 20
103.625
 11
-101.025
 21
98.175
  0
LINE
  8
ﾊｯﾁﾝｸﾞ
 10
-104.25
 20
104.225
 11
-101.025
 21
101.0
  0
LINE
  8
ﾊｯﾁﾝｸﾞ
 10
-101.425
 20
104.225
 11
-101.025
 21
103.825
  0
ENDBLK
  0
BLOCK
  2
*HAT_0008
 70
    65
 10
0.0
 20
0.0
  0
LINE
  8
その他部品等
 10
-89.725
 20
-80.625
 11
-90.275
 21
-80.075
  0
LINE
  8
その他部品等
 10
-88.325
 20
-80.625
 11
-90.275
 21
-78.675
  0
LINE
  8
その他部品等
 10
-86.925
 20
-80.625
 11
-90.275
 21
-77.275
  0
LINE
  8
その他部品等
 10
-85.525
 20
-80.625
 11
-90.275
 21
-75.875
  0
LINE
  8
その他部品等
 10
-85.275
 20
-79.425
 11
-89.075
 21
-75.625
  0
LINE
  8
その他部品等
 10
-85.275
 20
-78.025
 11
-87.675
 21
-75.625
  0
LINE
  8
その他部品等
 10
-85.275
 20
-76.625
 11
-86.275
 21
-75.625
  0
LINE
  8
その他部品等
 10
-85.225
 20
-80.375
 11
-85.475
 21
-80.625
  0
LINE
  8
その他部品等
 10
-85.225
 20
-78.975
 11
-86.875
 21
-80.625
  0
LINE
  8
その他部品等
 10
-85.225
 20
-77.575
 11
-88.275
 21
-80.625
  0
LINE
  8
その他部品等
 10
-85.225
 20
-76.125
 11
-89.725
 21
-80.625
  0
LINE
  8
その他部品等
 10
-86.125
 20
-75.625
 11
-90.225
 21
-79.725
  0
LINE
  8
その他部品等
 10
-87.525
 20
-75.625
 11
-90.225
 21
-78.325
  0
LINE
  8
その他部品等
 10
-88.925
 20
-75.625
 11
-90.225
 21
-76.925
  0
ENDBLK
  0
BLOCK
  2
*HAT_0009
 70
    65
 10
0.0
 20
0.0
  0
LINE
  8
その他部品等
 10
-71.25
 20
-89.475
 11
-71.35
 21
-89.375
  0
LINE
  8
その他部品等
 10
-69.725
 20
-89.6
 11
-71.225
 21
-88.1
  0
LINE
  8
その他部品等
 10
-68.2
 20
-89.7
 11
-69.8
 21
-88.1
  0
LINE
  8
その他部品等
 10
-66.675
 20
-89.825
 11
-68.4
 21
-88.1
  0
LINE
  8
その他部品等
 10
-65.15
 20
-89.95
 11
-66.975
 21
-88.1
  0
LINE
  8
その他部品等
 10
-63.625
 20
-90.05
 11
-65.575
 21
-88.1
  0
LINE
  8
その他部品等
 10
-62.1
 20
-90.175
 11
-64.15
 21
-88.1
  0
LINE
  8
その他部品等
 10
-60.575
 20
-90.3
 11
-62.75
 21
-88.1
  0
LINE
  8
その他部品等
 10
-59.05
 20
-90.4
 11
-61.325
 21
-88.1
  0
LINE
  8
その他部品等
 10
-57.5
 20
-90.525
 11
-59.925
 21
-88.1
  0
LINE
  8
その他部品等
 10
-55.975
 20
-90.625
 11
-58.5
 21
-88.1
  0
LINE
  8
その他部品等
 10
-54.45
 20
-90.75
 11
-57.1
 21
-88.1
  0
LINE
  8
その他部品等
 10
-52.925
 20
-90.875
 11
-55.675
 21
-88.1
  0
LINE
  8
その他部品等
 10
-51.4
 20
-90.975
 11
-54.275
 21
-88.1
  0
LINE
  8
その他部品等
 10
-49.875
 20
-91.1
 11
-52.875
 21
-88.1
  0
LINE
  8
その他部品等
 10
-48.35
 20
-91.225
 11
-51.45
 21
-88.1
  0
LINE
  8
その他部品等
 10
-46.825
 20
-91.325
 11
-49.925
 21
-88.225
  0
LINE
  8
その他部品等
 10
-45.3
 20
-91.45
 11
-48.4
 21
-88.325
  0
LINE
  8
その他部品等
 10
-43.75
 20
-91.55
 11
-46.875
 21
-88.45
  0
LINE
  8
その他部品等
 10
-42.225
 20
-91.675
 11
-45.35
 21
-88.575
  0
LINE
  8
その他部品等
 10
-40.7
 20
-91.8
 11
-43.825
 21
-88.675
  0
LINE
  8
その他部品等
 10
-39.175
 20
-91.9
 11
-42.275
 21
-88.8
  0
LINE
  8
その他部品等
 10
-37.65
 20
-92.025
 11
-40.75
 21
-88.925
  0
LINE
  8
その他部品等
 10
-36.125
 20
-92.15
 11
-39.225
 21
-89.025
  0
LINE
  8
その他部品等
 10
-34.6
 20
-92.25
 11
-37.7
 21
-89.15
  0
LINE
  8
その他部品等
 10
-33.075
 20
-92.375
 11
-36.175
 21
-89.25
  0
LINE
  8
その他部品等
 10
-31.55
 20
-92.475
 11
-34.65
 21
-89.375
  0
LINE
  8
その他部品等
 10
-30.0
 20
-92.6
 11
-33.125
 21
-89.5
  0
LINE
  8
その他部品等
 10
-28.475
 20
-92.725
 11
-31.6
 21
-89.6
  0
LINE
  8
その他部品等
 10
-26.95
 20
-92.825
 11
-30.075
 21
-89.725
  0
LINE
  8
その他部品等
 10
-25.425
 20
-92.95
 11
-28.55
 21
-89.85
  0
LINE
  8
その他部品等
 10
-23.9
 20
-93.075
 11
-27.0
 21
-89.95
  0
LINE
  8
その他部品等
 10
-22.375
 20
-93.175
 11
-25.475
 21
-90.075
  0
LINE
  8
その他部品等
 10
-20.85
 20
-93.3
 11
-23.95
 21
-90.2
  0
LINE
  8
その他部品等
 10
-19.325
 20
-93.4
 11
-22.425
 21
-90.3
  0
LINE
  8
その他部品等
 10
-17.8
 20
-93.525
 11
-20.9
 21
-90.425
  0
LINE
  8
その他部品等
 10
-16.275
 20
-93.65
 11
-19.375
 21
-90.525
  0
LINE
  8
その他部品等
 10
-14.725
 20
-93.75
 11
-17.85
 21
-90.65
  0
LINE
  8
その他部品等
 10
-13.2
 20
-93.875
 11
-16.325
 21
-90.775
  0
LINE
  8
その他部品等
 10
-11.675
 20
-94.0
 11
-14.8
 21
-90.875
  0
LINE
  8
その他部品等
 10
-10.15
 20
-94.1
 11
-13.25
 21
-91.0
  0
LINE
  8
その他部品等
 10
-8.625
 20
-94.225
 11
-11.725
 21
-91.125
  0
LINE
  8
その他部品等
 10
-7.1
 20
-94.35
 11
-10.2
 21
-91.225
  0
LINE
  8
その他部品等
 10
-5.575
 20
-94.45
 11
-8.675
 21
-91.35
  0
LINE
  8
その他部品等
 10
-4.05
 20
-94.575
 11
-7.15
 21
-91.45
  0
LINE
  8
その他部品等
 10
-2.525
 20
-94.675
 11
-5.625
 21
-91.575
  0
LINE
  8
その他部品等
 10
-0.975
 20
-94.8
 11
-4.1
 21
-91.7
  0
LINE
  8
その他部品等
 10
9.725
 20
-104.1
 11
9.65
 21
-104.025
  0
LINE
  8
その他部品等
 10
11.15
 20
-104.1
 11
9.65
 21
-102.6
  0
LINE
  8
その他部品等
 10
12.55
 20
-104.1
 11
9.65
 21
-101.2
  0
LINE
  8
その他部品等
 10
0.55
 20
-94.925
 11
-2.575
 21
-91.8
  0
LINE
  8
その他部品等
 10
2.075
 20
-95.025
 11
-1.05
 21
-91.925
  0
LINE
  8
その他部品等
 10
3.6
 20
-95.15
 11
0.5
 21
-92.05
  0
LINE
  8
その他部品等
 10
12.65
 20
-102.775
 11
9.65
 21
-99.775
  0
LINE
  8
その他部品等
 10
12.65
 20
-101.375
 11
9.65
 21
-98.375
  0
LINE
  8
その他部品等
 10
5.125
 20
-95.275
 11
2.025
 21
-92.15
  0
LINE
  8
その他部品等
 10
6.65
 20
-95.375
 11
3.55
 21
-92.275
  0
LINE
  8
その他部品等
 10
12.65
 20
-99.975
 11
9.575
 21
-96.875
  0
LINE
  8
その他部品等
 10
8.2
 20
-95.5
 11
5.075
 21
-92.4
  0
LINE
  8
その他部品等
 10
12.65
 20
-98.55
 11
6.6
 21
-92.5
  0
LINE
  8
その他部品等
 10
12.65
 20
-97.15
 11
8.125
 21
-92.625
  0
LINE
  8
その他部品等
 10
12.65
 20
-95.725
 11
9.65
 21
-92.725
  0
LINE
  8
その他部品等
 10
12.65
 20
-94.325
 11
11.175
 21
-92.85
  0
LINE
  8
その他部品等
 10
12.65
 20
-103.3
 11
11.85
 21
-104.1
  0
LINE
  8
その他部品等
 10
12.65
 20
-101.9
 11
10.45
 21
-104.1
  0
LINE
  8
その他部品等
 10
12.65
 20
-100.5
 11
9.65
 21
-103.5
  0
LINE
  8
その他部品等
 10
12.65
 20
-99.075
 11
9.65
 21
-102.075
  0
LINE
  8
その他部品等
 10
12.65
 20
-97.675
 11
9.65
 21
-100.675
  0
LINE
  8
その他部品等
 10
12.65
 20
-96.25
 11
9.65
 21
-99.25
  0
LINE
  8
その他部品等
 10
12.65
 20
-94.85
 11
9.65
 21
-97.85
  0
LINE
  8
その他部品等
 10
12.65
 20
-93.425
 11
9.45
 21
-96.625
  0
LINE
  8
その他部品等
 10
11.775
 20
-92.9
 11
8.85
 21
-95.8
  0
LINE
  8
その他部品等
 10
10.475
 20
-92.8
 11
7.8
 21
-95.45
  0
LINE
  8
その他部品等
 10
9.15
 20
-92.7
 11
6.475
 21
-95.375
  0
LINE
  8
その他部品等
 10
7.85
 20
-92.6
 11
5.175
 21
-95.275
  0
LINE
  8
その他部品等
 10
6.525
 20
-92.5
 11
3.85
 21
-95.175
  0
LINE
  8
その他部品等
 10
5.225
 20
-92.4
 11
2.55
 21
-95.075
  0
LINE
  8
その他部品等
 10
3.9
 20
-92.3
 11
1.225
 21
-94.975
  0
LINE
  8
その他部品等
 10
2.6
 20
-92.2
 11
-0.075
 21
-94.875
  0
LINE
  8
その他部品等
 10
1.275
 20
-92.1
 11
-1.4
 21
-94.775
  0
LINE
  8
その他部品等
 10
-0.025
 20
-92.0
 11
-2.7
 21
-94.675
  0
LINE
  8
その他部品等
 10
-1.35
 20
-91.9
 11
-4.025
 21
-94.575
  0
LINE
  8
その他部品等
 10
-2.65
 20
-91.8
 11
-5.325
 21
-94.475
  0
LINE
  8
その他部品等
 10
-3.975
 20
-91.7
 11
-6.65
 21
-94.375
  0
LINE
  8
その他部品等
 10
-5.3
 20
-91.6
 11
-7.95
 21
-94.275
  0
LINE
  8
その他部品等
 10
-6.6
 20
-91.5
 11
-9.275
 21
-94.175
  0
LINE
  8
その他部品等
 10
-7.9
 20
-91.4
 11
-10.575
 21
-94.075
  0
LINE
  8
その他部品等
 10
-9.225
 20
-91.3
 11
-11.9
 21
-93.975
  0
LINE
  8
その他部品等
 10
-10.525
 20
-91.2
 11
-13.2
 21
-93.875
  0
LINE
  8
その他部品等
 10
-11.85
 20
-91.1
 11
-14.525
 21
-93.775
  0
LINE
  8
その他部品等
 10
-13.15
 20
-91.0
 11
-15.825
 21
-93.675
  0
LINE
  8
その他部品等
 10
-14.475
 20
-90.9
 11
-17.15
 21
-93.575
  0
LINE
  8
その他部品等
 10
-15.775
 20
-90.8
 11
-18.45
 21
-93.475
  0
LINE
  8
その他部品等
 10
-17.1
 20
-90.7
 11
-19.775
 21
-93.375
  0
LINE
  8
その他部品等
 10
-18.4
 20
-90.6
 11
-21.075
 21
-93.275
  0
LINE
  8
その他部品等
 10
-19.725
 20
-90.5
 11
-22.4
 21
-93.175
  0
LINE
  8
その他部品等
 10
-21.025
 20
-90.4
 11
-23.7
 21
-93.075
  0
LINE
  8
その他部品等
 10
-22.35
 20
-90.3
 11
-25.025
 21
-92.975
  0
LINE
  8
その他部品等
 10
-23.65
 20
-90.2
 11
-26.325
 21
-92.875
  0
LINE
  8
その他部品等
 10
-24.975
 20
-90.1
 11
-27.65
 21
-92.775
  0
LINE
  8
その他部品等
 10
-26.275
 20
-90.0
 11
-28.95
 21
-92.675
  0
LINE
  8
その他部品等
 10
-27.6
 20
-89.9
 11
-30.275
 21
-92.575
  0
LINE
  8
その他部品等
 10
-28.9
 20
-89.8
 11
-31.575
 21
-92.475
  0
LINE
  8
その他部品等
 10
-30.225
 20
-89.7
 11
-32.9
 21
-92.375
  0
LINE
  8
その他部品等
 10
-31.525
 20
-89.6
 11
-34.2
 21
-92.275
  0
LINE
  8
その他部品等
 10
-32.85
 20
-89.5
 11
-35.525
 21
-92.175
  0
LINE
  8
その他部品等
 10
-34.15
 20
-89.425
 11
-36.825
 21
-92.075
  0
LINE
  8
その他部品等
 10
-35.475
 20
-89.325
 11
-38.15
 21
-91.975
  0
LINE
  8
その他部品等
 10
-36.775
 20
-89.225
 11
-39.45
 21
-91.875
  0
LINE
  8
その他部品等
 10
-38.1
 20
-89.125
 11
-40.775
 21
-91.775
  0
LINE
  8
その他部品等
 10
-39.4
 20
-89.025
 11
-42.075
 21
-91.675
  0
LINE
  8
その他部品等
 10
-40.725
 20
-88.925
 11
-43.4
 21
-91.575
  0
LINE
  8
その他部品等
 10
-42.025
 20
-88.825
 11
-44.7
 21
-91.475
  0
LINE
  8
その他部品等
 10
-43.35
 20
-88.725
 11
-46.025
 21
-91.375
  0
LINE
  8
その他部品等
 10
-44.675
 20
-88.625
 11
-47.325
 21
-91.275
  0
LINE
  8
その他部品等
 10
-45.975
 20
-88.525
 11
-48.65
 21
-91.175
  0
LINE
  8
その他部品等
 10
-47.275
 20
-88.425
 11
-49.95
 21
-91.075
  0
LINE
  8
その他部品等
 10
-48.6
 20
-88.325
 11
-51.275
 21
-91.0
  0
LINE
  8
その他部品等
 10
-49.9
 20
-88.225
 11
-52.575
 21
-90.9
  0
LINE
  8
その他部品等
 10
-51.225
 20
-88.125
 11
-53.9
 21
-90.8
  0
LINE
  8
その他部品等
 10
-52.625
 20
-88.1
 11
-55.2
 21
-90.7
  0
LINE
  8
その他部品等
 10
-54.025
 20
-88.1
 11
-56.525
 21
-90.6
  0
LINE
  8
その他部品等
 10
-55.45
 20
-88.1
 11
-57.825
 21
-90.5
  0
LINE
  8
その他部品等
 10
-56.85
 20
-88.1
 11
-59.15
 21
-90.4
  0
LINE
  8
その他部品等
 10
-58.275
 20
-88.1
 11
-60.45
 21
-90.3
  0
LINE
  8
その他部品等
 10
-59.675
 20
-88.1
 11
-61.775
 21
-90.2
  0
LINE
  8
その他部品等
 10
-61.1
 20
-88.1
 11
-63.075
 21
-90.1
  0
LINE
  8
その他部品等
 10
-62.5
 20
-88.1
 11
-64.4
 21
-90.0
  0
LINE
  8
その他部品等
 10
-63.925
 20
-88.1
 11
-65.7
 21
-89.9
  0
LINE
  8
その他部品等
 10
-65.325
 20
-88.1
 11
-67.025
 21
-89.8
  0
LINE
  8
その他部品等
 10
-66.75
 20
-88.1
 11
-68.325
 21
-89.7
  0
LINE
  8
その他部品等
 10
-68.15
 20
-88.1
 11
-69.65
 21
-89.6
  0
LINE
  8
その他部品等
 10
-69.575
 20
-88.1
 11
-70.95
 21
-89.5
  0
LINE
  8
その他部品等
 10
-70.975
 20
-88.1
 11
-71.35
 21
-88.475
  0
ENDBLK
  0
BLOCK
  2
*HAT_0010
 70
    65
 10
0.0
 20
0.0
  0
LINE
  8
その他部品等
 10
-70.925
 20
-102.5
 11
-71.35
 21
-102.1
  0
LINE
  8
その他部品等
 10
-69.525
 20
-102.5
 11
-71.35
 21
-100.675
  0
LINE
  8
その他部品等
 10
-68.125
 20
-102.5
 11
-71.35
 21
-99.275
  0
LINE
  8
その他部品等
 10
-66.7
 20
-102.5
 11
-71.35
 21
-97.85
  0
LINE
  8
その他部品等
 10
-65.3
 20
-102.5
 11
-71.35
 21
-96.45
  0
LINE
  8
その他部品等
 10
-63.875
 20
-102.5
 11
-71.35
 21
-95.025
  0
LINE
  8
その他部品等
 10
-62.475
 20
-102.5
 11
-71.35
 21
-93.625
  0
LINE
  8
その他部品等
 10
-61.05
 20
-102.5
 11
-71.35
 21
-92.2
  0
LINE
  8
その他部品等
 10
-59.65
 20
-102.5
 11
-71.05
 21
-91.1
  0
LINE
  8
その他部品等
 10
-58.225
 20
-102.5
 11
-69.525
 21
-91.225
  0
LINE
  8
その他部品等
 10
-56.825
 20
-102.5
 11
-68.0
 21
-91.325
  0
LINE
  8
その他部品等
 10
-55.4
 20
-102.5
 11
-66.475
 21
-91.45
  0
LINE
  8
その他部品等
 10
-54.0
 20
-102.5
 11
-64.95
 21
-91.55
  0
LINE
  8
その他部品等
 10
-52.575
 20
-102.5
 11
-63.425
 21
-91.675
  0
LINE
  8
その他部品等
 10
-51.55
 20
-102.125
 11
-61.875
 21
-91.8
  0
LINE
  8
その他部品等
 10
-51.55
 20
-100.7
 11
-60.35
 21
-91.9
  0
LINE
  8
その他部品等
 10
-51.55
 20
-99.3
 11
-58.825
 21
-92.025
  0
LINE
  8
その他部品等
 10
-51.55
 20
-97.875
 11
-57.3
 21
-92.15
  0
LINE
  8
その他部品等
 10
-51.55
 20
-96.475
 11
-55.775
 21
-92.25
  0
LINE
  8
その他部品等
 10
-51.55
 20
-95.075
 11
-54.25
 21
-92.375
  0
LINE
  8
その他部品等
 10
-51.55
 20
-93.65
 11
-52.725
 21
-92.5
  0
LINE
  8
その他部品等
 10
-51.55
 20
-101.15
 11
-52.9
 21
-102.5
  0
LINE
  8
その他部品等
 10
-51.55
 20
-99.75
 11
-54.325
 21
-102.5
  0
LINE
  8
その他部品等
 10
-51.55
 20
-98.325
 11
-55.725
 21
-102.5
  0
LINE
  8
その他部品等
 10
-51.55
 20
-96.925
 11
-57.15
 21
-102.5
  0
LINE
  8
その他部品等
 10
-51.55
 20
-95.5
 11
-58.55
 21
-102.5
  0
LINE
  8
その他部品等
 10
-51.55
 20
-94.1
 11
-59.95
 21
-102.5
  0
LINE
  8
その他部品等
 10
-51.55
 20
-92.675
 11
-61.375
 21
-102.5
  0
LINE
  8
その他部品等
 10
-52.775
 20
-92.475
 11
-62.775
 21
-102.5
  0
LINE
  8
その他部品等
 10
-54.075
 20
-92.375
 11
-64.2
 21
-102.5
  0
LINE
  8
その他部品等
 10
-55.375
 20
-92.275
 11
-65.6
 21
-102.5
  0
LINE
  8
その他部品等
 10
-56.7
 20
-92.175
 11
-67.025
 21
-102.5
  0
LINE
  8
その他部品等
 10
-58.0
 20
-92.075
 11
-68.425
 21
-102.5
  0
LINE
  8
その他部品等
 10
-59.325
 20
-91.975
 11
-69.85
 21
-102.5
  0
LINE
  8
その他部品等
 10
-60.65
 20
-91.875
 11
-71.25
 21
-102.5
  0
LINE
  8
その他部品等
 10
-61.95
 20
-91.775
 11
-71.35
 21
-101.175
  0
LINE
  8
その他部品等
 10
-63.275
 20
-91.675
 11
-71.35
 21
-99.775
  0
LINE
  8
その他部品等
 10
-64.575
 20
-91.6
 11
-71.35
 21
-98.35
  0
LINE
  8
その他部品等
 10
-65.9
 20
-91.5
 11
-71.35
 21
-96.95
  0
LINE
  8
その他部品等
 10
-67.2
 20
-91.4
 11
-71.35
 21
-95.525
  0
LINE
  8
その他部品等
 10
-68.5
 20
-91.3
 11
-71.35
 21
-94.125
  0
LINE
  8
その他部品等
 10
-69.825
 20
-91.2
 11
-71.35
 21
-92.7
  0
LINE
  8
その他部品等
 10
-71.15
 20
-91.1
 11
-71.35
 21
-91.3
  0
ENDBLK
  0
BLOCK
  2
*HAT_0011
 70
    65
 10
0.0
 20
0.0
  0
LINE
  8
その他部品等
 10
-83.725
 20
-93.65
 11
-85.975
 21
-91.4
  0
LINE
  8
その他部品等
 10
-81.1
 20
-94.85
 11
-85.975
 21
-90.0
  0
LINE
  8
その他部品等
 10
-78.475
 20
-96.075
 11
-85.975
 21
-88.575
  0
LINE
  8
その他部品等
 10
-75.85
 20
-97.3
 11
-85.525
 21
-87.6
  0
LINE
  8
その他部品等
 10
-73.375
 20
-98.35
 11
-84.1
 21
-87.6
  0
LINE
  8
その他部品等
 10
-73.375
 20
-96.95
 11
-82.7
 21
-87.6
  0
LINE
  8
その他部品等
 10
-73.375
 20
-95.525
 11
-81.275
 21
-87.6
  0
LINE
  8
その他部品等
 10
-73.375
 20
-94.125
 11
-79.875
 21
-87.6
  0
LINE
  8
その他部品等
 10
-73.375
 20
-92.7
 11
-78.475
 21
-87.6
  0
LINE
  8
その他部品等
 10
-73.375
 20
-91.3
 11
-77.05
 21
-87.6
  0
LINE
  8
その他部品等
 10
-73.375
 20
-89.875
 11
-75.65
 21
-87.6
  0
LINE
  8
その他部品等
 10
-73.375
 20
-88.475
 11
-74.225
 21
-87.6
  0
LINE
  8
その他部品等
 10
-73.35
 20
-97.85
 11
-73.75
 21
-98.25
  0
LINE
  8
その他部品等
 10
-73.35
 20
-96.45
 11
-74.725
 21
-97.8
  0
LINE
  8
その他部品等
 10
-73.35
 20
-95.025
 11
-75.675
 21
-97.35
  0
LINE
  8
その他部品等
 10
-73.35
 20
-93.625
 11
-76.65
 21
-96.9
  0
LINE
  8
その他部品等
 10
-73.35
 20
-92.225
 11
-77.6
 21
-96.475
  0
LINE
  8
その他部品等
 10
-73.35
 20
-90.8
 11
-78.575
 21
-96.025
  0
LINE
  8
その他部品等
 10
-73.35
 20
-89.4
 11
-79.55
 21
-95.575
  0
LINE
  8
その他部品等
 10
-73.35
 20
-87.975
 11
-80.5
 21
-95.125
  0
LINE
  8
その他部品等
 10
-74.4
 20
-87.6
 11
-81.475
 21
-94.675
  0
LINE
  8
その他部品等
 10
-75.8
 20
-87.6
 11
-82.45
 21
-94.225
  0
LINE
  8
その他部品等
 10
-77.225
 20
-87.6
 11
-83.4
 21
-93.8
  0
LINE
  8
その他部品等
 10
-78.625
 20
-87.6
 11
-84.375
 21
-93.35
  0
LINE
  8
その他部品等
 10
-80.05
 20
-87.6
 11
-85.325
 21
-92.9
  0
LINE
  8
その他部品等
 10
-81.45
 20
-87.6
 11
-85.95
 21
-92.1
  0
LINE
  8
その他部品等
 10
-82.875
 20
-87.6
 11
-85.95
 21
-90.7
  0
LINE
  8
その他部品等
 10
-84.275
 20
-87.6
 11
-85.95
 21
-89.275
  0
LINE
  8
その他部品等
 10
-85.7
 20
-87.6
 11
-85.95
 21
-87.875
  0
ENDBLK
  0
BLOCK
  2
*GRP_0001
 70
    65
 10
0.0
 20
0.0
  0
LINE
  8
型材断面
  6
CONTINUOUS
 10
195.0
 20
133.5
 11
195.0
 21
-133.5
  0
LINE
  8
型材断面
  6
CONTINUOUS
 10
195.0
 20
-133.5
 11
-185.0
 21
-133.5
  0
LINE
  8
型材断面
  6
CONTINUOUS
 10
-185.0
 20
-133.5
 11
-185.0
 21
133.5
  0
LINE
  8
型材断面
  6
CONTINUOUS
 10
195.0
 20
133.5
 11
-185.0
 21
133.5
  0
LINE
  8
型材断面
  6
CONTINUOUS
 10
145.0
 20
-133.5
 11
145.0
 21
-118.5
  0
LINE
  8
型材断面
  6
CONTINUOUS
 10
195.0
 20
-118.5
 11
145.0
 21
-118.5
  0
ENDBLK
  0
BLOCK
  2
*GRP_0002
 70
    65
 10
0.0
 20
0.0
  0
LINE
  8
別途部材
  6
CONTINUOUS
 62
    47
 10
-64.219268
 20
-104.07431
 11
-6.719293
 21
-104.07431
  0
LINE
  8
別途部材
  6
CONTINUOUS
 62
    47
 10
-64.219268
 20
-102.47431
 11
-6.719293
 21
-102.47431
  0
LINE
  8
別途部材
  6
CONTINUOUS
 62
    47
 10
-21.219268
 20
-104.07431
 11
-14.983893
 21
-107.67431
  0
LINE
  8
別途部材
  6
CONTINUOUS
 62
    47
 10
-6.719293
 20
-107.67431
 11
-14.983893
 21
-107.67431
  0
LINE
  8
別途部材
  6
CONTINUOUS
 62
    47
 10
-6.719293
 20
-106.07431
 11
-14.555167
 21
-106.07431
  0
LINE
  8
別途部材
  6
CONTINUOUS
 62
    47
 10
-18.019268
 20
-104.07431
 11
-14.555167
 21
-106.07431
  0
LINE
  8
別途部材
  6
CONTINUOUS
 62
    47
 10
-6.719293
 20
-104.07431
 11
-6.719293
 21
-102.47431
  0
LINE
  8
別途部材
  6
CONTINUOUS
 62
    47
 10
-6.719293
 20
-106.07431
 11
-6.719293
 21
-107.67431
  0
LINE
  8
別途部材
  6
CONTINUOUS
 62
    47
 10
-49.719268
 20
-104.07431
 11
-55.954643
 21
-107.67431
  0
LINE
  8
別途部材
  6
CONTINUOUS
 62
    47
 10
-64.219268
 20
-107.67431
 11
-55.954643
 21
-107.67431
  0
LINE
  8
別途部材
  6
CONTINUOUS
 62
    47
 10
-64.219268
 20
-106.07431
 11
-56.383392
 21
-106.07431
  0
LINE
  8
別途部材
  6
CONTINUOUS
 62
    47
 10
-52.919293
 20
-104.07431
 11
-56.383392
 21
-106.07431
  0
LINE
  8
別途部材
  6
CONTINUOUS
 62
    47
 10
-64.219268
 20
-106.07431
 11
-64.219268
 21
-107.67431
  0
LINE
  8
別途部材
  6
CONTINUOUS
 62
    47
 10
-27.719293
 20
-120.47431
 11
-27.719293
 21
-104.07431
  0
LINE
  8
別途部材
  6
CONTINUOUS
 62
    47
 10
-29.319268
 20
-120.47431
 11
-29.319268
 21
-104.07431
  0
LINE
  8
別途部材
  6
CONTINUOUS
 62
    47
 10
-27.719293
 20
-120.47431
 11
-29.319268
 21
-120.47431
  0
LINE
  8
別途部材
  6
CONTINUOUS
 62
    47
 10
-64.219268
 20
-102.47431
 11
-64.219268
 21
-104.07431
  0
ENDBLK
  0
BLOCK
  2
*GRP_0003
 70
    65
 10
0.0
 20
0.0
  0
LINE
  8
型材断面
  6
CONTINUOUS
 62
    47
 10
-71.269542
 20
-12.570735
 11
-71.269542
 21
-14.070735
  0
LINE
  8
型材断面
  6
CONTINUOUS
 62
    47
 10
-66.269548
 20
-13.770735
 11
-66.569548
 21
-14.070735
  0
LINE
  8
型材断面
  6
CONTINUOUS
 62
    47
 10
-66.269548
 20
-13.770735
 11
-65.969548
 21
-14.070735
  0
LINE
  8
型材断面
  6
CONTINUOUS
 62
    47
 10
-66.569548
 20
-14.070735
 11
-71.269542
 21
-14.070735
  0
ARC
  8
型材断面
  6
CONTINUOUS
 62
    47
 10
-19.49092
 20
-13.870736
 40
0.199974
 50
270.0
 51
386.565051
  0
ARC
  8
型材断面
  6
CONTINUOUS
 62
    47
 10
-14.844308
 20
-13.870736
 40
0.199974
 50
153.434949
 51
270.0
  0
LINE
  8
型材断面
  6
CONTINUOUS
 62
    47
 10
-12.468222
 20
-14.070735
 11
-14.844297
 21
-14.070735
  0
ARC
  8
型材断面
  6
CONTINUOUS
 62
    47
 10
-12.468223
 20
-13.770749
 40
0.299961
 50
270.0
 51
360.0
  0
LINE
  8
型材断面
  6
CONTINUOUS
 62
    47
 10
-22.166945
 20
-12.87111
 11
-24.166947
 21
-12.87111
  0
LINE
  8
型材断面
  6
CONTINUOUS
 62
    47
 10
-43.863163
 20
-13.57074
 11
-43.863163
 21
-12.87111
  0
ARC
  8
型材断面
  6
CONTINUOUS
 62
    47
 10
-44.36315
 20
-13.570737
 40
0.5
 50
270.0
 51
360.0
  0
LINE
  8
型材断面
  6
CONTINUOUS
 62
    47
 10
-19.490923
 20
-14.070735
 11
-23.666945
 21
-14.070735
  0
LINE
  8
型材断面
  6
CONTINUOUS
 62
    47
 10
-24.166947
 20
-13.57074
 11
-24.166947
 21
-12.87111
  0
ARC
  8
型材断面
  6
CONTINUOUS
 62
    47
 10
-23.66693
 20
-13.570737
 40
0.5
 50
180.0
 51
270.0
  0
LINE
  8
型材断面
  6
CONTINUOUS
 62
    47
 10
-24.166947
 20
-10.184167
 11
-24.166947
 21
-11.07111
  0
LINE
  8
型材断面
  6
CONTINUOUS
 62
    47
 10
-22.166945
 20
-11.07111
 11
-24.166947
 21
-11.07111
  0
LINE
  8
型材断面
  6
CONTINUOUS
 62
    47
 10
-43.863163
 20
-9.152955
 11
-43.863163
 21
-11.07111
  0
LINE
  8
型材断面
  6
CONTINUOUS
 62
    47
 10
-22.166945
 20
-12.87111
 11
-22.166945
 21
-11.07111
  0
LINE
  8
型材断面
  6
CONTINUOUS
 62
    47
 10
-33.015057
 20
-11.07111
 11
-35.015053
 21
-11.07111
  0
LINE
  8
型材断面
  6
CONTINUOUS
 62
    47
 10
-33.015057
 20
-11.07111
 11
-33.015057
 21
-9.720915
  0
LINE
  8
型材断面
  6
CONTINUOUS
 62
    47
 10
-35.015053
 20
-11.07111
 11
-35.015053
 21
-9.6162
  0
LINE
  8
型材断面
  6
CONTINUOUS
 62
    47
 10
-43.863163
 20
-9.152955
 11
-35.015053
 21
-9.6162
  0
LINE
  8
型材断面
  6
CONTINUOUS
 62
    47
 10
-12.168245
 20
-13.770765
 11
-12.168245
 21
-10.812375
  0
LINE
  8
型材断面
  6
CONTINUOUS
 62
    47
 10
-33.015057
 20
-9.720915
 11
-24.166947
 21
-10.184167
  0
LINE
  8
型材断面
  6
CONTINUOUS
 62
    47
 10
-13.65011
 20
-11.035192
 11
-20.874222
 21
-10.656967
  0
LINE
  8
型材断面
  6
CONTINUOUS
 62
    47
 10
-19.312047
 20
-13.78131
 11
-20.874222
 21
-10.656967
  0
LINE
  8
型材断面
  6
CONTINUOUS
 62
    47
 10
-15.023172
 20
-13.78131
 11
-13.65011
 21
-11.035192
  0
LINE
  8
型材断面
  6
CONTINUOUS
 62
    47
 10
-43.863163
 20
-11.07111
 11
-45.863165
 21
-11.07111
  0
LINE
  8
型材断面
  6
CONTINUOUS
 62
    47
 10
-45.863165
 20
-11.07111
 11
-45.863165
 21
-12.87111
  0
LINE
  8
型材断面
  6
CONTINUOUS
 62
    47
 10
-43.863163
 20
-12.87111
 11
-45.863165
 21
-12.87111
  0
LINE
  8
型材断面
  6
CONTINUOUS
 62
    47
 10
-50.864008
 20
-9.570735
 11
-52.364008
 21
-9.570735
  0
LINE
  8
型材断面
  6
CONTINUOUS
 62
    47
 10
-52.364008
 20
-12.570735
 11
-52.364008
 21
-9.570735
  0
LINE
  8
型材断面
  6
CONTINUOUS
 62
    47
 10
-50.864008
 20
-9.570735
 11
-50.864008
 21
-12.570735
  0
LINE
  8
型材断面
  6
CONTINUOUS
 62
    47
 10
-50.864008
 20
-12.570735
 11
-47.364005
 21
-12.570735
  0
LINE
  8
型材断面
  6
CONTINUOUS
 62
    47
 10
-16.871353
 20
-8.863815
 11
-16.556075
 21
-8.57991
  0
LINE
  8
型材断面
  6
CONTINUOUS
 62
    47
 10
-16.871353
 20
-8.863815
 11
-17.155257
 21
-8.548538
  0
LINE
  8
型材断面
  6
CONTINUOUS
 62
    47
 10
-45.364002
 20
-7.071645
 11
-17.155257
 21
-8.548538
  0
LINE
  8
型材断面
  6
CONTINUOUS
 62
    47
 10
-71.269542
 20
-12.570735
 11
-52.364008
 21
-12.570735
  0
LINE
  8
型材断面
  6
CONTINUOUS
 62
    47
 10
-65.969548
 20
-14.070735
 11
-44.36315
 21
-14.070735
  0
LINE
  8
型材断面
  6
CONTINUOUS
 62
    47
 10
-45.664002
 20
24.728865
 11
-45.364002
 21
25.028865
  0
LINE
  8
型材断面
  6
CONTINUOUS
 62
    47
 10
-45.664002
 20
24.728865
 11
-45.364002
 21
24.428865
  0
LINE
  8
型材断面
  6
CONTINUOUS
 62
    47
 10
-45.664002
 20
5.461935
 11
-45.364002
 21
5.761935
  0
LINE
  8
型材断面
  6
CONTINUOUS
 62
    47
 10
-45.664002
 20
5.461935
 11
-45.364002
 21
5.161935
  0
LINE
  8
型材断面
  6
CONTINUOUS
 62
    47
 10
-45.364002
 20
-7.071645
 11
-45.364002
 21
5.161935
  0
LINE
  8
型材断面
  6
CONTINUOUS
 62
    47
 10
-45.364002
 20
5.761935
 11
-45.364002
 21
24.428865
  0
ARC
  8
型材断面
  6
CONTINUOUS
 62
    47
 10
-46.364003
 20
64.429332
 40
1.0
 50
0.0
 51
90.0
  0
LINE
  8
型材断面
  6
CONTINUOUS
 62
    47
 10
-50.864008
 20
63.929325
 11
-50.864008
 21
60.929325
  0
LINE
  8
型材断面
  6
CONTINUOUS
 62
    47
 10
-50.864008
 20
60.929325
 11
-52.364008
 21
60.929325
  0
LINE
  8
型材断面
  6
CONTINUOUS
 62
    47
 10
-52.364008
 20
63.929325
 11
-52.364008
 21
60.929325
  0
LINE
  8
型材断面
  6
CONTINUOUS
 62
    47
 10
-50.864008
 20
63.929325
 11
-47.364005
 21
63.929325
  0
LINE
  8
型材断面
  6
CONTINUOUS
 62
    47
 10
-46.364008
 20
65.429325
 11
-55.164005
 21
65.429325
  0
LINE
  8
型材断面
  6
CONTINUOUS
 62
    47
 10
-52.364008
 20
63.929325
 11
-57.164008
 21
63.929325
  0
LINE
  8
型材断面
  6
CONTINUOUS
 62
    47
 10
-55.164005
 20
82.929263
 11
-57.164008
 21
82.929263
  0
LINE
  8
型材断面
  6
CONTINUOUS
 62
    47
 10
-57.164008
 20
63.929325
 11
-57.164008
 21
82.929263
  0
LINE
  8
型材断面
  6
CONTINUOUS
 62
    47
 10
-55.464005
 20
77.92926
 11
-55.164005
 21
78.22926
  0
LINE
  8
型材断面
  6
CONTINUOUS
 62
    47
 10
-55.464005
 20
77.92926
 11
-55.164005
 21
77.62926
  0
LINE
  8
型材断面
  6
CONTINUOUS
 62
    47
 10
-55.164005
 20
65.429325
 11
-55.164005
 21
77.62926
  0
LINE
  8
型材断面
  6
CONTINUOUS
 62
    47
 10
-55.164005
 20
78.22926
 11
-55.164005
 21
82.929263
  0
LINE
  8
型材断面
  6
CONTINUOUS
 62
    47
 10
-47.364005
 20
-12.570735
 11
-47.364005
 21
63.929325
  0
LINE
  8
型材断面
  6
CONTINUOUS
 62
    47
 10
-45.364002
 20
25.028865
 11
-45.364002
 21
64.429327
  0
ARC
  8
型材断面
  6
CONTINUOUS
 62
    47
 10
-7.669444
 20
-13.770756
 40
0.299961
 50
270.0
 51
360.0
  0
LINE
  8
型材断面
  6
CONTINUOUS
 62
    47
 10
-9.069268
 20
-14.070742
 11
-7.669467
 21
-14.070742
  0
ARC
  8
型材断面
  6
CONTINUOUS
 62
    47
 10
-9.069263
 20
-13.770756
 40
0.299961
 50
180.0
 51
270.0
  0
LINE
  8
型材断面
  6
CONTINUOUS
 62
    47
 10
-9.369245
 20
-13.770765
 11
-9.369245
 21
-10.969417
  0
LINE
  8
型材断面
  6
CONTINUOUS
 62
    47
 10
-7.369498
 20
-13.770765
 11
-7.369498
 21
-9.071378
  0
LINE
  8
型材断面
  6
CONTINUOUS
 62
    47
 10
-12.168245
 20
-10.812375
 11
-9.369245
 21
-10.958918
  0
LINE
  8
型材断面
  6
CONTINUOUS
 62
    47
 10
-16.556075
 20
-8.57991
 11
-7.369498
 21
-9.060877
  0
ENDBLK
  0
BLOCK
  2
*GRP_0004
 70
    65
 10
0.0
 20
0.0
  0
LINE
  8
型材断面
  6
CONTINUOUS
 62
    47
 10
-0.369245
 20
-116.074222
 11
-1.869245
 21
-116.074222
  0
LINE
  8
型材断面
  6
CONTINUOUS
 62
    47
 10
-1.869245
 20
-116.074222
 11
-1.869245
 21
-106.07412
  0
LINE
  8
型材断面
  6
CONTINUOUS
 62
    47
 10
-0.369245
 20
-116.074222
 11
-0.369245
 21
-106.074248
  0
ARC
  8
型材断面
  6
CONTINUOUS
 62
    47
 10
-59.469253
 20
-104.574247
 40
0.5
 50
0.0
 51
90.0
  0
LINE
  8
型材断面
  6
CONTINUOUS
 62
    47
 10
-58.969265
 20
-104.574248
 11
-58.969265
 21
-105.574245
  0
ARC
  8
型材断面
  6
CONTINUOUS
 62
    47
 10
-59.469253
 20
-105.574247
 40
0.5
 50
270.0
 51
360.0
  0
LINE
  8
型材断面
  6
CONTINUOUS
 62
    47
 10
-73.36949
 20
-106.074248
 11
-73.36949
 21
-87.574193
  0
LINE
  8
型材断面
  6
CONTINUOUS
 62
    47
 10
-71.369495
 20
-104.074245
 11
-71.369495
 21
-88.074187
  0
LINE
  8
型材断面
  6
CONTINUOUS
 62
    47
 10
-59.469268
 20
-104.074245
 11
-71.369495
 21
-104.074245
  0
ARC
  8
型材断面
  6
CONTINUOUS
 62
    47
 10
-11.469253
 20
-104.57431
 40
0.5
 50
90.0
 51
180.0
  0
LINE
  8
型材断面
  6
CONTINUOUS
 62
    47
 10
-11.96927
 20
-104.574308
 11
-11.96927
 21
-105.574185
  0
ARC
  8
型材断面
  6
CONTINUOUS
 62
    47
 10
-11.469253
 20
-105.574185
 40
0.5
 50
180.0
 51
270.0
  0
LINE
  8
型材断面
  6
CONTINUOUS
 62
    47
 10
-51.669455
 20
-83.074193
 11
-51.369455
 21
-82.774193
  0
LINE
  8
型材断面
  6
CONTINUOUS
 62
    47
 10
-51.669455
 20
-83.074193
 11
-51.369455
 21
-83.374193
  0
LINE
  8
型材断面
  6
CONTINUOUS
 62
    47
 10
-53.369495
 20
-38.070465
 11
-53.369495
 21
-86.074193
  0
LINE
  8
型材断面
  6
CONTINUOUS
 62
    47
 10
12.630505
 20
-104.074245
 11
-11.469253
 21
-104.074245
  0
LINE
  8
型材断面
  6
CONTINUOUS
 62
    47
 10
-1.869245
 20
-106.07412
 11
-11.469253
 21
-106.07412
  0
LINE
  8
型材断面
  6
CONTINUOUS
 62
    47
 10
-58.364067
 20
-86.074193
 11
-58.364067
 21
-84.574193
  0
LINE
  8
型材断面
  6
CONTINUOUS
 62
    47
 10
-56.864067
 20
-86.074193
 11
-56.864067
 21
-84.574193
  0
LINE
  8
型材断面
  6
CONTINUOUS
 62
    47
 10
-56.864067
 20
-84.574193
 11
-58.364067
 21
-84.574193
  0
LINE
  8
型材断面
  6
CONTINUOUS
 62
    47
 10
-56.864067
 20
-86.074193
 11
-53.369495
 21
-86.074193
  0
LINE
  8
型材断面
  6
CONTINUOUS
 62
    47
 10
-51.369492
 20
-83.374147
 11
-51.369492
 21
-86.073772
  0
LINE
  8
型材断面
  6
CONTINUOUS
 62
    47
 10
5.630508
 20
-105.774248
 11
5.330508
 21
-106.074248
  0
LINE
  8
型材断面
  6
CONTINUOUS
 62
    47
 10
5.630508
 20
-105.774248
 11
5.930508
 21
-106.074248
  0
LINE
  8
型材断面
  6
CONTINUOUS
 62
    47
 10
-0.369245
 20
-106.074248
 11
5.330508
 21
-106.074248
  0
LINE
  8
型材断面
  6
CONTINUOUS
 62
    47
 10
14.630508
 20
-106.074248
 11
5.930508
 21
-106.074248
  0
LINE
  8
型材断面
  6
CONTINUOUS
 62
    47
 10
-62.969255
 20
-105.774248
 11
-62.669255
 21
-106.074248
  0
LINE
  8
型材断面
  6
CONTINUOUS
 62
    47
 10
-62.969255
 20
-105.774248
 11
-63.269255
 21
-106.074248
  0
LINE
  8
型材断面
  6
CONTINUOUS
 62
    47
 10
-59.469268
 20
-106.074248
 11
-62.669255
 21
-106.074248
  0
LINE
  8
型材断面
  6
CONTINUOUS
 62
    47
 10
-73.36949
 20
-106.074248
 11
-63.269255
 21
-106.074248
  0
LINE
  8
型材断面
  6
CONTINUOUS
 62
    47
 10
-17.16893
 20
-20.37069
 11
-17.468877
 21
-20.070742
  0
LINE
  8
型材断面
  6
CONTINUOUS
 62
    47
 10
-17.16893
 20
-20.37069
 11
-16.868952
 21
-20.070742
  0
LINE
  8
型材断面
  6
CONTINUOUS
 62
    47
 10
-17.468877
 20
-20.070742
 11
-52.16402
 21
-20.070742
  0
LINE
  8
型材断面
  6
CONTINUOUS
 62
    47
 10
-52.169517
 20
-18.07074
 11
-52.169517
 21
-20.070742
  0
LINE
  8
型材断面
  6
CONTINUOUS
 62
    47
 10
-51.669492
 20
-41.071012
 11
-51.369492
 21
-40.771012
  0
LINE
  8
型材断面
  6
CONTINUOUS
 62
    47
 10
-51.669492
 20
-41.071012
 11
-51.369492
 21
-41.371012
  0
LINE
  8
型材断面
  6
CONTINUOUS
 62
    47
 10
-51.669492
 20
-55.071233
 11
-51.369492
 21
-54.771233
  0
LINE
  8
型材断面
  6
CONTINUOUS
 62
    47
 10
-51.669492
 20
-55.071233
 11
-51.369492
 21
-55.371233
  0
LINE
  8
型材断面
  6
CONTINUOUS
 62
    47
 10
-51.369492
 20
-54.771233
 11
-51.369492
 21
-41.371012
  0
LINE
  8
型材断面
  6
CONTINUOUS
 62
    47
 10
-52.169517
 20
-18.07074
 11
-53.369517
 21
-18.07074
  0
LINE
  8
型材断面
  6
CONTINUOUS
 62
    47
 10
-51.369492
 20
-82.77423
 11
-51.369492
 21
-55.371233
  0
LINE
  8
型材断面
  6
CONTINUOUS
 62
    47
 10
-51.669492
 20
-27.070463
 11
-51.369492
 21
-26.770463
  0
LINE
  8
型材断面
  6
CONTINUOUS
 62
    47
 10
-51.669492
 20
-27.070463
 11
-51.369492
 21
-27.370463
  0
LINE
  8
型材断面
  6
CONTINUOUS
 62
    47
 10
-51.369492
 20
-22.070467
 11
-51.369492
 21
-26.770463
  0
LINE
  8
型材断面
  6
CONTINUOUS
 62
    47
 10
-51.369492
 20
-27.370463
 11
-51.369492
 21
-40.771012
  0
LINE
  8
型材断面
  6
CONTINUOUS
 62
    47
 10
-53.369495
 20
-37.570463
 11
-56.86949
 21
-37.570463
  0
LINE
  8
型材断面
  6
CONTINUOUS
 62
    47
 10
-53.369495
 20
-36.070463
 11
-58.36949
 21
-36.070463
  0
LINE
  8
型材断面
  6
CONTINUOUS
 62
    47
 10
-58.36949
 20
-38.770463
 11
-56.86949
 21
-38.770463
  0
LINE
  8
型材断面
  6
CONTINUOUS
 62
    47
 10
-56.86949
 20
-37.570463
 11
-56.86949
 21
-38.770463
  0
LINE
  8
型材断面
  6
CONTINUOUS
 62
    47
 10
-58.36949
 20
-38.770463
 11
-58.36949
 21
-36.070463
  0
LINE
  8
型材断面
  6
CONTINUOUS
 62
    47
 10
-53.369517
 20
-20.570737
 11
-53.369517
 21
-36.070463
  0
LINE
  8
型材断面
  6
CONTINUOUS
 62
    47
 10
-53.369517
 20
-77.570737
 11
-53.369517
 21
-37.570463
  0
LINE
  8
型材断面
  6
CONTINUOUS
 62
    47
 10
-53.369517
 20
-18.07074
 11
-53.369517
 21
-36.070463
  0
ARC
  8
型材断面
  6
CONTINUOUS
 62
    47
 10
-7.669446
 20
-18.370938
 40
0.299961
 50
0.0
 51
90.0
  0
LINE
  8
型材断面
  6
CONTINUOUS
 62
    47
 10
-8.26937
 20
-18.070987
 11
-7.669445
 21
-18.070987
  0
ARC
  8
型材断面
  6
CONTINUOUS
 62
    47
 10
-8.269369
 20
-18.370938
 40
0.299961
 50
90.0
 51
180.0
  0
LINE
  8
型材断面
  6
CONTINUOUS
 62
    47
 10
-8.569318
 20
-18.370943
 11
-8.569318
 21
-20.070742
  0
LINE
  8
型材断面
  6
CONTINUOUS
 62
    47
 10
-7.36949
 20
-18.370943
 11
-7.36949
 21
-22.070467
  0
LINE
  8
型材断面
  6
CONTINUOUS
 62
    47
 10
-16.868952
 20
-20.070742
 11
-8.569318
 21
-20.070742
  0
LINE
  8
型材断面
  6
CONTINUOUS
 62
    47
 10
-51.369492
 20
-22.070467
 11
-7.36949
 21
-22.070467
  0
LINE
  8
型材断面
  6
CONTINUOUS
 62
    47
 10
-85.96955
 20
-87.574193
 11
-85.96955
 21
-92.574187
  0
LINE
  8
型材断面
  6
CONTINUOUS
 62
    47
 10
-87.46955
 20
-92.574187
 11
-85.96955
 21
-92.574187
  0
LINE
  8
型材断面
  6
CONTINUOUS
 62
    47
 10
-87.46955
 20
-92.574187
 11
-87.46955
 21
-86.074193
  0
ARC
  8
型材断面
  6
CONTINUOUS
 62
    47
 10
-83.515402
 20
-80.870766
 40
0.3
 50
11.309932
 51
90.0
  0
LINE
  8
型材断面
  6
CONTINUOUS
 62
    47
 10
-83.515423
 20
-80.570745
 11
-85.2695
 21
-80.570745
  0
ARC
  8
型材断面
  6
CONTINUOUS
 62
    47
 10
-77.02356
 20
-80.870766
 40
0.3
 50
90.0
 51
168.690068
  0
LINE
  8
型材断面
  6
CONTINUOUS
 62
    47
 10
-77.023572
 20
-80.570745
 11
-75.269495
 21
-80.570745
  0
LINE
  8
型材断面
  6
CONTINUOUS
 62
    47
 10
-83.221273
 20
-80.811923
 11
-82.669475
 21
-83.570745
  0
LINE
  8
型材断面
  6
CONTINUOUS
 62
    47
 10
-77.317723
 20
-80.811923
 11
-77.86952
 21
-83.570745
  0
LINE
  8
型材断面
  6
CONTINUOUS
 62
    47
 10
-76.2695
 20
-81.570773
 11
-75.269495
 21
-81.570773
  0
LINE
  8
型材断面
  6
CONTINUOUS
 62
    47
 10
-76.2695
 20
-81.570773
 11
-76.2695
 21
-86.074193
  0
LINE
  8
型材断面
  6
CONTINUOUS
 62
    47
 10
-75.269495
 20
-80.570745
 11
-75.269495
 21
-81.570773
  0
LINE
  8
型材断面
  6
CONTINUOUS
 62
    47
 10
-78.569495
 20
-83.570745
 11
-78.569495
 21
-86.074193
  0
LINE
  8
型材断面
  6
CONTINUOUS
 62
    47
 10
-81.9695
 20
-83.570745
 11
-81.9695
 21
-86.074193
  0
LINE
  8
型材断面
  6
CONTINUOUS
 62
    47
 10
-78.569495
 20
-86.074193
 11
-81.9695
 21
-86.074193
  0
LINE
  8
型材断面
  6
CONTINUOUS
 62
    47
 10
-77.86952
 20
-83.570745
 11
-78.569495
 21
-83.570745
  0
LINE
  8
型材断面
  6
CONTINUOUS
 62
    47
 10
-81.9695
 20
-83.570745
 11
-82.669475
 21
-83.570745
  0
LINE
  8
型材断面
  6
CONTINUOUS
 62
    47
 10
-84.269495
 20
-81.570773
 11
-84.269495
 21
-86.074193
  0
LINE
  8
型材断面
  6
CONTINUOUS
 62
    47
 10
-90.269495
 20
-80.570745
 11
-90.269495
 21
-81.570773
  0
LINE
  8
型材断面
  6
CONTINUOUS
 62
    47
 10
-84.269495
 20
-81.570773
 11
-90.269495
 21
-81.570773
  0
LINE
  8
型材断面
  6
CONTINUOUS
 62
    47
 10
-84.269495
 20
-80.570745
 11
-90.269495
 21
-80.570745
  0
LINE
  8
型材断面
  6
CONTINUOUS
 62
    47
 10
-78.569495
 20
-86.074193
 11
-81.9695
 21
-86.074193
  0
LINE
  8
型材断面
  6
CONTINUOUS
 62
    47
 10
-80.269498
 20
-87.274193
 11
-79.969498
 21
-87.574193
  0
LINE
  8
型材断面
  6
CONTINUOUS
 62
    47
 10
-80.269498
 20
-87.274193
 11
-80.569498
 21
-87.574193
  0
LINE
  8
型材断面
  6
CONTINUOUS
 62
    47
 10
-87.46955
 20
-86.074193
 11
-84.269495
 21
-86.074193
  0
LINE
  8
型材断面
  6
CONTINUOUS
 62
    47
 10
-73.36949
 20
-87.574193
 11
-79.969498
 21
-87.574193
  0
LINE
  8
型材断面
  6
CONTINUOUS
 62
    47
 10
-85.96955
 20
-87.574193
 11
-80.569498
 21
-87.574193
  0
LINE
  8
型材断面
  6
CONTINUOUS
 62
    47
 10
-58.364067
 20
-86.074193
 11
-76.2695
 21
-86.074193
  0
LINE
  8
型材断面
  6
CONTINUOUS
 62
    47
 10
12.630505
 20
-104.074245
 11
12.630505
 21
-92.92845
  0
LINE
  8
型材断面
  6
CONTINUOUS
 62
    47
 10
-51.369492
 20
-86.073772
 11
14.630508
 21
-91.074247
  0
LINE
  8
型材断面
  6
CONTINUOUS
 62
    47
 10
14.630508
 20
-106.074248
 11
14.630508
 21
-91.074247
  0
LINE
  8
型材断面
  6
CONTINUOUS
 62
    47
 10
12.630505
 20
-92.92845
 11
-51.439617
 21
-88.074187
  0
LINE
  8
型材断面
  6
CONTINUOUS
 62
    47
 10
-71.369495
 20
-88.074187
 11
-51.439617
 21
-88.074187
  0
ENDBLK
  0
BLOCK
  2
*GRP_0005
 70
    65
 10
0.0
 20
0.0
  0
POLYLINE
  8
ガラス
  6
CONTINUOUS
 66
     1
 70
     4
  0
VERTEX
  8
ガラス
 10
-59.5
 20
-75.3
 70
     8
  0
VERTEX
  8
ガラス
 10
-59.55
 20
-75.225
 70
     8
  0
VERTEX
  8
ガラス
 10
-59.575
 20
-75.125
 70
     8
  0
VERTEX
  8
ガラス
 10
-59.625
 20
-75.05
 70
     8
  0
VERTEX
  8
ガラス
 10
-59.65
 20
-74.95
 70
     8
  0
VERTEX
  8
ガラス
 10
-59.7
 20
-74.875
 70
     8
  0
VERTEX
  8
ガラス
 10
-59.725
 20
-74.8
 70
     8
  0
VERTEX
  8
ガラス
 10
-59.775
 20
-74.7
 70
     8
  0
VERTEX
  8
ガラス
 10
-59.8
 20
-74.625
 70
     8
  0
VERTEX
  8
ガラス
 10
-59.85
 20
-74.55
 70
     8
  0
VERTEX
  8
ガラス
 10
-59.9
 20
-74.475
 70
     8
  0
VERTEX
  8
ガラス
 10
-59.925
 20
-74.4
 70
     8
  0
VERTEX
  8
ガラス
 10
-59.975
 20
-74.325
 70
     8
  0
VERTEX
  8
ガラス
 10
-60.025
 20
-74.25
 70
     8
  0
VERTEX
  8
ガラス
 10
-60.075
 20
-74.175
 70
     8
  0
VERTEX
  8
ガラス
 10
-60.125
 20
-74.1
 70
     8
  0
VERTEX
  8
ガラス
 10
-60.175
 20
-74.025
 70
     8
  0
VERTEX
  8
ガラス
 10
-60.225
 20
-73.975
 70
     8
  0
VERTEX
  8
ガラス
 10
-60.275
 20
-73.9
 70
     8
  0
VERTEX
  8
ガラス
 10
-60.35
 20
-73.85
 70
     8
  0
VERTEX
  8
ガラス
 10
-60.4
 20
-73.8
 70
     8
  0
VERTEX
  8
ガラス
 10
-60.475
 20
-73.75
 70
     8
  0
VERTEX
  8
ガラス
 10
-60.525
 20
-73.7
 70
     8
  0
VERTEX
  8
ガラス
 10
-60.6
 20
-73.65
 70
     8
  0
VERTEX
  8
ガラス
 10
-60.675
 20
-73.6
 70
     8
  0
VERTEX
  8
ガラス
 10
-60.75
 20
-73.55
 70
     8
  0
VERTEX
  8
ガラス
 10
-60.825
 20
-73.525
 70
     8
  0
VERTEX
  8
ガラス
 10
-60.9
 20
-73.5
 70
     8
  0
VERTEX
  8
ガラス
 10
-60.975
 20
-73.45
 70
     8
  0
VERTEX
  8
ガラス
 10
-61.05
 20
-73.425
 70
     8
  0
VERTEX
  8
ガラス
 10
-61.15
 20
-73.4
 70
     8
  0
VERTEX
  8
ガラス
 10
-61.225
 20
-73.375
 70
     8
  0
VERTEX
  8
ガラス
 10
-61.325
 20
-73.35
 70
     8
  0
VERTEX
  8
ガラス
 10
-61.4
 20
-73.325
 70
     8
  0
VERTEX
  8
ガラス
 10
-61.5
 20
-73.3
 70
     8
  0
VERTEX
  8
ガラス
 10
-61.575
 20
-73.275
 70
     8
  0
VERTEX
  8
ガラス
 10
-61.675
 20
-73.25
 70
     8
  0
VERTEX
  8
ガラス
 10
-61.75
 20
-73.225
 70
     8
  0
VERTEX
  8
ガラス
 10
-61.85
 20
-73.225
 70
     8
  0
VERTEX
  8
ガラス
 10
-61.95
 20
-73.2
 70
     8
  0
VERTEX
  8
ガラス
 10
-62.025
 20
-73.175
 70
     8
  0
SEQEND
  0
POLYLINE
  8
ガラス
  6
CONTINUOUS
 66
     1
 70
     4
  0
VERTEX
  8
ガラス
 10
-62.025
 20
-73.175
 70
     8
  0
VERTEX
  8
ガラス
 10
-62.0
 20
-73.225
 70
     8
  0
VERTEX
  8
ガラス
 10
-61.975
 20
-73.3
 70
     8
  0
VERTEX
  8
ガラス
 10
-61.95
 20
-73.35
 70
     8
  0
VERTEX
  8
ガラス
 10
-61.925
 20
-73.4
 70
     8
  0
VERTEX
  8
ガラス
 10
-61.9
 20
-73.45
 70
     8
  0
VERTEX
  8
ガラス
 10
-61.9
 20
-73.525
 70
     8
  0
VERTEX
  8
ガラス
 10
-61.875
 20
-73.575
 70
     8
  0
VERTEX
  8
ガラス
 10
-61.85
 20
-73.625
 70
     8
  0
VERTEX
  8
ガラス
 10
-61.825
 20
-73.7
 70
     8
  0
VERTEX
  8
ガラス
 10
-61.8
 20
-73.75
 70
     8
  0
VERTEX
  8
ガラス
 10
-61.775
 20
-73.8
 70
     8
  0
VERTEX
  8
ガラス
 10
-61.75
 20
-73.85
 70
     8
  0
VERTEX
  8
ガラス
 10
-61.725
 20
-73.925
 70
     8
  0
VERTEX
  8
ガラス
 10
-61.725
 20
-73.975
 70
     8
  0
VERTEX
  8
ガラス
 10
-61.7
 20
-74.025
 70
     8
  0
VERTEX
  8
ガラス
 10
-61.675
 20
-74.1
 70
     8
  0
VERTEX
  8
ガラス
 10
-61.65
 20
-74.15
 70
     8
  0
VERTEX
  8
ガラス
 10
-61.625
 20
-74.2
 70
     8
  0
VERTEX
  8
ガラス
 10
-61.625
 20
-74.275
 70
     8
  0
VERTEX
  8
ガラス
 10
-61.6
 20
-74.325
 70
     8
  0
VERTEX
  8
ガラス
 10
-61.6
 20
-74.375
 70
     8
  0
VERTEX
  8
ガラス
 10
-61.575
 20
-74.45
 70
     8
  0
VERTEX
  8
ガラス
 10
-61.55
 20
-74.5
 70
     8
  0
VERTEX
  8
ガラス
 10
-61.55
 20
-74.55
 70
     8
  0
VERTEX
  8
ガラス
 10
-61.525
 20
-74.625
 70
     8
  0
VERTEX
  8
ガラス
 10
-61.525
 20
-74.675
 70
     8
  0
VERTEX
  8
ガラス
 10
-61.5
 20
-74.75
 70
     8
  0
VERTEX
  8
ガラス
 10
-61.5
 20
-74.8
 70
     8
  0
VERTEX
  8
ガラス
 10
-61.5
 20
-74.875
 70
     8
  0
VERTEX
  8
ガラス
 10
-61.475
 20
-74.925
 70
     8
  0
VERTEX
  8
ガラス
 10
-61.475
 20
-74.975
 70
     8
  0
VERTEX
  8
ガラス
 10
-61.45
 20
-75.05
 70
     8
  0
VERTEX
  8
ガラス
 10
-61.45
 20
-75.1
 70
     8
  0
VERTEX
  8
ガラス
 10
-61.45
 20
-75.175
 70
     8
  0
VERTEX
  8
ガラス
 10
-61.45
 20
-75.225
 70
     8
  0
VERTEX
  8
ガラス
 10
-61.425
 20
-75.3
 70
     8
  0
VERTEX
  8
ガラス
 10
-61.425
 20
-75.35
 70
     8
  0
VERTEX
  8
ガラス
 10
-61.425
 20
-75.4
 70
     8
  0
VERTEX
  8
ガラス
 10
-61.4
 20
-75.475
 70
     8
  0
VERTEX
  8
ガラス
 10
-61.4
 20
-75.525
 70
     8
  0
SEQEND
  0
ARC
  8
ガラス
  6
CONTINUOUS
 10
-60.441406
 20
-75.406507
 40
0.955135
 50
186.882557
 51
366.882557
  0
ENDBLK
  0
BLOCK
  2
*GRP_0006
 70
    65
 10
0.0
 20
0.0
  0
POLYLINE
  8
ガラス
  6
CONTINUOUS
 66
     1
 70
     4
  0
VERTEX
  8
ガラス
 10
-59.5
 20
-83.3
 70
     8
  0
VERTEX
  8
ガラス
 10
-59.55
 20
-83.225
 70
     8
  0
VERTEX
  8
ガラス
 10
-59.575
 20
-83.125
 70
     8
  0
VERTEX
  8
ガラス
 10
-59.625
 20
-83.05
 70
     8
  0
VERTEX
  8
ガラス
 10
-59.65
 20
-82.95
 70
     8
  0
VERTEX
  8
ガラス
 10
-59.7
 20
-82.875
 70
     8
  0
VERTEX
  8
ガラス
 10
-59.725
 20
-82.8
 70
     8
  0
VERTEX
  8
ガラス
 10
-59.775
 20
-82.7
 70
     8
  0
VERTEX
  8
ガラス
 10
-59.8
 20
-82.625
 70
     8
  0
VERTEX
  8
ガラス
 10
-59.85
 20
-82.55
 70
     8
  0
VERTEX
  8
ガラス
 10
-59.9
 20
-82.475
 70
     8
  0
VERTEX
  8
ガラス
 10
-59.925
 20
-82.375
 70
     8
  0
VERTEX
  8
ガラス
 10
-59.975
 20
-82.3
 70
     8
  0
VERTEX
  8
ガラス
 10
-60.025
 20
-82.225
 70
     8
  0
VERTEX
  8
ガラス
 10
-60.075
 20
-82.175
 70
     8
  0
VERTEX
  8
ガラス
 10
-60.125
 20
-82.1
 70
     8
  0
VERTEX
  8
ガラス
 10
-60.175
 20
-82.025
 70
     8
  0
VERTEX
  8
ガラス
 10
-60.225
 20
-81.975
 70
     8
  0
VERTEX
  8
ガラス
 10
-60.275
 20
-81.9
 70
     8
  0
VERTEX
  8
ガラス
 10
-60.35
 20
-81.85
 70
     8
  0
VERTEX
  8
ガラス
 10
-60.4
 20
-81.8
 70
     8
  0
VERTEX
  8
ガラス
 10
-60.475
 20
-81.725
 70
     8
  0
VERTEX
  8
ガラス
 10
-60.525
 20
-81.675
 70
     8
  0
VERTEX
  8
ガラス
 10
-60.6
 20
-81.65
 70
     8
  0
VERTEX
  8
ガラス
 10
-60.675
 20
-81.6
 70
     8
  0
VERTEX
  8
ガラス
 10
-60.75
 20
-81.55
 70
     8
  0
VERTEX
  8
ガラス
 10
-60.825
 20
-81.525
 70
     8
  0
VERTEX
  8
ガラス
 10
-60.9
 20
-81.475
 70
     8
  0
VERTEX
  8
ガラス
 10
-60.975
 20
-81.45
 70
     8
  0
VERTEX
  8
ガラス
 10
-61.05
 20
-81.425
 70
     8
  0
VERTEX
  8
ガラス
 10
-61.15
 20
-81.4
 70
     8
  0
VERTEX
  8
ガラス
 10
-61.225
 20
-81.375
 70
     8
  0
VERTEX
  8
ガラス
 10
-61.325
 20
-81.35
 70
     8
  0
VERTEX
  8
ガラス
 10
-61.4
 20
-81.325
 70
     8
  0
VERTEX
  8
ガラス
 10
-61.5
 20
-81.3
 70
     8
  0
VERTEX
  8
ガラス
 10
-61.575
 20
-81.275
 70
     8
  0
VERTEX
  8
ガラス
 10
-61.675
 20
-81.25
 70
     8
  0
VERTEX
  8
ガラス
 10
-61.75
 20
-81.225
 70
     8
  0
VERTEX
  8
ガラス
 10
-61.85
 20
-81.2
 70
     8
  0
VERTEX
  8
ガラス
 10
-61.95
 20
-81.2
 70
     8
  0
VERTEX
  8
ガラス
 10
-62.025
 20
-81.175
 70
     8
  0
SEQEND
  0
POLYLINE
  8
ガラス
  6
CONTINUOUS
 66
     1
 70
     4
  0
VERTEX
  8
ガラス
 10
-62.025
 20
-81.175
 70
     8
  0
VERTEX
  8
ガラス
 10
-62.0
 20
-81.225
 70
     8
  0
VERTEX
  8
ガラス
 10
-61.975
 20
-81.275
 70
     8
  0
VERTEX
  8
ガラス
 10
-61.95
 20
-81.35
 70
     8
  0
VERTEX
  8
ガラス
 10
-61.925
 20
-81.4
 70
     8
  0
VERTEX
  8
ガラス
 10
-61.9
 20
-81.45
 70
     8
  0
VERTEX
  8
ガラス
 10
-61.9
 20
-81.5
 70
     8
  0
VERTEX
  8
ガラス
 10
-61.875
 20
-81.575
 70
     8
  0
VERTEX
  8
ガラス
 10
-61.85
 20
-81.625
 70
     8
  0
VERTEX
  8
ガラス
 10
-61.825
 20
-81.675
 70
     8
  0
VERTEX
  8
ガラス
 10
-61.8
 20
-81.75
 70
     8
  0
VERTEX
  8
ガラス
 10
-61.775
 20
-81.8
 70
     8
  0
VERTEX
  8
ガラス
 10
-61.75
 20
-81.85
 70
     8
  0
VERTEX
  8
ガラス
 10
-61.725
 20
-81.925
 70
     8
  0
VERTEX
  8
ガラス
 10
-61.725
 20
-81.975
 70
     8
  0
VERTEX
  8
ガラス
 10
-61.7
 20
-82.025
 70
     8
  0
VERTEX
  8
ガラス
 10
-61.675
 20
-82.075
 70
     8
  0
VERTEX
  8
ガラス
 10
-61.65
 20
-82.15
 70
     8
  0
VERTEX
  8
ガラス
 10
-61.625
 20
-82.2
 70
     8
  0
VERTEX
  8
ガラス
 10
-61.625
 20
-82.25
 70
     8
  0
VERTEX
  8
ガラス
 10
-61.6
 20
-82.325
 70
     8
  0
VERTEX
  8
ガラス
 10
-61.6
 20
-82.375
 70
     8
  0
VERTEX
  8
ガラス
 10
-61.575
 20
-82.45
 70
     8
  0
VERTEX
  8
ガラス
 10
-61.55
 20
-82.5
 70
     8
  0
VERTEX
  8
ガラス
 10
-61.55
 20
-82.55
 70
     8
  0
VERTEX
  8
ガラス
 10
-61.525
 20
-82.625
 70
     8
  0
VERTEX
  8
ガラス
 10
-61.525
 20
-82.675
 70
     8
  0
VERTEX
  8
ガラス
 10
-61.5
 20
-82.75
 70
     8
  0
VERTEX
  8
ガラス
 10
-61.5
 20
-82.8
 70
     8
  0
VERTEX
  8
ガラス
 10
-61.5
 20
-82.85
 70
     8
  0
VERTEX
  8
ガラス
 10
-61.475
 20
-82.925
 70
     8
  0
VERTEX
  8
ガラス
 10
-61.475
 20
-82.975
 70
     8
  0
VERTEX
  8
ガラス
 10
-61.45
 20
-83.05
 70
     8
  0
VERTEX
  8
ガラス
 10
-61.45
 20
-83.1
 70
     8
  0
VERTEX
  8
ガラス
 10
-61.45
 20
-83.15
 70
     8
  0
VERTEX
  8
ガラス
 10
-61.45
 20
-83.225
 70
     8
  0
VERTEX
  8
ガラス
 10
-61.425
 20
-83.275
 70
     8
  0
VERTEX
  8
ガラス
 10
-61.425
 20
-83.35
 70
     8
  0
VERTEX
  8
ガラス
 10
-61.425
 20
-83.4
 70
     8
  0
VERTEX
  8
ガラス
 10
-61.4
 20
-83.475
 70
     8
  0
VERTEX
  8
ガラス
 10
-61.4
 20
-83.525
 70
     8
  0
SEQEND
  0
ARC
  8
ガラス
  6
CONTINUOUS
 10
-60.441406
 20
-83.402305
 40
0.955135
 50
186.882557
 51
366.882557
  0
ENDBLK
  0
BLOCK
  2
*GRP_0007
 70
    65
 10
0.0
 20
0.0
  0
POLYLINE
  8
ガラス
  6
CONTINUOUS
 66
     1
 70
     4
  0
VERTEX
  8
ガラス
 10
-52.625
 20
-84.05
 70
     8
  0
VERTEX
  8
ガラス
 10
-52.725
 20
-84.05
 70
     8
  0
VERTEX
  8
ガラス
 10
-52.825
 20
-84.05
 70
     8
  0
VERTEX
  8
ガラス
 10
-52.9
 20
-84.025
 70
     8
  0
VERTEX
  8
ガラス
 10
-53.0
 20
-84.025
 70
     8
  0
VERTEX
  8
ガラス
 10
-53.1
 20
-84.0
 70
     8
  0
VERTEX
  8
ガラス
 10
-53.175
 20
-84.0
 70
     8
  0
VERTEX
  8
ガラス
 10
-53.275
 20
-84.0
 70
     8
  0
VERTEX
  8
ガラス
 10
-53.375
 20
-84.0
 70
     8
  0
VERTEX
  8
ガラス
 10
-53.45
 20
-84.0
 70
     8
  0
VERTEX
  8
ガラス
 10
-53.55
 20
-83.975
 70
     8
  0
VERTEX
  8
ガラス
 10
-53.625
 20
-83.975
 70
     8
  0
VERTEX
  8
ガラス
 10
-53.725
 20
-84.0
 70
     8
  0
VERTEX
  8
ガラス
 10
-53.8
 20
-84.0
 70
     8
  0
VERTEX
  8
ガラス
 10
-53.9
 20
-84.0
 70
     8
  0
VERTEX
  8
ガラス
 10
-53.975
 20
-84.0
 70
     8
  0
VERTEX
  8
ガラス
 10
-54.075
 20
-84.025
 70
     8
  0
VERTEX
  8
ガラス
 10
-54.15
 20
-84.05
 70
     8
  0
VERTEX
  8
ガラス
 10
-54.225
 20
-84.05
 70
     8
  0
VERTEX
  8
ガラス
 10
-54.3
 20
-84.075
 70
     8
  0
VERTEX
  8
ガラス
 10
-54.375
 20
-84.1
 70
     8
  0
VERTEX
  8
ガラス
 10
-54.475
 20
-84.125
 70
     8
  0
VERTEX
  8
ガラス
 10
-54.55
 20
-84.175
 70
     8
  0
VERTEX
  8
ガラス
 10
-54.625
 20
-84.2
 70
     8
  0
VERTEX
  8
ガラス
 10
-54.675
 20
-84.25
 70
     8
  0
VERTEX
  8
ガラス
 10
-54.75
 20
-84.3
 70
     8
  0
VERTEX
  8
ガラス
 10
-54.825
 20
-84.35
 70
     8
  0
VERTEX
  8
ガラス
 10
-54.9
 20
-84.4
 70
     8
  0
VERTEX
  8
ガラス
 10
-54.975
 20
-84.45
 70
     8
  0
VERTEX
  8
ガラス
 10
-55.025
 20
-84.5
 70
     8
  0
VERTEX
  8
ガラス
 10
-55.1
 20
-84.55
 70
     8
  0
VERTEX
  8
ガラス
 10
-55.15
 20
-84.625
 70
     8
  0
VERTEX
  8
ガラス
 10
-55.225
 20
-84.675
 70
     8
  0
VERTEX
  8
ガラス
 10
-55.3
 20
-84.75
 70
     8
  0
VERTEX
  8
ガラス
 10
-55.35
 20
-84.825
 70
     8
  0
VERTEX
  8
ガラス
 10
-55.425
 20
-84.875
 70
     8
  0
VERTEX
  8
ガラス
 10
-55.475
 20
-84.95
 70
     8
  0
VERTEX
  8
ガラス
 10
-55.525
 20
-85.025
 70
     8
  0
VERTEX
  8
ガラス
 10
-55.6
 20
-85.1
 70
     8
  0
VERTEX
  8
ガラス
 10
-55.65
 20
-85.15
 70
     8
  0
VERTEX
  8
ガラス
 10
-55.725
 20
-85.225
 70
     8
  0
SEQEND
  0
POLYLINE
  8
ガラス
  6
CONTINUOUS
 66
     1
 70
     4
  0
VERTEX
  8
ガラス
 10
-55.725
 20
-85.225
 70
     8
  0
VERTEX
  8
ガラス
 10
-55.65
 20
-85.225
 70
     8
  0
VERTEX
  8
ガラス
 10
-55.6
 20
-85.25
 70
     8
  0
VERTEX
  8
ガラス
 10
-55.525
 20
-85.25
 70
     8
  0
VERTEX
  8
ガラス
 10
-55.475
 20
-85.25
 70
     8
  0
VERTEX
  8
ガラス
 10
-55.425
 20
-85.275
 70
     8
  0
VERTEX
  8
ガラス
 10
-55.35
 20
-85.275
 70
     8
  0
VERTEX
  8
ガラス
 10
-55.3
 20
-85.275
 70
     8
  0
VERTEX
  8
ガラス
 10
-55.225
 20
-85.275
 70
     8
  0
VERTEX
  8
ガラス
 10
-55.175
 20
-85.3
 70
     8
  0
VERTEX
  8
ガラス
 10
-55.1
 20
-85.3
 70
     8
  0
VERTEX
  8
ガラス
 10
-55.05
 20
-85.3
 70
     8
  0
VERTEX
  8
ガラス
 10
-54.975
 20
-85.325
 70
     8
  0
VERTEX
  8
ガラス
 10
-54.925
 20
-85.325
 70
     8
  0
VERTEX
  8
ガラス
 10
-54.875
 20
-85.35
 70
     8
  0
VERTEX
  8
ガラス
 10
-54.8
 20
-85.35
 70
     8
  0
VERTEX
  8
ガラス
 10
-54.75
 20
-85.375
 70
     8
  0
VERTEX
  8
ガラス
 10
-54.675
 20
-85.375
 70
     8
  0
VERTEX
  8
ガラス
 10
-54.625
 20
-85.4
 70
     8
  0
VERTEX
  8
ガラス
 10
-54.575
 20
-85.4
 70
     8
  0
VERTEX
  8
ガラス
 10
-54.5
 20
-85.425
 70
     8
  0
VERTEX
  8
ガラス
 10
-54.45
 20
-85.425
 70
     8
  0
VERTEX
  8
ガラス
 10
-54.4
 20
-85.45
 70
     8
  0
VERTEX
  8
ガラス
 10
-54.325
 20
-85.475
 70
     8
  0
VERTEX
  8
ガラス
 10
-54.275
 20
-85.475
 70
     8
  0
VERTEX
  8
ガラス
 10
-54.225
 20
-85.5
 70
     8
  0
VERTEX
  8
ガラス
 10
-54.15
 20
-85.525
 70
     8
  0
VERTEX
  8
ガラス
 10
-54.1
 20
-85.525
 70
     8
  0
VERTEX
  8
ガラス
 10
-54.05
 20
-85.55
 70
     8
  0
VERTEX
  8
ガラス
 10
-53.975
 20
-85.575
 70
     8
  0
VERTEX
  8
ガラス
 10
-53.925
 20
-85.6
 70
     8
  0
VERTEX
  8
ガラス
 10
-53.875
 20
-85.625
 70
     8
  0
VERTEX
  8
ガラス
 10
-53.8
 20
-85.65
 70
     8
  0
VERTEX
  8
ガラス
 10
-53.75
 20
-85.675
 70
     8
  0
VERTEX
  8
ガラス
 10
-53.7
 20
-85.675
 70
     8
  0
VERTEX
  8
ガラス
 10
-53.65
 20
-85.7
 70
     8
  0
VERTEX
  8
ガラス
 10
-53.575
 20
-85.725
 70
     8
  0
VERTEX
  8
ガラス
 10
-53.525
 20
-85.75
 70
     8
  0
VERTEX
  8
ガラス
 10
-53.475
 20
-85.775
 70
     8
  0
VERTEX
  8
ガラス
 10
-53.4
 20
-85.8
 70
     8
  0
VERTEX
  8
ガラス
 10
-53.35
 20
-85.825
 70
     8
  0
SEQEND
  0
ARC
  8
ガラス
  6
CONTINUOUS
 10
-52.979612
 20
-84.931714
 40
0.955135
 50
247.735412
 51
427.735412
  0
ENDBLK
  0
BLOCK
  2
*GRP_0008
 70
    65
 10
0.0
 20
0.0
  0
POLYLINE
  8
ガラス
  6
CONTINUOUS
 66
     1
 70
     4
  0
VERTEX
  8
ガラス
 10
-44.225
 20
-84.05
 70
     8
  0
VERTEX
  8
ガラス
 10
-44.3
 20
-84.05
 70
     8
  0
VERTEX
  8
ガラス
 10
-44.4
 20
-84.05
 70
     8
  0
VERTEX
  8
ガラス
 10
-44.5
 20
-84.025
 70
     8
  0
VERTEX
  8
ガラス
 10
-44.6
 20
-84.025
 70
     8
  0
VERTEX
  8
ガラス
 10
-44.675
 20
-84.0
 70
     8
  0
VERTEX
  8
ガラス
 10
-44.775
 20
-84.0
 70
     8
  0
VERTEX
  8
ガラス
 10
-44.875
 20
-84.0
 70
     8
  0
VERTEX
  8
ガラス
 10
-44.95
 20
-84.0
 70
     8
  0
VERTEX
  8
ガラス
 10
-45.05
 20
-84.0
 70
     8
  0
VERTEX
  8
ガラス
 10
-45.125
 20
-83.975
 70
     8
  0
VERTEX
  8
ガラス
 10
-45.225
 20
-83.975
 70
     8
  0
VERTEX
  8
ガラス
 10
-45.3
 20
-84.0
 70
     8
  0
VERTEX
  8
ガラス
 10
-45.4
 20
-84.0
 70
     8
  0
VERTEX
  8
ガラス
 10
-45.475
 20
-84.0
 70
     8
  0
VERTEX
  8
ガラス
 10
-45.575
 20
-84.0
 70
     8
  0
VERTEX
  8
ガラス
 10
-45.65
 20
-84.025
 70
     8
  0
VERTEX
  8
ガラス
 10
-45.725
 20
-84.05
 70
     8
  0
VERTEX
  8
ガラス
 10
-45.825
 20
-84.05
 70
     8
  0
VERTEX
  8
ガラス
 10
-45.9
 20
-84.075
 70
     8
  0
VERTEX
  8
ガラス
 10
-45.975
 20
-84.1
 70
     8
  0
VERTEX
  8
ガラス
 10
-46.05
 20
-84.125
 70
     8
  0
VERTEX
  8
ガラス
 10
-46.125
 20
-84.175
 70
     8
  0
VERTEX
  8
ガラス
 10
-46.2
 20
-84.2
 70
     8
  0
VERTEX
  8
ガラス
 10
-46.275
 20
-84.25
 70
     8
  0
VERTEX
  8
ガラス
 10
-46.35
 20
-84.3
 70
     8
  0
VERTEX
  8
ガラス
 10
-46.425
 20
-84.35
 70
     8
  0
VERTEX
  8
ガラス
 10
-46.475
 20
-84.4
 70
     8
  0
VERTEX
  8
ガラス
 10
-46.55
 20
-84.45
 70
     8
  0
VERTEX
  8
ガラス
 10
-46.625
 20
-84.5
 70
     8
  0
VERTEX
  8
ガラス
 10
-46.675
 20
-84.55
 70
     8
  0
VERTEX
  8
ガラス
 10
-46.75
 20
-84.625
 70
     8
  0
VERTEX
  8
ガラス
 10
-46.8
 20
-84.675
 70
     8
  0
VERTEX
  8
ガラス
 10
-46.875
 20
-84.75
 70
     8
  0
VERTEX
  8
ガラス
 10
-46.95
 20
-84.825
 70
     8
  0
VERTEX
  8
ガラス
 10
-47.0
 20
-84.875
 70
     8
  0
VERTEX
  8
ガラス
 10
-47.075
 20
-84.95
 70
     8
  0
VERTEX
  8
ガラス
 10
-47.125
 20
-85.025
 70
     8
  0
VERTEX
  8
ガラス
 10
-47.175
 20
-85.1
 70
     8
  0
VERTEX
  8
ガラス
 10
-47.25
 20
-85.15
 70
     8
  0
VERTEX
  8
ガラス
 10
-47.3
 20
-85.225
 70
     8
  0
SEQEND
  0
POLYLINE
  8
ガラス
  6
CONTINUOUS
 66
     1
 70
     4
  0
VERTEX
  8
ガラス
 10
-47.3
 20
-85.225
 70
     8
  0
VERTEX
  8
ガラス
 10
-47.25
 20
-85.225
 70
     8
  0
VERTEX
  8
ガラス
 10
-47.175
 20
-85.25
 70
     8
  0
VERTEX
  8
ガラス
 10
-47.125
 20
-85.25
 70
     8
  0
VERTEX
  8
ガラス
 10
-47.075
 20
-85.25
 70
     8
  0
VERTEX
  8
ガラス
 10
-47.0
 20
-85.275
 70
     8
  0
VERTEX
  8
ガラス
 10
-46.95
 20
-85.275
 70
     8
  0
VERTEX
  8
ガラス
 10
-46.875
 20
-85.275
 70
     8
  0
VERTEX
  8
ガラス
 10
-46.825
 20
-85.275
 70
     8
  0
VERTEX
  8
ガラス
 10
-46.75
 20
-85.3
 70
     8
  0
VERTEX
  8
ガラス
 10
-46.7
 20
-85.3
 70
     8
  0
VERTEX
  8
ガラス
 10
-46.625
 20
-85.3
 70
     8
  0
VERTEX
  8
ガラス
 10
-46.575
 20
-85.325
 70
     8
  0
VERTEX
  8
ガラス
 10
-46.525
 20
-85.325
 70
     8
  0
VERTEX
  8
ガラス
 10
-46.45
 20
-85.35
 70
     8
  0
VERTEX
  8
ガラス
 10
-46.4
 20
-85.35
 70
     8
  0
VERTEX
  8
ガラス
 10
-46.325
 20
-85.375
 70
     8
  0
VERTEX
  8
ガラス
 10
-46.275
 20
-85.375
 70
     8
  0
VERTEX
  8
ガラス
 10
-46.225
 20
-85.4
 70
     8
  0
VERTEX
  8
ガラス
 10
-46.15
 20
-85.4
 70
     8
  0
VERTEX
  8
ガラス
 10
-46.1
 20
-85.425
 70
     8
  0
VERTEX
  8
ガラス
 10
-46.025
 20
-85.425
 70
     8
  0
VERTEX
  8
ガラス
 10
-45.975
 20
-85.45
 70
     8
  0
VERTEX
  8
ガラス
 10
-45.925
 20
-85.475
 70
     8
  0
VERTEX
  8
ガラス
 10
-45.85
 20
-85.475
 70
     8
  0
VERTEX
  8
ガラス
 10
-45.8
 20
-85.5
 70
     8
  0
VERTEX
  8
ガラス
 10
-45.75
 20
-85.525
 70
     8
  0
VERTEX
  8
ガラス
 10
-45.675
 20
-85.525
 70
     8
  0
VERTEX
  8
ガラス
 10
-45.625
 20
-85.55
 70
     8
  0
VERTEX
  8
ガラス
 10
-45.575
 20
-85.575
 70
     8
  0
VERTEX
  8
ガラス
 10
-45.525
 20
-85.6
 70
     8
  0
VERTEX
  8
ガラス
 10
-45.45
 20
-85.625
 70
     8
  0
VERTEX
  8
ガラス
 10
-45.4
 20
-85.65
 70
     8
  0
VERTEX
  8
ガラス
 10
-45.35
 20
-85.675
 70
     8
  0
VERTEX
  8
ガラス
 10
-45.275
 20
-85.675
 70
     8
  0
VERTEX
  8
ガラス
 10
-45.225
 20
-85.7
 70
     8
  0
VERTEX
  8
ガラス
 10
-45.175
 20
-85.725
 70
     8
  0
VERTEX
  8
ガラス
 10
-45.125
 20
-85.75
 70
     8
  0
VERTEX
  8
ガラス
 10
-45.05
 20
-85.775
 70
     8
  0
VERTEX
  8
ガラス
 10
-45.0
 20
-85.8
 70
     8
  0
VERTEX
  8
ガラス
 10
-44.95
 20
-85.825
 70
     8
  0
SEQEND
  0
ARC
  8
ガラス
  6
CONTINUOUS
 10
-44.567848
 20
-84.931714
 40
0.955135
 50
247.735412
 51
427.735412
  0
ENDBLK
  0
BLOCK
  2
*GRP_0009
 70
    65
 10
0.0
 20
0.0
  0
POLYLINE
  8
ガラス
  6
CONTINUOUS
 66
     1
 70
     4
  0
VERTEX
  8
ガラス
 10
-103.65
 20
-71.45
 70
     8
  0
VERTEX
  8
ガラス
 10
-103.75
 20
-71.45
 70
     8
  0
VERTEX
  8
ガラス
 10
-103.825
 20
-71.45
 70
     8
  0
VERTEX
  8
ガラス
 10
-103.925
 20
-71.425
 70
     8
  0
VERTEX
  8
ガラス
 10
-104.025
 20
-71.425
 70
     8
  0
VERTEX
  8
ガラス
 10
-104.1
 20
-71.4
 70
     8
  0
VERTEX
  8
ガラス
 10
-104.2
 20
-71.4
 70
     8
  0
VERTEX
  8
ガラス
 10
-104.3
 20
-71.4
 70
     8
  0
VERTEX
  8
ガラス
 10
-104.375
 20
-71.4
 70
     8
  0
VERTEX
  8
ガラス
 10
-104.475
 20
-71.4
 70
     8
  0
VERTEX
  8
ガラス
 10
-104.575
 20
-71.375
 70
     8
  0
VERTEX
  8
ガラス
 10
-104.65
 20
-71.375
 70
     8
  0
VERTEX
  8
ガラス
 10
-104.75
 20
-71.4
 70
     8
  0
VERTEX
  8
ガラス
 10
-104.825
 20
-71.4
 70
     8
  0
VERTEX
  8
ガラス
 10
-104.925
 20
-71.4
 70
     8
  0
VERTEX
  8
ガラス
 10
-105.0
 20
-71.4
 70
     8
  0
VERTEX
  8
ガラス
 10
-105.075
 20
-71.425
 70
     8
  0
VERTEX
  8
ガラス
 10
-105.175
 20
-71.45
 70
     8
  0
VERTEX
  8
ガラス
 10
-105.25
 20
-71.45
 70
     8
  0
VERTEX
  8
ガラス
 10
-105.325
 20
-71.475
 70
     8
  0
VERTEX
  8
ガラス
 10
-105.4
 20
-71.5
 70
     8
  0
VERTEX
  8
ガラス
 10
-105.475
 20
-71.525
 70
     8
  0
VERTEX
  8
ガラス
 10
-105.55
 20
-71.575
 70
     8
  0
VERTEX
  8
ガラス
 10
-105.625
 20
-71.6
 70
     8
  0
VERTEX
  8
ガラス
 10
-105.7
 20
-71.65
 70
     8
  0
VERTEX
  8
ガラス
 10
-105.775
 20
-71.7
 70
     8
  0
VERTEX
  8
ガラス
 10
-105.85
 20
-71.75
 70
     8
  0
VERTEX
  8
ガラス
 10
-105.925
 20
-71.8
 70
     8
  0
VERTEX
  8
ガラス
 10
-105.975
 20
-71.85
 70
     8
  0
VERTEX
  8
ガラス
 10
-106.05
 20
-71.9
 70
     8
  0
VERTEX
  8
ガラス
 10
-106.125
 20
-71.975
 70
     8
  0
VERTEX
  8
ガラス
 10
-106.175
 20
-72.025
 70
     8
  0
VERTEX
  8
ガラス
 10
-106.25
 20
-72.075
 70
     8
  0
VERTEX
  8
ガラス
 10
-106.3
 20
-72.15
 70
     8
  0
VERTEX
  8
ガラス
 10
-106.375
 20
-72.225
 70
     8
  0
VERTEX
  8
ガラス
 10
-106.425
 20
-72.275
 70
     8
  0
VERTEX
  8
ガラス
 10
-106.5
 20
-72.35
 70
     8
  0
VERTEX
  8
ガラス
 10
-106.55
 20
-72.425
 70
     8
  0
VERTEX
  8
ガラス
 10
-106.625
 20
-72.5
 70
     8
  0
VERTEX
  8
ガラス
 10
-106.675
 20
-72.55
 70
     8
  0
VERTEX
  8
ガラス
 10
-106.75
 20
-72.625
 70
     8
  0
SEQEND
  0
POLYLINE
  8
ガラス
  6
CONTINUOUS
 66
     1
 70
     4
  0
VERTEX
  8
ガラス
 10
-106.75
 20
-72.625
 70
     8
  0
VERTEX
  8
ガラス
 10
-106.675
 20
-72.625
 70
     8
  0
VERTEX
  8
ガラス
 10
-106.625
 20
-72.65
 70
     8
  0
VERTEX
  8
ガラス
 10
-106.55
 20
-72.65
 70
     8
  0
VERTEX
  8
ガラス
 10
-106.5
 20
-72.65
 70
     8
  0
VERTEX
  8
ガラス
 10
-106.425
 20
-72.675
 70
     8
  0
VERTEX
  8
ガラス
 10
-106.375
 20
-72.675
 70
     8
  0
VERTEX
  8
ガラス
 10
-106.3
 20
-72.675
 70
     8
  0
VERTEX
  8
ガラス
 10
-106.25
 20
-72.675
 70
     8
  0
VERTEX
  8
ガラス
 10
-106.175
 20
-72.7
 70
     8
  0
VERTEX
  8
ガラス
 10
-106.125
 20
-72.7
 70
     8
  0
VERTEX
  8
ガラス
 10
-106.075
 20
-72.7
 70
     8
  0
VERTEX
  8
ガラス
 10
-106.0
 20
-72.725
 70
     8
  0
VERTEX
  8
ガラス
 10
-105.95
 20
-72.725
 70
     8
  0
VERTEX
  8
ガラス
 10
-105.875
 20
-72.75
 70
     8
  0
VERTEX
  8
ガラス
 10
-105.825
 20
-72.75
 70
     8
  0
VERTEX
  8
ガラス
 10
-105.775
 20
-72.775
 70
     8
  0
VERTEX
  8
ガラス
 10
-105.7
 20
-72.775
 70
     8
  0
VERTEX
  8
ガラス
 10
-105.65
 20
-72.8
 70
     8
  0
VERTEX
  8
ガラス
 10
-105.575
 20
-72.8
 70
     8
  0
VERTEX
  8
ガラス
 10
-105.525
 20
-72.825
 70
     8
  0
VERTEX
  8
ガラス
 10
-105.475
 20
-72.825
 70
     8
  0
VERTEX
  8
ガラス
 10
-105.4
 20
-72.85
 70
     8
  0
VERTEX
  8
ガラス
 10
-105.35
 20
-72.875
 70
     8
  0
VERTEX
  8
ガラス
 10
-105.3
 20
-72.875
 70
     8
  0
VERTEX
  8
ガラス
 10
-105.225
 20
-72.9
 70
     8
  0
VERTEX
  8
ガラス
 10
-105.175
 20
-72.925
 70
     8
  0
VERTEX
  8
ガラス
 10
-105.125
 20
-72.925
 70
     8
  0
VERTEX
  8
ガラス
 10
-105.05
 20
-72.95
 70
     8
  0
VERTEX
  8
ガラス
 10
-105.0
 20
-72.975
 70
     8
  0
VERTEX
  8
ガラス
 10
-104.95
 20
-73.0
 70
     8
  0
VERTEX
  8
ガラス
 10
-104.875
 20
-73.025
 70
     8
  0
VERTEX
  8
ガラス
 10
-104.825
 20
-73.05
 70
     8
  0
VERTEX
  8
ガラス
 10
-104.775
 20
-73.075
 70
     8
  0
VERTEX
  8
ガラス
 10
-104.725
 20
-73.1
 70
     8
  0
VERTEX
  8
ガラス
 10
-104.65
 20
-73.1
 70
     8
  0
VERTEX
  8
ガラス
 10
-104.6
 20
-73.125
 70
     8
  0
VERTEX
  8
ガラス
 10
-104.55
 20
-73.15
 70
     8
  0
VERTEX
  8
ガラス
 10
-104.475
 20
-73.175
 70
     8
  0
VERTEX
  8
ガラス
 10
-104.425
 20
-73.2
 70
     8
  0
VERTEX
  8
ガラス
 10
-104.375
 20
-73.225
 70
     8
  0
SEQEND
  0
ARC
  8
ガラス
  6
CONTINUOUS
 10
-103.997259
 20
-72.332344
 40
0.955135
 50
247.735412
 51
427.735412
  0
ENDBLK
  0
BLOCK
  2
*GRP_0010
 70
    65
 10
0.0
 20
0.0
  0
POLYLINE
  8
ガラス
  6
CONTINUOUS
 66
     1
 70
     4
  0
VERTEX
  8
ガラス
 10
-91.125
 20
-71.45
 70
     8
  0
VERTEX
  8
ガラス
 10
-91.225
 20
-71.45
 70
     8
  0
VERTEX
  8
ガラス
 10
-91.3
 20
-71.45
 70
     8
  0
VERTEX
  8
ガラス
 10
-91.4
 20
-71.425
 70
     8
  0
VERTEX
  8
ガラス
 10
-91.5
 20
-71.425
 70
     8
  0
VERTEX
  8
ガラス
 10
-91.575
 20
-71.4
 70
     8
  0
VERTEX
  8
ガラス
 10
-91.675
 20
-71.4
 70
     8
  0
VERTEX
  8
ガラス
 10
-91.775
 20
-71.4
 70
     8
  0
VERTEX
  8
ガラス
 10
-91.85
 20
-71.4
 70
     8
  0
VERTEX
  8
ガラス
 10
-91.95
 20
-71.4
 70
     8
  0
VERTEX
  8
ガラス
 10
-92.05
 20
-71.375
 70
     8
  0
VERTEX
  8
ガラス
 10
-92.125
 20
-71.375
 70
     8
  0
VERTEX
  8
ガラス
 10
-92.225
 20
-71.4
 70
     8
  0
VERTEX
  8
ガラス
 10
-92.3
 20
-71.4
 70
     8
  0
VERTEX
  8
ガラス
 10
-92.4
 20
-71.4
 70
     8
  0
VERTEX
  8
ガラス
 10
-92.475
 20
-71.4
 70
     8
  0
VERTEX
  8
ガラス
 10
-92.55
 20
-71.425
 70
     8
  0
VERTEX
  8
ガラス
 10
-92.65
 20
-71.45
 70
     8
  0
VERTEX
  8
ガラス
 10
-92.725
 20
-71.45
 70
     8
  0
VERTEX
  8
ガラス
 10
-92.8
 20
-71.475
 70
     8
  0
VERTEX
  8
ガラス
 10
-92.875
 20
-71.5
 70
     8
  0
VERTEX
  8
ガラス
 10
-92.95
 20
-71.525
 70
     8
  0
VERTEX
  8
ガラス
 10
-93.025
 20
-71.575
 70
     8
  0
VERTEX
  8
ガラス
 10
-93.1
 20
-71.6
 70
     8
  0
VERTEX
  8
ガラス
 10
-93.175
 20
-71.65
 70
     8
  0
VERTEX
  8
ガラス
 10
-93.25
 20
-71.7
 70
     8
  0
VERTEX
  8
ガラス
 10
-93.325
 20
-71.75
 70
     8
  0
VERTEX
  8
ガラス
 10
-93.4
 20
-71.8
 70
     8
  0
VERTEX
  8
ガラス
 10
-93.45
 20
-71.85
 70
     8
  0
VERTEX
  8
ガラス
 10
-93.525
 20
-71.9
 70
     8
  0
VERTEX
  8
ガラス
 10
-93.6
 20
-71.975
 70
     8
  0
VERTEX
  8
ガラス
 10
-93.65
 20
-72.025
 70
     8
  0
VERTEX
  8
ガラス
 10
-93.725
 20
-72.075
 70
     8
  0
VERTEX
  8
ガラス
 10
-93.775
 20
-72.15
 70
     8
  0
VERTEX
  8
ガラス
 10
-93.85
 20
-72.225
 70
     8
  0
VERTEX
  8
ガラス
 10
-93.9
 20
-72.275
 70
     8
  0
VERTEX
  8
ガラス
 10
-93.975
 20
-72.35
 70
     8
  0
VERTEX
  8
ガラス
 10
-94.025
 20
-72.425
 70
     8
  0
VERTEX
  8
ガラス
 10
-94.1
 20
-72.5
 70
     8
  0
VERTEX
  8
ガラス
 10
-94.15
 20
-72.55
 70
     8
  0
VERTEX
  8
ガラス
 10
-94.2
 20
-72.625
 70
     8
  0
SEQEND
  0
POLYLINE
  8
ガラス
  6
CONTINUOUS
 66
     1
 70
     4
  0
VERTEX
  8
ガラス
 10
-94.2
 20
-72.625
 70
     8
  0
VERTEX
  8
ガラス
 10
-94.15
 20
-72.625
 70
     8
  0
VERTEX
  8
ガラス
 10
-94.1
 20
-72.65
 70
     8
  0
VERTEX
  8
ガラス
 10
-94.025
 20
-72.65
 70
     8
  0
VERTEX
  8
ガラス
 10
-93.975
 20
-72.65
 70
     8
  0
VERTEX
  8
ガラス
 10
-93.9
 20
-72.675
 70
     8
  0
VERTEX
  8
ガラス
 10
-93.85
 20
-72.675
 70
     8
  0
VERTEX
  8
ガラス
 10
-93.775
 20
-72.675
 70
     8
  0
VERTEX
  8
ガラス
 10
-93.725
 20
-72.675
 70
     8
  0
VERTEX
  8
ガラス
 10
-93.65
 20
-72.7
 70
     8
  0
VERTEX
  8
ガラス
 10
-93.6
 20
-72.7
 70
     8
  0
VERTEX
  8
ガラス
 10
-93.55
 20
-72.7
 70
     8
  0
VERTEX
  8
ガラス
 10
-93.475
 20
-72.725
 70
     8
  0
VERTEX
  8
ガラス
 10
-93.425
 20
-72.725
 70
     8
  0
VERTEX
  8
ガラス
 10
-93.35
 20
-72.75
 70
     8
  0
VERTEX
  8
ガラス
 10
-93.3
 20
-72.75
 70
     8
  0
VERTEX
  8
ガラス
 10
-93.25
 20
-72.775
 70
     8
  0
VERTEX
  8
ガラス
 10
-93.175
 20
-72.775
 70
     8
  0
VERTEX
  8
ガラス
 10
-93.125
 20
-72.8
 70
     8
  0
VERTEX
  8
ガラス
 10
-93.05
 20
-72.8
 70
     8
  0
VERTEX
  8
ガラス
 10
-93.0
 20
-72.825
 70
     8
  0
VERTEX
  8
ガラス
 10
-92.95
 20
-72.825
 70
     8
  0
VERTEX
  8
ガラス
 10
-92.875
 20
-72.85
 70
     8
  0
VERTEX
  8
ガラス
 10
-92.825
 20
-72.875
 70
     8
  0
VERTEX
  8
ガラス
 10
-92.775
 20
-72.875
 70
     8
  0
VERTEX
  8
ガラス
 10
-92.7
 20
-72.9
 70
     8
  0
VERTEX
  8
ガラス
 10
-92.65
 20
-72.925
 70
     8
  0
VERTEX
  8
ガラス
 10
-92.6
 20
-72.925
 70
     8
  0
VERTEX
  8
ガラス
 10
-92.525
 20
-72.95
 70
     8
  0
VERTEX
  8
ガラス
 10
-92.475
 20
-72.975
 70
     8
  0
VERTEX
  8
ガラス
 10
-92.425
 20
-73.0
 70
     8
  0
VERTEX
  8
ガラス
 10
-92.35
 20
-73.025
 70
     8
  0
VERTEX
  8
ガラス
 10
-92.3
 20
-73.05
 70
     8
  0
VERTEX
  8
ガラス
 10
-92.25
 20
-73.075
 70
     8
  0
VERTEX
  8
ガラス
 10
-92.2
 20
-73.1
 70
     8
  0
VERTEX
  8
ガラス
 10
-92.125
 20
-73.1
 70
     8
  0
VERTEX
  8
ガラス
 10
-92.075
 20
-73.125
 70
     8
  0
VERTEX
  8
ガラス
 10
-92.025
 20
-73.15
 70
     8
  0
VERTEX
  8
ガラス
 10
-91.95
 20
-73.175
 70
     8
  0
VERTEX
  8
ガラス
 10
-91.9
 20
-73.2
 70
     8
  0
VERTEX
  8
ガラス
 10
-91.85
 20
-73.225
 70
     8
  0
SEQEND
  0
ARC
  8
ガラス
  6
CONTINUOUS
 10
-91.472049
 20
-72.332344
 40
0.955135
 50
247.735412
 51
427.735412
  0
ENDBLK
  0
BLOCK
  2
*GRP_0011
 70
    65
 10
0.0
 20
0.0
  0
POLYLINE
  8
ガラス
  6
CONTINUOUS
 66
     1
 70
     4
  0
VERTEX
  8
ガラス
 10
-71.425
 20
-71.45
 70
     8
  0
VERTEX
  8
ガラス
 10
-71.525
 20
-71.45
 70
     8
  0
VERTEX
  8
ガラス
 10
-71.625
 20
-71.45
 70
     8
  0
VERTEX
  8
ガラス
 10
-71.7
 20
-71.425
 70
     8
  0
VERTEX
  8
ガラス
 10
-71.8
 20
-71.425
 70
     8
  0
VERTEX
  8
ガラス
 10
-71.9
 20
-71.4
 70
     8
  0
VERTEX
  8
ガラス
 10
-72.0
 20
-71.4
 70
     8
  0
VERTEX
  8
ガラス
 10
-72.075
 20
-71.4
 70
     8
  0
VERTEX
  8
ガラス
 10
-72.175
 20
-71.4
 70
     8
  0
VERTEX
  8
ガラス
 10
-72.25
 20
-71.4
 70
     8
  0
VERTEX
  8
ガラス
 10
-72.35
 20
-71.375
 70
     8
  0
VERTEX
  8
ガラス
 10
-72.45
 20
-71.375
 70
     8
  0
VERTEX
  8
ガラス
 10
-72.525
 20
-71.4
 70
     8
  0
VERTEX
  8
ガラス
 10
-72.625
 20
-71.4
 70
     8
  0
VERTEX
  8
ガラス
 10
-72.7
 20
-71.4
 70
     8
  0
VERTEX
  8
ガラス
 10
-72.775
 20
-71.4
 70
     8
  0
VERTEX
  8
ガラス
 10
-72.875
 20
-71.425
 70
     8
  0
VERTEX
  8
ガラス
 10
-72.95
 20
-71.45
 70
     8
  0
VERTEX
  8
ガラス
 10
-73.025
 20
-71.45
 70
     8
  0
VERTEX
  8
ガラス
 10
-73.1
 20
-71.475
 70
     8
  0
VERTEX
  8
ガラス
 10
-73.2
 20
-71.5
 70
     8
  0
VERTEX
  8
ガラス
 10
-73.275
 20
-71.525
 70
     8
  0
VERTEX
  8
ガラス
 10
-73.35
 20
-71.575
 70
     8
  0
VERTEX
  8
ガラス
 10
-73.425
 20
-71.6
 70
     8
  0
VERTEX
  8
ガラス
 10
-73.5
 20
-71.65
 70
     8
  0
VERTEX
  8
ガラス
 10
-73.55
 20
-71.7
 70
     8
  0
VERTEX
  8
ガラス
 10
-73.625
 20
-71.75
 70
     8
  0
VERTEX
  8
ガラス
 10
-73.7
 20
-71.8
 70
     8
  0
VERTEX
  8
ガラス
 10
-73.775
 20
-71.85
 70
     8
  0
VERTEX
  8
ガラス
 10
-73.825
 20
-71.9
 70
     8
  0
VERTEX
  8
ガラス
 10
-73.9
 20
-71.975
 70
     8
  0
VERTEX
  8
ガラス
 10
-73.975
 20
-72.025
 70
     8
  0
VERTEX
  8
ガラス
 10
-74.025
 20
-72.075
 70
     8
  0
VERTEX
  8
ガラス
 10
-74.1
 20
-72.15
 70
     8
  0
VERTEX
  8
ガラス
 10
-74.15
 20
-72.225
 70
     8
  0
VERTEX
  8
ガラス
 10
-74.225
 20
-72.275
 70
     8
  0
VERTEX
  8
ガラス
 10
-74.275
 20
-72.35
 70
     8
  0
VERTEX
  8
ガラス
 10
-74.35
 20
-72.425
 70
     8
  0
VERTEX
  8
ガラス
 10
-74.4
 20
-72.5
 70
     8
  0
VERTEX
  8
ガラス
 10
-74.45
 20
-72.55
 70
     8
  0
VERTEX
  8
ガラス
 10
-74.525
 20
-72.625
 70
     8
  0
SEQEND
  0
POLYLINE
  8
ガラス
  6
CONTINUOUS
 66
     1
 70
     4
  0
VERTEX
  8
ガラス
 10
-74.525
 20
-72.625
 70
     8
  0
VERTEX
  8
ガラス
 10
-74.45
 20
-72.625
 70
     8
  0
VERTEX
  8
ガラス
 10
-74.4
 20
-72.65
 70
     8
  0
VERTEX
  8
ガラス
 10
-74.35
 20
-72.65
 70
     8
  0
VERTEX
  8
ガラス
 10
-74.275
 20
-72.65
 70
     8
  0
VERTEX
  8
ガラス
 10
-74.225
 20
-72.675
 70
     8
  0
VERTEX
  8
ガラス
 10
-74.15
 20
-72.675
 70
     8
  0
VERTEX
  8
ガラス
 10
-74.1
 20
-72.675
 70
     8
  0
VERTEX
  8
ガラス
 10
-74.025
 20
-72.675
 70
     8
  0
VERTEX
  8
ガラス
 10
-73.975
 20
-72.7
 70
     8
  0
VERTEX
  8
ガラス
 10
-73.9
 20
-72.7
 70
     8
  0
VERTEX
  8
ガラス
 10
-73.85
 20
-72.7
 70
     8
  0
VERTEX
  8
ガラス
 10
-73.8
 20
-72.725
 70
     8
  0
VERTEX
  8
ガラス
 10
-73.725
 20
-72.725
 70
     8
  0
VERTEX
  8
ガラス
 10
-73.675
 20
-72.75
 70
     8
  0
VERTEX
  8
ガラス
 10
-73.6
 20
-72.75
 70
     8
  0
VERTEX
  8
ガラス
 10
-73.55
 20
-72.775
 70
     8
  0
VERTEX
  8
ガラス
 10
-73.5
 20
-72.775
 70
     8
  0
VERTEX
  8
ガラス
 10
-73.425
 20
-72.8
 70
     8
  0
VERTEX
  8
ガラス
 10
-73.375
 20
-72.8
 70
     8
  0
VERTEX
  8
ガラス
 10
-73.3
 20
-72.825
 70
     8
  0
VERTEX
  8
ガラス
 10
-73.25
 20
-72.825
 70
     8
  0
VERTEX
  8
ガラス
 10
-73.2
 20
-72.85
 70
     8
  0
VERTEX
  8
ガラス
 10
-73.125
 20
-72.875
 70
     8
  0
VERTEX
  8
ガラス
 10
-73.075
 20
-72.875
 70
     8
  0
VERTEX
  8
ガラス
 10
-73.025
 20
-72.9
 70
     8
  0
VERTEX
  8
ガラス
 10
-72.95
 20
-72.925
 70
     8
  0
VERTEX
  8
ガラス
 10
-72.9
 20
-72.925
 70
     8
  0
VERTEX
  8
ガラス
 10
-72.85
 20
-72.95
 70
     8
  0
VERTEX
  8
ガラス
 10
-72.775
 20
-72.975
 70
     8
  0
VERTEX
  8
ガラス
 10
-72.725
 20
-73.0
 70
     8
  0
VERTEX
  8
ガラス
 10
-72.675
 20
-73.025
 70
     8
  0
VERTEX
  8
ガラス
 10
-72.625
 20
-73.05
 70
     8
  0
VERTEX
  8
ガラス
 10
-72.55
 20
-73.075
 70
     8
  0
VERTEX
  8
ガラス
 10
-72.5
 20
-73.1
 70
     8
  0
VERTEX
  8
ガラス
 10
-72.45
 20
-73.1
 70
     8
  0
VERTEX
  8
ガラス
 10
-72.375
 20
-73.125
 70
     8
  0
VERTEX
  8
ガラス
 10
-72.325
 20
-73.15
 70
     8
  0
VERTEX
  8
ガラス
 10
-72.275
 20
-73.175
 70
     8
  0
VERTEX
  8
ガラス
 10
-72.225
 20
-73.2
 70
     8
  0
VERTEX
  8
ガラス
 10
-72.15
 20
-73.225
 70
     8
  0
SEQEND
  0
ARC
  8
ガラス
  6
CONTINUOUS
 10
-71.782974
 20
-72.332344
 40
0.955135
 50
247.735412
 51
427.735412
  0
ENDBLK
  0
BLOCK
  2
*GRP_0012
 70
    65
 10
0.0
 20
0.0
  0
LINE
  8
ゴム等
  6
CONTINUOUS
 10
-63.869553
 20
-5.070735
 11
-63.369553
 21
-7.570735
  0
LINE
  8
ゴム等
  6
CONTINUOUS
 10
-69.169553
 20
-7.570735
 11
-68.669553
 21
-5.070735
  0
LINE
  8
ゴム等
  6
CONTINUOUS
 10
-71.269553
 20
-12.570735
 11
-71.269553
 21
-7.570735
  0
LINE
  8
ゴム等
  6
CONTINUOUS
 10
-61.269553
 20
-12.570735
 11
-61.269553
 21
-7.570735
  0
LINE
  8
ゴム等
  6
CONTINUOUS
 10
-63.869553
 20
-5.070735
 11
-68.669553
 21
-5.070735
  0
LINE
  8
ゴム等
  6
CONTINUOUS
 10
-71.269553
 20
-7.570735
 11
-69.169553
 21
-7.570735
  0
LINE
  8
ゴム等
  6
CONTINUOUS
 10
-63.369553
 20
-7.570735
 11
-61.269553
 21
-7.570735
  0
LINE
  8
ゴム等
  6
CONTINUOUS
 10
-66.269553
 20
-12.070735
 11
-66.769553
 21
-12.570735
  0
LINE
  8
ゴム等
  6
CONTINUOUS
 10
-66.269553
 20
-12.070735
 11
-65.769553
 21
-12.570735
  0
LINE
  8
ゴム等
  6
CONTINUOUS
 10
-61.269553
 20
-12.570735
 11
-65.769553
 21
-12.570735
  0
LINE
  8
ゴム等
  6
CONTINUOUS
 10
-66.769553
 20
-12.570735
 11
-71.269553
 21
-12.570735
  0
INSERT
  2
*HAT_0001
  8
ゴム等
 10
0.0
 20
0.0
  0
ENDBLK
  0
BLOCK
  2
*GRP_0013
 70
    65
 10
0.0
 20
0.0
  0
INSERT
  2
*HAT_0002
  8
ゴム等
 10
0.0
 20
0.0
  0
LINE
  8
ゴム等
  6
CONTINUOUS
 10
-13.668077
 20
-11.07111
 11
-20.667152
 21
-11.07111
  0
LINE
  8
ゴム等
  6
CONTINUOUS
 10
-20.667152
 20
-11.07111
 11
-19.167177
 21
-14.07111
  0
LINE
  8
ゴム等
  6
CONTINUOUS
 10
-13.668077
 20
-11.07111
 11
-15.167878
 21
-14.070735
  0
LINE
  8
ゴム等
  6
CONTINUOUS
 10
-13.167627
 20
-14.070735
 11
-15.167878
 21
-14.070735
  0
ARC
  8
ゴム等
  6
CONTINUOUS
 10
-13.16763
 20
-16.070708
 40
2.0
 50
0.0
 51
90.0
  0
LINE
  8
ゴム等
  6
CONTINUOUS
 10
-11.167602
 20
-18.07071
 11
-11.167602
 21
-16.07071
  0
ARC
  8
ゴム等
  6
CONTINUOUS
 10
-13.16763
 20
-18.070708
 40
2.0
 50
270.0
 51
360.0
  0
LINE
  8
ゴム等
  6
CONTINUOUS
 10
-13.167627
 20
-20.070735
 11
-21.167627
 21
-20.070735
  0
ARC
  8
ゴム等
  6
CONTINUOUS
 10
-21.16763
 20
-18.070708
 40
2.0
 50
180.0
 51
270.0
  0
LINE
  8
ゴム等
  6
CONTINUOUS
 10
-23.167602
 20
-18.07071
 11
-23.167602
 21
-16.07111
  0
LINE
  8
ゴム等
  6
CONTINUOUS
 10
-21.167627
 20
-14.07111
 11
-19.167177
 21
-14.07111
  0
ARC
  8
ゴム等
  6
CONTINUOUS
 10
-21.16763
 20
-16.071098
 40
2.0
 50
90.0
 51
180.0
  0
ARC
  8
ゴム等
  6
CONTINUOUS
 10
-13.167627
 20
-16.070705
 40
1.0
 50
0.0
 51
90.0
  0
LINE
  8
ゴム等
  6
CONTINUOUS
 10
-12.167627
 20
-18.070735
 11
-12.167627
 21
-16.07071
  0
ARC
  8
ゴム等
  6
CONTINUOUS
 10
-13.167627
 20
-18.07071
 40
1.0
 50
270.0
 51
360.0
  0
LINE
  8
ゴム等
  6
CONTINUOUS
 10
-21.167627
 20
-19.07071
 11
-13.167602
 21
-19.07071
  0
ARC
  8
ゴム等
  6
CONTINUOUS
 10
-21.167632
 20
-18.07071
 40
1.0
 50
180.0
 51
270.0
  0
LINE
  8
ゴム等
  6
CONTINUOUS
 10
-22.167627
 20
-16.07071
 11
-22.167627
 21
-18.070735
  0
LINE
  8
ゴム等
  6
CONTINUOUS
 10
-21.167627
 20
-15.07071
 11
-13.167602
 21
-15.07071
  0
ARC
  8
ゴム等
  6
CONTINUOUS
 10
-21.167632
 20
-16.070705
 40
1.0
 50
90.0
 51
180.0
  0
ENDBLK
  0
BLOCK
  2
*GRP_0014
 70
    65
 10
0.0
 20
0.0
  0
INSERT
  2
*HAT_0003
  8
ゴム等
 10
0.0
 20
0.0
  0
LINE
  8
ゴム等
  6
CONTINUOUS
 10
-52.164027
 20
-14.07074
 11
-52.164027
 21
-20.07074
  0
LINE
  8
ゴム等
  6
CONTINUOUS
 10
-52.164027
 20
-20.07074
 11
-37.164027
 21
-20.07074
  0
LINE
  8
ゴム等
  6
CONTINUOUS
 10
-37.164027
 20
-20.07074
 11
-37.164027
 21
-14.07074
  0
LINE
  8
ゴム等
  6
CONTINUOUS
 10
-52.164027
 20
-14.07074
 11
-37.164027
 21
-14.07074
  0
ENDBLK
  0
BLOCK
  2
*GRP_0015
 70
    65
 10
0.0
 20
0.0
  0
LINE
  8
ゴム等
  6
CONTINUOUS
 10
-60.864027
 20
-24.670215
 11
-58.364027
 21
-24.170215
  0
LINE
  8
ゴム等
  6
CONTINUOUS
 10
-58.364027
 20
-29.970215
 11
-60.864027
 21
-29.470215
  0
LINE
  8
ゴム等
  6
CONTINUOUS
 10
-53.364027
 20
-32.070215
 11
-58.364027
 21
-32.070215
  0
LINE
  8
ゴム等
  6
CONTINUOUS
 10
-53.364027
 20
-22.070215
 11
-58.364027
 21
-22.070215
  0
LINE
  8
ゴム等
  6
CONTINUOUS
 10
-60.864027
 20
-24.670215
 11
-60.864027
 21
-29.470215
  0
LINE
  8
ゴム等
  6
CONTINUOUS
 10
-58.364027
 20
-32.070215
 11
-58.364027
 21
-29.970215
  0
LINE
  8
ゴム等
  6
CONTINUOUS
 10
-58.364027
 20
-24.170215
 11
-58.364027
 21
-22.070215
  0
LINE
  8
ゴム等
  6
CONTINUOUS
 10
-53.864027
 20
-27.070215
 11
-53.364027
 21
-27.570215
  0
LINE
  8
ゴム等
  6
CONTINUOUS
 10
-53.864027
 20
-27.070215
 11
-53.364027
 21
-26.570215
  0
LINE
  8
ゴム等
  6
CONTINUOUS
 10
-53.364027
 20
-22.070215
 11
-53.364027
 21
-26.570215
  0
LINE
  8
ゴム等
  6
CONTINUOUS
 10
-53.364027
 20
-27.570215
 11
-53.364027
 21
-32.070215
  0
INSERT
  2
*HAT_0004
  8
ゴム等
 10
0.0
 20
0.0
  0
ENDBLK
  0
BLOCK
  2
*GRP_0016
 70
    65
 10
0.0
 20
0.0
  0
LINE
  8
ゴム等
  6
CONTINUOUS
 10
-64.664012
 20
80.329272
 11
-62.164012
 21
80.829272
  0
LINE
  8
ゴム等
  6
CONTINUOUS
 10
-62.164012
 20
75.029272
 11
-64.664012
 21
75.529272
  0
LINE
  8
ゴム等
  6
CONTINUOUS
 10
-57.164012
 20
72.929272
 11
-62.164012
 21
72.929272
  0
LINE
  8
ゴム等
  6
CONTINUOUS
 10
-57.164012
 20
82.929272
 11
-62.164012
 21
82.929272
  0
LINE
  8
ゴム等
  6
CONTINUOUS
 10
-64.664012
 20
80.329272
 11
-64.664012
 21
75.529272
  0
LINE
  8
ゴム等
  6
CONTINUOUS
 10
-62.164012
 20
72.929272
 11
-62.164012
 21
75.029272
  0
LINE
  8
ゴム等
  6
CONTINUOUS
 10
-62.164012
 20
80.829272
 11
-62.164012
 21
82.929272
  0
LINE
  8
ゴム等
  6
CONTINUOUS
 10
-57.664012
 20
77.929272
 11
-57.164012
 21
77.429272
  0
LINE
  8
ゴム等
  6
CONTINUOUS
 10
-57.664012
 20
77.929272
 11
-57.164012
 21
78.429272
  0
LINE
  8
ゴム等
  6
CONTINUOUS
 10
-57.164012
 20
82.929272
 11
-57.164012
 21
78.429272
  0
LINE
  8
ゴム等
  6
CONTINUOUS
 10
-57.164012
 20
77.429272
 11
-57.164012
 21
72.929272
  0
INSERT
  2
*HAT_0005
  8
ゴム等
 10
0.0
 20
0.0
  0
ENDBLK
  0
BLOCK
  2
*GRP_0017
 70
    65
 10
0.0
 20
0.0
  0
LINE
  8
ゴム等
  6
CONTINUOUS
 10
-77.869507
 20
-83.070745
 11
-77.369507
 21
-80.570745
  0
LINE
  8
ゴム等
  6
CONTINUOUS
 10
-83.169507
 20
-80.570745
 11
-82.669507
 21
-83.070745
  0
LINE
  8
ゴム等
  6
CONTINUOUS
 10
-85.269507
 20
-75.570745
 11
-85.269507
 21
-80.570745
  0
LINE
  8
ゴム等
  6
CONTINUOUS
 10
-75.269507
 20
-75.570745
 11
-75.269507
 21
-80.570745
  0
LINE
  8
ゴム等
  6
CONTINUOUS
 10
-77.869507
 20
-83.070745
 11
-82.669507
 21
-83.070745
  0
LINE
  8
ゴム等
  6
CONTINUOUS
 10
-85.269507
 20
-80.570745
 11
-83.169507
 21
-80.570745
  0
LINE
  8
ゴム等
  6
CONTINUOUS
 10
-77.369507
 20
-80.570745
 11
-75.269507
 21
-80.570745
  0
LINE
  8
ゴム等
  6
CONTINUOUS
 10
-80.269507
 20
-76.070745
 11
-80.769507
 21
-75.570745
  0
LINE
  8
ゴム等
  6
CONTINUOUS
 10
-80.269507
 20
-76.070745
 11
-79.769507
 21
-75.570745
  0
LINE
  8
ゴム等
  6
CONTINUOUS
 10
-75.269507
 20
-75.570745
 11
-79.769507
 21
-75.570745
  0
LINE
  8
ゴム等
  6
CONTINUOUS
 10
-80.769507
 20
-75.570745
 11
-85.269507
 21
-75.570745
  0
INSERT
  2
*HAT_0006
  8
ゴム等
 10
0.0
 20
0.0
  0
ENDBLK
  0
BLOCK
  2
*GRP_0018
 70
    65
 10
0.0
 20
0.0
  0
LINE
  8
ボルト／ビス
  6
CONTINUOUS
 62
    64
 10
-68.269553
 20
-12.270735
 11
-64.269553
 21
-12.270735
  0
LINE
  8
ボルト／ビス
  6
CONTINUOUS
 62
    64
 10
-69.269553
 20
-14.070735
 11
-68.269553
 21
-12.270735
  0
LINE
  8
ボルト／ビス
  6
CONTINUOUS
 62
    64
 10
-69.269553
 20
-14.070735
 11
-63.269553
 21
-14.070735
  0
LINE
  8
ボルト／ビス
  6
CONTINUOUS
 62
    64
 10
-63.269553
 20
-14.070735
 11
-64.269553
 21
-12.270735
  0
LINE
  8
ボルト／ビス
  6
CONTINUOUS
 62
    64
 10
-66.269553
 20
-15.554265
 11
-66.269553
 21
3.640835
  0
LINE
  8
ボルト／ビス
  6
CONTINUOUS
 62
    64
 10
-68.269553
 20
1.429265
 11
-67.769553
 21
1.929265
  0
LINE
  8
ボルト／ビス
  6
CONTINUOUS
 62
    64
 10
-64.269553
 20
1.429265
 11
-64.769553
 21
1.929265
  0
LINE
  8
ボルト／ビス
  6
CONTINUOUS
 62
    64
 10
-67.769553
 20
1.929265
 11
-64.769553
 21
1.929265
  0
LINE
  8
ボルト／ビス
  6
CONTINUOUS
 62
    64
 10
-68.269553
 20
1.429265
 11
-64.269553
 21
1.429265
  0
LINE
  8
ボルト／ビス
  6
CONTINUOUS
 62
    64
 10
-64.769553
 20
-12.270735
 11
-64.769553
 21
1.929265
  0
LINE
  8
ボルト／ビス
  6
CONTINUOUS
 62
    64
 10
-67.769553
 20
-12.270735
 11
-67.769553
 21
1.929265
  0
LINE
  8
ボルト／ビス
  6
CONTINUOUS
 62
    64
 10
-68.269553
 20
-12.270735
 11
-68.269553
 21
1.429265
  0
LINE
  8
ボルト／ビス
  6
CONTINUOUS
 62
    64
 10
-64.269553
 20
-12.270735
 11
-64.269553
 21
1.429265
  0
ENDBLK
  0
BLOCK
  2
*GRP_0019
 70
    65
 10
0.0
 20
0.0
  0
LINE
  8
ボルト／ビス
  6
CONTINUOUS
 62
    64
 10
-53.164027
 20
-29.070215
 11
-53.164027
 21
-25.070215
  0
LINE
  8
ボルト／ビス
  6
CONTINUOUS
 62
    64
 10
-51.364027
 20
-30.070215
 11
-53.164027
 21
-29.070215
  0
LINE
  8
ボルト／ビス
  6
CONTINUOUS
 62
    64
 10
-51.364027
 20
-30.070215
 11
-51.364027
 21
-24.070215
  0
LINE
  8
ボルト／ビス
  6
CONTINUOUS
 62
    64
 10
-51.364027
 20
-24.070215
 11
-53.164027
 21
-25.070215
  0
LINE
  8
ボルト／ビス
  6
CONTINUOUS
 62
    64
 10
-49.880498
 20
-27.070215
 11
-69.075598
 21
-27.070215
  0
LINE
  8
ボルト／ビス
  6
CONTINUOUS
 62
    64
 10
-66.864027
 20
-29.070215
 11
-67.364027
 21
-28.570215
  0
LINE
  8
ボルト／ビス
  6
CONTINUOUS
 62
    64
 10
-66.864027
 20
-25.070215
 11
-67.364027
 21
-25.570215
  0
LINE
  8
ボルト／ビス
  6
CONTINUOUS
 62
    64
 10
-67.364027
 20
-28.570215
 11
-67.364027
 21
-25.570215
  0
LINE
  8
ボルト／ビス
  6
CONTINUOUS
 62
    64
 10
-66.864027
 20
-29.070215
 11
-66.864027
 21
-25.070215
  0
LINE
  8
ボルト／ビス
  6
CONTINUOUS
 62
    64
 10
-53.164027
 20
-25.570215
 11
-67.364027
 21
-25.570215
  0
LINE
  8
ボルト／ビス
  6
CONTINUOUS
 62
    64
 10
-53.164027
 20
-28.570215
 11
-67.364027
 21
-28.570215
  0
LINE
  8
ボルト／ビス
  6
CONTINUOUS
 62
    64
 10
-53.164027
 20
-29.070215
 11
-66.864027
 21
-29.070215
  0
LINE
  8
ボルト／ビス
  6
CONTINUOUS
 62
    64
 10
-53.164027
 20
-25.070215
 11
-66.864027
 21
-25.070215
  0
ENDBLK
  0
BLOCK
  2
*GRP_0020
 70
    65
 10
0.0
 20
0.0
  0
LINE
  8
ボルト／ビス
  6
CONTINUOUS
 62
    64
 10
7.630497
 20
-104.274245
 11
3.630497
 21
-104.274245
  0
LINE
  8
ボルト／ビス
  6
CONTINUOUS
 62
    64
 10
8.630497
 20
-106.074245
 11
7.630497
 21
-104.274245
  0
LINE
  8
ボルト／ビス
  6
CONTINUOUS
 62
    64
 10
8.630497
 20
-106.074245
 11
2.630497
 21
-106.074245
  0
LINE
  8
ボルト／ビス
  6
CONTINUOUS
 62
    64
 10
2.630497
 20
-106.074245
 11
3.630497
 21
-104.274245
  0
LINE
  8
ボルト／ビス
  6
CONTINUOUS
 62
    64
 10
5.630497
 20
-107.557777
 11
5.630497
 21
-97.195218
  0
LINE
  8
ボルト／ビス
  6
CONTINUOUS
 62
    64
 10
7.630497
 20
-98.574245
 11
7.130497
 21
-98.074245
  0
LINE
  8
ボルト／ビス
  6
CONTINUOUS
 62
    64
 10
3.630497
 20
-98.574245
 11
4.130497
 21
-98.074245
  0
LINE
  8
ボルト／ビス
  6
CONTINUOUS
 62
    64
 10
7.130497
 20
-98.074245
 11
4.130497
 21
-98.074245
  0
LINE
  8
ボルト／ビス
  6
CONTINUOUS
 62
    64
 10
7.630497
 20
-98.574245
 11
3.630497
 21
-98.574245
  0
LINE
  8
ボルト／ビス
  6
CONTINUOUS
 62
    64
 10
7.130497
 20
-104.274245
 11
7.130497
 21
-98.074245
  0
LINE
  8
ボルト／ビス
  6
CONTINUOUS
 62
    64
 10
4.130497
 20
-104.274245
 11
4.130497
 21
-98.074245
  0
LINE
  8
ボルト／ビス
  6
CONTINUOUS
 62
    64
 10
3.630497
 20
-104.274245
 11
3.630497
 21
-98.574245
  0
LINE
  8
ボルト／ビス
  6
CONTINUOUS
 62
    64
 10
7.630497
 20
-104.274245
 11
7.630497
 21
-98.574245
  0
ENDBLK
  0
BLOCK
  2
*GRP_0021
 70
    65
 10
0.0
 20
0.0
  0
LINE
  8
ボルト／ビス
  6
CONTINUOUS
 62
    64
 10
-60.969262
 20
-104.274245
 11
-64.969262
 21
-104.274245
  0
LINE
  8
ボルト／ビス
  6
CONTINUOUS
 62
    64
 10
-59.969262
 20
-106.074245
 11
-60.969262
 21
-104.274245
  0
LINE
  8
ボルト／ビス
  6
CONTINUOUS
 62
    64
 10
-59.969262
 20
-106.074245
 11
-65.969262
 21
-106.074245
  0
LINE
  8
ボルト／ビス
  6
CONTINUOUS
 62
    64
 10
-65.969262
 20
-106.074245
 11
-64.969262
 21
-104.274245
  0
LINE
  8
ボルト／ビス
  6
CONTINUOUS
 62
    64
 10
-62.969262
 20
-107.557777
 11
-62.969262
 21
-97.195218
  0
LINE
  8
ボルト／ビス
  6
CONTINUOUS
 62
    64
 10
-60.969262
 20
-98.574245
 11
-61.469262
 21
-98.074245
  0
LINE
  8
ボルト／ビス
  6
CONTINUOUS
 62
    64
 10
-64.969262
 20
-98.574245
 11
-64.469262
 21
-98.074245
  0
LINE
  8
ボルト／ビス
  6
CONTINUOUS
 62
    64
 10
-61.469262
 20
-98.074245
 11
-64.469262
 21
-98.074245
  0
LINE
  8
ボルト／ビス
  6
CONTINUOUS
 62
    64
 10
-60.969262
 20
-98.574245
 11
-64.969262
 21
-98.574245
  0
LINE
  8
ボルト／ビス
  6
CONTINUOUS
 62
    64
 10
-61.469262
 20
-104.274245
 11
-61.469262
 21
-98.074245
  0
LINE
  8
ボルト／ビス
  6
CONTINUOUS
 62
    64
 10
-64.469262
 20
-104.274245
 11
-64.469262
 21
-98.074245
  0
LINE
  8
ボルト／ビス
  6
CONTINUOUS
 62
    64
 10
-64.969262
 20
-104.274245
 11
-64.969262
 21
-98.574245
  0
LINE
  8
ボルト／ビス
  6
CONTINUOUS
 62
    64
 10
-60.969262
 20
-104.274245
 11
-60.969262
 21
-98.574245
  0
ENDBLK
  0
BLOCK
  2
*GRP_0022
 70
    65
 10
0.0
 20
0.0
  0
LINE
  8
ボルト／ビス
  6
CONTINUOUS
 62
    64
 10
-63.964012
 20
57.728257
 11
-63.964012
 21
61.728257
  0
LINE
  8
ボルト／ビス
  6
CONTINUOUS
 62
    64
 10
-62.164012
 20
56.728257
 11
-63.964012
 21
57.728257
  0
LINE
  8
ボルト／ビス
  6
CONTINUOUS
 62
    64
 10
-62.164012
 20
56.728257
 11
-62.164012
 21
62.728257
  0
LINE
  8
ボルト／ビス
  6
CONTINUOUS
 62
    64
 10
-62.164012
 20
62.728257
 11
-63.964012
 21
61.728257
  0
LINE
  8
ボルト／ビス
  6
CONTINUOUS
 62
    64
 10
-60.680483
 20
59.728257
 11
-73.282758
 21
59.728257
  0
LINE
  8
ボルト／ビス
  6
CONTINUOUS
 62
    64
 10
-71.664012
 20
57.728257
 11
-72.164012
 21
58.228257
  0
LINE
  8
ボルト／ビス
  6
CONTINUOUS
 62
    64
 10
-71.664012
 20
61.728257
 11
-72.164012
 21
61.228257
  0
LINE
  8
ボルト／ビス
  6
CONTINUOUS
 62
    64
 10
-72.164012
 20
58.228257
 11
-72.164012
 21
61.228257
  0
LINE
  8
ボルト／ビス
  6
CONTINUOUS
 62
    64
 10
-71.664012
 20
57.728257
 11
-71.664012
 21
61.728257
  0
LINE
  8
ボルト／ビス
  6
CONTINUOUS
 62
    64
 10
-63.964012
 20
61.228257
 11
-72.164012
 21
61.228257
  0
LINE
  8
ボルト／ビス
  6
CONTINUOUS
 62
    64
 10
-63.964012
 20
58.228257
 11
-72.164012
 21
58.228257
  0
LINE
  8
ボルト／ビス
  6
CONTINUOUS
 62
    64
 10
-63.964012
 20
57.728257
 11
-71.664012
 21
57.728257
  0
LINE
  8
ボルト／ビス
  6
CONTINUOUS
 62
    64
 10
-63.964012
 20
61.728257
 11
-71.664012
 21
61.728257
  0
ENDBLK
  0
BLOCK
  2
*GRP_0023
 70
    65
 10
0.0
 20
0.0
  0
LINE
  8
ボルト／ビス
  6
CONTINUOUS
 62
    64
 10
-55.164012
 20
74.429272
 11
-54.115848
 21
74.520975
  0
ARC
  8
ボルト／ビス
  6
CONTINUOUS
 62
    64
 10
-54.264012
 20
76.214505
 40
1.7
 50
274.999989
 51
360.0
  0
LINE
  8
ボルト／ビス
  6
CONTINUOUS
 62
    64
 10
-52.564012
 20
76.214505
 11
-52.564012
 21
77.929272
  0
LINE
  8
ボルト／ビス
  6
CONTINUOUS
 62
    64
 10
-55.164012
 20
81.429272
 11
-54.115848
 21
81.33757
  0
ARC
  8
ボルト／ビス
  6
CONTINUOUS
 62
    64
 10
-54.264012
 20
79.644039
 40
1.7
 50
0.0
 51
85.000011
  0
LINE
  8
ボルト／ビス
  6
CONTINUOUS
 62
    64
 10
-52.564012
 20
79.64404
 11
-52.564012
 21
77.929272
  0
LINE
  8
ボルト／ビス
  6
CONTINUOUS
 62
    64
 10
-52.948917
 20
75.532633
 11
-52.706755
 21
75.532633
  0
LINE
  8
ボルト／ビス
  6
CONTINUOUS
 62
    64
 10
-53.599
 20
77.229272
 11
-53.599
 21
77.929272
  0
LINE
  8
ボルト／ビス
  6
CONTINUOUS
 62
    64
 10
-52.948917
 20
76.829272
 11
-52.948917
 21
75.532633
  0
LINE
  8
ボルト／ビス
  6
CONTINUOUS
 62
    64
 10
-53.599
 20
77.229272
 11
-53.348917
 21
77.229272
  0
ARC
  8
ボルト／ビス
  6
CONTINUOUS
 62
    64
 10
-53.348917
 20
76.829272
 40
0.4
 50
0.0
 51
90.0
  0
LINE
  8
ボルト／ビス
  6
CONTINUOUS
 62
    64
 10
-52.948917
 20
80.325913
 11
-52.706755
 21
80.325913
  0
LINE
  8
ボルト／ビス
  6
CONTINUOUS
 62
    64
 10
-53.599
 20
78.629272
 11
-53.599
 21
77.929272
  0
LINE
  8
ボルト／ビス
  6
CONTINUOUS
 62
    64
 10
-52.948917
 20
79.029272
 11
-52.948917
 21
80.325913
  0
LINE
  8
ボルト／ビス
  6
CONTINUOUS
 62
    64
 10
-53.599
 20
78.629272
 11
-53.348917
 21
78.629272
  0
ARC
  8
ボルト／ビス
  6
CONTINUOUS
 62
    64
 10
-53.348917
 20
79.029272
 40
0.4
 50
270.0
 51
360.0
  0
LINE
  8
ボルト／ビス
  6
CONTINUOUS
 62
    64
 10
-55.164012
 20
74.429272
 11
-55.164012
 21
81.429272
  0
LINE
  8
ボルト／ビス
  6
CONTINUOUS
 62
    64
 10
-50.592625
 20
77.929272
 11
-70.807285
 21
77.929272
  0
LINE
  8
ボルト／ビス
  6
CONTINUOUS
 62
    64
 10
-68.664012
 20
75.929272
 11
-69.164012
 21
76.429272
  0
LINE
  8
ボルト／ビス
  6
CONTINUOUS
 62
    64
 10
-68.664012
 20
79.929272
 11
-69.164012
 21
79.429272
  0
LINE
  8
ボルト／ビス
  6
CONTINUOUS
 62
    64
 10
-68.664012
 20
75.929272
 11
-68.664012
 21
79.929272
  0
LINE
  8
ボルト／ビス
  6
CONTINUOUS
 62
    64
 10
-69.164012
 20
76.429272
 11
-69.164012
 21
79.429272
  0
LINE
  8
ボルト／ビス
  6
CONTINUOUS
 62
    64
 10
-55.164012
 20
79.929272
 11
-68.664012
 21
79.929272
  0
LINE
  8
ボルト／ビス
  6
CONTINUOUS
 62
    64
 10
-55.164012
 20
75.929272
 11
-68.664012
 21
75.929272
  0
LINE
  8
ボルト／ビス
  6
CONTINUOUS
 62
    64
 10
-55.164012
 20
76.429272
 11
-69.164012
 21
76.429272
  0
LINE
  8
ボルト／ビス
  6
CONTINUOUS
 62
    64
 10
-55.164012
 20
79.429272
 11
-69.164012
 21
79.429272
  0
ENDBLK
  0
BLOCK
  2
*GRP_0024
 70
    65
 10
0.0
 20
0.0
  0
LINE
  8
型材断面
  6
CONTINUOUS
 62
    64
 10
-84.927498
 20
-88.437903
 11
-84.927502
 21
-87.574202
  0
LINE
  8
型材断面
  6
CONTINUOUS
 62
    64
 10
-75.611542
 20
-88.437872
 11
-75.611547
 21
-87.574162
  0
LINE
  8
型材断面
  6
CONTINUOUS
 62
    64
 10
-84.927502
 20
-87.574202
 11
-75.611547
 21
-87.574162
  0
LINE
  8
ボルト／ビス
  6
CONTINUOUS
 62
    64
 10
-75.269517
 20
-89.377563
 11
-78.189617
 21
-90.440408
  0
LINE
  8
ボルト／ビス
  6
CONTINUOUS
 62
    64
 10
-78.189617
 20
-90.440408
 11
-80.269507
 21
-90.440413
  0
LINE
  8
ボルト／ビス
  6
CONTINUOUS
 62
    64
 10
-75.269517
 20
-89.377563
 11
-80.269513
 21
-89.377582
  0
LINE
  8
ボルト／ビス
  6
CONTINUOUS
 62
    64
 10
-75.611542
 20
-88.437872
 11
-80.269517
 21
-88.437888
  0
LINE
  8
ボルト／ビス
  6
CONTINUOUS
 62
    64
 10
-85.269513
 20
-89.377607
 11
-82.349413
 21
-90.440423
  0
LINE
  8
ボルト／ビス
  6
CONTINUOUS
 62
    64
 10
-82.349413
 20
-90.440423
 11
-80.269507
 21
-90.440413
  0
LINE
  8
ボルト／ビス
  6
CONTINUOUS
 62
    64
 10
-85.269513
 20
-89.377607
 11
-80.269513
 21
-89.377582
  0
LINE
  8
ボルト／ビス
  6
CONTINUOUS
 62
    64
 10
-84.927498
 20
-88.437903
 11
-80.269517
 21
-88.437888
  0
LINE
  8
ボルト／ビス
  6
CONTINUOUS
 62
    64
 10
-85.269513
 20
-89.377607
 11
-84.927498
 21
-88.437903
  0
LINE
  8
ボルト／ビス
  6
CONTINUOUS
 62
    64
 10
-75.269517
 20
-89.377563
 11
-75.611542
 21
-88.437867
  0
ENDBLK
  0
BLOCK
  2
*GRP_0025
 70
    65
 10
0.0
 20
0.0
  0
LINE
  8
ボルト／ビス
  6
CONTINUOUS
 62
    64
 10
-83.769507
 20
-90.440413
 11
-83.677808
 21
-91.488577
  0
ARC
  8
ボルト／ビス
  6
CONTINUOUS
 62
    64
 10
-81.98427
 20
-91.340405
 40
1.7
 50
184.999989
 51
270.0
  0
LINE
  8
ボルト／ビス
  6
CONTINUOUS
 62
    64
 10
-81.984273
 20
-93.040413
 11
-80.269507
 21
-93.040413
  0
LINE
  8
ボルト／ビス
  6
CONTINUOUS
 62
    64
 10
-76.769507
 20
-90.440413
 11
-76.861212
 21
-91.488577
  0
ARC
  8
ボルト／ビス
  6
CONTINUOUS
 62
    64
 10
-78.554737
 20
-91.340405
 40
1.7
 50
270.0
 51
355.000011
  0
LINE
  8
ボルト／ビス
  6
CONTINUOUS
 62
    64
 10
-78.554738
 20
-93.040413
 11
-80.269507
 21
-93.040413
  0
LINE
  8
ボルト／ビス
  6
CONTINUOUS
 62
    64
 10
-82.666147
 20
-92.655508
 11
-82.666147
 21
-92.897667
  0
LINE
  8
ボルト／ビス
  6
CONTINUOUS
 62
    64
 10
-80.969507
 20
-92.005422
 11
-80.269507
 21
-92.005422
  0
LINE
  8
ボルト／ビス
  6
CONTINUOUS
 62
    64
 10
-81.369507
 20
-92.655508
 11
-82.666147
 21
-92.655508
  0
LINE
  8
ボルト／ビス
  6
CONTINUOUS
 62
    64
 10
-80.969507
 20
-92.005422
 11
-80.969507
 21
-92.255508
  0
ARC
  8
ボルト／ビス
  6
CONTINUOUS
 62
    64
 10
-81.369503
 20
-92.2555
 40
0.4
 50
270.0
 51
360.0
  0
LINE
  8
ボルト／ビス
  6
CONTINUOUS
 62
    64
 10
-77.872868
 20
-92.655508
 11
-77.872868
 21
-92.897667
  0
LINE
  8
ボルト／ビス
  6
CONTINUOUS
 62
    64
 10
-79.569507
 20
-92.005422
 11
-80.269507
 21
-92.005422
  0
LINE
  8
ボルト／ビス
  6
CONTINUOUS
 62
    64
 10
-79.169507
 20
-92.655508
 11
-77.872868
 21
-92.655508
  0
LINE
  8
ボルト／ビス
  6
CONTINUOUS
 62
    64
 10
-79.569507
 20
-92.005422
 11
-79.569507
 21
-92.255508
  0
ARC
  8
ボルト／ビス
  6
CONTINUOUS
 62
    64
 10
-79.169503
 20
-92.2555
 40
0.4
 50
180.0
 51
270.0
  0
LINE
  8
ボルト／ビス
  6
CONTINUOUS
 62
    64
 10
-83.769507
 20
-90.440413
 11
-76.769507
 21
-90.440413
  0
LINE
  8
ボルト／ビス
  6
CONTINUOUS
 62
    64
 10
-80.269507
 20
-95.011802
 11
-80.269507
 21
-62.888937
  0
LINE
  8
ボルト／ビス
  6
CONTINUOUS
 62
    64
 10
-82.269507
 20
-65.940413
 11
-81.769507
 21
-65.440413
  0
LINE
  8
ボルト／ビス
  6
CONTINUOUS
 62
    64
 10
-78.269507
 20
-65.940413
 11
-78.769507
 21
-65.440413
  0
LINE
  8
ボルト／ビス
  6
CONTINUOUS
 62
    64
 10
-82.269507
 20
-65.940413
 11
-78.269507
 21
-65.940413
  0
LINE
  8
ボルト／ビス
  6
CONTINUOUS
 62
    64
 10
-81.769507
 20
-65.440413
 11
-78.769507
 21
-65.440413
  0
LINE
  8
ボルト／ビス
  6
CONTINUOUS
 62
    64
 10
-78.769507
 20
-90.440413
 11
-78.769507
 21
-65.440413
  0
LINE
  8
ボルト／ビス
  6
CONTINUOUS
 62
    64
 10
-81.769507
 20
-90.440413
 11
-81.769507
 21
-65.440413
  0
LINE
  8
ボルト／ビス
  6
CONTINUOUS
 62
    64
 10
-82.269507
 20
-90.440413
 11
-82.269507
 21
-65.940413
  0
LINE
  8
ボルト／ビス
  6
CONTINUOUS
 62
    64
 10
-78.269507
 20
-90.440413
 11
-78.269507
 21
-65.940413
  0
ENDBLK
  0
BLOCK
  2
*GRP_0026
 70
    65
 10
0.0
 20
0.0
  0
LINE
  8
ボルト／ビス
  6
CONTINUOUS
 62
    64
 10
-34.180747
 20
-30.770467
 11
-35.142998
 21
-30.420237
  0
ARC
  8
ボルト／ビス
  6
CONTINUOUS
 62
    64
 10
-33.699624
 20
-27.621116
 40
3.149353
 50
270.0
 51
297.278033
  0
ARC
  8
ボルト／ビス
  6
CONTINUOUS
 62
    64
 10
-29.369496
 20
-18.698401
 40
12.072067
 50
256.165015
 51
283.834998
  0
LINE
  8
ボルト／ビス
  6
CONTINUOUS
 62
    64
 10
-24.558242
 20
-30.770467
 11
-23.595993
 21
-30.420237
  0
ARC
  8
ボルト／ビス
  6
CONTINUOUS
 62
    64
 10
-25.039369
 20
-27.621116
 40
3.149353
 50
242.721967
 51
270.0
  0
LINE
  8
ボルト／ビス
  6
CONTINUOUS
 62
    64
 10
-34.180747
 20
-30.770467
 11
-24.558242
 21
-30.770467
  0
LINE
  8
ボルト／ビス
  6
CONTINUOUS
 62
    64
 10
-23.595993
 20
-30.420237
 11
-23.595993
 21
-26.770467
  0
LINE
  8
ボルト／ビス
  6
CONTINUOUS
 62
    64
 10
-26.482743
 20
-30.420237
 11
-26.482743
 21
-26.770467
  0
LINE
  8
ボルト／ビス
  6
CONTINUOUS
 62
    64
 10
-35.142998
 20
-30.420237
 11
-35.142998
 21
-26.770467
  0
LINE
  8
ボルト／ビス
  6
CONTINUOUS
 62
    64
 10
-32.256245
 20
-30.420237
 11
-32.256245
 21
-26.770467
  0
LINE
  8
ボルト／ビス
  6
CONTINUOUS
 62
    64
 10
-23.195993
 20
-25.270467
 11
-23.195993
 21
-26.770467
  0
LINE
  8
ボルト／ビス
  6
CONTINUOUS
 62
    64
 10
-22.369492
 20
-24.370467
 11
-22.369492
 21
-25.270467
  0
LINE
  8
ボルト／ビス
  6
CONTINUOUS
 62
    64
 10
-35.542993
 20
-25.270467
 11
-35.542993
 21
-26.770467
  0
LINE
  8
ボルト／ビス
  6
CONTINUOUS
 62
    64
 10
-36.369492
 20
-24.370467
 11
-36.369492
 21
-25.270467
  0
LINE
  8
ボルト／ビス
  6
CONTINUOUS
 62
    64
 10
-22.369492
 20
-25.270467
 11
-36.369492
 21
-25.270467
  0
LINE
  8
ボルト／ビス
  6
CONTINUOUS
 62
    64
 10
-22.369492
 20
-24.370467
 11
-36.369492
 21
-24.370467
  0
LINE
  8
ボルト／ビス
  6
CONTINUOUS
 62
    64
 10
-23.195993
 20
-26.770467
 11
-35.542993
 21
-26.770467
  0
LINE
  8
ボルト／ビス
  6
CONTINUOUS
 62
    64
 10
-29.369492
 20
-25.270467
 11
-29.369492
 21
-26.770467
  0
LINE
  8
ボルト／ビス
  6
CONTINUOUS
 62
    64
 10
-26.369492
 20
-17.770467
 11
-27.069492
 21
-16.770467
  0
LINE
  8
ボルト／ビス
  6
CONTINUOUS
 62
    64
 10
-32.369492
 20
-17.770467
 11
-31.669492
 21
-16.770467
  0
LINE
  8
ボルト／ビス
  6
CONTINUOUS
 62
    64
 10
-32.369492
 20
-17.770467
 11
-26.369492
 21
-17.770467
  0
LINE
  8
ボルト／ビス
  6
CONTINUOUS
 62
    64
 10
-31.669492
 20
-16.770467
 11
-27.069492
 21
-16.770467
  0
LINE
  8
ボルト／ビス
  6
CONTINUOUS
 62
    64
 10
-29.369492
 20
-35.770467
 11
-29.369492
 21
-13.523668
  0
LINE
  8
ボルト／ビス
  6
CONTINUOUS
 62
    64
 10
-26.369492
 20
-17.770467
 11
-26.369492
 21
-24.370467
  0
LINE
  8
ボルト／ビス
  6
CONTINUOUS
 62
    64
 10
-27.069492
 20
-16.770467
 11
-27.069492
 21
-24.370467
  0
LINE
  8
ボルト／ビス
  6
CONTINUOUS
 62
    64
 10
-31.669492
 20
-16.770467
 11
-31.669492
 21
-24.370467
  0
LINE
  8
ボルト／ビス
  6
CONTINUOUS
 62
    64
 10
-32.369492
 20
-17.770467
 11
-32.369492
 21
-24.370467
  0
ENDBLK
  0
BLOCK
  2
*GRP_0027
 70
    65
 10
0.0
 20
0.0
  0
LINE
  8
ボルト／ビス
  6
CONTINUOUS
 10
-95.36403
 20
-35.570737
 11
-93.064027
 21
-34.070737
  0
LINE
  8
ボルト／ビス
  6
CONTINUOUS
 10
-95.36403
 20
-27.570742
 11
-93.064027
 21
-29.070742
  0
LINE
  8
ボルト／ビス
  6
CONTINUOUS
 10
-95.36403
 20
-35.570737
 11
-95.36403
 21
-27.570742
  0
LINE
  8
ボルト／ビス
  6
CONTINUOUS
 10
-93.064027
 20
-34.070737
 11
-93.064027
 21
-29.070742
  0
LINE
  8
ボルト／ビス
  6
CONTINUOUS
 10
-97.749233
 20
-31.57074
 11
-80.36403
 21
-31.57074
  0
LINE
  8
ボルト／ビス
  6
CONTINUOUS
 10
-80.864033
 20
-34.070737
 11
-80.36403
 21
-33.570742
  0
LINE
  8
ボルト／ビス
  6
CONTINUOUS
 10
-80.864033
 20
-29.070742
 11
-80.36403
 21
-29.570737
  0
LINE
  8
ボルト／ビス
  6
CONTINUOUS
 10
-80.36403
 20
-29.570737
 11
-80.36403
 21
-33.570742
  0
LINE
  8
ボルト／ビス
  6
CONTINUOUS
 10
-80.864033
 20
-29.070742
 11
-80.864033
 21
-34.070737
  0
LINE
  8
ボルト／ビス
  6
CONTINUOUS
 10
-93.064027
 20
-33.570742
 11
-80.36403
 21
-33.570742
  0
LINE
  8
ボルト／ビス
  6
CONTINUOUS
 10
-93.064027
 20
-29.570737
 11
-80.36403
 21
-29.570737
  0
LINE
  8
ボルト／ビス
  6
CONTINUOUS
 10
-93.064027
 20
-29.070742
 11
-80.864033
 21
-29.070742
  0
LINE
  8
ボルト／ビス
  6
CONTINUOUS
 10
-93.064027
 20
-34.070737
 11
-80.864033
 21
-34.070737
  0
ENDBLK
  0
BLOCK
  2
*GRP_0028
 70
    65
 10
0.0
 20
0.0
  0
LINE
  8
ボルト／ビス
  6
CONTINUOUS
 10
-95.36403
 20
-55.570737
 11
-93.064027
 21
-54.070737
  0
LINE
  8
ボルト／ビス
  6
CONTINUOUS
 10
-95.36403
 20
-47.570742
 11
-93.064027
 21
-49.070742
  0
LINE
  8
ボルト／ビス
  6
CONTINUOUS
 10
-95.36403
 20
-55.570737
 11
-95.36403
 21
-47.570742
  0
LINE
  8
ボルト／ビス
  6
CONTINUOUS
 10
-93.064027
 20
-54.070737
 11
-93.064027
 21
-49.070742
  0
LINE
  8
ボルト／ビス
  6
CONTINUOUS
 10
-97.749233
 20
-51.57074
 11
-80.36403
 21
-51.57074
  0
LINE
  8
ボルト／ビス
  6
CONTINUOUS
 10
-80.864033
 20
-54.070737
 11
-80.36403
 21
-53.570742
  0
LINE
  8
ボルト／ビス
  6
CONTINUOUS
 10
-80.864033
 20
-49.070742
 11
-80.36403
 21
-49.570737
  0
LINE
  8
ボルト／ビス
  6
CONTINUOUS
 10
-80.36403
 20
-49.570737
 11
-80.36403
 21
-53.570742
  0
LINE
  8
ボルト／ビス
  6
CONTINUOUS
 10
-80.864033
 20
-49.070742
 11
-80.864033
 21
-54.070737
  0
LINE
  8
ボルト／ビス
  6
CONTINUOUS
 10
-93.064027
 20
-53.570742
 11
-80.36403
 21
-53.570742
  0
LINE
  8
ボルト／ビス
  6
CONTINUOUS
 10
-93.064027
 20
-49.570737
 11
-80.36403
 21
-49.570737
  0
LINE
  8
ボルト／ビス
  6
CONTINUOUS
 10
-93.064027
 20
-49.070742
 11
-80.864033
 21
-49.070742
  0
LINE
  8
ボルト／ビス
  6
CONTINUOUS
 10
-93.064027
 20
-54.070737
 11
-80.864033
 21
-54.070737
  0
ENDBLK
  0
BLOCK
  2
*GRP_0029
 70
    65
 10
0.0
 20
0.0
  0
LINE
  8
ボルト／ビス
  6
CONTINUOUS
 10
-95.364015
 20
16.92927
 11
-93.064012
 21
18.42927
  0
LINE
  8
ボルト／ビス
  6
CONTINUOUS
 10
-95.364015
 20
24.929265
 11
-93.064012
 21
23.429265
  0
LINE
  8
ボルト／ビス
  6
CONTINUOUS
 10
-95.364015
 20
16.92927
 11
-95.364015
 21
24.929265
  0
LINE
  8
ボルト／ビス
  6
CONTINUOUS
 10
-93.064012
 20
18.42927
 11
-93.064012
 21
23.429265
  0
LINE
  8
ボルト／ビス
  6
CONTINUOUS
 10
-97.749218
 20
20.929268
 11
-80.364015
 21
20.929268
  0
LINE
  8
ボルト／ビス
  6
CONTINUOUS
 10
-80.864018
 20
18.42927
 11
-80.364015
 21
18.929265
  0
LINE
  8
ボルト／ビス
  6
CONTINUOUS
 10
-80.864018
 20
23.429265
 11
-80.364015
 21
22.92927
  0
LINE
  8
ボルト／ビス
  6
CONTINUOUS
 10
-80.364015
 20
22.92927
 11
-80.364015
 21
18.929265
  0
LINE
  8
ボルト／ビス
  6
CONTINUOUS
 10
-80.864018
 20
23.429265
 11
-80.864018
 21
18.42927
  0
LINE
  8
ボルト／ビス
  6
CONTINUOUS
 10
-93.064012
 20
18.929265
 11
-80.364015
 21
18.929265
  0
LINE
  8
ボルト／ビス
  6
CONTINUOUS
 10
-93.064012
 20
22.92927
 11
-80.364015
 21
22.92927
  0
LINE
  8
ボルト／ビス
  6
CONTINUOUS
 10
-93.064012
 20
23.429265
 11
-80.864018
 21
23.429265
  0
LINE
  8
ボルト／ビス
  6
CONTINUOUS
 10
-93.064012
 20
18.42927
 11
-80.864018
 21
18.42927
  0
ENDBLK
  0
BLOCK
  2
*GRP_0030
 70
    65
 10
0.0
 20
0.0
  0
LINE
  8
ボルト／ビス
  6
CONTINUOUS
 10
-95.364015
 20
-3.07073
 11
-93.064012
 21
-1.57073
  0
LINE
  8
ボルト／ビス
  6
CONTINUOUS
 10
-95.364015
 20
4.929265
 11
-93.064012
 21
3.429265
  0
LINE
  8
ボルト／ビス
  6
CONTINUOUS
 10
-95.364015
 20
-3.07073
 11
-95.364015
 21
4.929265
  0
LINE
  8
ボルト／ビス
  6
CONTINUOUS
 10
-93.064012
 20
-1.57073
 11
-93.064012
 21
3.429265
  0
LINE
  8
ボルト／ビス
  6
CONTINUOUS
 10
-97.749218
 20
0.929268
 11
-80.364015
 21
0.929268
  0
LINE
  8
ボルト／ビス
  6
CONTINUOUS
 10
-80.864018
 20
-1.57073
 11
-80.364015
 21
-1.070735
  0
LINE
  8
ボルト／ビス
  6
CONTINUOUS
 10
-80.864018
 20
3.429265
 11
-80.364015
 21
2.92927
  0
LINE
  8
ボルト／ビス
  6
CONTINUOUS
 10
-80.364015
 20
2.92927
 11
-80.364015
 21
-1.070735
  0
LINE
  8
ボルト／ビス
  6
CONTINUOUS
 10
-80.864018
 20
3.429265
 11
-80.864018
 21
-1.57073
  0
LINE
  8
ボルト／ビス
  6
CONTINUOUS
 10
-93.064012
 20
-1.070735
 11
-80.364015
 21
-1.070735
  0
LINE
  8
ボルト／ビス
  6
CONTINUOUS
 10
-93.064012
 20
2.92927
 11
-80.364015
 21
2.92927
  0
LINE
  8
ボルト／ビス
  6
CONTINUOUS
 10
-93.064012
 20
3.429265
 11
-80.864018
 21
3.429265
  0
LINE
  8
ボルト／ビス
  6
CONTINUOUS
 10
-93.064012
 20
-1.57073
 11
-80.864018
 21
-1.57073
  0
ENDBLK
  0
BLOCK
  2
*DIM_0031
 70
    65
 10
0.0
 20
0.0
  0
LINE
  8
寸法
  6
BYBLOCK
 62
     0
 10
-44.364012
 20
-7.07164
 11
51.589605
 21
-7.07164
  0
LINE
  8
寸法
  6
BYBLOCK
 62
     0
 10
-6.168937
 20
-9.071375
 11
51.589605
 21
-9.071375
  0
LINE
  8
寸法
  6
BYBLOCK
 62
     0
 10
51.589605
 20
-7.07164
 11
51.589605
 21
-9.071375
  0
POINT
  8
寸法
 62
     0
 10
51.589605
 20
-9.071375
  0
TEXT
  7
TextStyle03
  8
寸法
  6
CONTINUOUS
 62
     0
 10
51.225
 20
-8.825
  1
2
 40
3.0
 50
90.0
 72
     5
 11
51.225
 21
-7.325
  0
ENDBLK
  0
BLOCK
  2
*DIM_0032
 70
    65
 10
0.0
 20
0.0
  0
LINE
  8
寸法
  6
BYBLOCK
 62
     0
 10
-6.168937
 20
-9.071375
 11
51.589605
 21
-9.071375
  0
LINE
  8
寸法
  6
BYBLOCK
 62
     0
 10
-6.168937
 20
-22.070465
 11
51.589605
 21
-22.070465
  0
LINE
  8
寸法
  6
BYBLOCK
 62
     0
 10
51.589605
 20
-9.071375
 11
51.589605
 21
-22.070465
  0
POINT
  8
寸法
 62
     0
 10
51.589605
 20
-22.070465
  0
TEXT
  7
TextStyle03
  8
寸法
  6
CONTINUOUS
 62
     0
 10
51.225
 20
-17.16875
  1
13
 40
3.0
 50
90.0
 72
     5
 11
51.225
 21
-13.98125
  0
ENDBLK
  0
BLOCK
  2
*DIM_0033
 70
    65
 10
0.0
 20
0.0
  0
LINE
  8
寸法
  6
BYBLOCK
 62
     0
 10
-6.168937
 20
-22.070465
 11
51.589605
 21
-22.070465
  0
LINE
  8
寸法
  6
BYBLOCK
 62
     0
 10
-50.369502
 20
-86.07419
 11
51.589605
 21
-86.07419
  0
LINE
  8
寸法
  6
BYBLOCK
 62
     0
 10
51.589605
 20
-22.070465
 11
51.589605
 21
-86.07419
  0
POINT
  8
寸法
 62
     0
 10
51.589605
 20
-86.07419
  0
TEXT
  7
TextStyle03
  8
寸法
  6
CONTINUOUS
 62
     0
 10
51.225
 20
-55.66875
  1
64
 40
3.0
 50
90.0
 72
     5
 11
51.225
 21
-52.48125
  0
ENDBLK
  0
BLOCK
  2
*DIM_0034
 70
    65
 10
0.0
 20
0.0
  0
LINE
  8
寸法
  6
BYBLOCK
 62
     0
 10
-50.369502
 20
-86.07419
 11
51.589605
 21
-86.07419
  0
LINE
  8
寸法
  6
BYBLOCK
 62
     0
 10
15.630497
 20
-91.07419
 11
51.589605
 21
-91.07419
  0
LINE
  8
寸法
  6
BYBLOCK
 62
     0
 10
51.589605
 20
-86.07419
 11
51.589605
 21
-91.07419
  0
POINT
  8
寸法
 62
     0
 10
51.589605
 20
-91.07419
  0
TEXT
  7
TextStyle03
  8
寸法
  6
CONTINUOUS
 62
     0
 10
51.225
 20
-89.325
  1
5
 40
3.0
 50
90.0
 72
     5
 11
51.225
 21
-87.825
  0
ENDBLK
  0
BLOCK
  2
*DIM_0035
 70
    65
 10
0.0
 20
0.0
  0
LINE
  8
寸法
  6
BYBLOCK
 62
     0
 10
15.630497
 20
-91.07419
 11
51.589605
 21
-91.07419
  0
LINE
  8
寸法
  6
BYBLOCK
 62
     0
 10
16.630497
 20
-106.074245
 11
51.589605
 21
-106.074245
  0
LINE
  8
寸法
  6
BYBLOCK
 62
     0
 10
51.589605
 20
-91.07419
 11
51.589605
 21
-106.074245
  0
POINT
  8
寸法
 62
     0
 10
51.589605
 20
-106.074245
  0
TEXT
  7
TextStyle03
  8
寸法
  6
CONTINUOUS
 62
     0
 10
51.225
 20
-100.16875
  1
15
 40
3.0
 50
90.0
 72
     5
 11
51.225
 21
-96.98125
  0
ENDBLK
  0
BLOCK
  2
*DIM_0036
 70
    65
 10
0.0
 20
0.0
  0
LINE
  8
寸法
  6
BYBLOCK
 62
     0
 10
-88.364012
 20
-7.570735
 11
-163.156448
 21
-7.570735
  0
LINE
  8
寸法
  6
BYBLOCK
 62
     0
 10
-163.156448
 20
42.929265
 11
-163.156448
 21
-7.570735
  0
POINT
  8
寸法
 62
     0
 10
-163.156448
 20
42.929265
  0
POINT
  8
寸法
 62
     0
 10
-163.156448
 20
-7.570735
  0
TEXT
  7
TextStyle03
  8
寸法
  6
CONTINUOUS
 62
     0
 10
-163.525
 20
14.39375
  1
50.5
 40
3.0
 50
90.0
 72
     5
 11
-163.525
 21
20.95625
  0
ENDBLK
  0
BLOCK
  2
*DIM_0037
 70
    65
 10
0.0
 20
0.0
  0
LINE
  8
寸法
  6
BYBLOCK
 62
     0
 10
-88.364012
 20
-7.570735
 11
-163.156448
 21
-7.570735
  0
LINE
  8
寸法
  6
BYBLOCK
 62
     0
 10
-88.364027
 20
-11.57036
 11
-163.156448
 21
-11.57036
  0
LINE
  8
寸法
  6
BYBLOCK
 62
     0
 10
-163.156448
 20
-7.570735
 11
-163.156448
 21
-11.57036
  0
POINT
  8
寸法
 62
     0
 10
-163.156448
 20
-11.57036
  0
TEXT
  7
TextStyle03
  8
寸法
  6
CONTINUOUS
 62
     0
 10
-163.525
 20
-10.325
  1
4
 40
3.0
 50
90.0
 72
     5
 11
-163.525
 21
-8.825
  0
ENDBLK
  0
BLOCK
  2
*DIM_0038
 70
    65
 10
0.0
 20
0.0
  0
LINE
  8
寸法
  6
BYBLOCK
 62
     0
 10
-88.364027
 20
-11.57036
 11
-163.156448
 21
-11.57036
  0
LINE
  8
寸法
  6
BYBLOCK
 62
     0
 10
-113.364027
 20
-75.57074
 11
-163.156448
 21
-75.57074
  0
LINE
  8
寸法
  6
BYBLOCK
 62
     0
 10
-163.156448
 20
-11.57036
 11
-163.156448
 21
-75.57074
  0
POINT
  8
寸法
 62
     0
 10
-163.156448
 20
-75.57074
  0
TEXT
  7
TextStyle03
  8
寸法
  6
CONTINUOUS
 62
     0
 10
-163.525
 20
-45.16875
  1
64
 40
3.0
 50
90.0
 72
     5
 11
-163.525
 21
-41.98125
  0
ENDBLK
  0
BLOCK
  2
*DIM_0039
 70
    65
 10
0.0
 20
0.0
  0
LINE
  8
寸法
  6
BYBLOCK
 62
     0
 10
14.630497
 20
-77.64195
 11
14.630497
 21
130.496715
  0
LINE
  8
寸法
  6
BYBLOCK
 62
     0
 10
-97.370327
 20
130.496715
 11
14.630497
 21
130.496715
  0
POINT
  8
寸法
 62
     0
 10
-97.370327
 20
130.496715
  0
POINT
  8
寸法
 62
     0
 10
14.630497
 20
130.496715
  0
TEXT
  7
TextStyle03
  8
寸法
  6
CONTINUOUS
 62
     0
 10
-43.8125
 20
130.85
  1
112
 40
3.0
 50
360.0
 72
     5
 11
-38.9375
 21
130.85
  0
ENDBLK
  0
BLOCK
  2
*DIM_0040
 70
    65
 10
0.0
 20
0.0
  0
LINE
  8
寸法
  6
BYBLOCK
 62
     0
 10
14.630497
 20
124.66382
 11
14.630497
 21
123.989478
  0
LINE
  8
寸法
  6
BYBLOCK
 62
     0
 10
-112.364027
 20
-54.1385
 11
-112.364027
 21
123.989478
  0
LINE
  8
寸法
  6
BYBLOCK
 62
     0
 10
14.630497
 20
123.989478
 11
-112.364027
 21
123.989478
  0
POINT
  8
寸法
 62
     0
 10
14.630497
 20
123.989478
  0
POINT
  8
寸法
 62
     0
 10
-112.364027
 20
123.989478
  0
TEXT
  7
TextStyle03
  8
寸法
  6
CONTINUOUS
 62
     0
 10
-51.2875
 20
124.35
  1
127
 40
3.0
 72
     5
 11
-46.4125
 21
124.35
  0
ENDBLK
  0
BLOCK
  2
*DIM_0041
 70
    65
 10
0.0
 20
0.0
  0
LINE
  8
寸法
  6
BYBLOCK
 62
     0
 10
-97.370327
 20
117.198688
 11
-97.370327
 21
118.090135
  0
LINE
  8
寸法
  6
BYBLOCK
 62
     0
 10
-112.364027
 20
117.198688
 11
-112.364027
 21
118.090135
  0
LINE
  8
寸法
  6
BYBLOCK
 62
     0
 10
-97.370327
 20
118.090135
 11
-112.364027
 21
118.090135
  0
POINT
  8
寸法
 62
     0
 10
-97.370327
 20
118.090135
  0
POINT
  8
寸法
 62
     0
 10
-112.364027
 20
118.090135
  0
TEXT
  7
TextStyle03
  8
寸法
  6
CONTINUOUS
 62
     0
 10
-106.44375
 20
118.45
  1
15
 40
3.0
 72
     5
 11
-103.25625
 21
118.45
  0
ENDBLK
  0
BLOCK
  2
*DIM_0042
 70
    65
 10
0.0
 20
0.0
  0
LINE
  8
寸法
  6
BYBLOCK
 62
     0
 10
44.492332
 20
-9.071375
 11
44.143648
 21
-9.071375
  0
LINE
  8
寸法
  6
BYBLOCK
 62
     0
 10
-6.46888
 20
-14.070712
 11
44.143648
 21
-14.070712
  0
LINE
  8
寸法
  6
BYBLOCK
 62
     0
 10
44.143648
 20
-9.071375
 11
44.143648
 21
-14.070712
  0
POINT
  8
寸法
 62
     0
 10
44.143648
 20
-9.071375
  0
POINT
  8
寸法
 62
     0
 10
44.143648
 20
-14.070712
  0
TEXT
  7
TextStyle03
  8
寸法
  6
CONTINUOUS
 62
     0
 10
43.775
 20
-12.325
  1
5
 40
3.0
 50
90.0
 72
     5
 11
43.775
 21
-10.825
  0
ENDBLK
  0
BLOCK
  2
*DIM_0043
 70
    65
 10
0.0
 20
0.0
  0
LINE
  8
寸法
  6
BYBLOCK
 62
     0
 10
-6.46888
 20
-14.070712
 11
44.143648
 21
-14.070712
  0
LINE
  8
寸法
  6
BYBLOCK
 62
     0
 10
-6.468887
 20
-18.070972
 11
44.143648
 21
-18.070972
  0
LINE
  8
寸法
  6
BYBLOCK
 62
     0
 10
44.143648
 20
-14.070712
 11
44.143648
 21
-18.070972
  0
POINT
  8
寸法
 62
     0
 10
44.143648
 20
-18.070972
  0
TEXT
  7
TextStyle03
  8
寸法
  6
CONTINUOUS
 62
     0
 10
43.775
 20
-16.825
  1
4
 40
3.0
 50
90.0
 72
     5
 11
43.775
 21
-15.325
  0
ENDBLK
  0
BLOCK
  2
*DIM_0044
 70
    65
 10
0.0
 20
0.0
  0
LINE
  8
寸法
  6
BYBLOCK
 62
     0
 10
-6.468887
 20
-18.070972
 11
44.143648
 21
-18.070972
  0
LINE
  8
寸法
  6
BYBLOCK
 62
     0
 10
-5.168937
 20
-22.070465
 11
44.143648
 21
-22.070465
  0
LINE
  8
寸法
  6
BYBLOCK
 62
     0
 10
44.143648
 20
-18.070972
 11
44.143648
 21
-22.070465
  0
POINT
  8
寸法
 62
     0
 10
44.143648
 20
-22.070465
  0
TEXT
  7
TextStyle03
  8
寸法
  6
CONTINUOUS
 62
     0
 10
43.775
 20
-20.825
  1
4
 40
3.0
 50
90.0
 72
     5
 11
43.775
 21
-19.325
  0
ENDBLK
  0
BLOCK
  2
*DIM_0045
 70
    65
 10
0.0
 20
0.0
  0
LINE
  8
寸法
  6
BYBLOCK
 62
     0
 10
-98.364012
 20
42.929265
 11
-163.156448
 21
42.929265
  0
LINE
  8
寸法
  6
BYBLOCK
 62
     0
 10
-99.364012
 20
52.929265
 11
-163.156448
 21
52.929265
  0
LINE
  8
寸法
  6
BYBLOCK
 62
     0
 10
-163.156448
 20
42.929265
 11
-163.156448
 21
52.929265
  0
POINT
  8
寸法
 62
     0
 10
-163.156448
 20
42.929265
  0
POINT
  8
寸法
 62
     0
 10
-163.156448
 20
52.929265
  0
TEXT
  7
TextStyle03
  8
寸法
  6
CONTINUOUS
 62
     0
 10
-163.525
 20
46.33125
  1
10
 40
3.0
 50
90.0
 72
     5
 11
-163.525
 21
49.51875
  0
ENDBLK
  0
BLOCK
  2
*GRP_0046
 70
    65
 10
0.0
 20
0.0
  0
POLYLINE
  8
寸法
  6
BYBLOCK
 62
     0
 66
     1
  0
VERTEX
  8
寸法
 10
-43.864012
 20
50.55107
  0
VERTEX
  8
寸法
 10
-45.364012
 20
53.149148
  0
VERTEX
  8
寸法
 10
-42.765938
 20
51.649148
  0
SEQEND
  0
POLYLINE
  8
寸法
  6
BYBLOCK
 62
     0
 66
     1
  0
VERTEX
  8
寸法
 10
-45.364012
 20
53.149148
  0
VERTEX
  8
寸法
 10
-39.94554
 20
47.730675
  0
VERTEX
  8
寸法
 10
-34.812373
 20
47.730675
  0
SEQEND
  0
ENDBLK
  0
BLOCK
  2
*GRP_0047
 70
    65
 10
0.0
 20
0.0
  0
POLYLINE
  8
寸法
  6
BYBLOCK
 62
     0
 66
     1
  0
VERTEX
  8
寸法
 10
-31.917342
 20
-113.77431
  0
VERTEX
  8
寸法
 10
-29.319268
 20
-112.27431
  0
VERTEX
  8
寸法
 10
-30.819268
 20
-114.872385
  0
SEQEND
  0
POLYLINE
  8
寸法
  6
BYBLOCK
 62
     0
 66
     1
  0
VERTEX
  8
寸法
 10
-29.319268
 20
-112.27431
  0
VERTEX
  8
寸法
 10
-36.537195
 20
-119.492238
  0
VERTEX
  8
寸法
 10
-51.273538
 20
-119.492238
  0
SEQEND
  0
ENDBLK
  0
BLOCK
  2
*GRP_0048
 70
    65
 10
0.0
 20
0.0
  0
POLYLINE
  8
寸法
  6
BYBLOCK
 62
     0
 66
     1
  0
VERTEX
  8
寸法
 10
-86.584665
 20
-80.001995
  0
VERTEX
  8
寸法
 10
-83.98659
 20
-78.501995
  0
VERTEX
  8
寸法
 10
-85.48659
 20
-81.100072
  0
SEQEND
  0
POLYLINE
  8
寸法
  6
BYBLOCK
 62
     0
 66
     1
  0
VERTEX
  8
寸法
 10
-83.98659
 20
-78.501995
  0
VERTEX
  8
寸法
 10
-94.246748
 20
-88.762155
  0
VERTEX
  8
寸法
 10
-99.0556
 20
-88.762155
  0
SEQEND
  0
ENDBLK
  0
BLOCK
  2
*GRP_0049
 70
    65
 10
0.0
 20
0.0
  0
POLYLINE
  8
寸法
  6
BYBLOCK
 62
     0
 66
     1
  0
VERTEX
  8
寸法
 10
-21.340735
 20
-92.369513
  0
VERTEX
  8
寸法
 10
-23.938813
 20
-93.869513
  0
VERTEX
  8
寸法
 10
-22.438813
 20
-91.271437
  0
SEQEND
  0
POLYLINE
  8
寸法
  6
BYBLOCK
 62
     0
 66
     1
  0
VERTEX
  8
寸法
 10
-23.938813
 20
-93.869513
  0
VERTEX
  8
寸法
 10
-10.55859
 20
-80.48929
  0
VERTEX
  8
寸法
 10
-3.690182
 20
-80.48929
  0
SEQEND
  0
ENDBLK
  0
BLOCK
  2
*GRP_0050
 70
    65
 10
0.0
 20
0.0
  0
POLYLINE
  8
寸法
  6
BYBLOCK
 62
     0
 66
     1
  0
VERTEX
  8
寸法
 10
-34.207993
 20
-89.13421
  0
VERTEX
  8
寸法
 10
-36.806067
 20
-90.63421
  0
VERTEX
  8
寸法
 10
-35.306067
 20
-88.036135
  0
SEQEND
  0
POLYLINE
  8
寸法
  6
BYBLOCK
 62
     0
 66
     1
  0
VERTEX
  8
寸法
 10
-36.806067
 20
-90.63421
  0
VERTEX
  8
寸法
 10
-21.04002
 20
-74.868163
  0
VERTEX
  8
寸法
 10
-16.490253
 20
-74.868163
  0
SEQEND
  0
ENDBLK
  0
BLOCK
  2
*GRP_0051
 70
    65
 10
0.0
 20
0.0
  0
POLYLINE
  8
寸法
  6
BYBLOCK
 62
     0
 66
     1
  0
VERTEX
  8
寸法
 10
-92.816643
 20
-79.80921
  0
VERTEX
  8
寸法
 10
-90.218567
 20
-78.30921
  0
VERTEX
  8
寸法
 10
-91.718567
 20
-80.907285
  0
SEQEND
  0
POLYLINE
  8
寸法
  6
BYBLOCK
 62
     0
 66
     1
  0
VERTEX
  8
寸法
 10
-90.218567
 20
-78.30921
  0
VERTEX
  8
寸法
 10
-93.94735
 20
-82.037993
  0
VERTEX
  8
寸法
 10
-101.274547
 20
-82.037993
  0
SEQEND
  0
ENDBLK
  0
BLOCK
  2
*GRP_0052
 70
    65
 10
0.0
 20
0.0
  0
POLYLINE
  8
寸法
  6
BYBLOCK
 62
     0
 66
     1
  0
VERTEX
  8
寸法
 10
-82.867583
 20
-94.540413
  0
VERTEX
  8
寸法
 10
-80.269507
 20
-93.040413
  0
VERTEX
  8
寸法
 10
-81.769507
 20
-95.638487
  0
SEQEND
  0
POLYLINE
  8
寸法
  6
BYBLOCK
 62
     0
 66
     1
  0
VERTEX
  8
寸法
 10
-80.269507
 20
-93.040413
  0
VERTEX
  8
寸法
 10
-87.960893
 20
-100.731798
  0
VERTEX
  8
寸法
 10
-99.042487
 20
-100.731798
  0
SEQEND
  0
ENDBLK
  0
BLOCK
  2
*GRP_0053
 70
    65
 10
0.0
 20
0.0
  0
POLYLINE
  8
寸法
  6
BYBLOCK
 62
     0
 66
     1
  0
VERTEX
  8
寸法
 10
16.130497
 20
-99.52364
  0
VERTEX
  8
寸法
 10
14.630497
 20
-96.925565
  0
VERTEX
  8
寸法
 10
17.228572
 20
-98.425565
  0
SEQEND
  0
POLYLINE
  8
寸法
  6
BYBLOCK
 62
     0
 66
     1
  0
VERTEX
  8
寸法
 10
14.630497
 20
-96.925565
  0
VERTEX
  8
寸法
 10
18.128442
 20
-100.42351
  0
VERTEX
  8
寸法
 10
24.051462
 20
-100.42351
  0
SEQEND
  0
ENDBLK
  0
BLOCK
  2
*GRP_0054
 70
    65
 10
0.0
 20
0.0
  0
POLYLINE
  8
寸法
  6
BYBLOCK
 62
     0
 66
     1
  0
VERTEX
  8
寸法
 10
-64.487695
 20
46.97815
  0
VERTEX
  8
寸法
 10
-63.554342
 20
49.829265
  0
VERTEX
  8
寸法
 10
-62.937093
 20
46.893453
  0
SEQEND
  0
POLYLINE
  8
寸法
  6
BYBLOCK
 62
     0
 66
     1
  0
VERTEX
  8
寸法
 10
-63.554342
 20
49.829265
  0
VERTEX
  8
寸法
 10
-64.222998
 20
37.588055
  0
VERTEX
  8
寸法
 10
-66.563295
 20
37.588055
  0
SEQEND
  0
ENDBLK
  0
BLOCK
  2
*GRP_0055
 70
    65
 10
0.0
 20
0.0
  0
POLYLINE
  8
寸法
  6
BYBLOCK
 62
     0
 66
     1
  0
VERTEX
  8
寸法
 10
-52.601935
 20
-32.888748
  0
VERTEX
  8
寸法
 10
-54.101935
 20
-30.290672
  0
VERTEX
  8
寸法
 10
-51.503857
 20
-31.790672
  0
SEQEND
  0
POLYLINE
  8
寸法
  6
BYBLOCK
 62
     0
 66
     1
  0
VERTEX
  8
寸法
 10
-54.101935
 20
-30.290672
  0
VERTEX
  8
寸法
 10
-45.46506
 20
-38.927545
  0
VERTEX
  8
寸法
 10
-30.987147
 20
-38.927545
  0
SEQEND
  0
ENDBLK
  0
BLOCK
  2
*GRP_0056
 70
    65
 10
0.0
 20
0.0
  0
POLYLINE
  8
寸法
  6
BYBLOCK
 62
     0
 66
     1
  0
VERTEX
  8
寸法
 10
-60.55432
 20
-12.32187
  0
VERTEX
  8
寸法
 10
-61.234523
 20
-9.4
  0
VERTEX
  8
寸法
 10
-59.184515
 20
-11.590312
  0
SEQEND
  0
LINE
  8
寸法
  6
BYBLOCK
 62
     0
 10
-61.234523
 20
-9.4
 11
-45.46506
 21
-38.927545
  0
ENDBLK
  0
BLOCK
  2
*GRP_0057
 70
    65
 10
0.0
 20
0.0
  0
POLYLINE
  8
寸法
  6
BYBLOCK
 62
     0
 66
     1
  0
VERTEX
  8
寸法
 10
-61.864027
 20
-48.699193
  0
VERTEX
  8
寸法
 10
-63.364027
 20
-46.101117
  0
VERTEX
  8
寸法
 10
-60.765953
 20
-47.601117
  0
SEQEND
  0
POLYLINE
  8
寸法
  6
BYBLOCK
 62
     0
 66
     1
  0
VERTEX
  8
寸法
 10
-63.364027
 20
-46.101117
  0
VERTEX
  8
寸法
 10
-48.097427
 20
-61.367717
  0
VERTEX
  8
寸法
 10
-41.021865
 20
-61.367717
  0
SEQEND
  0
ENDBLK
  0
BLOCK
  2
*GRP_0058
 70
    65
 10
0.0
 20
0.0
  0
POLYLINE
  8
寸法
  6
BYBLOCK
 62
     0
 66
     1
  0
VERTEX
  8
寸法
 10
-74.734522
 20
-97.8
  0
VERTEX
  8
寸法
 10
-75.9512
 20
-112.05861
  0
VERTEX
  8
寸法
 10
-78.566583
 20
-112.05861
  0
SEQEND
  0
ENDBLK
  0
BLOCK
  2
*DIM_0059
 70
    65
 10
0.0
 20
0.0
  0
LINE
  8
寸法
  6
BYBLOCK
 62
     0
 10
-153.056898
 20
-75.57074
 11
-152.391225
 21
-75.57074
  0
LINE
  8
寸法
  6
BYBLOCK
 62
     0
 10
-113.36403
 20
-65.570745
 11
-152.391225
 21
-65.570745
  0
LINE
  8
寸法
  6
BYBLOCK
 62
     0
 10
-152.391225
 20
-75.57074
 11
-152.391225
 21
-65.570745
  0
POINT
  8
寸法
 62
     0
 10
-152.391225
 20
-75.57074
  0
POINT
  8
寸法
 62
     0
 10
-152.391225
 20
-65.570745
  0
TEXT
  7
TextStyle03
  8
寸法
  6
CONTINUOUS
 62
     0
 10
-152.75
 20
-72.16875
  1
10
 40
3.0
 50
90.0
 72
     5
 11
-152.75
 21
-68.98125
  0
ENDBLK
  0
BLOCK
  2
*DIM_0060
 70
    65
 10
0.0
 20
0.0
  0
LINE
  8
寸法
  6
BYBLOCK
 62
     0
 10
-113.36403
 20
-65.570745
 11
-152.391225
 21
-65.570745
  0
LINE
  8
寸法
  6
BYBLOCK
 62
     0
 10
-113.364027
 20
-11.57036
 11
-152.391225
 21
-11.57036
  0
LINE
  8
寸法
  6
BYBLOCK
 62
     0
 10
-152.391225
 20
-65.570745
 11
-152.391225
 21
-11.57036
  0
POINT
  8
寸法
 62
     0
 10
-152.391225
 20
-11.57036
  0
TEXT
  7
TextStyle03
  8
寸法
  6
CONTINUOUS
 62
     0
 10
-152.75
 20
-40.16875
  1
54
 40
3.0
 50
90.0
 72
     5
 11
-152.75
 21
-36.98125
  0
ENDBLK
  0
BLOCK
  2
*GRP_0061
 70
    65
 10
0.0
 20
0.0
  0
POLYLINE
  8
寸法
  6
BYBLOCK
 62
     0
 66
     1
  0
VERTEX
  8
寸法
 10
-22.820792
 20
-5.051975
  0
VERTEX
  8
寸法
 10
-18.84423
 20
7.591677
  0
VERTEX
  8
寸法
 10
-8.430688
 20
7.591677
  0
SEQEND
  0
ENDBLK
  0
BLOCK
  2
*GRP_0062
 70
    65
 10
0.0
 20
0.0
  0
POLYLINE
  8
寸法
  6
BYBLOCK
 62
     0
 66
     1
  0
VERTEX
  8
寸法
 10
-23.595993
 20
-26.770467
  0
VERTEX
  8
寸法
 10
-19.74303
 20
-30.62343
  0
VERTEX
  8
寸法
 10
-15.422713
 20
-30.62343
  0
SEQEND
  0
ENDBLK
  0
BLOCK
  2
*DIM_0063
 70
    65
 10
0.0
 20
0.0
  0
LINE
  8
寸法
  6
BYBLOCK
 62
     0
 10
-74.36949
 20
-106.074248
 11
-163.156448
 21
-106.074248
  0
LINE
  8
寸法
  6
BYBLOCK
 62
     0
 10
-163.156448
 20
-75.57074
 11
-163.156448
 21
-106.074248
  0
POINT
  8
寸法
 62
     0
 10
-163.156448
 20
-75.57074
  0
POINT
  8
寸法
 62
     0
 10
-163.156448
 20
-106.074248
  0
TEXT
  7
TextStyle03
  8
寸法
  6
CONTINUOUS
 62
     0
 10
-163.525
 20
-94.10625
  1
30.5
 40
3.0
 50
90.0
 72
     5
 11
-163.525
 21
-87.54375
  0
ENDBLK
  0
BLOCK
  2
*DIM_0064
 70
    65
 10
0.0
 20
0.0
  0
LINE
  8
寸法
  6
BYBLOCK
 62
     0
 10
0.630755
 20
-116.074222
 11
60.26
 21
-116.074222
  0
LINE
  8
寸法
  6
BYBLOCK
 62
     0
 10
60.26
 20
-106.074245
 11
60.26
 21
-116.074222
  0
POINT
  8
寸法
 62
     0
 10
60.26
 20
-106.074245
  0
POINT
  8
寸法
 62
     0
 10
60.26
 20
-116.074222
  0
TEXT
  7
TextStyle03
  8
寸法
  6
CONTINUOUS
 62
     0
 10
59.9
 20
-112.66875
  1
10
 40
3.0
 50
90.0
 72
     5
 11
59.9
 21
-109.48125
  0
ENDBLK
  0
BLOCK
  2
*DIM_0065
 70
    65
 10
0.0
 20
0.0
  0
LINE
  8
寸法
  6
BYBLOCK
 62
     0
 10
14.630508
 20
-107.074248
 11
14.630508
 21
-125.839173
  0
LINE
  8
寸法
  6
BYBLOCK
 62
     0
 10
-0.369245
 20
-117.074222
 11
-0.369245
 21
-125.839173
  0
LINE
  8
寸法
  6
BYBLOCK
 62
     0
 10
14.630508
 20
-125.839173
 11
-0.369245
 21
-125.839173
  0
POINT
  8
寸法
 62
     0
 10
14.630508
 20
-125.839173
  0
POINT
  8
寸法
 62
     0
 10
-0.369245
 20
-125.839173
  0
TEXT
  7
TextStyle03
  8
寸法
  6
CONTINUOUS
 62
     0
 10
5.53125
 20
-125.475
  1
15
 40
3.0
 72
     5
 11
8.71875
 21
-125.475
  0
ENDBLK
  0
BLOCK
  2
*DIM_0066
 70
    65
 10
0.0
 20
0.0
  0
LINE
  8
寸法
  6
BYBLOCK
 62
     0
 10
-74.36949
 20
-106.074248
 11
-163.156448
 21
-106.074248
  0
LINE
  8
寸法
  6
BYBLOCK
 62
     0
 10
-2.869245
 20
-116.074222
 11
-163.156448
 21
-116.074222
  0
LINE
  8
寸法
  6
BYBLOCK
 62
     0
 10
-163.156448
 20
-106.074248
 11
-163.156448
 21
-116.074222
  0
POINT
  8
寸法
 62
     0
 10
-163.156448
 20
-116.074222
  0
TEXT
  7
TextStyle03
  8
寸法
  6
CONTINUOUS
 62
     0
 10
-159.5
 20
-111.34375
  1
10
 40
3.0
 50
90.0
 72
     5
 11
-159.5
 21
-108.15625
  0
ENDBLK
  0
BLOCK
  2
*GRP_0067
 70
    65
 10
0.0
 20
0.0
  0
LINE
  8
別途部材
  6
CONTINUOUS
 10
-97.864027
 20
-67.070745
 11
-97.864027
 21
-23.070742
  0
ARC
  8
別途部材
  6
CONTINUOUS
 10
-103.86404
 20
-67.070743
 40
6.0
 50
270.0
 51
360.0
  0
LINE
  8
別途部材
  6
CONTINUOUS
 10
-109.864027
 20
-67.070745
 11
-109.864027
 21
-23.070742
  0
ARC
  8
別途部材
  6
CONTINUOUS
 10
-103.86404
 20
-67.070743
 40
6.0
 50
180.0
 51
270.0
  0
CIRCLE
  8
別途部材
  6
CONTINUOUS
 10
-103.864027
 20
-67.070745
 40
3.0
  0
LINE
  8
別途部材
  6
CONTINUOUS
 10
-100.864027
 20
-67.070745
 11
-106.864027
 21
-67.070745
  0
LINE
  8
別途部材
  6
CONTINUOUS
 10
-103.864027
 20
-70.070745
 11
-103.864027
 21
-64.070745
  0
LINE
  8
別途部材
  6
CONTINUOUS
 10
-97.864027
 20
-23.070742
 11
-99.864037
 21
-23.070742
  0
LINE
  8
別途部材
  6
CONTINUOUS
 10
-107.864033
 20
-23.070742
 11
-109.864027
 21
-23.070742
  0
LINE
  8
別途部材
  6
CONTINUOUS
 10
-99.864037
 20
-23.070742
 11
-99.864037
 21
-61.070745
  0
LINE
  8
別途部材
  6
CONTINUOUS
 10
-99.864037
 20
-61.070745
 11
-107.864033
 21
-61.070745
  0
LINE
  8
別途部材
  6
CONTINUOUS
 10
-107.864033
 20
-23.070742
 11
-107.864033
 21
-61.070745
  0
ARC
  8
別途部材
  6
CONTINUOUS
 10
-103.86404
 20
-23.529075
 40
2.541667
 50
190.38896
 51
349.61104
  0
LINE
  8
別途部材
  6
CONTINUOUS
 10
-107.364037
 20
-23.070742
 11
-106.364033
 21
-23.070742
  0
LINE
  8
別途部材
  6
CONTINUOUS
 10
-100.364033
 20
-23.070742
 11
-101.364037
 21
-23.070742
  0
CIRCLE
  8
別途部材
  6
CONTINUOUS
 10
-103.864027
 20
-57.070748
 40
0.999997
  0
LINE
  8
別途部材
  6
CONTINUOUS
 10
-104.864033
 20
-57.070748
 11
-102.864037
 21
-57.070748
  0
LINE
  8
別途部材
  6
CONTINUOUS
 10
-103.864027
 20
-58.070745
 11
-103.864027
 21
-56.070742
  0
ARC
  8
別途部材
  6
CONTINUOUS
 10
-103.86404
 20
-58.612415
 40
2.541667
 50
10.38896
 51
169.61104
  0
LINE
  8
別途部材
  6
CONTINUOUS
 10
-107.364037
 20
-59.070742
 11
-106.364033
 21
-59.070742
  0
LINE
  8
別途部材
  6
CONTINUOUS
 10
-101.364037
 20
-59.070742
 11
-100.364033
 21
-59.070742
  0
LINE
  8
別途部材
  6
CONTINUOUS
 10
-106.364033
 20
-23.070742
 11
-106.364033
 21
-59.070742
  0
LINE
  8
別途部材
  6
CONTINUOUS
 10
-107.364037
 20
-23.070742
 11
-107.364037
 21
-59.070742
  0
LINE
  8
別途部材
  6
CONTINUOUS
 10
-101.364037
 20
-23.070742
 11
-101.364037
 21
-59.070742
  0
LINE
  8
別途部材
  6
CONTINUOUS
 10
-100.364033
 20
-23.070742
 11
-100.364033
 21
-59.070742
  0
ENDBLK
  0
BLOCK
  2
*GRP_0068
 70
    65
 10
0.0
 20
0.0
  0
LINE
  8
別途部材
  6
CONTINUOUS
 10
-103.864027
 20
-73.070745
 11
-103.864027
 21
-73.070745
  0
LINE
  8
別途部材
  6
CONTINUOUS
 10
-97.864027
 20
-60.07074
 11
-95.36403
 21
-60.07074
  0
LINE
  8
別途部材
  6
CONTINUOUS
 10
-103.864027
 20
-73.57074
 11
-103.864035
 21
-73.070737
  0
LINE
  8
別途部材
  6
CONTINUOUS
 10
-87.364027
 20
-61.070745
 11
-95.36403
 21
-61.070745
  0
ARC
  8
別途部材
  6
CONTINUOUS
 10
-88.364033
 20
-24.070744
 40
1.0
 50
0.0
 51
90.0
  0
LINE
  8
別途部材
  6
CONTINUOUS
 10
-94.364033
 20
-23.070742
 11
-88.364033
 21
-23.070742
  0
ARC
  8
別途部材
  6
CONTINUOUS
 10
-94.364033
 20
-24.070744
 40
1.0
 50
90.0
 51
180.0
  0
LINE
  8
別途部材
  6
CONTINUOUS
 10
-87.364027
 20
-24.07074
 11
-87.364027
 21
-72.570742
  0
ARC
  8
別途部材
  6
CONTINUOUS
 10
-88.364033
 20
-72.570744
 40
1.0
 50
270.0
 51
360.0
  0
LINE
  8
別途部材
  6
CONTINUOUS
 10
-95.36403
 20
-24.07074
 11
-95.36403
 21
-72.570742
  0
ARC
  8
別途部材
  6
CONTINUOUS
 10
-94.364033
 20
-72.570744
 40
1.0
 50
180.0
 51
270.0
  0
LINE
  8
別途部材
  6
CONTINUOUS
 10
-88.364033
 20
-73.57074
 11
-103.864027
 21
-73.57074
  0
LINE
  8
別途部材
  6
CONTINUOUS
 10
-93.064027
 20
-54.07074
 11
-93.064027
 21
-49.070745
  0
LINE
  8
別途部材
  6
CONTINUOUS
 10
-93.064027
 20
-34.070745
 11
-93.064027
 21
-29.070735
  0
POLYLINE
  8
別途部材
  6
CONTINUOUS
 66
     1
  0
VERTEX
  8
別途部材
 10
-95.36403
 20
-55.57074
  0
VERTEX
  8
別途部材
 10
-93.064027
 20
-54.07074
  0
VERTEX
  8
別途部材
 10
-87.364027
 20
-54.07074
  0
SEQEND
  0
LINE
  8
別途部材
  6
CONTINUOUS
 10
-95.36403
 20
-51.570735
 11
-87.364027
 21
-51.570735
  0
POLYLINE
  8
別途部材
  6
CONTINUOUS
 66
     1
  0
VERTEX
  8
別途部材
 10
-95.36403
 20
-47.570745
  0
VERTEX
  8
別途部材
 10
-93.064027
 20
-49.070745
  0
VERTEX
  8
別途部材
 10
-87.364027
 20
-49.070745
  0
SEQEND
  0
POLYLINE
  8
別途部材
  6
CONTINUOUS
 66
     1
  0
VERTEX
  8
別途部材
 10
-95.36403
 20
-35.570745
  0
VERTEX
  8
別途部材
 10
-93.064027
 20
-34.070745
  0
VERTEX
  8
別途部材
 10
-87.364027
 20
-34.070745
  0
SEQEND
  0
LINE
  8
別途部材
  6
CONTINUOUS
 10
-95.36403
 20
-31.57074
 11
-87.364027
 21
-31.57074
  0
POLYLINE
  8
別途部材
  6
CONTINUOUS
 66
     1
  0
VERTEX
  8
別途部材
 10
-95.36403
 20
-27.570735
  0
VERTEX
  8
別途部材
 10
-93.064027
 20
-29.070735
  0
VERTEX
  8
別途部材
 10
-87.364027
 20
-29.070735
  0
SEQEND
  0
ENDBLK
  0
BLOCK
  2
*GRP_0069
 70
    65
 10
0.0
 20
0.0
  0
LINE
  8
別途部材
  6
CONTINUOUS
 10
-97.864012
 20
36.429277
 11
-97.864012
 21
-7.570725
  0
ARC
  8
別途部材
  6
CONTINUOUS
 10
-103.864025
 20
36.429275
 40
6.0
 50
0.0
 51
90.0
  0
LINE
  8
別途部材
  6
CONTINUOUS
 10
-109.864012
 20
36.429277
 11
-109.864012
 21
-7.570725
  0
ARC
  8
別途部材
  6
CONTINUOUS
 10
-103.864025
 20
36.429275
 40
6.0
 50
90.0
 51
180.0
  0
CIRCLE
  8
別途部材
  6
CONTINUOUS
 10
-103.864012
 20
36.429277
 40
3.0
  0
LINE
  8
別途部材
  6
CONTINUOUS
 10
-100.864012
 20
36.429277
 11
-106.864012
 21
36.429277
  0
LINE
  8
別途部材
  6
CONTINUOUS
 10
-103.864012
 20
39.429277
 11
-103.864012
 21
33.429277
  0
LINE
  8
別途部材
  6
CONTINUOUS
 10
-97.864012
 20
-7.570725
 11
-99.864023
 21
-7.570725
  0
LINE
  8
別途部材
  6
CONTINUOUS
 10
-107.864018
 20
-7.570725
 11
-109.864012
 21
-7.570725
  0
LINE
  8
別途部材
  6
CONTINUOUS
 10
-99.864023
 20
-7.570725
 11
-99.864023
 21
30.429277
  0
LINE
  8
別途部材
  6
CONTINUOUS
 10
-99.864023
 20
30.429277
 11
-107.864018
 21
30.429277
  0
LINE
  8
別途部材
  6
CONTINUOUS
 10
-107.864018
 20
-7.570725
 11
-107.864018
 21
30.429277
  0
ARC
  8
別途部材
  6
CONTINUOUS
 10
-103.864025
 20
-7.112392
 40
2.541667
 50
10.38896
 51
169.61104
  0
LINE
  8
別途部材
  6
CONTINUOUS
 10
-107.364023
 20
-7.570725
 11
-106.364018
 21
-7.570725
  0
LINE
  8
別途部材
  6
CONTINUOUS
 10
-100.364018
 20
-7.570725
 11
-101.364023
 21
-7.570725
  0
CIRCLE
  8
別途部材
  6
CONTINUOUS
 10
-103.864012
 20
26.42928
 40
0.999997
  0
LINE
  8
別途部材
  6
CONTINUOUS
 10
-104.864018
 20
26.42928
 11
-102.864023
 21
26.42928
  0
LINE
  8
別途部材
  6
CONTINUOUS
 10
-103.864012
 20
27.429277
 11
-103.864012
 21
25.429275
  0
ARC
  8
別途部材
  6
CONTINUOUS
 10
-103.864025
 20
27.970948
 40
2.541667
 50
190.38896
 51
349.61104
  0
LINE
  8
別途部材
  6
CONTINUOUS
 10
-107.364023
 20
28.429275
 11
-106.364018
 21
28.429275
  0
LINE
  8
別途部材
  6
CONTINUOUS
 10
-101.364023
 20
28.429275
 11
-100.364018
 21
28.429275
  0
LINE
  8
別途部材
  6
CONTINUOUS
 10
-106.364018
 20
-7.570725
 11
-106.364018
 21
28.429275
  0
LINE
  8
別途部材
  6
CONTINUOUS
 10
-107.364023
 20
-7.570725
 11
-107.364023
 21
28.429275
  0
LINE
  8
別途部材
  6
CONTINUOUS
 10
-101.364023
 20
-7.570725
 11
-101.364023
 21
28.429275
  0
LINE
  8
別途部材
  6
CONTINUOUS
 10
-100.364018
 20
-7.570725
 11
-100.364018
 21
28.429275
  0
ENDBLK
  0
BLOCK
  2
*GRP_0070
 70
    65
 10
0.0
 20
0.0
  0
LINE
  8
別途部材
  6
CONTINUOUS
 10
-103.864012
 20
42.429277
 11
-103.864012
 21
42.429277
  0
LINE
  8
別途部材
  6
CONTINUOUS
 10
-97.864012
 20
29.429272
 11
-95.364015
 21
29.429272
  0
LINE
  8
別途部材
  6
CONTINUOUS
 10
-103.864012
 20
42.929272
 11
-103.86402
 21
42.42927
  0
LINE
  8
別途部材
  6
CONTINUOUS
 10
-87.364012
 20
30.429277
 11
-95.364015
 21
30.429277
  0
ARC
  8
別途部材
  6
CONTINUOUS
 10
-88.364018
 20
-6.570723
 40
1.0
 50
270.0
 51
360.0
  0
LINE
  8
別途部材
  6
CONTINUOUS
 10
-94.364018
 20
-7.570725
 11
-88.364018
 21
-7.570725
  0
ARC
  8
別途部材
  6
CONTINUOUS
 10
-94.364018
 20
-6.570723
 40
1.0
 50
180.0
 51
270.0
  0
LINE
  8
別途部材
  6
CONTINUOUS
 10
-87.364012
 20
-6.570727
 11
-87.364012
 21
41.929275
  0
ARC
  8
別途部材
  6
CONTINUOUS
 10
-88.364018
 20
41.929277
 40
1.0
 50
0.0
 51
90.0
  0
LINE
  8
別途部材
  6
CONTINUOUS
 10
-95.364015
 20
-6.570727
 11
-95.364015
 21
41.929275
  0
ARC
  8
別途部材
  6
CONTINUOUS
 10
-94.364018
 20
41.929277
 40
1.0
 50
90.0
 51
180.0
  0
LINE
  8
別途部材
  6
CONTINUOUS
 10
-88.364018
 20
42.929272
 11
-103.864012
 21
42.929272
  0
LINE
  8
別途部材
  6
CONTINUOUS
 10
-93.064012
 20
23.429272
 11
-93.064012
 21
18.429277
  0
LINE
  8
別途部材
  6
CONTINUOUS
 10
-93.064012
 20
3.429277
 11
-93.064012
 21
-1.570733
  0
POLYLINE
  8
別途部材
  6
CONTINUOUS
 66
     1
  0
VERTEX
  8
別途部材
 10
-95.364015
 20
24.929272
  0
VERTEX
  8
別途部材
 10
-93.064012
 20
23.429272
  0
VERTEX
  8
別途部材
 10
-87.364012
 20
23.429272
  0
SEQEND
  0
LINE
  8
別途部材
  6
CONTINUOUS
 10
-95.364015
 20
20.929268
 11
-87.364012
 21
20.929268
  0
POLYLINE
  8
別途部材
  6
CONTINUOUS
 66
     1
  0
VERTEX
  8
別途部材
 10
-95.364015
 20
16.929277
  0
VERTEX
  8
別途部材
 10
-93.064012
 20
18.429277
  0
VERTEX
  8
別途部材
 10
-87.364012
 20
18.429277
  0
SEQEND
  0
POLYLINE
  8
別途部材
  6
CONTINUOUS
 66
     1
  0
VERTEX
  8
別途部材
 10
-95.364015
 20
4.929277
  0
VERTEX
  8
別途部材
 10
-93.064012
 20
3.429277
  0
VERTEX
  8
別途部材
 10
-87.364012
 20
3.429277
  0
SEQEND
  0
LINE
  8
別途部材
  6
CONTINUOUS
 10
-95.364015
 20
0.929272
 11
-87.364012
 21
0.929272
  0
POLYLINE
  8
別途部材
  6
CONTINUOUS
 66
     1
  0
VERTEX
  8
別途部材
 10
-95.364015
 20
-3.070733
  0
VERTEX
  8
別途部材
 10
-93.064012
 20
-1.570733
  0
VERTEX
  8
別途部材
 10
-87.364012
 20
-1.570733
  0
SEQEND
  0
ENDBLK
  0
BLOCK
  2
*GRP_0071
 70
    65
 10
0.0
 20
0.0
  0
LINE
  8
型材断面
  6
CONTINUOUS
 62
    47
 10
-86.063645
 20
51.829268
 11
-86.063645
 21
54.129263
  0
LINE
  8
型材断面
  6
CONTINUOUS
 62
    47
 10
-85.364
 20
44.929268
 11
-95.364005
 21
44.929268
  0
LINE
  8
型材断面
  6
CONTINUOUS
 62
    47
 10
-87.364002
 20
42.929265
 11
-97.364
 21
42.929265
  0
LINE
  8
型材断面
  6
CONTINUOUS
 62
    47
 10
-95.364005
 20
49.829265
 11
-95.364005
 21
44.929268
  0
LINE
  8
型材断面
  6
CONTINUOUS
 62
    47
 10
-95.364005
 20
49.829265
 11
-59.364005
 21
49.829265
  0
LINE
  8
型材断面
  6
CONTINUOUS
 62
    47
 10
-57.364002
 20
51.829268
 11
-62.164002
 21
51.829268
  0
LINE
  8
型材断面
  6
CONTINUOUS
 62
    47
 10
-87.37031
 20
82.929263
 11
-87.37031
 21
81.925665
  0
LINE
  8
型材断面
  6
CONTINUOUS
 62
    47
 10
-86.870315
 20
81.425663
 11
-87.37031
 21
81.925665
  0
LINE
  8
型材断面
  6
CONTINUOUS
 62
    47
 10
-81.870312
 20
79.929263
 11
-83.366712
 21
81.425663
  0
LINE
  8
型材断面
  6
CONTINUOUS
 62
    47
 10
-86.870315
 20
81.425663
 11
-83.366712
 21
81.425663
  0
POLYLINE
  8
型材断面
  6
CONTINUOUS
 62
    47
 66
     1
  0
VERTEX
  8
型材断面
 10
-62.164002
 20
82.929263
  0
VERTEX
  8
型材断面
 10
-62.164002
 20
80.829262
  0
VERTEX
  8
型材断面
 10
-64.664
 20
80.329268
  0
VERTEX
  8
型材断面
 10
-64.664
 20
75.529268
  0
VERTEX
  8
型材断面
 10
-62.164002
 20
75.029265
  0
VERTEX
  8
型材断面
 10
-62.164002
 20
72.929265
  0
SEQEND
  0
LINE
  8
型材断面
  6
CONTINUOUS
 62
    47
 10
-64.164005
 20
68.82723
 11
-64.164005
 21
71.929268
  0
LINE
  8
型材断面
  6
CONTINUOUS
 62
    47
 10
-67.664
 20
65.627227
 11
-69.164
 21
65.627227
  0
LINE
  8
型材断面
  6
CONTINUOUS
 62
    47
 10
-67.664
 20
51.829268
 11
-67.664
 21
53.829263
  0
LINE
  8
型材断面
  6
CONTINUOUS
 62
    47
 10
-69.164
 20
51.829268
 11
-69.164
 21
53.829263
  0
LINE
  8
型材断面
  6
CONTINUOUS
 62
    47
 10
-69.164
 20
53.829263
 11
-67.664
 21
53.829263
  0
LINE
  8
型材断面
  6
CONTINUOUS
 62
    47
 10
-67.664
 20
51.829268
 11
-64.164005
 21
51.829268
  0
LINE
  8
型材断面
  6
CONTINUOUS
 62
    47
 10
-81.870312
 20
79.929263
 11
-67.164005
 21
79.929263
  0
LINE
  8
型材断面
  6
CONTINUOUS
 62
    47
 10
-67.164005
 20
79.929263
 11
-67.164005
 21
74.929268
  0
LINE
  8
型材断面
  6
CONTINUOUS
 62
    47
 10
-64.164005
 20
71.929268
 11
-67.164005
 21
74.929268
  0
LINE
  8
型材断面
  6
CONTINUOUS
 62
    47
 10
-77.37032
 20
82.629263
 11
-77.07032
 21
82.929263
  0
LINE
  8
型材断面
  6
CONTINUOUS
 62
    47
 10
-77.37032
 20
82.629263
 11
-77.67032
 21
82.929263
  0
LINE
  8
型材断面
  6
CONTINUOUS
 62
    47
 10
-87.37031
 20
82.929263
 11
-77.67032
 21
82.929263
  0
LINE
  8
型材断面
  6
CONTINUOUS
 62
    47
 10
-62.464002
 20
59.728253
 11
-62.164002
 21
59.428253
  0
LINE
  8
型材断面
  6
CONTINUOUS
 62
    47
 10
-62.464002
 20
59.728253
 11
-62.164002
 21
60.028253
  0
LINE
  8
型材断面
  6
CONTINUOUS
 62
    47
 10
-62.164002
 20
51.829268
 11
-62.164002
 21
59.428253
  0
LINE
  8
型材断面
  6
CONTINUOUS
 62
    47
 10
-62.164002
 20
60.028253
 11
-62.164002
 21
74.925757
  0
ARC
  8
型材断面
  6
CONTINUOUS
 62
    47
 10
-63.023611
 20
-7.27071
 40
0.3
 50
191.309932
 51
270.0
  0
LINE
  8
型材断面
  6
CONTINUOUS
 62
    47
 10
-63.317765
 20
-7.329562
 11
-63.769565
 21
-5.070712
  0
LINE
  8
型材断面
  6
CONTINUOUS
 62
    47
 10
-62.269542
 20
-6.570712
 11
-61.269545
 21
-6.570712
  0
LINE
  8
型材断面
  6
CONTINUOUS
 62
    47
 10
-62.269542
 20
-6.570712
 11
-62.269542
 21
-5.070712
  0
LINE
  8
型材断面
  6
CONTINUOUS
 62
    47
 10
-61.269545
 20
-7.570733
 11
-61.269545
 21
-6.570712
  0
LINE
  8
型材断面
  6
CONTINUOUS
 62
    47
 10
-63.023615
 20
-7.570733
 11
-61.269545
 21
-7.570733
  0
ARC
  8
型材断面
  6
CONTINUOUS
 62
    47
 10
-69.515453
 20
-7.27071
 40
0.3
 50
270.0
 51
348.690068
  0
LINE
  8
型材断面
  6
CONTINUOUS
 62
    47
 10
-69.221315
 20
-7.329562
 11
-68.769515
 21
-5.070712
  0
LINE
  8
型材断面
  6
CONTINUOUS
 62
    47
 10
-70.269545
 20
-6.570712
 11
-71.269542
 21
-6.570712
  0
LINE
  8
型材断面
  6
CONTINUOUS
 62
    47
 10
-70.269545
 20
-6.570712
 11
-70.269545
 21
-5.070712
  0
LINE
  8
型材断面
  6
CONTINUOUS
 62
    47
 10
-71.269542
 20
-7.570733
 11
-71.269542
 21
-6.570712
  0
LINE
  8
型材断面
  6
CONTINUOUS
 62
    47
 10
-69.515465
 20
-7.570733
 11
-71.269542
 21
-7.570733
  0
LINE
  8
型材断面
  6
CONTINUOUS
 62
    47
 10
-63.769565
 20
-5.070712
 11
-68.769515
 21
-5.070712
  0
LINE
  8
型材断面
  6
CONTINUOUS
 62
    47
 10
-68.769523
 20
-5.070735
 11
-63.769565
 21
-5.070735
  0
LINE
  8
型材断面
  6
CONTINUOUS
 62
    47
 10
-77.019567
 20
-5.070735
 11
-70.269545
 21
-5.070735
  0
LINE
  8
型材断面
  6
CONTINUOUS
 62
    47
 10
-85.864002
 20
-5.070735
 11
-85.864002
 21
-7.570733
  0
LINE
  8
型材断面
  6
CONTINUOUS
 62
    47
 10
-87.364002
 20
-7.570733
 11
-85.864002
 21
-7.570733
  0
LINE
  8
型材断面
  6
CONTINUOUS
 62
    47
 10
-70.269545
 20
-5.070735
 11
-85.864002
 21
-5.070735
  0
LINE
  8
型材断面
  6
CONTINUOUS
 62
    47
 10
-62.269542
 20
-5.070735
 11
-57.364002
 21
-5.070735
  0
LINE
  8
型材断面
  6
CONTINUOUS
 62
    47
 10
-57.364002
 20
51.829268
 11
-57.364002
 21
-5.070735
  0
LINE
  8
型材断面
  6
CONTINUOUS
 62
    47
 10
-87.364002
 20
42.929265
 11
-87.364002
 21
-7.570733
  0
LINE
  8
型材断面
  6
CONTINUOUS
 62
    47
 10
-59.364005
 20
49.829265
 11
-59.364005
 21
-3.070733
  0
LINE
  8
型材断面
  6
CONTINUOUS
 62
    47
 10
-85.364
 20
43.429268
 11
-85.364
 21
-3.070733
  0
LINE
  8
型材断面
  6
CONTINUOUS
 62
    47
 10
-98.364005
 20
50.829263
 11
-97.364
 21
50.829263
  0
LINE
  8
型材断面
  6
CONTINUOUS
 62
    47
 10
-97.364
 20
42.929265
 11
-97.364
 21
50.829263
  0
LINE
  8
型材断面
  6
CONTINUOUS
 62
    47
 10
-97.364
 20
51.829268
 11
-97.364
 21
52.929263
  0
LINE
  8
型材断面
  6
CONTINUOUS
 62
    47
 10
-97.364
 20
52.929263
 11
-98.364005
 21
52.929263
  0
LINE
  8
型材断面
  6
CONTINUOUS
 62
    47
 10
-98.364005
 20
50.829263
 11
-98.364005
 21
52.929263
  0
LINE
  8
型材断面
  6
CONTINUOUS
 62
    47
 10
-86.063645
 20
51.829268
 11
-69.164
 21
51.829268
  0
ARC
  8
型材断面
  6
CONTINUOUS
 62
    47
 10
-84.663646
 20
54.229266
 40
0.1
 50
270.0
 51
405.0
  0
LINE
  8
型材断面
  6
CONTINUOUS
 62
    47
 10
-86.063645
 20
54.129263
 11
-84.66365
 21
54.129263
  0
LINE
  8
型材断面
  6
CONTINUOUS
 62
    47
 10
-84.59294
 20
54.299978
 11
-85.922225
 21
55.629263
  0
LINE
  8
型材断面
  6
CONTINUOUS
 62
    47
 10
-85.922225
 20
55.629263
 11
-87.563645
 21
55.629263
  0
LINE
  8
型材断面
  6
CONTINUOUS
 62
    47
 10
-87.563645
 20
51.829268
 11
-87.563645
 21
55.629263
  0
LINE
  8
型材断面
  6
CONTINUOUS
 62
    47
 10
-80.835215
 20
67.797938
 11
-79.805922
 21
68.82723
  0
ARC
  8
型材断面
  6
CONTINUOUS
 62
    47
 10
-80.764501
 20
67.727231
 40
0.1
 50
135.0
 51
270.0
  0
LINE
  8
型材断面
  6
CONTINUOUS
 62
    47
 10
-79.564505
 20
67.62723
 11
-80.764505
 21
67.62723
  0
LINE
  8
型材断面
  6
CONTINUOUS
 62
    47
 10
-64.164005
 20
68.82723
 11
-79.805922
 21
68.82723
  0
LINE
  8
型材断面
  6
CONTINUOUS
 62
    47
 10
-78.064505
 20
59.329268
 11
-79.564505
 21
59.329268
  0
LINE
  8
型材断面
  6
CONTINUOUS
 62
    47
 10
-79.564505
 20
67.62723
 11
-79.564505
 21
59.329268
  0
LINE
  8
型材断面
  6
CONTINUOUS
 62
    47
 10
-64.164005
 20
51.829268
 11
-64.164005
 21
67.32723
  0
LINE
  8
型材断面
  6
CONTINUOUS
 62
    47
 10
-64.164005
 20
67.32723
 11
-67.664
 21
67.32723
  0
LINE
  8
型材断面
  6
CONTINUOUS
 62
    47
 10
-67.664
 20
65.627227
 11
-67.664
 21
67.32723
  0
LINE
  8
型材断面
  6
CONTINUOUS
 62
    47
 10
-69.164
 20
65.627227
 11
-69.164
 21
67.32723
  0
LINE
  8
型材断面
  6
CONTINUOUS
 62
    47
 10
-69.164
 20
67.32723
 11
-78.064505
 21
67.32723
  0
LINE
  8
型材断面
  6
CONTINUOUS
 62
    47
 10
-78.064505
 20
59.329268
 11
-78.064505
 21
67.32723
  0
LINE
  8
型材断面
  6
CONTINUOUS
 62
    47
 10
-97.364
 20
51.829268
 11
-87.563645
 21
51.829268
  0
LINE
  8
型材断面
  6
CONTINUOUS
 62
    47
 10
-62.164002
 20
82.929263
 11
-77.07032
 21
82.929263
  0
LINE
  8
型材断面
  6
CONTINUOUS
 62
    47
 10
-79.364
 20
-1.570733
 11
-80.864
 21
-1.570733
  0
LINE
  8
型材断面
  6
CONTINUOUS
 62
    47
 10
-79.364
 20
44.929268
 11
-79.364
 21
41.429265
  0
LINE
  8
型材断面
  6
CONTINUOUS
 62
    47
 10
-79.364
 20
41.429265
 11
-80.864
 21
41.429265
  0
LINE
  8
型材断面
  6
CONTINUOUS
 62
    47
 10
-80.864
 20
41.429265
 11
-80.864
 21
43.429268
  0
LINE
  8
型材断面
  6
CONTINUOUS
 62
    47
 10
-80.864
 20
-3.070733
 11
-80.864
 21
-1.570733
  0
LINE
  8
型材断面
  6
CONTINUOUS
 62
    47
 10
-79.364
 20
-3.070733
 11
-79.364
 21
-1.570733
  0
LINE
  8
型材断面
  6
CONTINUOUS
 62
    47
 10
-94.864002
 20
44.929268
 11
-79.364
 21
44.929268
  0
LINE
  8
型材断面
  6
CONTINUOUS
 62
    47
 10
-85.364
 20
43.429268
 11
-80.864
 21
43.429268
  0
LINE
  8
型材断面
  6
CONTINUOUS
 62
    47
 10
-59.364005
 20
-3.070733
 11
-79.364
 21
-3.070733
  0
LINE
  8
型材断面
  6
CONTINUOUS
 62
    47
 10
-85.364
 20
-3.070733
 11
-80.864
 21
-3.070733
  0
ENDBLK
  0
BLOCK
  2
*GRP_0072
 70
    65
 10
0.0
 20
0.0
  0
LINE
  8
型材断面
  6
CONTINUOUS
 62
    47
 10
-85.864025
 20
-20.070742
 11
-85.864025
 21
-11.570363
  0
LINE
  8
型材断面
  6
CONTINUOUS
 62
    47
 10
-85.864025
 20
-11.570363
 11
-87.364025
 21
-11.570363
  0
LINE
  8
型材断面
  6
CONTINUOUS
 62
    47
 10
-85.864025
 20
-20.070742
 11
-63.364025
 21
-20.070742
  0
LINE
  8
型材断面
  6
CONTINUOUS
 62
    47
 10
-85.36403
 20
-21.570742
 11
-65.364027
 21
-21.570742
  0
ARC
  8
型材断面
  6
CONTINUOUS
 62
    47
 10
-58.664038
 20
-30.316136
 40
0.3
 50
0.0
 51
78.690068
  0
ARC
  8
型材断面
  6
CONTINUOUS
 62
    47
 10
-58.664038
 20
-23.824294
 40
0.3
 50
281.309932
 51
360.0
  0
LINE
  8
型材断面
  6
CONTINUOUS
 62
    47
 10
-58.364015
 20
-23.82429
 11
-58.364015
 21
-22.07022
  0
LINE
  8
型材断面
  6
CONTINUOUS
 62
    47
 10
-58.364015
 20
-22.07022
 11
-63.364025
 21
-22.07022
  0
LINE
  8
型材断面
  6
CONTINUOUS
 62
    47
 10
-60.86402
 20
-24.57024
 11
-60.86402
 21
-23.57022
  0
LINE
  8
型材断面
  6
CONTINUOUS
 62
    47
 10
-58.605192
 20
-24.11844
 11
-60.86402
 21
-24.57024
  0
LINE
  8
型材断面
  6
CONTINUOUS
 62
    47
 10
-58.605192
 20
-30.02199
 11
-60.863908
 21
-29.57022
  0
LINE
  8
型材断面
  6
CONTINUOUS
 62
    47
 10
-62.86403
 20
-23.57022
 11
-62.86403
 21
-29.57022
  0
LINE
  8
型材断面
  6
CONTINUOUS
 62
    47
 10
-60.86402
 20
-23.57022
 11
-62.86403
 21
-23.57022
  0
LINE
  8
型材断面
  6
CONTINUOUS
 62
    47
 10
-60.863908
 20
-29.57022
 11
-62.86403
 21
-29.57022
  0
LINE
  8
型材断面
  6
CONTINUOUS
 62
    47
 10
-63.364025
 20
-31.07022
 11
-58.364015
 21
-31.07022
  0
LINE
  8
型材断面
  6
CONTINUOUS
 62
    47
 10
-58.364015
 20
-30.31614
 11
-58.364015
 21
-31.07022
  0
LINE
  8
型材断面
  6
CONTINUOUS
 62
    47
 10
-63.364025
 20
-20.070742
 11
-63.364025
 21
-22.07022
  0
LINE
  8
型材断面
  6
CONTINUOUS
 62
    47
 10
-63.664025
 20
-71.070742
 11
-63.364025
 21
-70.770742
  0
LINE
  8
型材断面
  6
CONTINUOUS
 62
    47
 10
-63.664025
 20
-71.070742
 11
-63.364025
 21
-71.370742
  0
LINE
  8
型材断面
  6
CONTINUOUS
 62
    47
 10
-62.364027
 20
-75.570742
 11
-62.364027
 21
-74.070742
  0
LINE
  8
型材断面
  6
CONTINUOUS
 62
    47
 10
-62.364027
 20
-75.570742
 11
-112.36403
 21
-75.570742
  0
LINE
  8
型材断面
  6
CONTINUOUS
 62
    47
 10
-63.364025
 20
-74.070742
 11
-62.364027
 21
-74.070742
  0
LINE
  8
型材断面
  6
CONTINUOUS
 62
    47
 10
-63.364025
 20
-71.370742
 11
-63.364025
 21
-74.070742
  0
LINE
  8
型材断面
  6
CONTINUOUS
 62
    47
 10
-63.364025
 20
-31.07022
 11
-63.364025
 21
-70.770742
  0
LINE
  8
型材断面
  6
CONTINUOUS
 62
    47
 10
-87.364025
 20
-11.570363
 11
-87.364025
 21
-73.57074
  0
LINE
  8
型材断面
  6
CONTINUOUS
 62
    47
 10
-85.36403
 20
-21.570742
 11
-85.36403
 21
-73.57074
  0
LINE
  8
型材断面
  6
CONTINUOUS
 62
    47
 10
-65.364027
 20
-21.570742
 11
-65.364027
 21
-73.57074
  0
LINE
  8
型材断面
  6
CONTINUOUS
 62
    47
 10
-65.364027
 20
-73.57074
 11
-85.36403
 21
-73.57074
  0
LINE
  8
型材断面
  6
CONTINUOUS
 62
    47
 10
-87.364025
 20
-73.57074
 11
-110.86403
 21
-73.57074
  0
LINE
  8
型材断面
  6
CONTINUOUS
 62
    47
 10
-110.86403
 20
-73.57074
 11
-110.86403
 21
-65.570745
  0
LINE
  8
型材断面
  6
CONTINUOUS
 62
    47
 10
-112.36403
 20
-75.570742
 11
-112.36403
 21
-65.570745
  0
LINE
  8
St
  6
CONTINUOUS
 62
    47
 10
-110.86403
 20
-65.570745
 11
-112.36403
 21
-65.570745
  0
ENDBLK
  0
BLOCK
  2
*GRP_0073
 70
    65
 10
0.0
 20
0.0
  0
POLYLINE
  8
寸法
  6
BYBLOCK
 62
     0
 66
     1
  0
VERTEX
  8
寸法
 10
-109.864012
 20
14.429277
  0
VERTEX
  8
寸法
 10
-120.568387
 20
3.724902
  0
VERTEX
  8
寸法
 10
-125.756347
 20
3.724902
  0
SEQEND
  0
ENDBLK
  0
BLOCK
  2
*GRP_0074
 70
    65
 10
0.0
 20
0.0
  0
POLYLINE
  8
寸法
  6
BYBLOCK
 62
     0
 66
     1
  0
VERTEX
  8
寸法
 10
-109.864012
 20
-43.18977
  0
VERTEX
  8
寸法
 10
-120.568387
 20
-53.894145
  0
VERTEX
  8
寸法
 10
-125.756347
 20
-53.894145
  0
SEQEND
  0
ENDBLK
  0
BLOCK
  2
*GRP_0075
 70
    65
 10
0.0
 20
0.0
  0
LINE
  8
型材
  6
CONTINUOUS
 62
    47
 10
-103.86389
 20
65.429153
 11
-103.86389
 21
64.529153
  0
LINE
  8
型材
  6
CONTINUOUS
 62
    47
 10
-104.46389
 20
66.029153
 11
-103.86389
 21
65.429153
  0
LINE
  8
型材
  6
CONTINUOUS
 62
    47
 10
-103.86389
 20
64.529153
 11
-106.363895
 21
64.529168
  0
LINE
  8
型材
  6
CONTINUOUS
 62
    47
 10
-104.46389
 20
66.029153
 11
-107.863895
 21
66.02916
  0
LINE
  8
型材
  6
CONTINUOUS
 62
    47
 10
-107.863895
 20
63.02916
 11
-99.963995
 21
55.12926
  0
LINE
  8
型材
  6
CONTINUOUS
 62
    47
 10
-107.863895
 20
66.029168
 11
-107.86391
 21
63.029175
  0
LINE
  8
型材
  6
CONTINUOUS
 62
    47
 10
-106.363895
 20
64.52916
 11
-106.363895
 21
63.650482
  0
LINE
  8
型材
  6
CONTINUOUS
 62
    47
 10
-98.364005
 20
54.429263
 11
-98.364005
 21
55.650592
  0
LINE
  8
型材
  6
CONTINUOUS
 62
    47
 10
-99.96401
 20
52.929263
 11
-99.96401
 21
55.129275
  0
LINE
  8
型材
  6
CONTINUOUS
 62
    47
 10
-98.863895
 20
65.429138
 11
-98.863895
 21
64.529138
  0
LINE
  8
型材
  6
CONTINUOUS
 62
    47
 10
-98.863895
 20
65.429138
 11
-98.263895
 21
66.02913
  0
LINE
  8
型材
  6
CONTINUOUS
 62
    47
 10
-98.263895
 20
66.02913
 11
-94.86389
 21
66.029123
  0
LINE
  8
型材
  6
CONTINUOUS
 62
    47
 10
-98.863895
 20
64.529138
 11
-96.363905
 21
64.529123
  0
LINE
  8
型材
  6
CONTINUOUS
 62
    47
 10
-95.864
 20
51.829268
 11
-95.864
 21
54.429263
  0
LINE
  8
型材
  6
CONTINUOUS
 62
    47
 10
-97.364
 20
51.829268
 11
-97.364
 21
52.929263
  0
LINE
  8
型材
  6
CONTINUOUS
 62
    47
 10
-97.364
 20
51.829268
 11
-95.864
 21
51.829268
  0
LINE
  8
型材
  6
CONTINUOUS
 62
    47
 10
-98.364005
 20
54.429263
 11
-95.864
 21
54.429263
  0
LINE
  8
型材
  6
CONTINUOUS
 62
    47
 10
-86.06366
 20
53.829255
 11
-84.067025
 21
53.829255
  0
LINE
  8
型材
  6
CONTINUOUS
 62
    47
 10
-86.06366
 20
53.829255
 11
-86.06366
 21
51.82926
  0
LINE
  8
型材
  6
CONTINUOUS
 62
    47
 10
-86.06366
 20
51.82926
 11
-82.567025
 21
51.82926
  0
LINE
  8
型材
  6
CONTINUOUS
 62
    47
 10
-82.567025
 20
51.82926
 11
-82.567025
 21
66.029092
  0
LINE
  8
型材
  6
CONTINUOUS
 62
    47
 10
-82.567025
 20
66.029092
 11
-84.067025
 21
66.0291
  0
LINE
  8
型材
  6
CONTINUOUS
 62
    47
 10
-98.364005
 20
55.650592
 11
-102.242555
 21
59.529135
  0
LINE
  8
型材
  6
CONTINUOUS
 62
    47
 10
-106.36388
 20
63.650468
 11
-103.742555
 21
61.029142
  0
LINE
  8
型材
  6
CONTINUOUS
 62
    47
 10
-96.363905
 20
64.529175
 11
-96.363905
 21
61.029127
  0
LINE
  8
型材
  6
CONTINUOUS
 62
    47
 10
-84.067025
 20
66.0291
 11
-84.067025
 21
61.029105
  0
LINE
  8
型材
  6
CONTINUOUS
 62
    47
 10
-102.242555
 20
59.529135
 11
-84.067025
 21
59.529097
  0
LINE
  8
型材
  6
CONTINUOUS
 62
    47
 10
-84.067025
 20
53.829255
 11
-84.067025
 21
59.529097
  0
LINE
  8
型材
  6
CONTINUOUS
 62
    47
 10
-94.86389
 20
66.029175
 11
-94.86392
 21
61.029127
  0
LINE
  8
型材
  6
CONTINUOUS
 62
    47
 10
-103.742555
 20
61.029142
 11
-96.363905
 21
61.029127
  0
LINE
  8
型材
  6
CONTINUOUS
 62
    47
 10
-90.56366
 20
60.72912
 11
-90.26366
 21
61.02912
  0
LINE
  8
型材
  6
CONTINUOUS
 62
    47
 10
-90.56366
 20
60.72912
 11
-90.86366
 21
61.02912
  0
LINE
  8
型材
  6
CONTINUOUS
 62
    47
 10
-94.86392
 20
61.029127
 11
-90.86366
 21
61.02912
  0
LINE
  8
型材
  6
CONTINUOUS
 62
    47
 10
-90.26366
 20
61.02912
 11
-84.067025
 21
61.029105
  0
LINE
  8
型材
  6
CONTINUOUS
 62
    47
 10
-97.364
 20
52.929263
 11
-99.96401
 21
52.929263
  0
ENDBLK
  0
BLOCK
  2
*GRP_0076
 70
    65
 10
0.0
 20
0.0
  0
POLYLINE
  8
寸法
  6
CONTINUOUS
 66
     1
  0
VERTEX
  8
寸法
 10
-57.506155
 20
73.437693
  0
VERTEX
  8
寸法
 10
-60.10423
 20
74.937693
  0
VERTEX
  8
寸法
 10
-58.60423
 20
72.339615
  0
SEQEND
  0
POLYLINE
  8
寸法
  6
CONTINUOUS
 66
     1
  0
VERTEX
  8
寸法
 10
-60.10423
 20
74.937693
  0
VERTEX
  8
寸法
 10
-53.566515
 20
68.399975
  0
VERTEX
  8
寸法
 10
-22.181483
 20
68.399975
  0
SEQEND
  0
ENDBLK
  0
BLOCK
  2
*GRP_0077
 70
    65
 10
0.0
 20
0.0
  0
POLYLINE
  8
寸法
  6
CONTINUOUS
 66
     1
  0
VERTEX
  8
寸法
 10
-103.346535
 20
54.413723
  0
VERTEX
  8
寸法
 10
-101.846535
 20
57.0118
  0
VERTEX
  8
寸法
 10
-104.44461
 20
55.5118
  0
SEQEND
  0
POLYLINE
  8
寸法
  6
CONTINUOUS
 66
     1
  0
VERTEX
  8
寸法
 10
-101.846535
 20
57.0118
  0
VERTEX
  8
寸法
 10
-109.716668
 20
49.141668
  0
VERTEX
  8
寸法
 10
-120.533332
 20
49.141668
  0
SEQEND
  0
ENDBLK
  0
BLOCK
  2
*DIM_0078
 70
    65
 10
0.0
 20
0.0
  0
LINE
  8
寸法
  6
CONTINUOUS
 10
-112.863895
 20
66.02916
 11
-163.156448
 21
66.02916
  0
LINE
  8
寸法
  6
CONTINUOUS
 10
-163.156448
 20
52.929265
 11
-163.156448
 21
66.02916
  0
POINT
  8
寸法
 10
-163.156448
 20
52.929265
  0
POINT
  8
寸法
 10
-163.156448
 20
66.02916
  0
TEXT
  7
TextStyle03
  8
寸法
  6
CONTINUOUS
 10
-163.55
 20
56.19375
  1
13.1
 40
3.0
 50
90.0
 72
     5
 11
-163.55
 21
62.75625
  0
ENDBLK
  0
BLOCK
  2
*DIM_0079
 70
    65
 10
0.0
 20
0.0
  0
LINE
  8
寸法
  6
CONTINUOUS
 10
14.630508
 20
-86.074247
 11
14.630508
 21
118.090135
  0
LINE
  8
寸法
  6
CONTINUOUS
 10
-7.369498
 20
118.090135
 11
14.630508
 21
118.090135
  0
POINT
  8
寸法
 10
14.630508
 20
118.090135
  0
TEXT
  7
TextStyle03
  8
寸法
  6
CONTINUOUS
 10
2.03125
 20
118.45
  1
22
 40
3.0
 72
     5
 11
5.21875
 21
118.45
  0
ENDBLK
  0
BLOCK
  2
*GRP_0080
 70
    65
 10
0.0
 20
0.0
  0
LINE
  8
ゴム等
  6
CONTINUOUS
 10
-65.664005
 20
87.929265
 11
-65.664005
 21
82.929263
  0
LINE
  8
ゴム等
  6
CONTINUOUS
 10
-65.664005
 20
87.929265
 11
-75.664002
 21
87.929265
  0
LINE
  8
ゴム等
  6
CONTINUOUS
 10
-75.664002
 20
87.929265
 11
-75.664002
 21
82.929263
  0
LINE
  8
ゴム等
  6
CONTINUOUS
 10
-65.664005
 20
82.929263
 11
-75.664002
 21
82.929263
  0
LINE
  8
ゴム等
  6
CONTINUOUS
 10
-75.664002
 20
84.259388
 11
-74.333878
 21
82.929263
  0
LINE
  8
ゴム等
  6
CONTINUOUS
 10
-75.664002
 20
85.673603
 11
-72.919662
 21
82.929263
  0
LINE
  8
ゴム等
  6
CONTINUOUS
 10
-75.664002
 20
87.08781
 11
-71.505455
 21
82.929263
  0
LINE
  8
ゴム等
  6
CONTINUOUS
 10
-72.262813
 20
87.929265
 11
-67.26281
 21
82.929263
  0
LINE
  8
ゴム等
  6
CONTINUOUS
 10
-73.677027
 20
87.929265
 11
-68.677025
 21
82.929263
  0
LINE
  8
ゴム等
  6
CONTINUOUS
 10
-75.091235
 20
87.929265
 11
-70.09124
 21
82.929263
  0
LINE
  8
ゴム等
  6
CONTINUOUS
 10
-70.848597
 20
87.929265
 11
-65.848595
 21
82.929263
  0
LINE
  8
ゴム等
  6
CONTINUOUS
 10
-69.434382
 20
87.929265
 11
-65.664005
 21
84.15888
  0
LINE
  8
ゴム等
  6
CONTINUOUS
 10
-68.020175
 20
87.929265
 11
-65.664005
 21
85.573095
  0
LINE
  8
ゴム等
  6
CONTINUOUS
 10
-66.60596
 20
87.929265
 11
-65.664005
 21
86.98731
  0
ENDBLK
  0
BLOCK
  2
*GRP_0081
 70
    65
 10
0.0
 20
0.0
  0
LINE
  8
ゴム等
  6
CONTINUOUS
 10
-50.164002
 20
65.429325
 11
-55.164005
 21
65.429325
  0
LINE
  8
ゴム等
  6
CONTINUOUS
 10
-50.164002
 20
65.429325
 11
-50.164002
 21
75.429322
  0
LINE
  8
ゴム等
  6
CONTINUOUS
 10
-50.164002
 20
75.429322
 11
-55.164005
 21
75.429322
  0
LINE
  8
ゴム等
  6
CONTINUOUS
 10
-55.164005
 20
65.429325
 11
-55.164005
 21
75.429322
  0
LINE
  8
ゴム等
  6
CONTINUOUS
 10
-53.83388
 20
75.429322
 11
-55.164005
 21
74.099198
  0
LINE
  8
ゴム等
  6
CONTINUOUS
 10
-52.419665
 20
75.429322
 11
-55.164005
 21
72.684982
  0
LINE
  8
ゴム等
  6
CONTINUOUS
 10
-51.005458
 20
75.429322
 11
-55.164005
 21
71.270775
  0
LINE
  8
ゴム等
  6
CONTINUOUS
 10
-50.164002
 20
72.028132
 11
-55.164005
 21
67.02813
  0
LINE
  8
ゴム等
  6
CONTINUOUS
 10
-50.164002
 20
73.442347
 11
-55.164005
 21
68.442345
  0
LINE
  8
ゴム等
  6
CONTINUOUS
 10
-50.164002
 20
74.856555
 11
-55.164005
 21
69.85656
  0
LINE
  8
ゴム等
  6
CONTINUOUS
 10
-50.164002
 20
70.613918
 11
-55.164005
 21
65.613915
  0
LINE
  8
ゴム等
  6
CONTINUOUS
 10
-50.164002
 20
69.199703
 11
-53.934387
 21
65.429325
  0
LINE
  8
ゴム等
  6
CONTINUOUS
 10
-50.164002
 20
67.785495
 11
-52.520172
 21
65.429325
  0
LINE
  8
ゴム等
  6
CONTINUOUS
 10
-50.164002
 20
66.37128
 11
-51.105958
 21
65.429325
  0
ENDBLK
  0
BLOCK
  2
*GRP_0082
 70
    65
 10
0.0
 20
0.0
  0
LINE
  8
ゴム等
  6
CONTINUOUS
 10
-50.164002
 20
65.429325
 11
-45.164
 21
65.429325
  0
LINE
  8
ゴム等
  6
CONTINUOUS
 10
-50.164002
 20
65.429325
 11
-50.164002
 21
75.429322
  0
LINE
  8
ゴム等
  6
CONTINUOUS
 10
-50.164002
 20
75.429322
 11
-45.164
 21
75.429322
  0
LINE
  8
ゴム等
  6
CONTINUOUS
 10
-45.164
 20
65.429325
 11
-45.164
 21
75.429322
  0
LINE
  8
ゴム等
  6
CONTINUOUS
 10
-46.494125
 20
75.429322
 11
-45.164
 21
74.099198
  0
LINE
  8
ゴム等
  6
CONTINUOUS
 10
-47.90834
 20
75.429322
 11
-45.164
 21
72.684982
  0
LINE
  8
ゴム等
  6
CONTINUOUS
 10
-49.322548
 20
75.429322
 11
-45.164
 21
71.270775
  0
LINE
  8
ゴム等
  6
CONTINUOUS
 10
-50.164002
 20
72.028132
 11
-45.164
 21
67.02813
  0
LINE
  8
ゴム等
  6
CONTINUOUS
 10
-50.164002
 20
73.442347
 11
-45.164
 21
68.442345
  0
LINE
  8
ゴム等
  6
CONTINUOUS
 10
-50.164002
 20
74.856555
 11
-45.164
 21
69.85656
  0
LINE
  8
ゴム等
  6
CONTINUOUS
 10
-50.164002
 20
70.613918
 11
-45.164
 21
65.613915
  0
LINE
  8
ゴム等
  6
CONTINUOUS
 10
-50.164002
 20
69.199703
 11
-46.393617
 21
65.429325
  0
LINE
  8
ゴム等
  6
CONTINUOUS
 10
-50.164002
 20
67.785495
 11
-47.807833
 21
65.429325
  0
LINE
  8
ゴム等
  6
CONTINUOUS
 10
-50.164002
 20
66.37128
 11
-49.222048
 21
65.429325
  0
ENDBLK
  0
BLOCK
  2
*GRP_0083
 70
    65
 10
0.0
 20
0.0
  0
LINE
  8
ボルト／ビス
  6
CONTINUOUS
 62
    64
 10
-43.163998
 20
67.42926
 11
-42.115835
 21
67.520962
  0
ARC
  8
ボルト／ビス
  6
CONTINUOUS
 62
    64
 10
-42.263998
 20
69.214494
 40
1.7
 50
274.999989
 51
360.0
  0
LINE
  8
ボルト／ビス
  6
CONTINUOUS
 62
    64
 10
-40.563995
 20
69.214493
 11
-40.563995
 21
70.929263
  0
LINE
  8
ボルト／ビス
  6
CONTINUOUS
 62
    64
 10
-43.163998
 20
74.429265
 11
-42.115835
 21
74.337563
  0
ARC
  8
ボルト／ビス
  6
CONTINUOUS
 62
    64
 10
-42.263998
 20
72.644027
 40
1.7
 50
0.0
 51
85.000011
  0
LINE
  8
ボルト／ビス
  6
CONTINUOUS
 62
    64
 10
-40.563995
 20
72.644032
 11
-40.563995
 21
70.929263
  0
LINE
  8
ボルト／ビス
  6
CONTINUOUS
 62
    64
 10
-40.948902
 20
68.532623
 11
-40.706743
 21
68.532623
  0
LINE
  8
ボルト／ビス
  6
CONTINUOUS
 62
    64
 10
-41.598988
 20
70.229265
 11
-41.598988
 21
70.929263
  0
LINE
  8
ボルト／ビス
  6
CONTINUOUS
 62
    64
 10
-40.948902
 20
69.82926
 11
-40.948902
 21
68.532623
  0
LINE
  8
ボルト／ビス
  6
CONTINUOUS
 62
    64
 10
-41.598988
 20
70.229265
 11
-41.3489
 21
70.229265
  0
ARC
  8
ボルト／ビス
  6
CONTINUOUS
 62
    64
 10
-41.348903
 20
69.829261
 40
0.4
 50
0.0
 51
90.0
  0
LINE
  8
ボルト／ビス
  6
CONTINUOUS
 62
    64
 10
-40.948902
 20
73.325902
 11
-40.706743
 21
73.325902
  0
LINE
  8
ボルト／ビス
  6
CONTINUOUS
 62
    64
 10
-41.598988
 20
71.62926
 11
-41.598988
 21
70.929263
  0
LINE
  8
ボルト／ビス
  6
CONTINUOUS
 62
    64
 10
-40.948902
 20
72.029265
 11
-40.948902
 21
73.325902
  0
LINE
  8
ボルト／ビス
  6
CONTINUOUS
 62
    64
 10
-41.598988
 20
71.62926
 11
-41.3489
 21
71.62926
  0
ARC
  8
ボルト／ビス
  6
CONTINUOUS
 62
    64
 10
-41.348903
 20
72.029261
 40
0.4
 50
270.0
 51
360.0
  0
LINE
  8
ボルト／ビス
  6
CONTINUOUS
 62
    64
 10
-43.163998
 20
67.42926
 11
-43.163998
 21
74.429265
  0
LINE
  8
ボルト／ビス
  6
CONTINUOUS
 62
    64
 10
-58.664
 20
68.92926
 11
-59.163995
 21
69.429263
  0
LINE
  8
ボルト／ビス
  6
CONTINUOUS
 62
    64
 10
-58.664
 20
72.929265
 11
-59.163995
 21
72.429263
  0
LINE
  8
ボルト／ビス
  6
CONTINUOUS
 62
    64
 10
-58.664
 20
68.92926
 11
-58.664
 21
72.929265
  0
LINE
  8
ボルト／ビス
  6
CONTINUOUS
 62
    64
 10
-59.163995
 20
69.429263
 11
-59.163995
 21
72.429263
  0
LINE
  8
ボルト／ビス
  6
CONTINUOUS
 62
    64
 10
-43.163998
 20
72.929265
 11
-58.664
 21
72.929265
  0
LINE
  8
ボルト／ビス
  6
CONTINUOUS
 62
    64
 10
-43.163998
 20
68.92926
 11
-58.664
 21
68.92926
  0
LINE
  8
ボルト／ビス
  6
CONTINUOUS
 62
    64
 10
-43.163998
 20
69.429263
 11
-59.163995
 21
69.429263
  0
LINE
  8
ボルト／ビス
  6
CONTINUOUS
 62
    64
 10
-43.163998
 20
72.429263
 11
-59.163995
 21
72.429263
  0
LINE
  8
ボルト／ビス
  6
DASHDOT
 62
    64
 10
-37.563995
 20
70.929263
 11
-62.163995
 21
70.929263
  0
ENDBLK
  0
BLOCK
  2
*GRP_0084
 70
    65
 10
0.0
 20
0.0
  0
LINE
  8
曲げ物
  6
CONTINUOUS
 10
-72.664002
 20
97.929263
 11
-72.664002
 21
90.929265
  0
LINE
  8
曲げ物
  6
CONTINUOUS
 10
-72.664002
 20
90.929265
 11
-45.664002
 21
90.929265
  0
LINE
  8
曲げ物
  6
CONTINUOUS
 10
-45.664002
 20
90.929265
 11
-45.664002
 21
97.929263
  0
LINE
  8
曲げ物
  6
CONTINUOUS
 10
-72.664002
 20
97.929263
 11
-45.664002
 21
97.929263
  0
LINE
  8
曲げ物
  6
CONTINUOUS
 10
-44.164002
 20
99.429263
 11
-44.164002
 21
89.429265
  0
LINE
  8
曲げ物
  6
CONTINUOUS
 10
-44.164002
 20
89.429265
 11
-74.164002
 21
89.429265
  0
LINE
  8
曲げ物
  6
CONTINUOUS
 10
-74.164002
 20
89.429265
 11
-74.164002
 21
99.429263
  0
LINE
  8
曲げ物
  6
CONTINUOUS
 10
-44.164002
 20
99.429263
 11
-74.164002
 21
99.429263
  0
ENDBLK
  0
BLOCK
  2
*GRP_0085
 70
    65
 10
0.0
 20
0.0
  0
LINE
  8
別途部材
  6
CONTINUOUS
 10
-31.468355
 20
102.429285
 11
-32.968355
 21
102.429285
  0
LINE
  8
別途部材
  6
CONTINUOUS
 10
-31.468355
 20
104.429287
 11
-31.468355
 21
102.429285
  0
ARC
  8
別途部材
  6
CONTINUOUS
 10
-34.468352
 20
104.429294
 40
3.0
 50
0.0
 51
90.0
  0
LINE
  8
別途部材
  6
CONTINUOUS
 10
-32.968355
 20
104.429287
 11
-32.968355
 21
102.429285
  0
ARC
  8
別途部材
  6
CONTINUOUS
 10
-34.468352
 20
104.429294
 40
1.5
 50
0.0
 51
90.0
  0
LINE
  8
別途部材
  6
CONTINUOUS
 10
-34.468355
 20
105.929287
 11
-36.164
 21
105.929287
  0
LINE
  8
別途部材
  6
CONTINUOUS
 10
-98.468353
 20
104.229285
 11
-98.468353
 21
105.429285
  0
LINE
  8
別途部材
  6
CONTINUOUS
 10
-106.468355
 20
106.42929
 11
-106.468355
 21
104.229285
  0
ARC
  8
別途部材
  6
CONTINUOUS
 10
-105.468352
 20
106.429294
 40
1.0
 50
90.0
 51
180.0
  0
LINE
  8
別途部材
  6
CONTINUOUS
 10
-106.468355
 20
104.229285
 11
-98.468353
 21
104.229285
  0
LINE
  8
別途部材
  6
CONTINUOUS
 10
-34.468355
 20
107.429287
 11
-105.468358
 21
107.429287
  0
LINE
  8
別途部材
  6
CONTINUOUS
 10
-78.664002
 20
105.429285
 11
-98.468353
 21
105.429285
  0
ARC
  8
別途部材
  6
CONTINUOUS
 10
-78.663995
 20
102.429283
 40
3.0
 50
0.0
 51
90.0
  0
LINE
  8
別途部材
  6
CONTINUOUS
 10
-75.364002
 20
94.429268
 11
-75.664002
 21
94.729268
  0
LINE
  8
別途部材
  6
CONTINUOUS
 10
-75.364002
 20
94.429268
 11
-75.664002
 21
94.129268
  0
LINE
  8
別途部材
  6
CONTINUOUS
 10
-75.664002
 20
102.429285
 11
-75.664002
 21
94.729268
  0
LINE
  8
別途部材
  6
CONTINUOUS
 10
-75.664002
 20
94.129268
 11
-75.664002
 21
87.929265
  0
LINE
  8
別途部材
  6
CONTINUOUS
 10
-36.464
 20
70.929263
 11
-36.164
 21
71.229263
  0
LINE
  8
別途部材
  6
CONTINUOUS
 10
-36.464
 20
70.929263
 11
-36.164
 21
70.629263
  0
LINE
  8
別途部材
  6
CONTINUOUS
 10
-36.164
 20
105.929287
 11
-36.164
 21
71.229263
  0
LINE
  8
別途部材
  6
CONTINUOUS
 10
-36.164
 20
70.629263
 11
-36.164
 21
57.429285
  0
LINE
  8
別途部材
  6
CONTINUOUS
 10
-44.663998
 20
82.929263
 11
-44.663998
 21
65.92926
  0
LINE
  8
別途部材
  6
CONTINUOUS
 10
-43.163998
 20
65.92926
 11
-44.663998
 21
65.92926
  0
LINE
  8
別途部材
  6
CONTINUOUS
 10
-36.164
 20
57.429285
 11
-37.664
 21
57.429285
  0
LINE
  8
別途部材
  6
CONTINUOUS
 10
-44.663998
 20
82.929263
 11
-37.664
 21
82.929263
  0
LINE
  8
別途部材
  6
CONTINUOUS
 10
-43.163998
 20
81.429263
 11
-37.664
 21
81.429263
  0
LINE
  8
別途部材
  6
CONTINUOUS
 10
-37.664
 20
81.429263
 11
-37.664
 21
57.429285
  0
LINE
  8
別途部材
  6
CONTINUOUS
 10
-37.664
 20
87.929265
 11
-37.664
 21
82.929263
  0
LINE
  8
別途部材
  6
CONTINUOUS
 10
-43.463998
 20
70.929263
 11
-43.163998
 21
71.229263
  0
LINE
  8
別途部材
  6
CONTINUOUS
 10
-43.463998
 20
70.929263
 11
-43.163998
 21
70.629263
  0
LINE
  8
別途部材
  6
CONTINUOUS
 10
-43.163998
 20
81.429263
 11
-43.163998
 21
71.229263
  0
LINE
  8
別途部材
  6
CONTINUOUS
 10
-43.163998
 20
70.629263
 11
-43.163998
 21
65.92926
  0
LINE
  8
別途部材
  6
DOT
 10
-36.164
 20
75.929265
 11
-37.664
 21
75.929265
  0
LINE
  8
別途部材
  6
DOT
 10
-36.164
 20
65.92926
 11
-37.664
 21
65.92926
  0
LINE
  8
別途部材
  6
CONTINUOUS
 10
-37.664
 20
105.929287
 11
-74.164002
 21
105.929287
  0
LINE
  8
別途部材
  6
DOT
 10
-36.539
 20
75.929265
 11
-36.539
 21
65.92926
  0
LINE
  8
別途部材
  6
DOT
 10
-36.914
 20
75.929265
 11
-36.914
 21
65.92926
  0
LINE
  8
別途部材
  6
DOT
 10
-37.289
 20
75.929265
 11
-37.289
 21
65.92926
  0
LINE
  8
別途部材
  6
CONTINUOUS
 10
-37.664
 20
105.929287
 11
-37.664
 21
89.429265
  0
LINE
  8
別途部材
  6
CONTINUOUS
 10
-74.164002
 20
105.929287
 11
-74.164002
 21
89.429265
  0
LINE
  8
別途部材
  6
CONTINUOUS
 10
-74.164002
 20
89.429265
 11
-37.664
 21
89.429265
  0
LINE
  8
別途部材
  6
CONTINUOUS
 10
-52.413995
 20
88.229265
 11
-52.713995
 21
87.929265
  0
LINE
  8
別途部材
  6
CONTINUOUS
 10
-52.413995
 20
88.229265
 11
-52.113995
 21
87.929265
  0
LINE
  8
別途部材
  6
CONTINUOUS
 10
-64.913998
 20
88.229265
 11
-65.213998
 21
87.929265
  0
LINE
  8
別途部材
  6
CONTINUOUS
 10
-64.913998
 20
88.229265
 11
-64.613998
 21
87.929265
  0
LINE
  8
別途部材
  6
CONTINUOUS
 10
-52.713995
 20
87.929265
 11
-64.613998
 21
87.929265
  0
LINE
  8
別途部材
  6
CONTINUOUS
 10
-75.664002
 20
87.929265
 11
-65.213998
 21
87.929265
  0
LINE
  8
別途部材
  6
CONTINUOUS
 10
-37.664
 20
87.929265
 11
-52.113995
 21
87.929265
  0
ENDBLK
  0
BLOCK
  2
*GRP_0086
 70
    65
 10
0.0
 20
0.0
  0
ARC
  8
型材断面
  6
CONTINUOUS
 62
    47
 10
-101.363898
 20
65.029074
 40
1.0
 50
359.999795
 51
539.999795
  0
ARC
  8
型材断面
  6
CONTINUOUS
 62
    47
 10
-103.363902
 20
64.029081
 40
1.0
 50
269.999795
 51
359.999795
  0
ARC
  8
型材断面
  6
CONTINUOUS
 62
    47
 10
-99.363902
 20
64.029067
 40
1.0
 50
179.999795
 51
269.999795
  0
LINE
  8
型材断面
  6
CONTINUOUS
 62
    47
 10
-106.363887
 20
67.529077
 11
-96.36389
 21
67.52904
  0
LINE
  8
型材断面
  6
CONTINUOUS
 62
    47
 10
-100.363903
 20
64.02906
 11
-100.363895
 21
65.029058
  0
LINE
  8
型材断面
  6
CONTINUOUS
 62
    47
 10
-102.363905
 20
64.02906
 11
-102.363897
 21
65.029065
  0
LINE
  8
型材断面
  6
CONTINUOUS
 62
    47
 10
-107.863895
 20
66.029085
 11
-103.863897
 21
66.02907
  0
LINE
  8
型材断面
  6
CONTINUOUS
 62
    47
 10
-98.863895
 20
66.029055
 11
-94.863897
 21
66.02904
  0
LINE
  8
型材断面
  6
CONTINUOUS
 62
    47
 10
-103.863897
 20
66.02907
 11
-103.863905
 21
64.52907
  0
LINE
  8
型材断面
  6
CONTINUOUS
 62
    47
 10
-105.363905
 20
64.52907
 11
-103.863905
 21
64.52907
  0
LINE
  8
型材断面
  6
CONTINUOUS
 62
    47
 10
-97.363903
 20
64.52904
 11
-98.863903
 21
64.529055
  0
LINE
  8
型材断面
  6
CONTINUOUS
 62
    47
 10
-98.863895
 20
66.029055
 11
-98.863903
 21
64.529055
  0
LINE
  8
型材断面
  6
CONTINUOUS
 62
    47
 10
-94.863897
 20
66.02904
 11
-94.863875
 21
72.529035
  0
LINE
  8
型材断面
  6
CONTINUOUS
 62
    47
 10
-98.86388
 20
71.02905
 11
-96.363875
 21
71.029042
  0
LINE
  8
型材断面
  6
CONTINUOUS
 62
    47
 10
-103.863875
 20
71.029065
 11
-106.36388
 21
71.02908
  0
LINE
  8
型材断面
  6
CONTINUOUS
 62
    47
 10
-107.863872
 20
72.52908
 11
-104.463875
 21
72.529073
  0
LINE
  8
型材断面
  6
CONTINUOUS
 62
    47
 10
-103.863875
 20
71.929065
 11
-103.863875
 21
71.029065
  0
LINE
  8
型材断面
  6
CONTINUOUS
 62
    47
 10
-104.463875
 20
72.529073
 11
-103.863875
 21
71.929065
  0
LINE
  8
型材断面
  6
CONTINUOUS
 62
    47
 10
-98.863872
 20
71.92905
 11
-98.86388
 21
71.02905
  0
LINE
  8
型材断面
  6
CONTINUOUS
 62
    47
 10
-98.263872
 20
72.52905
 11
-94.863875
 21
72.529035
  0
LINE
  8
型材断面
  6
CONTINUOUS
 62
    47
 10
-98.863872
 20
71.92905
 11
-98.263872
 21
72.52905
  0
LINE
  8
型材断面
  6
CONTINUOUS
 62
    47
 10
-96.36389
 20
67.52904
 11
-96.363875
 21
71.029042
  0
LINE
  8
型材断面
  6
CONTINUOUS
 62
    47
 10
-106.363887
 20
67.529077
 11
-106.36388
 21
71.02908
  0
LINE
  8
型材断面
  6
CONTINUOUS
 62
    47
 10
-107.863895
 20
66.029085
 11
-107.863872
 21
72.52908
  0
LINE
  8
型材断面
  6
CONTINUOUS
 62
    47
 10
-97.363903
 20
63.529042
 11
-97.363903
 21
64.52904
  0
LINE
  8
型材断面
  6
CONTINUOUS
 62
    47
 10
-99.363905
 20
63.029055
 11
-97.863905
 21
63.029047
  0
LINE
  8
型材断面
  6
CONTINUOUS
 62
    47
 10
-97.363903
 20
63.529042
 11
-97.863905
 21
63.029047
  0
LINE
  8
型材断面
  6
CONTINUOUS
 62
    47
 10
-105.363905
 20
63.529073
 11
-105.363905
 21
64.52907
  0
LINE
  8
型材断面
  6
CONTINUOUS
 62
    47
 10
-104.86391
 20
63.02907
 11
-103.36391
 21
63.02907
  0
LINE
  8
型材断面
  6
CONTINUOUS
 62
    47
 10
-105.363905
 20
63.529073
 11
-104.86391
 21
63.02907
  0
ENDBLK
  0
BLOCK
  2
*GRP_0087
 70
    65
 10
0.0
 20
0.0
  0
POLYLINE
  8
ゴム等
 66
     1
  0
VERTEX
  8
ゴム等
 10
-106.86389
 20
77.529038
  0
VERTEX
  8
ゴム等
 10
-102.863922
 20
77.529038
  0
VERTEX
  8
ゴム等
 10
-102.363943
 20
76.529077
  0
VERTEX
  8
ゴム等
 10
-100.363933
 20
76.529077
  0
VERTEX
  8
ゴム等
 10
-99.863908
 20
77.529038
  0
VERTEX
  8
ゴム等
 10
-95.863887
 20
77.529038
  0
VERTEX
  8
ゴム等
 10
-95.863887
 20
72.529065
  0
VERTEX
  8
ゴム等
 10
-98.863947
 20
72.529065
  0
VERTEX
  8
ゴム等
 10
-98.863947
 20
71.379923
  0
VERTEX
  8
ゴム等
 10
-98.361695
 20
70.877663
  0
VERTEX
  8
ゴム等
 10
-100.363933
 20
67.779105
  0
VERTEX
  8
ゴム等
 10
-102.363845
 20
67.779105
  0
VERTEX
  8
ゴム等
 10
-104.366082
 20
70.877715
  0
VERTEX
  8
ゴム等
 10
-103.863875
 20
71.379923
  0
VERTEX
  8
ゴム等
 10
-103.863875
 20
72.529065
  0
VERTEX
  8
ゴム等
 10
-106.86389
 20
72.529065
  0
SEQEND
  0
LINE
  8
ゴム等
 10
-106.86389
 20
77.529038
 11
-106.86389
 21
72.529065
  0
ARC
  8
ゴム等
 10
-101.663842
 20
72.329093
 40
0.7
 50
90.0
 51
180.0
  0
LINE
  8
ゴム等
 10
-101.66384
 20
73.02909
 11
-101.06393
 21
73.02909
  0
ARC
  8
ゴム等
 10
-101.063932
 20
72.329093
 40
0.7
 50
0.0
 51
90.0
  0
LINE
  8
ゴム等
 10
-100.363933
 20
72.329092
 11
-100.363933
 21
69.729068
  0
ARC
  8
ゴム等
 10
-101.063932
 20
69.729073
 40
0.7
 50
-90.0
 51
0.0
  0
LINE
  8
ゴム等
 10
-102.363845
 20
72.329092
 11
-102.363845
 21
69.729068
  0
LINE
  8
ゴム等
 10
-101.06393
 20
69.02907
 11
-101.66384
 21
69.02907
  0
ARC
  8
ゴム等
 10
-101.663842
 20
69.729073
 40
0.7
 50
180.0
 51
270.0
  0
LINE
  8
ゴム等
 10
-104.742568
 20
77.529038
 11
-106.86389
 21
75.407715
  0
LINE
  8
ゴム等
 10
-102.783028
 20
77.367255
 11
-106.86389
 21
73.286392
  0
LINE
  8
ゴム等
 10
-101.499882
 20
76.529077
 11
-105.499903
 21
72.529065
  0
LINE
  8
ゴム等
 10
-98.378608
 20
77.529038
 11
-103.863875
 21
72.04377
  0
LINE
  8
ゴム等
 10
-95.863887
 20
73.679797
 11
-97.01462
 21
72.529065
  0
LINE
  8
ゴム等
 10
-98.513855
 20
71.02983
 11
-101.76458
 21
67.779105
  0
LINE
  8
ゴム等
 10
-96.257293
 20
77.529038
 11
-100.80635
 21
72.979973
  0
LINE
  8
ゴム等
 10
-102.363845
 20
71.422485
 11
-103.793983
 21
69.992347
  0
LINE
  8
ゴム等
 10
-95.863887
 20
75.80112
 11
-100.363933
 21
71.301075
  0
LINE
  8
ゴム等
 10
-102.961295
 20
68.703705
 11
-102.275803
 21
69.389205
  0
ENDBLK
  0
BLOCK
  2
*DIM_0088
 70
    65
 10
0.0
 20
0.0
  0
LINE
  8
寸法
  6
CONTINUOUS
 10
-112.863872
 20
72.52908
 11
-163.156448
 21
72.52908
  0
LINE
  8
寸法
  6
CONTINUOUS
 10
-163.156448
 20
66.02916
 11
-163.156448
 21
72.52908
  0
POINT
  8
寸法
 10
-163.156448
 20
66.02916
  0
POINT
  8
寸法
 10
-163.156448
 20
72.52908
  0
TEXT
  7
TextStyle03
  8
寸法
  6
CONTINUOUS
 10
-163.55
 20
66.8375
  1
6.5
 40
3.0
 50
90.0
 72
     5
 11
-163.55
 21
71.7125
  0
ENDBLK
  0
BLOCK
  2
*DIM_0089
 70
    65
 10
0.0
 20
0.0
  0
LINE
  8
寸法
  6
CONTINUOUS
 10
-133.733332
 20
77.529038
 11
-163.156448
 21
77.529038
  0
LINE
  8
寸法
  6
CONTINUOUS
 10
-163.156448
 20
72.52908
 11
-163.156448
 21
77.529038
  0
POINT
  8
寸法
 10
-163.156448
 20
77.529038
  0
TEXT
  7
TextStyle03
  8
寸法
  6
CONTINUOUS
 10
-163.55
 20
74.275
  1
5
 40
3.0
 50
90.0
 72
     5
 11
-163.55
 21
75.775
  0
ENDBLK
  0
BLOCK
  2
*DIM_0090
 70
    65
 10
0.0
 20
0.0
  0
LINE
  8
寸法
  6
CONTINUOUS
 10
-133.733332
 20
95.329038
 11
-163.156448
 21
95.329038
  0
LINE
  8
寸法
  6
CONTINUOUS
 10
-163.156448
 20
77.529038
 11
-163.156448
 21
95.329038
  0
POINT
  8
寸法
 10
-163.156448
 20
95.329038
  0
TEXT
  7
TextStyle03
  8
寸法
  6
CONTINUOUS
 10
-163.55
 20
83.14375
  1
17.8
 40
3.0
 50
90.0
 72
     5
 11
-163.55
 21
89.70625
  0
ENDBLK
  0
BLOCK
  2
*DIM_0091
 70
    65
 10
0.0
 20
0.0
  0
LINE
  8
寸法
  6
CONTINUOUS
 10
-111.468355
 20
104.229285
 11
-163.156448
 21
104.229285
  0
LINE
  8
寸法
  6
CONTINUOUS
 10
-163.156448
 20
95.329038
 11
-163.156448
 21
104.229285
  0
POINT
  8
寸法
 10
-163.156448
 20
104.229285
  0
TEXT
  7
TextStyle03
  8
寸法
  6
CONTINUOUS
 10
-163.55
 20
97.3375
  1
8.9
 40
3.0
 50
90.0
 72
     5
 11
-163.55
 21
102.2125
  0
ENDBLK
  0
BLOCK
  2
*DIM_0092
 70
    65
 10
0.0
 20
0.0
  0
LINE
  8
寸法
  6
CONTINUOUS
 10
-109.90014
 20
107.429287
 11
-163.156448
 21
107.429287
  0
LINE
  8
寸法
  6
CONTINUOUS
 10
-163.156448
 20
104.229285
 11
-163.156448
 21
107.429287
  0
POINT
  8
寸法
 10
-163.156448
 20
107.429287
  0
TEXT
  7
TextStyle03
  8
寸法
  6
CONTINUOUS
 10
-163.55
 20
103.3875
  1
3.2
 40
3.0
 50
90.0
 72
     5
 11
-163.55
 21
108.2625
  0
ENDBLK
  0
BLOCK
  2
*DIM_0093
 70
    65
 10
0.0
 20
0.0
  0
LINE
  8
寸法
  6
CONTINUOUS
 10
-31.468355
 20
109.429287
 11
-31.468355
 21
118.090135
  0
LINE
  8
寸法
  6
CONTINUOUS
 10
-97.370327
 20
118.090135
 11
-31.468355
 21
118.090135
  0
POINT
  8
寸法
 10
-97.370327
 20
118.090135
  0
POINT
  8
寸法
 10
-31.468355
 20
118.090135
  0
TEXT
  7
TextStyle03
  8
寸法
  6
CONTINUOUS
 10
-67.70625
 20
118.45
  1
65.9
 40
3.0
 72
     5
 11
-61.14375
 21
118.45
  0
ENDBLK
  0
BLOCK
  2
*DIM_0094
 70
    65
 10
0.0
 20
0.0
  0
LINE
  8
寸法
  6
CONTINUOUS
 10
-7.369498
 20
-4.071378
 11
-7.369498
 21
118.090135
  0
LINE
  8
寸法
  6
CONTINUOUS
 10
-31.468355
 20
118.090135
 11
-7.369498
 21
118.090135
  0
POINT
  8
寸法
 10
-7.369498
 20
118.090135
  0
TEXT
  7
TextStyle03
  8
寸法
  6
CONTINUOUS
 10
-22.70625
 20
118.45
  1
24.1
 40
3.0
 72
     5
 11
-16.14375
 21
118.45
  0
ENDBLK
  0
BLOCK
  2
*GRP_0095
 70
    65
 10
0.0
 20
0.0
  0
POLYLINE
  8
寸法
  6
CONTINUOUS
 66
     1
  0
VERTEX
  8
寸法
 10
-63.136927
 20
109.103565
  0
VERTEX
  8
寸法
 10
-64.636927
 20
106.50549
  0
VERTEX
  8
寸法
 10
-62.03885
 20
108.00549
  0
SEQEND
  0
POLYLINE
  8
寸法
  6
CONTINUOUS
 66
     1
  0
VERTEX
  8
寸法
 10
-64.636927
 20
106.50549
  0
VERTEX
  8
寸法
 10
-56.642792
 20
114.499625
  0
VERTEX
  8
寸法
 10
-51.925815
 20
114.499625
  0
SEQEND
  0
ENDBLK
  0
BLOCK
  2
*DIM_0096
 70
    65
 10
0.0
 20
0.0
  0
LINE
  8
寸法
  6
CONTINUOUS
 10
-40.364002
 20
-7.071645
 11
51.589605
 21
-7.071645
  0
LINE
  8
寸法
  6
CONTINUOUS
 10
-31.164
 20
57.429285
 11
51.589605
 21
57.429285
  0
LINE
  8
寸法
  6
CONTINUOUS
 10
51.589605
 20
-7.071645
 11
51.589605
 21
57.429285
  0
POINT
  8
寸法
 10
51.589605
 20
-7.071645
  0
POINT
  8
寸法
 10
51.589605
 20
57.429285
  0
TEXT
  7
TextStyle03
  8
寸法
  6
CONTINUOUS
 10
51.2
 20
21.89375
  1
64.5
 40
3.0
 50
90.0
 72
     5
 11
51.2
 21
28.45625
  0
ENDBLK
  0
BLOCK
  2
*DIM_0097
 70
    65
 10
0.0
 20
0.0
  0
LINE
  8
寸法
  6
CONTINUOUS
 10
-29.468353
 20
107.429292
 11
51.589605
 21
107.429292
  0
LINE
  8
寸法
  6
CONTINUOUS
 10
51.589605
 20
57.429285
 11
51.589605
 21
107.429292
  0
POINT
  8
寸法
 10
51.589605
 20
107.429292
  0
TEXT
  7
TextStyle03
  8
寸法
  6
CONTINUOUS
 10
51.2
 20
80.83125
  1
50
 40
3.0
 50
90.0
 72
     5
 11
51.2
 21
84.01875
  0
ENDBLK
  0
BLOCK
  2
*DIM_0098
 70
    65
 10
0.0
 20
0.0
  0
LINE
  8
寸法
  6
CONTINUOUS
 10
19.630508
 20
-106.074248
 11
60.26
 21
-106.074248
  0
LINE
  8
寸法
  6
CONTINUOUS
 10
-29.468353
 20
107.429292
 11
60.26
 21
107.429292
  0
LINE
  8
寸法
  6
CONTINUOUS
 10
60.26
 20
-106.074248
 11
60.26
 21
107.429292
  0
POINT
  8
寸法
 10
60.26
 20
-106.074248
  0
POINT
  8
寸法
 10
60.26
 20
107.429292
  0
TEXT
  7
TextStyle03
  8
寸法
  6
CONTINUOUS
 10
59.875
 20
-3.45
  1
213.5
 40
3.0
 50
90.0
 72
     5
 11
59.875
 21
4.8
  0
ENDBLK
  0
ENDSEC
  0
SECTION
  2
ENTITIES
  0
POLYLINE
  8
通り芯
  6
CONTINUOUS
 66
     1
 70
     1
  0
VERTEX
  8
通り芯
 10
-210.0
 20
-148.5
  0
VERTEX
  8
通り芯
 10
210.0
 20
-148.5
  0
VERTEX
  8
通り芯
 10
210.0
 20
148.5
  0
VERTEX
  8
通り芯
 10
-210.0
 20
148.5
  0
SEQEND
  0
INSERT
  2
*GRP_0001
  8
型材断面
  6
CONTINUOUS
 10
0.0
 20
0.0
  0
INSERT
  2
*GRP_0002
  8
型材断面
  6
CONTINUOUS
 62
    47
 10
0.0
 20
0.0
  0
LINE
  8
型材断面
  6
DASHDOT
 10
-97.370327
 20
76.93284
 11
-97.370327
 21
130.496715
  0
INSERT
  2
*GRP_0003
  8
型材断面
  6
CONTINUOUS
 62
    47
 10
0.0
 20
0.0
  0
INSERT
  2
*GRP_0004
  8
型材断面
  6
CONTINUOUS
 62
    47
 10
0.0
 20
0.0
  0
LINE
  8
型材断面
  6
DOT
 10
-85.364027
 20
-67.57074
 11
-87.364027
 21
-67.57074
  0
LINE
  8
型材断面
  6
DOT
 10
-85.864027
 20
-73.57074
 11
-85.864027
 21
-67.57074
  0
LINE
  8
型材断面
  6
DOT
 10
-86.364027
 20
-73.57074
 11
-86.364027
 21
-67.57074
  0
LINE
  8
型材断面
  6
DOT
 10
-86.864027
 20
-73.57074
 11
-86.864027
 21
-67.57074
  0
LINE
  8
型材断面
  6
DOT
 10
-65.364027
 20
-67.57074
 11
-63.364027
 21
-67.57074
  0
LINE
  8
型材断面
  6
DOT
 10
-63.864027
 20
-73.57074
 11
-63.864027
 21
-67.57074
  0
LINE
  8
型材断面
  6
DOT
 10
-64.364027
 20
-73.57074
 11
-64.364027
 21
-67.57074
  0
LINE
  8
型材断面
  6
DOT
 10
-64.864027
 20
-73.57074
 11
-64.864027
 21
-67.57074
  0
LINE
  8
型材断面
  6
DOT
 10
-63.364027
 20
-73.57074
 11
-65.364027
 21
-73.57074
  0
LINE
  8
型材断面
  6
DOT
 10
-85.364027
 20
-73.57074
 11
-87.364027
 21
-73.57074
  0
LINE
  8
型材断面
  6
DOT
 10
-53.369502
 20
-86.07419
 11
-51.369502
 21
-86.07419
  0
LINE
  8
型材断面
  6
DOT
 10
-53.369502
 20
-80.07419
 11
-51.369502
 21
-80.07419
  0
LINE
  8
型材断面
  6
DOT
 10
-52.869502
 20
-80.07419
 11
-52.869502
 21
-86.07419
  0
LINE
  8
型材断面
  6
DOT
 10
-52.369502
 20
-80.07419
 11
-52.369502
 21
-86.07419
  0
LINE
  8
型材断面
  6
DOT
 10
-51.869502
 20
-80.07419
 11
-51.869502
 21
-86.07419
  0
LINE
  8
型材断面
  6
DOT
 10
-56.864077
 20
-86.07419
 11
-58.364077
 21
-86.07419
  0
LINE
  8
型材断面
  6
DOT
 10
-57.239077
 20
-86.07419
 11
-57.239077
 21
-84.57419
  0
LINE
  8
型材断面
  6
DOT
 10
-57.614077
 20
-86.07419
 11
-57.614077
 21
-84.57419
  0
LINE
  8
型材断面
  6
DOT
 10
-57.989077
 20
-86.07419
 11
-57.989077
 21
-84.57419
  0
INSERT
  2
*GRP_0075
  8
型材断面
  6
CONTINUOUS
 62
    47
 10
0.0
 20
0.0
  0
INSERT
  2
*GRP_0086
  8
型材断面
  6
CONTINUOUS
 62
    47
 10
0.0
 20
0.0
  0
INSERT
  2
*GRP_0005
  8
ガラス
  6
CONTINUOUS
 10
0.0
 20
0.0
  0
INSERT
  2
*GRP_0006
  8
ガラス
  6
CONTINUOUS
 10
0.0
 20
0.0
  0
INSERT
  2
*GRP_0007
  8
ガラス
  6
CONTINUOUS
 10
0.0
 20
0.0
  0
INSERT
  2
*GRP_0008
  8
ガラス
  6
CONTINUOUS
 10
0.0
 20
0.0
  0
INSERT
  2
*GRP_0009
  8
ガラス
  6
CONTINUOUS
 10
0.0
 20
0.0
  0
INSERT
  2
*GRP_0010
  8
ガラス
  6
CONTINUOUS
 10
0.0
 20
0.0
  0
INSERT
  2
*GRP_0011
  8
ガラス
  6
CONTINUOUS
 10
0.0
 20
0.0
  0
LINE
  8
ガラス
  6
CONTINUOUS
 10
-94.86392
 20
77.529033
 11
-94.86392
 21
95.329038
  0
LINE
  8
ガラス
  6
CONTINUOUS
 10
-100.86392
 20
90.329035
 11
-100.86392
 21
84.329035
  0
LINE
  8
ガラス
  6
CONTINUOUS
 10
-100.86392
 20
84.329035
 11
-94.86392
 21
90.329035
  0
LINE
  8
ガラス
  6
CONTINUOUS
 10
-100.86392
 20
90.329035
 11
-94.86392
 21
84.329035
  0
LINE
  8
ガラス
  6
CONTINUOUS
 10
-94.86392
 20
78.529038
 11
-128.733332
 21
78.529038
  0
LINE
  8
ガラス
  6
CONTINUOUS
 10
-94.86392
 20
77.529038
 11
-128.733332
 21
77.529038
  0
LINE
  8
ガラス
  6
CONTINUOUS
 10
-94.86392
 20
83.329038
 11
-128.733332
 21
83.329038
  0
LINE
  8
ガラス
  6
CONTINUOUS
 10
-94.86392
 20
84.329038
 11
-128.733332
 21
84.329038
  0
LINE
  8
ガラス
  6
CONTINUOUS
 10
-94.86392
 20
90.329038
 11
-128.733332
 21
90.329038
  0
LINE
  8
ガラス
  6
CONTINUOUS
 10
-94.86392
 20
91.329038
 11
-128.733332
 21
91.329038
  0
LINE
  8
ガラス
  6
CONTINUOUS
 10
-94.86392
 20
94.329038
 11
-128.733332
 21
94.329038
  0
LINE
  8
ガラス
  6
CONTINUOUS
 10
-94.86392
 20
95.329038
 11
-128.733332
 21
95.329038
  0
INSERT
  2
*GRP_0012
  8
ゴム等
  6
CONTINUOUS
 10
0.0
 20
0.0
  0
INSERT
  2
*GRP_0013
  8
ゴム等
  6
CONTINUOUS
 10
0.0
 20
0.0
  0
INSERT
  2
*GRP_0014
  8
ゴム等
  6
CONTINUOUS
 10
0.0
 20
0.0
  0
INSERT
  2
*GRP_0015
  8
ゴム等
  6
CONTINUOUS
 10
0.0
 20
0.0
  0
INSERT
  2
*GRP_0016
  8
ゴム等
  6
CONTINUOUS
 10
0.0
 20
0.0
  0
INSERT
  2
*GRP_0017
  8
ゴム等
  6
CONTINUOUS
 10
0.0
 20
0.0
  0
INSERT
  2
*GRP_0080
  8
ゴム等
  6
CONTINUOUS
 10
0.0
 20
0.0
  0
INSERT
  2
*GRP_0081
  8
ゴム等
  6
CONTINUOUS
 10
0.0
 20
0.0
  0
INSERT
  2
*GRP_0082
  8
ゴム等
  6
CONTINUOUS
 10
0.0
 20
0.0
  0
INSERT
  2
*GRP_0087
  8
ゴム等
  6
CONTINUOUS
 10
0.0
 20
0.0
  0
INSERT
  2
*GRP_0018
  8
ボルト／ビス
  6
CONTINUOUS
 62
    64
 10
0.0
 20
0.0
  0
INSERT
  2
*GRP_0019
  8
ボルト／ビス
  6
CONTINUOUS
 62
    64
 10
0.0
 20
0.0
  0
INSERT
  2
*GRP_0020
  8
ボルト／ビス
  6
CONTINUOUS
 62
    64
 10
0.0
 20
0.0
  0
INSERT
  2
*GRP_0021
  8
ボルト／ビス
  6
CONTINUOUS
 62
    64
 10
0.0
 20
0.0
  0
INSERT
  2
*GRP_0022
  8
ボルト／ビス
  6
CONTINUOUS
 62
    64
 10
0.0
 20
0.0
  0
INSERT
  2
*GRP_0023
  8
ボルト／ビス
  6
CONTINUOUS
 62
    64
 10
0.0
 20
0.0
  0
INSERT
  2
*GRP_0024
  8
ボルト／ビス
  6
CONTINUOUS
 62
    64
 10
0.0
 20
0.0
  0
INSERT
  2
*GRP_0025
  8
ボルト／ビス
  6
CONTINUOUS
 62
    64
 10
0.0
 20
0.0
  0
INSERT
  2
*GRP_0026
  8
ボルト／ビス
  6
CONTINUOUS
 62
    64
 10
0.0
 20
0.0
  0
INSERT
  2
*GRP_0027
  8
ボルト／ビス
  6
CONTINUOUS
 10
0.0
 20
0.0
  0
INSERT
  2
*GRP_0028
  8
ボルト／ビス
  6
CONTINUOUS
 10
0.0
 20
0.0
  0
INSERT
  2
*GRP_0029
  8
ボルト／ビス
  6
CONTINUOUS
 10
0.0
 20
0.0
  0
INSERT
  2
*GRP_0030
  8
ボルト／ビス
  6
CONTINUOUS
 10
0.0
 20
0.0
  0
INSERT
  2
*GRP_0083
  8
ボルト／ビス
  6
CONTINUOUS
 10
0.0
 20
0.0
  0
TEXT
  7
TextStyle03
  8
文字
  6
CONTINUOUS
 10
-150.925
 20
130.475
  1
呼称寸法
 40
3.0
 72
     5
 11
-137.8
 21
130.475
  0
TEXT
  7
TextStyle03
  8
文字
  6
CONTINUOUS
 10
-152.675
 20
123.975
  1
有効開口寸法
 40
3.0
 72
     5
 11
-132.8
 21
123.975
  0
TEXT
  7
TextStyle03
  8
文字
  6
CONTINUOUS
 10
-133.5
 20
-83.475
  1
全周シール（工場）
 40
3.0
 72
     5
 11
-103.5
 21
-83.475
  0
TEXT
  7
TextStyle03
  8
文字
  6
CONTINUOUS
 10
-118.425
 20
-91.1
  1
TKR-1401
 40
4.0
 72
     5
 11
-100.675
 21
-91.1
  0
TEXT
  7
TextStyle03
  8
文字
  6
CONTINUOUS
 10
-134.975
 20
-102.275
  1
ボンデッドワッシャ付
 40
3.0
 72
     5
 11
-101.6
 21
-102.275
  0
TEXT
  7
TextStyle03
  8
文字
  6
CONTINUOUS
 10
-88.975
 20
-121.4
  1
KA-50C　末栄金属
 40
4.0
 72
     5
 11
-53.475
 21
-121.4
  0
TEXT
  7
TextStyle03
  8
文字
  6
CONTINUOUS
 10
-26.725
 20
-72.725
  1
コーナーシール
 40
3.0
 72
     5
 11
-3.475
 21
-72.725
  0
TEXT
  7
TextStyle03
  8
文字
  6
CONTINUOUS
 10
-16.6
 20
-76.1
  1
（工場）
 40
3.0
 72
     5
 11
-3.475
 21
-76.1
  0
TEXT
  7
TextStyle03
  8
文字
  6
CONTINUOUS
 10
-2.7
 20
-81.45
  1
コーナージョイント金物
 40
3.0
 72
     5
 11
34.05
 21
-81.45
  0
TEXT
  7
TextStyle03
  8
文字
  6
CONTINUOUS
 10
22.425
 20
-84.825
  1
St-1.6t
 40
3.0
 72
     5
 11
34.05
 21
-84.825
  0
TEXT
  7
TextStyle03
  8
文字
  6
CONTINUOUS
 10
-33.1
 20
46.625
  1
TK-1135
 40
3.0
 72
     5
 11
-21.475
 21
46.625
  0
TEXT
  7
TextStyle03
  8
文字
  6
CONTINUOUS
 10
25.525
 20
-101.7
  1
TK-1137
 40
3.0
 72
     5
 11
37.15
 21
-101.7
  0
TEXT
  7
TextStyle03
  8
文字
  6
CONTINUOUS
 10
-79.55
 20
36.025
  1
TK-1136
 40
3.0
 72
     5
 11
-67.925
 21
36.025
  0
TEXT
  7
TextStyle03
  8
文字
  6
CONTINUOUS
 10
-29.45
 20
-40.775
  1
TKR-1401
 40
4.0
 72
     5
 11
-11.7
 21
-40.775
  0
TEXT
  7
TextStyle03
  8
文字
  6
CONTINUOUS
 10
-39.975
 20
-62.475
  1
TK-1138
 40
3.0
 72
     5
 11
-28.35
 21
-62.475
  0
TEXT
  7
TextStyle03
  8
文字
  6
CONTINUOUS
 10
-115.2
 20
-113.45
  1
コーナーシール（工場）
 40
3.0
 72
     5
 11
-78.45
 21
-113.45
  0
TEXT
  7
TextStyle03
  8
文字
  6
CONTINUOUS
 10
-7.8875
 20
6.575
  1
St-2.3t（電気メッキ）
 40
3.0
 72
     5
 11
27.175
 21
6.575
  0
TEXT
  7
TextStyle03
  8
文字
  6
CONTINUOUS
 10
17.2375
 20
3.2
  1
Ｌ＝60
 40
3.0
 72
     5
 11
27.175
 21
3.2
  0
TEXT
  7
TextStyle03
  8
文字
  6
CONTINUOUS
 10
-12.8375
 20
-30.225
  1
M6×10B.W.SW
 40
3.0
 72
     5
 11
7.225
 21
-30.225
  0
TEXT
  7
TextStyle03
  8
文字
  6
CONTINUOUS
 10
-16.025
 20
-33.6
  1
ユニクロメッキ
 40
3.0
 72
     5
 11
7.225
 21
-33.6
  0
TEXT
  7
TextStyle03
  8
文字
  6
CONTINUOUS
 10
-141.65
 20
2.15
  1
滑車(ZDC)
 40
3.0
 72
     5
 11
-126.65
 21
2.15
  0
TEXT
  7
TextStyle03
  8
文字
  6
CONTINUOUS
 10
-141.65
 20
-55.45
  1
滑車(ZDC)
 40
3.0
 72
     5
 11
-126.65
 21
-55.45
  0
TEXT
  7
TextStyle03
  8
文字
  6
CONTINUOUS
 10
-132.325
 20
48.2
  1
TK-1161
 40
3.0
 72
     5
 11
-120.7
 21
48.2
  0
TEXT
  7
TextStyle03
  8
文字
  6
CONTINUOUS
 10
-21.7375
 20
66.825
  1
TKR-1401
 40
3.0
 72
     5
 11
-8.425
 21
66.825
  0
TEXT
  7
TextStyle03
  8
文字
  6
CONTINUOUS
 10
-50.75
 20
112.85
  1
TK-1167
 40
3.0
 72
     5
 11
-39.125
 21
112.85
  0
TEXT
  7
TextStyle03
  8
文字
  6
CONTINUOUS
 10
68.075
 20
108.6
  1
シリーズ：ＴＦＦＨ
 40
5.0
 72
     5
 11
118.075
 21
108.6
  0
TEXT
  7
TextStyle03
  8
文字
  6
CONTINUOUS
 10
68.075
 20
102.975
  1
　　　　　（片側開閉）
 40
5.0
 72
     5
 11
129.325
 21
102.975
  0
TEXT
  7
TextStyle03
  8
文字
  6
CONTINUOUS
 10
68.075
 20
97.35
  1
図面名　：下枠断面詳細図(滑車側)
 40
5.0
 72
     5
 11
157.7625
 21
97.35
  0
INSERT
  2
*DIM_0031
  8
寸法
  6
CONTINUOUS
 10
0.0
 20
0.0
  0
INSERT
  2
*DIM_0032
  8
寸法
  6
CONTINUOUS
 10
0.0
 20
0.0
  0
INSERT
  2
*DIM_0033
  8
寸法
  6
CONTINUOUS
 10
0.0
 20
0.0
  0
INSERT
  2
*DIM_0034
  8
寸法
  6
CONTINUOUS
 10
0.0
 20
0.0
  0
INSERT
  2
*DIM_0035
  8
寸法
  6
CONTINUOUS
 10
0.0
 20
0.0
  0
INSERT
  2
*DIM_0036
  8
寸法
  6
CONTINUOUS
 10
0.0
 20
0.0
  0
INSERT
  2
*DIM_0037
  8
寸法
  6
CONTINUOUS
 10
0.0
 20
0.0
  0
INSERT
  2
*DIM_0038
  8
寸法
  6
CONTINUOUS
 10
0.0
 20
0.0
  0
LINE
  8
寸法
  6
CONTINUOUS
 10
-97.370327
 20
130.496715
 11
-178.243948
 21
130.496715
  0
POLYLINE
  8
寸法
  6
CONTINUOUS
 66
     1
  0
VERTEX
  8
寸法
 10
-178.243948
 20
130.496715
  0
VERTEX
  8
寸法
 10
-169.653815
 20
127.928953
  0
VERTEX
  8
寸法
 10
-169.653815
 20
130.496715
  0
SEQEND
  0
POLYLINE
  8
寸法
  6
CONTINUOUS
 66
     1
  0
VERTEX
  8
寸法
 10
-176.651843
 20
130.496715
  0
VERTEX
  8
寸法
 10
-168.06171
 20
127.928953
  0
VERTEX
  8
寸法
 10
-168.06171
 20
130.496715
  0
SEQEND
  0
POLYLINE
  8
寸法
  6
CONTINUOUS
 66
     1
  0
VERTEX
  8
寸法
 10
-178.243948
 20
130.496715
  0
VERTEX
  8
寸法
 10
-169.653815
 20
133.064478
  0
VERTEX
  8
寸法
 10
-169.653815
 20
130.496715
  0
SEQEND
  0
POLYLINE
  8
寸法
  6
CONTINUOUS
 66
     1
  0
VERTEX
  8
寸法
 10
-176.651843
 20
130.496715
  0
VERTEX
  8
寸法
 10
-168.06171
 20
133.064478
  0
VERTEX
  8
寸法
 10
-168.06171
 20
130.496715
  0
SEQEND
  0
POLYLINE
  8
寸法
  6
CONTINUOUS
 66
     1
  0
VERTEX
  8
寸法
 10
-97.370327
 20
130.496715
  0
VERTEX
  8
寸法
 10
-105.96046
 20
127.928953
  0
VERTEX
  8
寸法
 10
-105.96046
 20
130.496715
  0
SEQEND
  0
POLYLINE
  8
寸法
  6
CONTINUOUS
 66
     1
  0
VERTEX
  8
寸法
 10
-97.370327
 20
130.496715
  0
VERTEX
  8
寸法
 10
-105.96046
 20
133.064478
  0
VERTEX
  8
寸法
 10
-105.96046
 20
130.496715
  0
SEQEND
  0
INSERT
  2
*DIM_0039
  8
寸法
  6
CONTINUOUS
 10
0.0
 20
0.0
  0
INSERT
  2
*DIM_0040
  8
寸法
  6
CONTINUOUS
 10
0.0
 20
0.0
  0
LINE
  8
寸法
  6
CONTINUOUS
 10
-178.243948
 20
123.989478
 11
-112.364027
 21
123.989478
  0
POLYLINE
  8
寸法
  6
CONTINUOUS
 66
     1
  0
VERTEX
  8
寸法
 10
-178.243948
 20
123.989478
  0
VERTEX
  8
寸法
 10
-169.653815
 20
126.55724
  0
VERTEX
  8
寸法
 10
-169.653815
 20
123.989478
  0
SEQEND
  0
POLYLINE
  8
寸法
  6
CONTINUOUS
 66
     1
  0
VERTEX
  8
寸法
 10
-176.651843
 20
123.989478
  0
VERTEX
  8
寸法
 10
-168.06171
 20
126.55724
  0
VERTEX
  8
寸法
 10
-168.06171
 20
123.989478
  0
SEQEND
  0
INSERT
  2
*DIM_0041
  8
寸法
  6
CONTINUOUS
 10
0.0
 20
0.0
  0
INSERT
  2
*DIM_0042
  8
寸法
  6
CONTINUOUS
 10
0.0
 20
0.0
  0
INSERT
  2
*DIM_0043
  8
寸法
  6
CONTINUOUS
 10
0.0
 20
0.0
  0
INSERT
  2
*DIM_0044
  8
寸法
  6
CONTINUOUS
 10
0.0
 20
0.0
  0
INSERT
  2
*DIM_0045
  8
寸法
  6
CONTINUOUS
 10
0.0
 20
0.0
  0
INSERT
  2
*GRP_0046
  8
寸法
  6
CONTINUOUS
 10
0.0
 20
0.0
  0
INSERT
  2
*GRP_0047
  8
寸法
  6
CONTINUOUS
 10
0.0
 20
0.0
  0
INSERT
  2
*GRP_0048
  8
寸法
  6
CONTINUOUS
 10
0.0
 20
0.0
  0
INSERT
  2
*GRP_0049
  8
寸法
  6
CONTINUOUS
 10
0.0
 20
0.0
  0
INSERT
  2
*GRP_0050
  8
寸法
  6
CONTINUOUS
 10
0.0
 20
0.0
  0
INSERT
  2
*GRP_0051
  8
寸法
  6
CONTINUOUS
 10
0.0
 20
0.0
  0
INSERT
  2
*GRP_0052
  8
寸法
  6
CONTINUOUS
 10
0.0
 20
0.0
  0
INSERT
  2
*GRP_0053
  8
寸法
  6
CONTINUOUS
 10
0.0
 20
0.0
  0
INSERT
  2
*GRP_0054
  8
寸法
  6
CONTINUOUS
 10
0.0
 20
0.0
  0
INSERT
  2
*GRP_0055
  8
寸法
  6
CONTINUOUS
 10
0.0
 20
0.0
  0
INSERT
  2
*GRP_0056
  8
寸法
  6
CONTINUOUS
 10
0.0
 20
0.0
  0
INSERT
  2
*GRP_0057
  8
寸法
  6
CONTINUOUS
 10
0.0
 20
0.0
  0
INSERT
  2
*GRP_0058
  8
寸法
  6
CONTINUOUS
 10
0.0
 20
0.0
  0
INSERT
  2
*DIM_0059
  8
寸法
  6
CONTINUOUS
 10
0.0
 20
0.0
  0
INSERT
  2
*DIM_0060
  8
寸法
  6
CONTINUOUS
 10
0.0
 20
0.0
  0
INSERT
  2
*GRP_0061
  8
寸法
  6
CONTINUOUS
 10
0.0
 20
0.0
  0
INSERT
  2
*GRP_0062
  8
寸法
  6
CONTINUOUS
 10
0.0
 20
0.0
  0
INSERT
  2
*DIM_0063
  8
寸法
  6
CONTINUOUS
 10
0.0
 20
0.0
  0
INSERT
  2
*DIM_0064
  8
寸法
  6
CONTINUOUS
 10
0.0
 20
0.0
  0
INSERT
  2
*DIM_0065
  8
寸法
  6
CONTINUOUS
 10
0.0
 20
0.0
  0
INSERT
  2
*DIM_0066
  8
寸法
  6
CONTINUOUS
 10
0.0
 20
0.0
  0
INSERT
  2
*GRP_0073
  8
寸法
  6
CONTINUOUS
 10
0.0
 20
0.0
  0
INSERT
  2
*GRP_0074
  8
寸法
  6
CONTINUOUS
 10
0.0
 20
0.0
  0
INSERT
  2
*GRP_0076
  8
寸法
  6
CONTINUOUS
 10
0.0
 20
0.0
  0
INSERT
  2
*GRP_0077
  8
寸法
  6
CONTINUOUS
 10
0.0
 20
0.0
  0
INSERT
  2
*DIM_0078
  8
寸法
  6
CONTINUOUS
 10
0.0
 20
0.0
  0
INSERT
  2
*DIM_0079
  8
寸法
  6
CONTINUOUS
 10
0.0
 20
0.0
  0
INSERT
  2
*DIM_0088
  8
寸法
  6
CONTINUOUS
 10
0.0
 20
0.0
  0
INSERT
  2
*DIM_0089
  8
寸法
  6
CONTINUOUS
 10
0.0
 20
0.0
  0
INSERT
  2
*DIM_0090
  8
寸法
  6
CONTINUOUS
 10
0.0
 20
0.0
  0
INSERT
  2
*DIM_0091
  8
寸法
  6
CONTINUOUS
 10
0.0
 20
0.0
  0
INSERT
  2
*DIM_0092
  8
寸法
  6
CONTINUOUS
 10
0.0
 20
0.0
  0
INSERT
  2
*DIM_0093
  8
寸法
  6
CONTINUOUS
 10
0.0
 20
0.0
  0
INSERT
  2
*DIM_0094
  8
寸法
  6
CONTINUOUS
 10
0.0
 20
0.0
  0
INSERT
  2
*GRP_0095
  8
寸法
  6
CONTINUOUS
 10
0.0
 20
0.0
  0
INSERT
  2
*DIM_0096
  8
寸法
  6
CONTINUOUS
 10
0.0
 20
0.0
  0
INSERT
  2
*DIM_0097
  8
寸法
  6
CONTINUOUS
 10
0.0
 20
0.0
  0
INSERT
  2
*DIM_0098
  8
寸法
  6
CONTINUOUS
 10
0.0
 20
0.0
  0
INSERT
  2
*HAT_0007
  8
ﾊｯﾁﾝｸﾞ
 10
0.0
 20
0.0
  0
INSERT
  2
*GRP_0067
  8
別途部材
  6
CONTINUOUS
 10
0.0
 20
0.0
  0
INSERT
  2
*GRP_0068
  8
別途部材
  6
CONTINUOUS
 10
0.0
 20
0.0
  0
INSERT
  2
*GRP_0069
  8
別途部材
  6
CONTINUOUS
 10
0.0
 20
0.0
  0
INSERT
  2
*GRP_0070
  8
別途部材
  6
CONTINUOUS
 10
0.0
 20
0.0
  0
INSERT
  2
*GRP_0084
  8
曲げ物
  6
CONTINUOUS
 10
0.0
 20
0.0
  0
LINE
  8
St
  6
CONTINUOUS
 10
-47.364012
 20
62.42933
 11
-50.364012
 21
62.42933
  0
LINE
  8
St
  6
CONTINUOUS
 10
-50.364012
 20
-12.570735
 11
-50.364012
 21
62.42933
  0
LINE
  8
St
  6
CONTINUOUS
 10
-65.864027
 20
-22.57074
 11
-65.864027
 21
-24.87074
  0
LINE
  8
St
  6
CONTINUOUS
 10
-65.864027
 20
-71.273685
 11
-65.864027
 21
-73.573685
  0
ARC
  8
St
  6
CONTINUOUS
 10
-83.064028
 20
-24.870737
 40
2.3
 50
90.0
 51
180.0
  0
LINE
  8
St
  6
CONTINUOUS
 10
-83.064027
 20
-34.20406
 11
-85.364012
 21
-36.504045
  0
LINE
  8
St
  6
CONTINUOUS
 10
-83.064027
 20
-33.49696
 11
-85.364012
 21
-35.79694
  0
ARC
  8
St
  6
CONTINUOUS
 10
-83.064028
 20
-71.273682
 40
2.3
 50
180.0
 51
270.0
  0
LINE
  8
St
  6
CONTINUOUS
 10
-83.064027
 20
-62.02817
 11
-85.364012
 21
-64.328155
  0
LINE
  8
St
  6
CONTINUOUS
 10
-83.064027
 20
-61.32107
 11
-85.364012
 21
-63.62105
  0
LINE
  8
St
  6
CONTINUOUS
 10
-83.064027
 20
-24.87074
 11
-83.064027
 21
-71.273685
  0
LINE
  8
St
  6
CONTINUOUS
 10
-85.364027
 20
-24.87074
 11
-85.364027
 21
-71.273685
  0
LINE
  8
St
  6
CONTINUOUS
 10
-65.864027
 20
-24.87074
 11
-83.064027
 21
-24.87074
  0
LINE
  8
St
  6
CONTINUOUS
 10
-65.864027
 20
-22.57074
 11
-83.064027
 21
-22.57074
  0
LINE
  8
St
  6
CONTINUOUS
 10
-65.864027
 20
-71.273685
 11
-83.064027
 21
-71.273685
  0
LINE
  8
St
  6
CONTINUOUS
 10
-65.864027
 20
-73.573685
 11
-83.064027
 21
-73.573685
  0
LINE
  8
St
  6
CONTINUOUS
 10
-72.525173
 20
-22.57074
 11
-74.825175
 21
-24.87074
  0
LINE
  8
St
  6
CONTINUOUS
 10
-73.232277
 20
-22.57074
 11
-75.53228
 21
-24.87074
  0
LINE
  8
St
  6
CONTINUOUS
 10
-79.135272
 20
-73.57074
 11
-76.838215
 21
-71.273685
  0
LINE
  8
St
  6
CONTINUOUS
 10
-78.428168
 20
-73.57074
 11
-76.13111
 21
-71.273685
  0
LINE
  8
St
  6
CONTINUOUS
 10
-67.164012
 20
51.829272
 11
-67.164012
 21
67.627238
  0
LINE
  8
St
  6
CONTINUOUS
 10
-82.164012
 20
-3.070735
 11
-85.364012
 21
-3.070735
  0
LINE
  8
St
  6
CONTINUOUS
 10
-85.364012
 20
42.929265
 11
-82.164012
 21
42.929265
  0
LINE
  8
St
  6
CONTINUOUS
 10
-82.164012
 20
-3.070735
 11
-82.164012
 21
42.929265
  0
LINE
  8
St
  6
CONTINUOUS
 10
-85.364012
 20
-3.070735
 11
-85.364012
 21
42.929265
  0
LINE
  8
St
  6
CONTINUOUS
 10
-82.164012
 20
29.8287
 11
-85.364012
 21
33.028702
  0
LINE
  8
St
  6
CONTINUOUS
 10
-82.164012
 20
29.121595
 11
-85.364012
 21
32.321597
  0
LINE
  8
St
  6
CONTINUOUS
 10
-82.164012
 20
7.173682
 11
-85.364012
 21
10.373685
  0
LINE
  8
St
  6
CONTINUOUS
 10
-82.164012
 20
6.466577
 11
-85.364012
 21
9.66658
  0
LINE
  8
St
  6
CONTINUOUS
 10
-56.369528
 20
-86.07419
 11
-56.369528
 21
-38.070465
  0
LINE
  8
St
  6
CONTINUOUS
 10
-53.369502
 20
-38.070465
 11
-56.369528
 21
-38.070465
  0
LINE
  8
St
  6
CONTINUOUS
 10
8.030497
 20
-102.474245
 11
-49.962082
 21
-102.474245
  0
ARC
  8
St
  6
CONTINUOUS
 10
-49.970509
 20
-102.474242
 40
1.6
 50
180.0
 51
270.0
  0
LINE
  8
St
  6
CONTINUOUS
 10
9.630497
 20
-104.074245
 11
-71.369502
 21
-104.074245
  0
LINE
  8
St
  6
DOT
 10
-49.962082
 20
-102.474245
 11
-71.369502
 21
-102.474245
  0
LINE
  8
St
  6
CONTINUOUS
 10
-18.93691
 20
-104.074245
 11
-20.536915
 21
-102.474245
  0
LINE
  8
St
  6
CONTINUOUS
 10
-19.644015
 20
-104.074245
 11
-21.24402
 21
-102.474245
  0
LINE
  8
St
  6
CONTINUOUS
 10
-45.958187
 20
-104.074245
 11
-47.558193
 21
-102.474245
  0
LINE
  8
St
  6
CONTINUOUS
 10
-46.665293
 20
-104.074245
 11
-48.265297
 21
-102.474245
  0
LINE
  8
St
  6
CONTINUOUS
 10
8.030497
 20
-104.074245
 11
8.030497
 21
-97.057605
  0
LINE
  8
St
  6
CONTINUOUS
 10
9.630497
 20
-104.074245
 11
9.630497
 21
-97.057607
  0
ARC
  8
St
  6
CONTINUOUS
 10
8.030498
 20
-97.057607
 40
1.6
 50
0.0
 51
85.667276
  0
LINE
  8
St
  6
CONTINUOUS
 10
8.151375
 20
-95.46218
 11
-71.369502
 21
-89.437298
  0
LINE
  8
St
  6
CONTINUOUS
 10
8.030497
 20
-97.057605
 11
-71.369502
 21
-91.041885
  0
LINE
  8
St
  6
CONTINUOUS
 10
-69.457618
 20
-89.58215
 11
-69.457618
 21
-91.186737
  0
LINE
  8
St
  6
CONTINUOUS
 10
-49.962082
 20
-102.474245
 11
-49.962082
 21
-92.663813
  0
LINE
  8
St
  6
CONTINUOUS
 10
-51.570513
 20
-104.074245
 11
-51.570513
 21
-92.54195
  0
LINE
  8
St
  6
CONTINUOUS
 10
-49.097307
 20
-91.124745
 11
-47.36118
 21
-92.86087
  0
LINE
  8
St
  6
CONTINUOUS
 10
-48.332237
 20
-91.18271
 11
-46.596108
 21
-92.918835
  0
LINE
  8
St
  6
CONTINUOUS
 10
-21.612695
 20
-93.207113
 11
-19.876565
 21
-94.943232
  0
LINE
  8
St
  6
CONTINUOUS
 10
-20.84762
 20
-93.265078
 11
-19.111492
 21
-95.0012
  0
INSERT
  2
*GRP_0071
  8
St
  6
CONTINUOUS
 62
    47
 10
0.0
 20
0.0
  0
INSERT
  2
*GRP_0072
  8
St
  6
CONTINUOUS
 62
    47
 10
0.0
 20
0.0
  0
LINE
  8
St
  6
CONTINUOUS
 10
-7.369492
 20
-22.070467
 11
-7.369492
 21
-8.059527
  0
LINE
  8
St
  6
CONTINUOUS
 10
-25.042135
 20
-4.831115
 11
-25.16239
 21
-7.12797
  0
LINE
  8
St
  6
CONTINUOUS
 10
-7.369492
 20
-8.059527
 11
-25.16239
 21
-7.12797
  0
LINE
  8
St
  6
CONTINUOUS
 10
-7.369492
 20
-22.070467
 11
-51.369485
 21
-22.070467
  0
LINE
  8
St
  6
CONTINUOUS
 10
-7.24924
 20
-5.762673
 11
-25.042135
 21
-4.831115
  0
ARC
  8
St
  6
CONTINUOUS
 10
-7.369492
 20
-8.059527
 40
2.3
 50
0.0
 51
87.002981
  0
LINE
  8
St
  6
CONTINUOUS
 10
-5.069492
 20
-8.059527
 11
-5.069492
 21
-22.070467
  0
LINE
  8
St
  6
CONTINUOUS
 10
-51.369485
 20
-24.370467
 11
-7.369492
 21
-24.370467
  0
ARC
  8
St
  6
CONTINUOUS
 10
-7.369492
 20
-22.070467
 40
2.3
 50
270.0
 51
360.0
  0
INSERT
  2
*GRP_0085
  8
St
  6
CONTINUOUS
 10
0.0
 20
0.0
  0
LINE
  8
その他部品等
  6
CONTINUOUS
 10
-90.269507
 20
-80.570745
 11
-90.269507
 21
-75.570745
  0
INSERT
  2
*HAT_0008
  8
その他部品等
 10
0.0
 20
0.0
  0
INSERT
  2
*HAT_0009
  8
その他部品等
 10
0.0
 20
0.0
  0
INSERT
  2
*HAT_0010
  8
その他部品等
 10
0.0
 20
0.0
  0
LINE
  8
その他部品等
  6
CONTINUOUS
 10
-85.969563
 20
-92.57419
 11
-73.369502
 21
-98.399867
  0
INSERT
  2
*HAT_0011
  8
その他部品等
 10
0.0
 20
0.0
  0
LINE
  8
その他部品等
  6
CONTINUOUS
 10
-101.015075
 20
104.229285
 11
-101.015075
 21
95.329038
  0
LINE
  8
その他部品等
  6
CONTINUOUS
 10
-106.468355
 20
104.229285
 11
-106.468355
 21
95.329038
  0
LINE
  8
その他部品等
  6
CONTINUOUS
 10
-96.468357
 20
105.429285
 11
-96.468357
 21
95.329038
  0
LINE
  8
その他部品等
  6
CONTINUOUS
 10
-96.468357
 20
105.429285
 11
-101.015075
 21
95.329038
  0
ENDSEC
  0
EOF
