  0
SECTION
  2
HEADER
  9
$EXTMIN
 10
-210.0
 20
-148.5
  9
$EXTMAX
 10
210.0
 20
148.5
  9
$PDMODE
 70
    32
  9
$PDSIZE
 40
1.5
  9
$LTSCALE
 40
10.0
  0
ENDSEC
  0
SECTION
  2
TABLES
  0
TABLE
  2
LTYPE
 70
    15
  0
LTYPE
  2
CONTINUOUS
 70
    64
  3
実線
 72
    65
 73
     0
 40
0.0
  0
LTYPE
  2
DASHED
 70
    64
  3
破線A
 72
    65
 73
     2
 40
0.6
 49
0.4
 49
-0.2
  0
LTYPE
  2
DASHEDX2
 70
    64
  3
破線B
 72
    65
 73
     2
 40
1.3
 49
0.9
 49
-0.4
  0
LTYPE
  2
DASHDOT
 70
    64
  3
１点鎖線A
 72
    65
 73
     4
 40
0.5375
 49
0.375
 49
-0.05
 49
0.0625
 49
-0.05
  0
LTYPE
  2
DASHDOTX2
 70
    64
  3
１点鎖線B
 72
    65
 73
     4
 40
1.075
 49
0.75
 49
-0.1
 49
0.125
 49
-0.1
  0
LTYPE
  2
DIVIDE2
 70
    64
  3
２点鎖線A
 72
    65
 73
     6
 40
0.5125
 49
0.3
 49
-0.0375
 49
0.05
 49
-0.0375
 49
0.05
 49
-0.0375
  0
LTYPE
  2
DIVIDE
 70
    64
  3
２点鎖線B
 72
    65
 73
     6
 40
1.05
 49
0.55
 49
-0.1
 49
0.1
 49
-0.1
 49
0.1
 49
-0.1
  0
LTYPE
  2
DOT
 70
    64
  3
点線A
 72
    65
 73
     2
 40
0.1125
 49
0.0625
 49
-0.05
  0
LTYPE
  2
DOTX2
 70
    64
  3
点線B
 72
    65
 73
     2
 40
0.275
 49
0.15
 49
-0.125
  0
LTYPE
  2
CONTINUOUS
 70
    64
  3
実線
 72
    65
 73
     0
 40
0.0
  0
LTYPE
  2
CONTINUOUS
 70
    64
  3
実線
 72
    65
 73
     0
 40
0.0
  0
LTYPE
  2
CONTINUOUS
 70
    64
  3
実線
 72
    65
 73
     0
 40
0.0
  0
LTYPE
  2
CONTINUOUS
 70
    64
  3
実線
 72
    65
 73
     0
 40
0.0
  0
LTYPE
  2
CONTINUOUS
 70
    64
  3
実線
 72
    65
 73
     0
 40
0.0
  0
LTYPE
  2
CONTINUOUS
 70
    64
  3
実線
 72
    65
 73
     0
 40
0.0
  0
ENDTAB
  0
TABLE
  2
LAYER
 70
    34
  0
LAYER
  2
通り芯
 70
     0
 62
    15
  6
CONTINUOUS
  0
LAYER
  2
補助線
 70
     0
 62
    16
  6
DOT
  0
LAYER
  2
躯体
 70
     0
 62
    31
  6
CONTINUOUS
  0
LAYER
  2
型材
 70
     0
 62
    32
  6
CONTINUOUS
  0
LAYER
  2
型材断面
 70
     0
 62
    47
  6
CONTINUOUS
  0
LAYER
  2
ガラス
 70
     0
 62
    48
  6
CONTINUOUS
  0
LAYER
  2
ゴム等
 70
     0
 62
    63
  6
CONTINUOUS
  0
LAYER
  2
ボルト／ビス
 70
     0
 62
    64
  6
CONTINUOUS
  0
LAYER
  2
文字
 70
     0
 62
    79
  6
CONTINUOUS
  0
LAYER
  2
寸法
 70
     0
 62
    80
  6
CONTINUOUS
  0
LAYER
  2
ﾊｯﾁﾝｸﾞ
 70
     0
 62
    95
  6
CONTINUOUS
  0
LAYER
  2
別途部材
 70
     0
 62
    96
  6
CONTINUOUS
  0
LAYER
  2
曲げ物
 70
     0
 62
   111
  6
CONTINUOUS
  0
LAYER
  2
鉄骨等
 70
     0
 62
   112
  6
CONTINUOUS
  0
LAYER
  2
St
 70
     0
 62
   127
  6
CONTINUOUS
  0
LAYER
  2
その他部品等
 70
     0
 62
   128
  6
CONTINUOUS
  0
LAYER
  2
ｶﾞｽｹｯﾄ
 70
     0
 62
   143
  6
CONTINUOUS
  0
LAYER
  2
ｽｹｯﾁ
 70
     0
 62
    14
  6
CONTINUOUS
  0
LAYER
  2
0
 70
     0
 62
    17
  6
CONTINUOUS
  0
LAYER
  2
1
 70
     0
 62
    30
  6
CONTINUOUS
  0
LAYER
  2
4
 70
     0
 62
    33
  6
CONTINUOUS
  0
LAYER
  2
ﾚｲﾔ3
 70
     0
 62
    46
  6
CONTINUOUS
  0
LAYER
  2
外形線
 70
     0
 62
    49
  6
CONTINUOUS
  0
LAYER
  2
部品
 70
     0
 62
    14
  6
CONTINUOUS
  0
LAYER
  2
サッシ芯
 70
     0
 62
    17
  6
DASHDOTX2
  0
LAYER
  2
寸法線
 70
     0
 62
    62
  6
CONTINUOUS
  0
LAYER
  2
姿図外形線
 70
     0
 62
    65
  6
CONTINUOUS
  0
LAYER
  2
姿補助線
 70
     0
 62
    30
  6
CONTINUOUS
  0
LAYER
  2
透視線
 70
     0
 62
    78
  6
DOT
  0
LAYER
  2
用紙
 70
     0
 62
    81
  6
CONTINUOUS
  0
LAYER
  2
実線図枠
 70
     0
 62
    94
  6
CONTINUOUS
  0
LAYER
  2
補助図枠
 70
     0
 62
    97
  6
CONTINUOUS
  0
LAYER
  2
建具記号
 70
     0
 62
   110
  6
CONTINUOUS
  0
LAYER
  2
補助文字
 70
     0
 62
   113
  6
CONTINUOUS
  0
ENDTAB
  0
TABLE
  2
STYLE
 70
    10
  0
STYLE
  2
STANDARD
 70
     0
 40
1.0
 41
1.0
 42
1.0
 50
0.0
 71
     0
  3
TXT
  4
BIGFONT
  0
STYLE
  2
TATE
 70
     4
 40
1.0
 41
1.0
 42
1.0
 50
0.0
 71
     0
  3
TXT
  4
BIGFONT
  0
STYLE
  2
TextStyle03
 70
     0
 40
1.0
 41
1.0
 42
1.0
 50
0.0
 71
     0
  3
MONOTXT
  4
BIGFONT
  0
STYLE
  2
TextStyle04
 70
     0
 40
1.0
 41
1.0
 42
1.0
 50
0.0
 71
     0
  3
MONOTXT
  4
BIGFONT
  0
STYLE
  2
TextStyle05
 70
     0
 40
1.0
 41
1.0
 42
1.0
 50
0.0
 71
     0
  3
MONOTXT
  4
BIGFONT
  0
STYLE
  2
TextStyle06
 70
     0
 40
1.0
 41
1.0
 42
1.0
 50
0.0
 71
     0
  3
MONOTXT
  4
BIGFONT
  0
STYLE
  2
TextStyle07
 70
     0
 40
1.0
 41
1.0
 42
1.0
 50
0.0
 71
     0
  3
MONOTXT
  4
BIGFONT
  0
STYLE
  2
TextStyle08
 70
     0
 40
1.0
 41
1.0
 42
1.0
 50
0.0
 71
     0
  3
MONOTXT
  4
BIGFONT
  0
STYLE
  2
TextStyle09
 70
     0
 40
1.0
 41
1.0
 42
1.0
 50
0.0
 71
     0
  3
MONOTXT
  4
BIGFONT
  0
STYLE
  2
TextStyle10
 70
     0
 40
1.0
 41
1.0
 42
1.0
 50
0.0
 71
     0
  3
MONOTXT
  4
BIGFONT
  0
ENDTAB
  0
ENDSEC
  0
SECTION
  2
BLOCKS
  0
BLOCK
  2
*GRP_0001
 70
    65
 10
0.0
 20
0.0
  0
LINE
  8
型材断面
  6
CONTINUOUS
 10
195.0
 20
133.5
 11
195.0
 21
-133.5
  0
LINE
  8
型材断面
  6
CONTINUOUS
 10
195.0
 20
-133.5
 11
-185.0
 21
-133.5
  0
LINE
  8
型材断面
  6
CONTINUOUS
 10
-185.0
 20
-133.5
 11
-185.0
 21
133.5
  0
LINE
  8
型材断面
  6
CONTINUOUS
 10
195.0
 20
133.5
 11
-185.0
 21
133.5
  0
LINE
  8
型材断面
  6
CONTINUOUS
 10
145.0
 20
-133.5
 11
145.0
 21
-118.5
  0
LINE
  8
型材断面
  6
CONTINUOUS
 10
195.0
 20
-118.5
 11
145.0
 21
-118.5
  0
ENDBLK
  0
BLOCK
  2
*DIM_0002
 70
    65
 10
0.0
 20
0.0
  0
LINE
  8
寸法
  6
BYBLOCK
 62
     0
 10
-76.650292
 20
-13.511205
 11
-76.650292
 21
-13.121378
  0
LINE
  8
寸法
  6
BYBLOCK
 62
     0
 10
40.016375
 20
-13.121378
 11
-76.650292
 21
-13.121378
  0
POINT
  8
寸法
 62
     0
 10
40.016375
 20
-13.121378
  0
POINT
  8
寸法
 62
     0
 10
-76.650292
 20
-13.121378
  0
TEXT
  7
TextStyle03
  8
寸法
  6
CONTINUOUS
 62
     0
 10
-30.01875
 20
-12.75
  1
呼称寸法　3500
 40
3.0
 72
     5
 11
-6.58125
 21
-12.75
  0
ENDBLK
  0
BLOCK
  2
*DIM_0003
 70
    65
 10
0.0
 20
0.0
  0
LINE
  8
寸法
  6
BYBLOCK
 62
     0
 10
-59.983625
 20
19.183902
 11
-59.983625
 21
14.000657
  0
LINE
  8
寸法
  6
BYBLOCK
 62
     0
 10
23.34971
 20
19.183902
 11
23.34971
 21
14.000657
  0
LINE
  8
寸法
  6
BYBLOCK
 62
     0
 10
-59.983625
 20
14.000657
 11
23.34971
 21
14.000657
  0
POINT
  8
寸法
 62
     0
 10
-59.983625
 20
14.000657
  0
POINT
  8
寸法
 62
     0
 10
23.34971
 20
14.000657
  0
TEXT
  7
TextStyle03
  8
寸法
  6
CONTINUOUS
 62
     0
 10
-21.60625
 20
14.375
  1
2500
 40
3.0
 72
     5
 11
-15.04375
 21
14.375
  0
ENDBLK
  0
BLOCK
  2
*DIM_0004
 70
    65
 10
0.0
 20
0.0
  0
LINE
  8
寸法
  6
BYBLOCK
 62
     0
 10
38.016375
 20
17.20722
 11
38.016375
 21
14.182178
  0
LINE
  8
寸法
  6
BYBLOCK
 62
     0
 10
40.016375
 20
14.182178
 11
38.016375
 21
14.182178
  0
POINT
  8
寸法
 62
     0
 10
40.016375
 20
14.182178
  0
POINT
  8
寸法
 62
     0
 10
38.016375
 20
14.182178
  0
TEXT
  7
TextStyle03
  8
寸法
  6
CONTINUOUS
 62
     0
 10
36.13125
 20
10.4
  1
60
 40
3.0
 72
     5
 11
39.31875
 21
10.4
  0
ENDBLK
  0
BLOCK
  2
*DIM_0005
 70
    65
 10
0.0
 20
0.0
  0
LINE
  8
寸法
  6
BYBLOCK
 62
     0
 10
-74.65029
 20
17.20722
 11
-74.65029
 21
14.182178
  0
LINE
  8
寸法
  6
BYBLOCK
 62
     0
 10
-76.65029
 20
14.182178
 11
-74.65029
 21
14.182178
  0
POINT
  8
寸法
 62
     0
 10
-76.65029
 20
14.182178
  0
POINT
  8
寸法
 62
     0
 10
-74.65029
 20
14.182178
  0
TEXT
  7
TextStyle03
  8
寸法
  6
CONTINUOUS
 62
     0
 10
-75.94375
 20
10.4
  1
60
 40
3.0
 72
     5
 11
-72.75625
 21
10.4
  0
ENDBLK
  0
BLOCK
  2
*DIM_0006
 70
    65
 10
0.0
 20
0.0
  0
LINE
  8
寸法
  6
BYBLOCK
 62
     0
 10
75.49296
 20
22.814033
 11
75.49296
 21
52.814033
  0
POINT
  8
寸法
 62
     0
 10
75.49296
 20
22.814033
  0
POINT
  8
寸法
 62
     0
 10
75.49296
 20
52.814033
  0
TEXT
  7
TextStyle03
  8
寸法
  6
CONTINUOUS
 62
     0
 10
75.15
 20
26.9
  1
呼称寸法　900
 40
3.0
 50
90.0
 72
     5
 11
75.15
 21
48.65
  0
ENDBLK
  0
BLOCK
  2
*DIM_0007
 70
    65
 10
0.0
 20
0.0
  0
LINE
  8
寸法
  6
BYBLOCK
 62
     0
 10
131.902215
 20
56.147508
 11
75.49296
 21
56.147508
  0
LINE
  8
寸法
  6
BYBLOCK
 62
     0
 10
75.49296
 20
52.814033
 11
75.49296
 21
56.147508
  0
POINT
  8
寸法
 62
     0
 10
75.49296
 20
52.814033
  0
POINT
  8
寸法
 62
     0
 10
75.49296
 20
56.147508
  0
TEXT
  7
TextStyle03
  8
寸法
  6
CONTINUOUS
 62
     0
 10
78.45
 20
57.2375
  1
100
 40
3.0
 50
90.0
 72
     5
 11
78.45
 21
62.1125
  0
ENDBLK
  0
BLOCK
  2
*DIM_0008
 70
    65
 10
0.0
 20
0.0
  0
LINE
  8
寸法
  6
BYBLOCK
 62
     0
 10
131.902215
 20
19.480558
 11
75.49296
 21
19.480558
  0
LINE
  8
寸法
  6
BYBLOCK
 62
     0
 10
75.49296
 20
22.814033
 11
75.49296
 21
19.480558
  0
POINT
  8
寸法
 62
     0
 10
75.49296
 20
22.814033
  0
POINT
  8
寸法
 62
     0
 10
75.49296
 20
19.480558
  0
TEXT
  7
TextStyle03
  8
寸法
  6
CONTINUOUS
 62
     0
 10
78.45
 20
13.5125
  1
100
 40
3.0
 50
90.0
 72
     5
 11
78.45
 21
18.3875
  0
ENDBLK
  0
BLOCK
  2
*DIM_0009
 70
    65
 10
0.0
 20
0.0
  0
LINE
  8
寸法
  6
BYBLOCK
 62
     0
 10
43.34985
 20
-72.60973
 11
43.34985
 21
-13.121378
  0
LINE
  8
寸法
  6
BYBLOCK
 62
     0
 10
40.016375
 20
-13.121378
 11
43.34985
 21
-13.121378
  0
POINT
  8
寸法
 62
     0
 10
40.016375
 20
-13.121378
  0
POINT
  8
寸法
 62
     0
 10
43.34985
 20
-13.121378
  0
TEXT
  7
TextStyle03
  8
寸法
  6
CONTINUOUS
 62
     0
 10
44.4125
 20
-16.025
  1
100
 40
3.0
 72
     5
 11
49.2875
 21
-16.025
  0
ENDBLK
  0
BLOCK
  2
*DIM_0010
 70
    65
 10
0.0
 20
0.0
  0
LINE
  8
寸法
  6
BYBLOCK
 62
     0
 10
-79.983765
 20
-72.60973
 11
-79.983765
 21
-13.121378
  0
LINE
  8
寸法
  6
BYBLOCK
 62
     0
 10
-76.65029
 20
-13.121378
 11
-79.983765
 21
-13.121378
  0
POINT
  8
寸法
 62
     0
 10
-76.65029
 20
-13.121378
  0
POINT
  8
寸法
 62
     0
 10
-79.983765
 20
-13.121378
  0
TEXT
  7
TextStyle03
  8
寸法
  6
CONTINUOUS
 62
     0
 10
-85.9375
 20
-16.025
  1
100
 40
3.0
 72
     5
 11
-81.0625
 21
-16.025
  0
ENDBLK
  0
BLOCK
  2
*DIM_0011
 70
    65
 10
0.0
 20
0.0
  0
LINE
  8
寸法
  6
BYBLOCK
 62
     0
 10
119.683258
 20
-51.487547
 11
119.683258
 21
-46.085965
  0
LINE
  8
寸法
  6
BYBLOCK
 62
     0
 10
157.91659
 20
-51.487547
 11
157.91659
 21
-46.085965
  0
LINE
  8
寸法
  6
BYBLOCK
 62
     0
 10
119.683258
 20
-46.085965
 11
157.91659
 21
-46.085965
  0
POINT
  8
寸法
 62
     0
 10
119.683258
 20
-46.085965
  0
POINT
  8
寸法
 62
     0
 10
157.91659
 20
-46.085965
  0
TEXT
  7
TextStyle03
  8
寸法
  6
CONTINUOUS
 62
     0
 10
135.49375
 20
-45.725
  1
1147
 40
3.0
 72
     5
 11
142.05625
 21
-45.725
  0
ENDBLK
  0
BLOCK
  2
*DIM_0012
 70
    65
 10
0.0
 20
0.0
  0
LINE
  8
寸法
  6
BYBLOCK
 62
     0
 10
160.91659
 20
-84.654215
 11
166.877572
 21
-84.654215
  0
LINE
  8
寸法
  6
BYBLOCK
 62
     0
 10
160.91659
 20
-54.487547
 11
166.877572
 21
-54.487547
  0
LINE
  8
寸法
  6
BYBLOCK
 62
     0
 10
166.877572
 20
-84.654215
 11
166.877572
 21
-54.487547
  0
POINT
  8
寸法
 62
     0
 10
166.877572
 20
-84.654215
  0
POINT
  8
寸法
 62
     0
 10
166.877572
 20
-54.487547
  0
TEXT
  7
TextStyle03
  8
寸法
  6
CONTINUOUS
 62
     0
 10
166.5
 20
-72.0125
  1
905
 40
3.0
 50
90.0
 72
     5
 11
166.5
 21
-67.1375
  0
ENDBLK
  0
BLOCK
  2
*DIM_0013
 70
    65
 10
0.0
 20
0.0
  0
LINE
  8
寸法
  6
BYBLOCK
 62
     0
 10
-79.650292
 20
47.814033
 11
-92.94313
 21
47.814033
  0
LINE
  8
寸法
  6
BYBLOCK
 62
     0
 10
-79.650292
 20
27.814033
 11
-92.94313
 21
27.814033
  0
LINE
  8
寸法
  6
BYBLOCK
 62
     0
 10
-92.94313
 20
47.814033
 11
-92.94313
 21
27.814033
  0
POINT
  8
寸法
 62
     0
 10
-92.94313
 20
47.814033
  0
POINT
  8
寸法
 62
     0
 10
-92.94313
 20
27.814033
  0
TEXT
  7
TextStyle03
  8
寸法
  6
CONTINUOUS
 62
     0
 10
-93.325
 20
35.3625
  1
600
 40
3.0
 50
90.0
 72
     5
 11
-93.325
 21
40.2375
  0
ENDBLK
  0
BLOCK
  2
*DIM_0014
 70
    65
 10
0.0
 20
0.0
  0
LINE
  8
寸法
  6
BYBLOCK
 62
     0
 10
-71.65029
 20
55.814033
 11
-71.65029
 21
84.922105
  0
LINE
  8
寸法
  6
BYBLOCK
 62
     0
 10
-44.983625
 20
55.814033
 11
-44.983625
 21
84.922105
  0
LINE
  8
寸法
  6
BYBLOCK
 62
     0
 10
-71.65029
 20
84.922105
 11
-44.983625
 21
84.922105
  0
POINT
  8
寸法
 62
     0
 10
-71.65029
 20
84.922105
  0
POINT
  8
寸法
 62
     0
 10
-44.983625
 20
84.922105
  0
TEXT
  7
TextStyle03
  8
寸法
  6
CONTINUOUS
 62
     0
 10
-60.7625
 20
85.3
  1
800
 40
3.0
 72
     5
 11
-55.8875
 21
85.3
  0
ENDBLK
  0
BLOCK
  2
*DIM_0015
 70
    65
 10
0.0
 20
0.0
  0
LINE
  8
寸法
  6
BYBLOCK
 62
     0
 10
-18.316957
 20
55.814033
 11
-18.316957
 21
84.922105
  0
LINE
  8
寸法
  6
BYBLOCK
 62
     0
 10
-44.983625
 20
84.922105
 11
-18.316957
 21
84.922105
  0
POINT
  8
寸法
 62
     0
 10
-18.316957
 20
84.922105
  0
TEXT
  7
TextStyle03
  8
寸法
  6
CONTINUOUS
 62
     0
 10
-34.1125
 20
85.3
  1
800
 40
3.0
 72
     5
 11
-29.2375
 21
85.3
  0
ENDBLK
  0
BLOCK
  2
*DIM_0016
 70
    65
 10
0.0
 20
0.0
  0
LINE
  8
寸法
  6
BYBLOCK
 62
     0
 10
8.34971
 20
55.814033
 11
8.34971
 21
84.922105
  0
LINE
  8
寸法
  6
BYBLOCK
 62
     0
 10
-18.316957
 20
84.922105
 11
8.34971
 21
84.922105
  0
POINT
  8
寸法
 62
     0
 10
8.34971
 20
84.922105
  0
TEXT
  7
TextStyle03
  8
寸法
  6
CONTINUOUS
 62
     0
 10
-7.4375
 20
85.3
  1
800
 40
3.0
 72
     5
 11
-2.5625
 21
85.3
  0
ENDBLK
  0
BLOCK
  2
*DIM_0017
 70
    65
 10
0.0
 20
0.0
  0
LINE
  8
寸法
  6
BYBLOCK
 62
     0
 10
35.016375
 20
55.814033
 11
35.016375
 21
84.922105
  0
LINE
  8
寸法
  6
BYBLOCK
 62
     0
 10
8.34971
 20
84.922105
 11
35.016375
 21
84.922105
  0
POINT
  8
寸法
 62
     0
 10
35.016375
 20
84.922105
  0
TEXT
  7
TextStyle03
  8
寸法
  6
CONTINUOUS
 62
     0
 10
19.2375
 20
85.3
  1
800
 40
3.0
 72
     5
 11
24.1125
 21
85.3
  0
ENDBLK
  0
BLOCK
  2
*GRP_0018
 70
    65
 10
0.0
 20
0.0
  0
LINE
  8
別途部材
  6
CONTINUOUS
 62
    96
 10
133.535525
 20
54.047693
 11
133.535525
 21
53.947693
  0
LINE
  8
別途部材
  6
CONTINUOUS
 62
    96
 10
131.434445
 20
54.147693
 11
131.504118
 21
55.478498
  0
LINE
  8
別途部材
  6
CONTINUOUS
 62
    96
 10
132.05219
 20
55.487693
 11
131.935525
 21
55.754357
  0
LINE
  8
別途部材
  6
CONTINUOUS
 62
    96
 10
131.95219
 20
55.466775
 11
131.88467
 21
55.621107
  0
LINE
  8
別途部材
  6
CONTINUOUS
 62
    96
 10
131.405348
 20
55.504613
 11
131.535798
 21
55.764815
  0
LINE
  8
別途部材
  6
CONTINUOUS
 62
    96
 10
131.504118
 20
55.478498
 11
131.636277
 21
55.742108
  0
LINE
  8
別途部材
  6
CONTINUOUS
 62
    96
 10
131.67188
 20
55.677227
 11
131.608232
 21
55.600098
  0
LINE
  8
別途部材
  6
DASHDOTX2
 62
    96
 10
131.735525
 20
55.754357
 11
131.42204
 21
55.754357
  0
LINE
  8
別途部材
  6
DASHDOTX2
 62
    96
 10
131.735525
 20
55.754357
 11
132.065985
 21
55.754357
  0
LINE
  8
別途部材
  6
DASHDOTX2
 62
    96
 10
131.735525
 20
55.754357
 11
131.735525
 21
55.490887
  0
LINE
  8
別途部材
  6
DASHDOTX2
 62
    96
 10
131.735525
 20
55.754357
 11
131.735525
 21
56.032668
  0
LINE
  8
別途部材
  6
CONTINUOUS
 62
    96
 10
131.95219
 20
53.947693
 11
131.95219
 21
55.466775
  0
LINE
  8
別途部材
  6
CONTINUOUS
 62
    96
 10
132.05219
 20
54.047693
 11
132.05219
 21
55.487693
  0
LINE
  8
別途部材
  6
CONTINUOUS
 62
    96
 10
130.20111
 20
54.247693
 11
131.339543
 21
54.247693
  0
LINE
  8
別途部材
  6
CONTINUOUS
 62
    96
 10
130.20111
 20
54.147693
 11
130.20111
 21
54.247693
  0
LINE
  8
別途部材
  6
CONTINUOUS
 62
    96
 10
130.20111
 20
54.147693
 11
131.434445
 21
54.147693
  0
CIRCLE
  8
別途部材
  6
CONTINUOUS
 62
    96
 10
131.735525
 20
55.754357
 40
0.1
  0
ARC
  8
別途部材
  6
CONTINUOUS
 62
    96
 10
131.735523
 20
55.75436
 40
0.2
 50
218.780606
 51
537.001556
  0
LINE
  8
別途部材
  6
CONTINUOUS
 62
    96
 10
131.95219
 20
53.947693
 11
133.535525
 21
53.947693
  0
LINE
  8
別途部材
  6
CONTINUOUS
 62
    96
 10
132.05219
 20
54.047693
 11
133.535525
 21
54.047693
  0
LINE
  8
別途部材
  6
CONTINUOUS
 62
    96
 10
131.405348
 20
55.504613
 11
131.339543
 21
54.247693
  0
ENDBLK
  0
BLOCK
  2
*DIM_0019
 70
    65
 10
0.0
 20
0.0
  0
LINE
  8
寸法
  6
CONTINUOUS
 10
48.34985
 20
-76.10973
 11
53.983007
 21
-76.10973
  0
LINE
  8
寸法
  6
CONTINUOUS
 10
46.702908
 20
-69.593182
 11
53.983007
 21
-69.593182
  0
LINE
  8
寸法
  6
CONTINUOUS
 10
53.983007
 20
-76.10973
 11
53.983007
 21
-69.593182
  0
POINT
  8
寸法
 10
53.983007
 20
-76.10973
  0
POINT
  8
寸法
 10
53.983007
 20
-69.593182
  0
TEXT
  7
TextStyle03
  8
寸法
  6
CONTINUOUS
 10
58.075
 20
-78.375
  1
195.5
 40
4.0
 50
90.0
 72
     5
 11
58.075
 21
-67.375
  0
ENDBLK
  0
ENDSEC
  0
SECTION
  2
ENTITIES
  0
POLYLINE
  8
通り芯
  6
CONTINUOUS
 66
     1
 70
     1
  0
VERTEX
  8
通り芯
 10
-210.0
 20
-148.5
  0
VERTEX
  8
通り芯
 10
210.0
 20
-148.5
  0
VERTEX
  8
通り芯
 10
210.0
 20
148.5
  0
VERTEX
  8
通り芯
 10
-210.0
 20
148.5
  0
SEQEND
  0
INSERT
  2
*GRP_0001
  8
型材断面
  6
CONTINUOUS
 10
0.0
 20
0.0
  0
LINE
  8
型材断面
  6
DASHDOT
 10
40.016375
 20
-77.836442
 11
40.016375
 21
52.814033
  0
LINE
  8
型材断面
  6
DASHDOT
 10
-18.316957
 20
-77.836442
 11
-18.316957
 21
52.814033
  0
LINE
  8
型材断面
  6
DASHDOT
 10
-76.650292
 20
-77.836442
 11
-76.650292
 21
52.814033
  0
LINE
  8
型材断面
  6
DASHDOT
 10
137.693138
 20
22.814033
 11
-76.650292
 21
22.814033
  0
LINE
  8
型材断面
  6
DASHDOT
 10
137.693138
 20
37.814033
 11
-76.650292
 21
37.814033
  0
LINE
  8
型材断面
  6
DASHDOT
 10
137.693138
 20
52.814033
 11
-76.650292
 21
52.814033
  0
LINE
  8
型材断面
  6
CONTINUOUS
 10
-59.983625
 20
55.444162
 11
-61.479255
 21
58.03467
  0
LINE
  8
型材断面
  6
CONTINUOUS
 10
-59.983625
 20
55.444162
 11
-58.487995
 21
58.03467
  0
LINE
  8
型材断面
  6
CONTINUOUS
 10
-58.487995
 20
58.03467
 11
-61.479255
 21
58.03467
  0
LINE
  8
型材断面
  6
CONTINUOUS
 10
-79.280422
 20
37.814033
 11
-81.87093
 21
39.309663
  0
LINE
  8
型材断面
  6
CONTINUOUS
 10
-79.280422
 20
37.814033
 11
-81.87093
 21
36.318403
  0
LINE
  8
型材断面
  6
CONTINUOUS
 10
-81.87093
 20
36.318403
 11
-81.87093
 21
39.309663
  0
LINE
  8
型材断面
  6
CONTINUOUS
 10
-59.983625
 20
20.183902
 11
-61.479255
 21
17.593395
  0
LINE
  8
型材断面
  6
CONTINUOUS
 10
-59.983625
 20
20.183902
 11
-58.487995
 21
17.593395
  0
LINE
  8
型材断面
  6
CONTINUOUS
 10
-58.487995
 20
17.593395
 11
-61.479255
 21
17.593395
  0
LINE
  8
型材断面
  6
CONTINUOUS
 10
-130.528815
 20
90.791505
 11
-129.93276
 21
88.200998
  0
LINE
  8
型材断面
  6
CONTINUOUS
 10
-130.528815
 20
90.791505
 11
-131.124873
 21
88.200998
  0
LINE
  8
型材断面
  6
CONTINUOUS
 10
-131.124873
 20
88.200998
 11
-129.93276
 21
88.200998
  0
LINE
  8
型材断面
  6
CONTINUOUS
 10
-136.551403
 20
84.922105
 11
-90.309625
 21
84.922105
  0
LINE
  8
型材断面
  6
CONTINUOUS
 10
-130.528815
 20
97.32138
 11
-132.024445
 21
94.730873
  0
LINE
  8
型材断面
  6
CONTINUOUS
 10
-130.528815
 20
97.32138
 11
-129.033185
 21
94.730873
  0
LINE
  8
型材断面
  6
CONTINUOUS
 10
-129.033185
 20
94.730873
 11
-132.024445
 21
94.730873
  0
LINE
  8
型材断面
  6
CONTINUOUS
 10
-136.551403
 20
93.792277
 11
-90.309625
 21
93.792277
  0
LINE
  8
型材断面
  6
CONTINUOUS
 10
-136.551403
 20
79.134073
 11
-90.309625
 21
79.134073
  0
LINE
  8
型材断面
  6
CONTINUOUS
 10
23.34971
 20
55.444162
 11
24.84534
 21
58.03467
  0
LINE
  8
型材断面
  6
CONTINUOUS
 10
23.34971
 20
55.444162
 11
21.85408
 21
58.03467
  0
LINE
  8
型材断面
  6
CONTINUOUS
 10
21.85408
 20
58.03467
 11
24.84534
 21
58.03467
  0
LINE
  8
型材断面
  6
CONTINUOUS
 10
42.646508
 20
37.814033
 11
45.237015
 21
39.309663
  0
LINE
  8
型材断面
  6
CONTINUOUS
 10
42.646508
 20
37.814033
 11
45.237015
 21
36.318403
  0
LINE
  8
型材断面
  6
CONTINUOUS
 10
45.237015
 20
36.318403
 11
45.237015
 21
39.309663
  0
LINE
  8
型材断面
  6
CONTINUOUS
 10
23.34971
 20
20.183902
 11
24.84534
 21
17.593395
  0
LINE
  8
型材断面
  6
CONTINUOUS
 10
23.34971
 20
20.183902
 11
21.85408
 21
17.593395
  0
LINE
  8
型材断面
  6
CONTINUOUS
 10
21.85408
 20
17.593395
 11
24.84534
 21
17.593395
  0
POLYLINE
  8
型材断面
  6
DASHDOT
 66
     1
  0
VERTEX
  8
型材断面
 10
-76.650292
 20
22.814033
  0
VERTEX
  8
型材断面
 10
-18.316957
 20
52.814033
  0
VERTEX
  8
型材断面
 10
40.016375
 20
22.814033
  0
SEQEND
  0
LINE
  8
型材断面
  6
CONTINUOUS
 10
38.016375
 20
20.20722
 11
37.420318
 21
17.616715
  0
LINE
  8
型材断面
  6
CONTINUOUS
 10
38.016375
 20
20.20722
 11
38.612433
 21
17.616715
  0
LINE
  8
型材断面
  6
CONTINUOUS
 10
38.612433
 20
17.616715
 11
37.420318
 21
17.616715
  0
LINE
  8
型材断面
  6
CONTINUOUS
 10
-74.65029
 20
20.20722
 11
-74.054233
 21
17.616715
  0
LINE
  8
型材断面
  6
CONTINUOUS
 10
-74.65029
 20
20.20722
 11
-75.246347
 21
17.616715
  0
LINE
  8
型材断面
  6
CONTINUOUS
 10
-75.246347
 20
17.616715
 11
-74.054233
 21
17.616715
  0
LINE
  8
型材断面
  6
CONTINUOUS
 62
    47
 10
41.33971
 20
-72.149742
 11
41.34971
 21
-72.139743
  0
LINE
  8
型材断面
  6
CONTINUOUS
 62
    47
 10
41.33971
 20
-72.149742
 11
41.34971
 21
-72.159742
  0
LINE
  8
型材断面
  6
CONTINUOUS
 62
    47
 10
41.33971
 20
-72.791975
 11
41.34971
 21
-72.781975
  0
LINE
  8
型材断面
  6
CONTINUOUS
 62
    47
 10
41.33971
 20
-72.791975
 11
41.34971
 21
-72.801975
  0
LINE
  8
型材断面
  6
CONTINUOUS
 62
    47
 10
41.34971
 20
-73.209742
 11
41.34971
 21
-72.801975
  0
LINE
  8
型材断面
  6
CONTINUOUS
 62
    47
 10
41.34971
 20
-72.781975
 11
41.34971
 21
-72.159742
  0
LINE
  8
型材断面
  6
CONTINUOUS
 62
    47
 10
41.34971
 20
-72.139743
 11
41.34971
 21
-71.443058
  0
LINE
  8
型材断面
  6
CONTINUOUS
 62
    47
 10
42.616518
 20
-73.276068
 11
42.616518
 21
-73.442698
  0
LINE
  8
型材断面
  6
CONTINUOUS
 62
    47
 10
41.13985
 20
-74.343073
 11
41.14985
 21
-74.333072
  0
LINE
  8
型材断面
  6
CONTINUOUS
 62
    47
 10
41.13985
 20
-74.343073
 11
41.14985
 21
-74.353072
  0
LINE
  8
型材断面
  6
CONTINUOUS
 62
    47
 10
41.13985
 20
-74.809747
 11
41.14985
 21
-74.799748
  0
LINE
  8
型材断面
  6
CONTINUOUS
 62
    47
 10
41.13985
 20
-74.809747
 11
41.14985
 21
-74.819747
  0
LINE
  8
型材断面
  6
CONTINUOUS
 62
    47
 10
41.14985
 20
-73.709723
 11
41.14985
 21
-74.333072
  0
LINE
  8
型材断面
  6
CONTINUOUS
 62
    47
 10
41.14985
 20
-74.353072
 11
41.14985
 21
-74.799748
  0
LINE
  8
型材断面
  6
CONTINUOUS
 62
    47
 10
43.34985
 20
-75.60973
 11
43.34985
 21
-76.109732
  0
LINE
  8
型材断面
  6
CONTINUOUS
 62
    47
 10
42.849857
 20
-76.443062
 11
42.849857
 21
-76.109732
  0
LINE
  8
型材断面
  6
CONTINUOUS
 62
    47
 10
43.34985
 20
-75.60973
 11
41.14985
 21
-75.443062
  0
LINE
  8
型材断面
  6
CONTINUOUS
 62
    47
 10
40.416375
 20
-75.443062
 11
41.083182
 21
-75.443062
  0
LINE
  8
型材断面
  6
CONTINUOUS
 62
    47
 10
41.13985
 20
-75.343063
 11
41.14985
 21
-75.333062
  0
LINE
  8
型材断面
  6
CONTINUOUS
 62
    47
 10
41.13985
 20
-75.343063
 11
41.14985
 21
-75.353063
  0
LINE
  8
型材断面
  6
CONTINUOUS
 62
    47
 10
41.14985
 20
-75.443062
 11
41.14985
 21
-75.353063
  0
LINE
  8
型材断面
  6
CONTINUOUS
 62
    47
 10
41.14985
 20
-74.819747
 11
41.14985
 21
-75.333062
  0
LINE
  8
型材断面
  6
CONTINUOUS
 62
    47
 10
42.616518
 20
-73.709723
 11
42.616518
 21
-73.576405
  0
LINE
  8
型材断面
  6
CONTINUOUS
 62
    47
 10
41.34971
 20
-73.209742
 11
42.616518
 21
-73.276068
  0
LINE
  8
型材断面
  6
CONTINUOUS
 62
    47
 10
42.849857
 20
-76.443062
 11
-18.316957
 21
-76.443062
  0
LINE
  8
型材断面
  6
CONTINUOUS
 10
41.14985
 20
-75.443062
 11
-18.316957
 21
-75.443062
  0
LINE
  8
型材断面
  6
CONTINUOUS
 62
    47
 10
43.34985
 20
-76.109732
 11
-18.316957
 21
-76.109732
  0
LINE
  8
型材断面
  6
CONTINUOUS
 10
43.34985
 20
-75.60973
 11
-18.316957
 21
-75.60973
  0
LINE
  8
型材断面
  6
CONTINUOUS
 10
42.616518
 20
-73.276068
 11
-18.316957
 21
-73.276068
  0
LINE
  8
型材断面
  6
CONTINUOUS
 62
    47
 10
42.616518
 20
-73.576405
 11
-18.316957
 21
-73.576405
  0
LINE
  8
型材断面
  6
CONTINUOUS
 62
    47
 10
42.616518
 20
-73.442698
 11
-18.316957
 21
-73.442698
  0
LINE
  8
型材断面
  6
CONTINUOUS
 62
    47
 10
42.616518
 20
-73.709723
 11
-18.316957
 21
-73.709723
  0
LINE
  8
型材断面
  6
CONTINUOUS
 10
41.34971
 20
-73.209742
 11
-18.316957
 21
-73.209742
  0
LINE
  8
型材断面
  6
CONTINUOUS
 62
    47
 10
41.34971
 20
-71.443058
 11
-18.316957
 21
-71.443058
  0
LINE
  8
型材断面
  6
CONTINUOUS
 62
    47
 10
-77.973625
 20
-72.149742
 11
-77.983625
 21
-72.139743
  0
LINE
  8
型材断面
  6
CONTINUOUS
 62
    47
 10
-77.973625
 20
-72.149742
 11
-77.983625
 21
-72.159742
  0
LINE
  8
型材断面
  6
CONTINUOUS
 62
    47
 10
-77.973625
 20
-72.791975
 11
-77.983625
 21
-72.781975
  0
LINE
  8
型材断面
  6
CONTINUOUS
 62
    47
 10
-77.973625
 20
-72.791975
 11
-77.983625
 21
-72.801975
  0
LINE
  8
型材断面
  6
CONTINUOUS
 62
    47
 10
-77.983625
 20
-73.209742
 11
-77.983625
 21
-72.801975
  0
LINE
  8
型材断面
  6
CONTINUOUS
 62
    47
 10
-77.983625
 20
-72.781975
 11
-77.983625
 21
-72.159742
  0
LINE
  8
型材断面
  6
CONTINUOUS
 62
    47
 10
-77.983625
 20
-72.139743
 11
-77.983625
 21
-71.443058
  0
LINE
  8
型材断面
  6
CONTINUOUS
 62
    47
 10
-79.250432
 20
-73.276068
 11
-79.250432
 21
-73.442698
  0
LINE
  8
型材断面
  6
CONTINUOUS
 62
    47
 10
-77.773765
 20
-74.343073
 11
-77.783765
 21
-74.333072
  0
LINE
  8
型材断面
  6
CONTINUOUS
 62
    47
 10
-77.773765
 20
-74.343073
 11
-77.783765
 21
-74.353072
  0
LINE
  8
型材断面
  6
CONTINUOUS
 62
    47
 10
-77.773765
 20
-74.809747
 11
-77.783765
 21
-74.799748
  0
LINE
  8
型材断面
  6
CONTINUOUS
 62
    47
 10
-77.773765
 20
-74.809747
 11
-77.783765
 21
-74.819747
  0
LINE
  8
型材断面
  6
CONTINUOUS
 62
    47
 10
-77.783765
 20
-73.709723
 11
-77.783765
 21
-74.333072
  0
LINE
  8
型材断面
  6
CONTINUOUS
 62
    47
 10
-77.783765
 20
-74.353072
 11
-77.783765
 21
-74.799748
  0
LINE
  8
型材断面
  6
CONTINUOUS
 62
    47
 10
-79.983765
 20
-75.60973
 11
-79.983765
 21
-76.109732
  0
LINE
  8
型材断面
  6
CONTINUOUS
 62
    47
 10
-79.483773
 20
-76.443062
 11
-79.483773
 21
-76.109732
  0
LINE
  8
型材断面
  6
CONTINUOUS
 62
    47
 10
-79.983765
 20
-75.60973
 11
-77.783765
 21
-75.443062
  0
LINE
  8
型材断面
  6
CONTINUOUS
 62
    47
 10
-77.05029
 20
-75.443062
 11
-77.717097
 21
-75.443062
  0
LINE
  8
型材断面
  6
CONTINUOUS
 62
    47
 10
-77.773765
 20
-75.343063
 11
-77.783765
 21
-75.333062
  0
LINE
  8
型材断面
  6
CONTINUOUS
 62
    47
 10
-77.773765
 20
-75.343063
 11
-77.783765
 21
-75.353063
  0
LINE
  8
型材断面
  6
CONTINUOUS
 62
    47
 10
-77.783765
 20
-75.443062
 11
-77.783765
 21
-75.353063
  0
LINE
  8
型材断面
  6
CONTINUOUS
 62
    47
 10
-77.783765
 20
-74.819747
 11
-77.783765
 21
-75.333062
  0
LINE
  8
型材断面
  6
CONTINUOUS
 62
    47
 10
-79.250432
 20
-73.709723
 11
-79.250432
 21
-73.576405
  0
LINE
  8
型材断面
  6
CONTINUOUS
 62
    47
 10
-77.983625
 20
-73.209742
 11
-79.250432
 21
-73.276068
  0
LINE
  8
型材断面
  6
CONTINUOUS
 62
    47
 10
-79.483773
 20
-76.443062
 11
-18.316957
 21
-76.443062
  0
LINE
  8
型材断面
  6
CONTINUOUS
 10
-77.783765
 20
-75.443062
 11
-18.316957
 21
-75.443062
  0
LINE
  8
型材断面
  6
CONTINUOUS
 62
    47
 10
-79.983765
 20
-76.109732
 11
-18.316957
 21
-76.109732
  0
LINE
  8
型材断面
  6
CONTINUOUS
 10
-79.983765
 20
-75.60973
 11
-18.316957
 21
-75.60973
  0
LINE
  8
型材断面
  6
CONTINUOUS
 10
-79.250432
 20
-73.276068
 11
-18.316957
 21
-73.276068
  0
LINE
  8
型材断面
  6
CONTINUOUS
 62
    47
 10
-79.250432
 20
-73.576405
 11
-18.316957
 21
-73.576405
  0
LINE
  8
型材断面
  6
CONTINUOUS
 62
    47
 10
-79.250432
 20
-73.442698
 11
-18.316957
 21
-73.442698
  0
LINE
  8
型材断面
  6
CONTINUOUS
 62
    47
 10
-79.250432
 20
-73.709723
 11
-18.316957
 21
-73.709723
  0
LINE
  8
型材断面
  6
CONTINUOUS
 10
-77.983625
 20
-73.209742
 11
-18.316957
 21
-73.209742
  0
LINE
  8
型材断面
  6
CONTINUOUS
 62
    47
 10
-77.983625
 20
-71.443058
 11
-18.316957
 21
-71.443058
  0
LINE
  8
型材断面
  6
CONTINUOUS
 10
43.34985
 20
19.480558
 11
-18.316957
 21
19.480558
  0
LINE
  8
型材断面
  6
CONTINUOUS
 10
43.34985
 20
56.147508
 11
-18.316957
 21
56.147508
  0
LINE
  8
型材断面
  6
CONTINUOUS
 10
-79.983765
 20
56.147508
 11
-18.316957
 21
56.147508
  0
LINE
  8
型材断面
  6
CONTINUOUS
 10
-79.983765
 20
19.480558
 11
-18.316957
 21
19.480558
  0
ARC
  8
型材断面
  6
DASHDOT
 10
131.735524
 20
55.754359
 40
35.540502
 50
225.0
 51
269.918816
  0
LINE
  8
型材断面
  6
CONTINUOUS
 62
    47
 10
130.392212
 20
54.137368
 11
130.382213
 21
54.147367
  0
LINE
  8
型材断面
  6
CONTINUOUS
 62
    47
 10
130.392212
 20
54.137368
 11
130.402212
 21
54.147367
  0
LINE
  8
型材断面
  6
CONTINUOUS
 62
    47
 10
131.034445
 20
54.137368
 11
131.024445
 21
54.147367
  0
LINE
  8
型材断面
  6
CONTINUOUS
 62
    47
 10
131.034445
 20
54.137368
 11
131.044445
 21
54.147367
  0
LINE
  8
型材断面
  6
CONTINUOUS
 62
    47
 10
131.452212
 20
54.147367
 11
131.044445
 21
54.147367
  0
LINE
  8
型材断面
  6
CONTINUOUS
 62
    47
 10
131.024445
 20
54.147367
 11
130.402212
 21
54.147367
  0
LINE
  8
型材断面
  6
CONTINUOUS
 62
    47
 10
130.382213
 20
54.147367
 11
129.685527
 21
54.147367
  0
LINE
  8
型材断面
  6
CONTINUOUS
 62
    47
 10
131.518537
 20
55.414178
 11
131.685165
 21
55.414178
  0
LINE
  8
型材断面
  6
CONTINUOUS
 62
    47
 10
132.585542
 20
53.937507
 11
132.575542
 21
53.947508
  0
LINE
  8
型材断面
  6
CONTINUOUS
 62
    47
 10
132.585542
 20
53.937507
 11
132.595543
 21
53.947508
  0
LINE
  8
型材断面
  6
CONTINUOUS
 62
    47
 10
133.052215
 20
53.937507
 11
133.042215
 21
53.947508
  0
LINE
  8
型材断面
  6
CONTINUOUS
 62
    47
 10
133.052215
 20
53.937507
 11
133.062215
 21
53.947508
  0
LINE
  8
型材断面
  6
CONTINUOUS
 62
    47
 10
131.95219
 20
53.947508
 11
132.575542
 21
53.947508
  0
LINE
  8
型材断面
  6
CONTINUOUS
 62
    47
 10
132.595543
 20
53.947508
 11
133.042215
 21
53.947508
  0
LINE
  8
型材断面
  6
CONTINUOUS
 62
    47
 10
133.8522
 20
56.147508
 11
134.3522
 21
56.147508
  0
LINE
  8
型材断面
  6
CONTINUOUS
 62
    47
 10
134.685533
 20
55.647517
 11
134.3522
 21
55.647517
  0
LINE
  8
型材断面
  6
CONTINUOUS
 62
    47
 10
133.8522
 20
56.147508
 11
133.685533
 21
53.947508
  0
LINE
  8
型材断面
  6
CONTINUOUS
 62
    47
 10
133.685533
 20
53.214033
 11
133.685533
 21
53.880842
  0
LINE
  8
型材断面
  6
CONTINUOUS
 62
    47
 10
133.585533
 20
53.937507
 11
133.575533
 21
53.947508
  0
LINE
  8
型材断面
  6
CONTINUOUS
 62
    47
 10
133.585533
 20
53.937507
 11
133.595533
 21
53.947508
  0
LINE
  8
型材断面
  6
CONTINUOUS
 62
    47
 10
133.685533
 20
53.947508
 11
133.595533
 21
53.947508
  0
LINE
  8
型材断面
  6
CONTINUOUS
 62
    47
 10
133.062215
 20
53.947508
 11
133.575533
 21
53.947508
  0
LINE
  8
型材断面
  6
CONTINUOUS
 62
    47
 10
131.95219
 20
55.414175
 11
131.818875
 21
55.414175
  0
LINE
  8
型材断面
  6
CONTINUOUS
 62
    47
 10
131.452212
 20
54.147367
 11
131.518537
 21
55.414178
  0
LINE
  8
型材断面
  6
CONTINUOUS
 62
    47
 10
129.685527
 20
54.147367
 11
129.685527
 21
37.814035
  0
LINE
  8
型材断面
  6
CONTINUOUS
 62
    47
 10
131.818875
 20
55.414175
 11
131.818875
 21
37.814035
  0
LINE
  8
型材断面
  6
CONTINUOUS
 62
    47
 10
131.95219
 20
55.414175
 11
131.95219
 21
37.814035
  0
LINE
  8
型材断面
  6
CONTINUOUS
 62
    47
 10
131.685165
 20
55.414178
 11
131.685165
 21
37.814035
  0
LINE
  8
型材断面
  6
CONTINUOUS
 10
131.452212
 20
54.147367
 11
131.452212
 21
37.814035
  0
LINE
  8
型材断面
  6
CONTINUOUS
 10
131.518537
 20
55.414178
 11
131.518537
 21
37.814035
  0
LINE
  8
型材断面
  6
CONTINUOUS
 10
133.685533
 20
53.947508
 11
133.685533
 21
37.814035
  0
LINE
  8
型材断面
  6
CONTINUOUS
 10
133.8522
 20
56.147508
 11
133.8522
 21
37.814035
  0
LINE
  8
型材断面
  6
CONTINUOUS
 62
    47
 10
134.3522
 20
56.147508
 11
134.3522
 21
37.814035
  0
LINE
  8
型材断面
  6
CONTINUOUS
 62
    47
 10
134.685533
 20
55.647517
 11
134.685533
 21
37.814035
  0
LINE
  8
型材断面
  6
CONTINUOUS
 62
    47
 10
130.392212
 20
21.490703
 11
130.382213
 21
21.480703
  0
LINE
  8
型材断面
  6
CONTINUOUS
 62
    47
 10
130.392212
 20
21.490703
 11
130.402212
 21
21.480703
  0
LINE
  8
型材断面
  6
CONTINUOUS
 62
    47
 10
131.034445
 20
21.490703
 11
131.024445
 21
21.480703
  0
LINE
  8
型材断面
  6
CONTINUOUS
 62
    47
 10
131.034445
 20
21.490703
 11
131.044445
 21
21.480703
  0
LINE
  8
型材断面
  6
CONTINUOUS
 62
    47
 10
131.452212
 20
21.480703
 11
131.044445
 21
21.480703
  0
LINE
  8
型材断面
  6
CONTINUOUS
 62
    47
 10
131.024445
 20
21.480703
 11
130.402212
 21
21.480703
  0
LINE
  8
型材断面
  6
CONTINUOUS
 62
    47
 10
130.382213
 20
21.480703
 11
129.685527
 21
21.480703
  0
LINE
  8
型材断面
  6
CONTINUOUS
 62
    47
 10
131.518537
 20
20.213892
 11
131.685165
 21
20.213892
  0
LINE
  8
型材断面
  6
CONTINUOUS
 62
    47
 10
132.585542
 20
21.690562
 11
132.575542
 21
21.680563
  0
LINE
  8
型材断面
  6
CONTINUOUS
 62
    47
 10
132.585542
 20
21.690562
 11
132.595543
 21
21.680563
  0
LINE
  8
型材断面
  6
CONTINUOUS
 62
    47
 10
133.052215
 20
21.690562
 11
133.042215
 21
21.680563
  0
LINE
  8
型材断面
  6
CONTINUOUS
 62
    47
 10
133.052215
 20
21.690562
 11
133.062215
 21
21.680563
  0
LINE
  8
型材断面
  6
CONTINUOUS
 62
    47
 10
131.95219
 20
21.680563
 11
132.575542
 21
21.680563
  0
LINE
  8
型材断面
  6
CONTINUOUS
 62
    47
 10
132.595543
 20
21.680563
 11
133.042215
 21
21.680563
  0
LINE
  8
型材断面
  6
CONTINUOUS
 62
    47
 10
133.8522
 20
19.480563
 11
134.3522
 21
19.480563
  0
LINE
  8
型材断面
  6
CONTINUOUS
 62
    47
 10
134.685533
 20
19.980552
 11
134.3522
 21
19.980552
  0
LINE
  8
型材断面
  6
CONTINUOUS
 62
    47
 10
133.8522
 20
19.480563
 11
133.685533
 21
21.680563
  0
LINE
  8
型材断面
  6
CONTINUOUS
 62
    47
 10
133.685533
 20
22.414038
 11
133.685533
 21
21.747228
  0
LINE
  8
型材断面
  6
CONTINUOUS
 62
    47
 10
133.585533
 20
21.690562
 11
133.575533
 21
21.680563
  0
LINE
  8
型材断面
  6
CONTINUOUS
 62
    47
 10
133.585533
 20
21.690562
 11
133.595533
 21
21.680563
  0
LINE
  8
型材断面
  6
CONTINUOUS
 62
    47
 10
133.685533
 20
21.680563
 11
133.595533
 21
21.680563
  0
LINE
  8
型材断面
  6
CONTINUOUS
 62
    47
 10
133.062215
 20
21.680563
 11
133.575533
 21
21.680563
  0
LINE
  8
型材断面
  6
CONTINUOUS
 62
    47
 10
131.95219
 20
20.213895
 11
131.818875
 21
20.213895
  0
LINE
  8
型材断面
  6
CONTINUOUS
 62
    47
 10
131.452212
 20
21.480703
 11
131.518537
 21
20.213892
  0
LINE
  8
型材断面
  6
CONTINUOUS
 62
    47
 10
129.685527
 20
21.480703
 11
129.685527
 21
37.814035
  0
LINE
  8
型材断面
  6
CONTINUOUS
 62
    47
 10
131.818875
 20
20.213895
 11
131.818875
 21
37.814035
  0
LINE
  8
型材断面
  6
CONTINUOUS
 62
    47
 10
131.95219
 20
20.213895
 11
131.95219
 21
37.814035
  0
LINE
  8
型材断面
  6
CONTINUOUS
 62
    47
 10
131.685165
 20
20.213892
 11
131.685165
 21
37.814035
  0
LINE
  8
型材断面
  6
CONTINUOUS
 10
131.452212
 20
21.480703
 11
131.452212
 21
37.814035
  0
LINE
  8
型材断面
  6
CONTINUOUS
 10
131.518537
 20
20.213892
 11
131.518537
 21
37.814035
  0
LINE
  8
型材断面
  6
CONTINUOUS
 10
133.685533
 20
21.680563
 11
133.685533
 21
37.814035
  0
LINE
  8
型材断面
  6
CONTINUOUS
 10
133.8522
 20
19.480563
 11
133.8522
 21
37.814035
  0
LINE
  8
型材断面
  6
CONTINUOUS
 62
    47
 10
134.3522
 20
19.480563
 11
134.3522
 21
37.814035
  0
LINE
  8
型材断面
  6
CONTINUOUS
 62
    47
 10
134.685533
 20
19.980552
 11
134.685533
 21
37.814035
  0
LINE
  8
型材断面
  6
CONTINUOUS
 10
128.00232
 20
21.284025
 11
129.50232
 21
21.284025
  0
LINE
  8
型材断面
  6
CONTINUOUS
 10
128.00232
 20
21.127503
 11
127.835652
 21
21.127503
  0
LINE
  8
型材断面
  6
CONTINUOUS
 62
    47
 10
129.50232
 20
21.284025
 11
129.50232
 21
37.814035
  0
LINE
  8
型材断面
  6
CONTINUOUS
 62
    47
 10
128.00232
 20
21.127503
 11
128.00232
 21
37.814035
  0
LINE
  8
型材断面
  6
CONTINUOUS
 62
    47
 10
127.835652
 20
21.127503
 11
127.835652
 21
37.814035
  0
LINE
  8
型材断面
  6
CONTINUOUS
 10
128.00232
 20
54.344045
 11
129.50232
 21
54.344045
  0
LINE
  8
型材断面
  6
CONTINUOUS
 10
128.00232
 20
54.500568
 11
127.835652
 21
54.500568
  0
LINE
  8
型材断面
  6
CONTINUOUS
 62
    47
 10
129.50232
 20
54.344045
 11
129.50232
 21
37.814035
  0
LINE
  8
型材断面
  6
CONTINUOUS
 62
    47
 10
128.00232
 20
54.500568
 11
128.00232
 21
37.814035
  0
LINE
  8
型材断面
  6
CONTINUOUS
 62
    47
 10
127.835652
 20
54.500568
 11
127.835652
 21
37.814035
  0
LINE
  8
型材断面
  6
DOT
 62
    47
 10
129.642275
 20
55.560837
 11
129.642275
 21
55.57498
  0
LINE
  8
型材断面
  6
DOT
 62
    47
 10
129.642275
 20
55.560837
 11
129.656417
 21
55.560837
  0
LINE
  8
型材断面
  6
DOT
 62
    47
 10
130.0964
 20
55.106712
 11
130.0964
 21
55.120855
  0
LINE
  8
型材断面
  6
DOT
 62
    47
 10
130.0964
 20
55.106712
 11
130.110542
 21
55.106712
  0
LINE
  8
型材断面
  6
DOT
 62
    47
 10
130.39888
 20
54.818377
 11
130.110542
 21
55.106712
  0
LINE
  8
型材断面
  6
DOT
 62
    47
 10
130.0964
 20
55.120855
 11
129.656417
 21
55.560837
  0
LINE
  8
型材断面
  6
DOT
 62
    47
 10
129.642275
 20
55.57498
 11
129.149645
 21
56.067612
  0
LINE
  8
型材断面
  6
DOT
 62
    47
 10
131.341545
 20
55.667247
 11
131.45937
 21
55.549423
  0
LINE
  8
型材断面
  6
DOT
 62
    47
 10
130.39888
 20
54.818377
 11
131.341545
 21
55.667247
  0
LINE
  8
型材断面
  6
DOT
 62
    47
 10
128.958733
 20
55.8767
 11
128.79366
 21
56.041772
  0
LINE
  8
型材断面
  6
DOT
 62
    47
 10
129.149645
 20
56.067612
 11
117.600235
 21
44.5182
  0
LINE
  8
型材断面
  6
DOT
 62
    47
 10
131.45937
 20
55.549423
 11
119.01419
 21
43.104242
  0
LINE
  8
型材断面
  6
DOT
 10
130.39888
 20
54.818377
 11
118.849467
 21
43.268965
  0
LINE
  8
型材断面
  6
DOT
 10
131.341545
 20
55.667247
 11
118.896368
 21
43.222068
  0
LINE
  8
型材断面
  6
DOT
 62
    47
 10
106.557595
 20
32.476158
 11
106.543453
 21
32.476158
  0
LINE
  8
型材断面
  6
DOT
 62
    47
 10
106.557595
 20
32.476158
 11
106.557595
 21
32.462018
  0
LINE
  8
型材断面
  6
DOT
 62
    47
 10
107.011722
 20
32.022033
 11
106.99758
 21
32.022033
  0
LINE
  8
型材断面
  6
DOT
 62
    47
 10
107.011722
 20
32.022033
 11
107.011722
 21
32.00789
  0
LINE
  8
型材断面
  6
DOT
 62
    47
 10
107.300058
 20
31.719555
 11
107.011722
 21
32.00789
  0
LINE
  8
型材断面
  6
DOT
 62
    47
 10
106.99758
 20
32.022033
 11
106.557595
 21
32.462018
  0
LINE
  8
型材断面
  6
DOT
 62
    47
 10
106.543453
 20
32.476158
 11
106.050822
 21
32.96879
  0
LINE
  8
型材断面
  6
DOT
 62
    47
 10
106.451188
 20
30.776887
 11
106.56901
 21
30.659063
  0
LINE
  8
型材断面
  6
DOT
 62
    47
 10
107.300058
 20
31.719555
 11
106.451188
 21
30.776887
  0
LINE
  8
型材断面
  6
DOT
 62
    47
 10
106.241735
 20
33.159702
 11
106.076663
 21
33.324772
  0
LINE
  8
型材断面
  6
DOT
 62
    47
 10
106.050822
 20
32.96879
 11
117.600235
 21
44.5182
  0
LINE
  8
型材断面
  6
DOT
 62
    47
 10
106.56901
 20
30.659063
 11
119.01419
 21
43.104242
  0
LINE
  8
型材断面
  6
DOT
 10
107.300058
 20
31.719555
 11
118.849467
 21
43.268965
  0
LINE
  8
型材断面
  6
DOT
 10
106.451188
 20
30.776887
 11
118.896368
 21
43.222068
  0
LINE
  8
型材断面
  6
DOT
 10
104.721543
 20
34.019928
 11
105.782202
 21
32.959267
  0
LINE
  8
型材断面
  6
DOT
 10
104.610865
 20
33.909247
 11
104.493015
 21
34.0271
  0
LINE
  8
型材断面
  6
DOT
 62
    47
 10
105.782202
 20
32.959267
 11
117.470685
 21
44.647747
  0
LINE
  8
型材断面
  6
DOT
 62
    47
 10
104.610865
 20
33.909247
 11
116.410025
 21
45.708408
  0
LINE
  8
型材断面
  6
DOT
 62
    47
 10
104.493015
 20
34.0271
 11
116.292175
 21
45.82626
  0
LINE
  8
型材断面
  6
DOT
 10
128.098508
 20
57.39689
 11
129.159167
 21
56.33623
  0
LINE
  8
型材断面
  6
DOT
 10
128.209185
 20
57.507568
 11
128.091335
 21
57.62542
  0
LINE
  8
型材断面
  6
DOT
 62
    47
 10
129.159167
 20
56.33623
 11
117.470685
 21
44.647747
  0
LINE
  8
型材断面
  6
DOT
 62
    47
 10
128.209185
 20
57.507568
 11
116.410025
 21
45.708408
  0
LINE
  8
型材断面
  6
DOT
 62
    47
 10
128.091335
 20
57.62542
 11
116.292175
 21
45.82626
  0
LINE
  8
型材断面
  6
CONTINUOUS
 10
41.546387
 20
-69.75985
 11
41.546387
 21
-71.25985
  0
LINE
  8
型材断面
  6
CONTINUOUS
 10
41.702908
 20
-69.75985
 11
41.702908
 21
-69.593182
  0
LINE
  8
型材断面
  6
CONTINUOUS
 62
    47
 10
41.546387
 20
-71.25985
 11
-18.316957
 21
-71.25985
  0
LINE
  8
型材断面
  6
CONTINUOUS
 62
    47
 10
41.702908
 20
-69.593182
 11
-18.316957
 21
-69.593182
  0
LINE
  8
型材断面
  6
CONTINUOUS
 62
    47
 10
41.702908
 20
-69.75985
 11
-18.316957
 21
-69.75985
  0
LINE
  8
型材断面
  6
CONTINUOUS
 10
-78.180303
 20
-69.75985
 11
-78.180303
 21
-71.25985
  0
LINE
  8
型材断面
  6
CONTINUOUS
 10
-78.336823
 20
-69.75985
 11
-78.336823
 21
-69.593182
  0
LINE
  8
型材断面
  6
CONTINUOUS
 62
    47
 10
-78.180303
 20
-71.25985
 11
-18.316957
 21
-71.25985
  0
LINE
  8
型材断面
  6
CONTINUOUS
 62
    47
 10
-78.336823
 20
-69.593182
 11
-18.316957
 21
-69.593182
  0
LINE
  8
型材断面
  6
CONTINUOUS
 62
    47
 10
-78.336823
 20
-69.75985
 11
-18.316957
 21
-69.75985
  0
LINE
  8
型材断面
  6
CONTINUOUS
 10
42.616518
 20
20.21389
 11
-18.316957
 21
20.213873
  0
LINE
  8
型材断面
  6
CONTINUOUS
 10
42.616518
 20
55.414175
 11
-18.316957
 21
55.414192
  0
LINE
  8
型材断面
  6
CONTINUOUS
 10
-79.250432
 20
55.414175
 11
-18.316957
 21
55.414192
  0
LINE
  8
型材断面
  6
CONTINUOUS
 10
-79.250432
 20
20.21389
 11
-18.316957
 21
20.213873
  0
LINE
  8
型材断面
  6
CONTINUOUS
 62
    47
 10
41.07972
 20
-71.443058
 11
41.07972
 21
-71.25985
  0
LINE
  8
型材断面
  6
CONTINUOUS
 62
    47
 10
-77.713635
 20
-71.443058
 11
-77.713635
 21
-71.25985
  0
LINE
  8
型材断面
  6
CONTINUOUS
 62
    47
 10
129.685527
 20
53.877377
 11
129.50232
 21
53.877377
  0
LINE
  8
型材断面
  6
CONTINUOUS
 62
    47
 10
129.685527
 20
21.750692
 11
129.50232
 21
21.750692
  0
LINE
  8
型材断面
  6
DASHDOT
 10
1.336377
 20
22.814033
 11
1.336377
 21
52.814033
  0
LINE
  8
型材断面
  6
CONTINUOUS
 10
2.586377
 20
24.46082
 11
0.086377
 21
24.46082
  0
LINE
  8
型材断面
  6
CONTINUOUS
 10
2.586377
 20
51.167245
 11
0.086377
 21
51.167245
  0
LINE
  8
型材断面
  6
CONTINUOUS
 10
2.586377
 20
24.46082
 11
2.586377
 21
51.167245
  0
LINE
  8
型材断面
  6
CONTINUOUS
 10
0.086377
 20
24.46082
 11
0.086377
 21
51.167245
  0
LINE
  8
型材断面
  6
CONTINUOUS
 10
21.093043
 20
23.627492
 11
21.093043
 21
21.127495
  0
LINE
  8
型材断面
  6
CONTINUOUS
 10
20.259707
 20
23.627492
 11
20.259707
 21
21.127492
  0
LINE
  8
型材断面
  6
CONTINUOUS
 10
21.093043
 20
52.000573
 11
21.093043
 21
54.50057
  0
LINE
  8
型材断面
  6
CONTINUOUS
 10
20.259707
 20
52.000573
 11
20.259707
 21
54.500573
  0
LINE
  8
型材断面
  6
CONTINUOUS
 10
-17.90029
 20
23.627492
 11
-17.90029
 21
21.127495
  0
LINE
  8
型材断面
  6
CONTINUOUS
 10
-18.733625
 20
23.627492
 11
-18.733625
 21
21.127492
  0
LINE
  8
型材断面
  6
CONTINUOUS
 10
-17.90029
 20
52.000573
 11
-17.90029
 21
54.50057
  0
LINE
  8
型材断面
  6
CONTINUOUS
 10
-18.733625
 20
52.000573
 11
-18.733625
 21
54.500573
  0
LINE
  8
型材断面
  6
CONTINUOUS
 10
20.259707
 20
23.627492
 11
-17.90029
 21
23.62748
  0
LINE
  8
型材断面
  6
CONTINUOUS
 10
20.259707
 20
52.000573
 11
-17.90029
 21
52.000585
  0
LINE
  8
型材断面
  6
CONTINUOUS
 10
43.349848
 20
19.48056
 11
43.349848
 21
37.814033
  0
LINE
  8
型材断面
  6
CONTINUOUS
 10
43.349848
 20
56.147505
 11
43.349848
 21
37.814033
  0
LINE
  8
型材断面
  6
CONTINUOUS
 10
42.616515
 20
55.414175
 11
42.616515
 21
37.814033
  0
LINE
  8
型材断面
  6
CONTINUOUS
 10
42.616515
 20
20.21389
 11
42.616515
 21
37.814033
  0
LINE
  8
型材断面
  6
CONTINUOUS
 10
41.467208
 20
21.127495
 11
41.702905
 21
21.363203
  0
LINE
  8
型材断面
  6
CONTINUOUS
 10
43.349848
 20
19.48056
 11
41.585058
 21
21.24535
  0
LINE
  8
型材断面
  6
CONTINUOUS
 10
38.967202
 20
23.627495
 11
41.467202
 21
21.1275
  0
LINE
  8
型材断面
  6
CONTINUOUS
 10
39.202905
 20
23.863198
 11
41.702908
 21
21.3632
  0
LINE
  8
型材断面
  6
CONTINUOUS
 10
38.967208
 20
23.6275
 11
39.202905
 21
23.863198
  0
LINE
  8
型材断面
  6
CONTINUOUS
 10
41.702905
 20
37.814033
 11
41.702905
 21
21.363203
  0
LINE
  8
型材断面
  6
CONTINUOUS
 10
41.702905
 20
37.397365
 11
39.202905
 21
37.397365
  0
LINE
  8
型材断面
  6
CONTINUOUS
 10
41.702905
 20
38.2307
 11
39.202905
 21
38.2307
  0
LINE
  8
型材断面
  6
CONTINUOUS
 10
39.202905
 20
37.397365
 11
39.202905
 21
23.863198
  0
LINE
  8
型材断面
  6
CONTINUOUS
 10
41.467208
 20
54.50057
 11
41.702905
 21
54.264862
  0
LINE
  8
型材断面
  6
CONTINUOUS
 10
43.349848
 20
56.147505
 11
41.585058
 21
54.382715
  0
LINE
  8
型材断面
  6
CONTINUOUS
 10
38.967202
 20
52.00057
 11
41.467202
 21
54.500565
  0
LINE
  8
型材断面
  6
CONTINUOUS
 10
39.202905
 20
51.764868
 11
41.702908
 21
54.264865
  0
LINE
  8
型材断面
  6
CONTINUOUS
 10
39.202905
 20
38.2307
 11
39.202905
 21
51.764868
  0
LINE
  8
型材断面
  6
CONTINUOUS
 10
39.202905
 20
51.764868
 11
38.967208
 21
52.000565
  0
LINE
  8
型材断面
  6
CONTINUOUS
 10
41.702905
 20
37.814033
 11
41.702905
 21
54.264862
  0
LINE
  8
型材断面
  6
CONTINUOUS
 10
-18.316957
 20
54.500583
 11
41.467202
 21
54.500565
  0
LINE
  8
型材断面
  6
CONTINUOUS
 10
21.093043
 20
52.000573
 11
38.967197
 21
52.000565
  0
LINE
  8
型材断面
  6
CONTINUOUS
 10
-18.316957
 20
21.127483
 11
41.467202
 21
21.1275
  0
LINE
  8
型材断面
  6
CONTINUOUS
 10
21.093043
 20
23.627492
 11
38.967197
 21
23.6275
  0
LINE
  8
型材断面
  6
DASHDOT
 10
-37.970292
 20
22.814033
 11
-37.970292
 21
52.814033
  0
LINE
  8
型材断面
  6
CONTINUOUS
 10
-39.220292
 20
24.46082
 11
-36.720292
 21
24.46082
  0
LINE
  8
型材断面
  6
CONTINUOUS
 10
-39.220292
 20
51.167245
 11
-36.720292
 21
51.167245
  0
LINE
  8
型材断面
  6
CONTINUOUS
 10
-39.220292
 20
24.46082
 11
-39.220292
 21
51.167245
  0
LINE
  8
型材断面
  6
CONTINUOUS
 10
-36.720292
 20
24.46082
 11
-36.720292
 21
51.167245
  0
LINE
  8
型材断面
  6
CONTINUOUS
 10
-57.726958
 20
23.627492
 11
-57.726958
 21
21.127495
  0
LINE
  8
型材断面
  6
CONTINUOUS
 10
-56.893623
 20
23.627492
 11
-56.893623
 21
21.127492
  0
LINE
  8
型材断面
  6
CONTINUOUS
 10
-57.726958
 20
52.000573
 11
-57.726958
 21
54.50057
  0
LINE
  8
型材断面
  6
CONTINUOUS
 10
-56.893623
 20
52.000573
 11
-56.893623
 21
54.500573
  0
LINE
  8
型材断面
  6
CONTINUOUS
 10
-79.983763
 20
19.48056
 11
-79.983763
 21
37.814033
  0
LINE
  8
型材断面
  6
CONTINUOUS
 10
-79.983763
 20
56.147505
 11
-79.983763
 21
37.814033
  0
LINE
  8
型材断面
  6
CONTINUOUS
 10
-79.25043
 20
55.414175
 11
-79.25043
 21
37.814033
  0
LINE
  8
型材断面
  6
CONTINUOUS
 10
-79.25043
 20
20.21389
 11
-79.25043
 21
37.814033
  0
LINE
  8
型材断面
  6
CONTINUOUS
 10
-78.101123
 20
21.127495
 11
-78.33682
 21
21.363203
  0
LINE
  8
型材断面
  6
CONTINUOUS
 10
-79.983763
 20
19.48056
 11
-78.218973
 21
21.24535
  0
LINE
  8
型材断面
  6
CONTINUOUS
 10
-75.601117
 20
23.627495
 11
-78.101117
 21
21.1275
  0
LINE
  8
型材断面
  6
CONTINUOUS
 10
-75.83682
 20
23.863198
 11
-78.336823
 21
21.3632
  0
LINE
  8
型材断面
  6
CONTINUOUS
 10
-75.601123
 20
23.6275
 11
-75.83682
 21
23.863198
  0
LINE
  8
型材断面
  6
CONTINUOUS
 10
-78.33682
 20
37.814033
 11
-78.33682
 21
21.363203
  0
LINE
  8
型材断面
  6
CONTINUOUS
 10
-78.33682
 20
37.397365
 11
-75.83682
 21
37.397365
  0
LINE
  8
型材断面
  6
CONTINUOUS
 10
-78.33682
 20
38.2307
 11
-75.83682
 21
38.2307
  0
LINE
  8
型材断面
  6
CONTINUOUS
 10
-75.83682
 20
37.397365
 11
-75.83682
 21
23.863198
  0
LINE
  8
型材断面
  6
CONTINUOUS
 10
-78.101123
 20
54.50057
 11
-78.33682
 21
54.264862
  0
LINE
  8
型材断面
  6
CONTINUOUS
 10
-79.983763
 20
56.147505
 11
-78.218973
 21
54.382715
  0
LINE
  8
型材断面
  6
CONTINUOUS
 10
-75.601117
 20
52.00057
 11
-78.101117
 21
54.500565
  0
LINE
  8
型材断面
  6
CONTINUOUS
 10
-75.83682
 20
51.764868
 11
-78.336823
 21
54.264865
  0
LINE
  8
型材断面
  6
CONTINUOUS
 10
-75.83682
 20
38.2307
 11
-75.83682
 21
51.764868
  0
LINE
  8
型材断面
  6
CONTINUOUS
 10
-75.83682
 20
51.764868
 11
-75.601123
 21
52.000565
  0
LINE
  8
型材断面
  6
CONTINUOUS
 10
-78.33682
 20
37.814033
 11
-78.33682
 21
54.264862
  0
LINE
  8
型材断面
  6
CONTINUOUS
 10
-57.726958
 20
52.000573
 11
-75.601112
 21
52.000565
  0
LINE
  8
型材断面
  6
CONTINUOUS
 10
-57.726958
 20
23.627492
 11
-75.601112
 21
23.6275
  0
LINE
  8
型材断面
  6
CONTINUOUS
 10
-18.733625
 20
52.000585
 11
-56.893623
 21
52.000573
  0
LINE
  8
型材断面
  6
CONTINUOUS
 10
-18.733625
 20
23.62748
 11
-56.893623
 21
23.627492
  0
LINE
  8
型材断面
  6
CONTINUOUS
 10
-18.316957
 20
54.500583
 11
-78.101117
 21
54.500565
  0
LINE
  8
型材断面
  6
CONTINUOUS
 10
-18.316957
 20
21.127483
 11
-78.101117
 21
21.1275
  0
LINE
  8
ガラス
  6
CONTINUOUS
 10
-55.195865
 20
39.215412
 11
-57.82683
 21
36.584447
  0
LINE
  8
ガラス
  6
CONTINUOUS
 10
-55.852038
 20
37.24062
 11
-57.170655
 21
38.559243
  0
LINE
  8
ガラス
  6
CONTINUOUS
 10
-56.705083
 20
37.271073
 11
-55.688568
 21
38.287587
  0
LINE
  8
ガラス
  6
CONTINUOUS
 10
-56.317612
 20
38.528793
 11
-57.334125
 21
37.512277
  0
LINE
  8
ガラス
  6
CONTINUOUS
 10
-17.036798
 20
39.215412
 11
-19.667763
 21
36.584447
  0
LINE
  8
ガラス
  6
CONTINUOUS
 10
-17.69297
 20
37.24062
 11
-19.011588
 21
38.559243
  0
LINE
  8
ガラス
  6
CONTINUOUS
 10
-18.546015
 20
37.271073
 11
-17.5295
 21
38.287587
  0
LINE
  8
ガラス
  6
CONTINUOUS
 10
-18.158545
 20
38.528793
 11
-19.175058
 21
37.512277
  0
LINE
  8
ガラス
  6
CONTINUOUS
 10
22.260955
 20
39.215412
 11
19.62999
 21
36.584447
  0
LINE
  8
ガラス
  6
CONTINUOUS
 10
21.604782
 20
37.24062
 11
20.286165
 21
38.559243
  0
LINE
  8
ガラス
  6
CONTINUOUS
 10
20.751737
 20
37.271073
 11
21.768253
 21
38.287587
  0
LINE
  8
ガラス
  6
CONTINUOUS
 10
21.139207
 20
38.528793
 11
20.122695
 21
37.512277
  0
LINE
  8
ガラス
  6
CONTINUOUS
 10
157.91659
 20
-84.654215
 11
119.683258
 21
-84.654215
  0
LINE
  8
ガラス
  6
CONTINUOUS
 10
157.91659
 20
-84.654215
 11
157.91659
 21
-54.487547
  0
LINE
  8
ガラス
  6
CONTINUOUS
 10
157.91659
 20
-54.487547
 11
119.683258
 21
-54.487547
  0
LINE
  8
ガラス
  6
CONTINUOUS
 10
119.683258
 20
-84.654215
 11
119.683258
 21
-54.487547
  0
LINE
  8
ガラス
  6
CONTINUOUS
 10
-58.89487
 20
39.215412
 11
-56.263905
 21
36.584447
  0
LINE
  8
ガラス
  6
CONTINUOUS
 10
-58.238698
 20
37.24062
 11
-56.92008
 21
38.559243
  0
LINE
  8
ガラス
  6
CONTINUOUS
 10
-57.385653
 20
37.271073
 11
-58.402167
 21
38.287587
  0
LINE
  8
ガラス
  6
CONTINUOUS
 10
-57.773123
 20
38.528793
 11
-56.75661
 21
37.512277
  0
TEXT
  7
TextStyle03
  8
文字
  6
CONTINUOUS
 10
-127.75
 20
94.925
  1
は排水穴位置を示す
 40
3.0
 72
     5
 11
-97.75
 21
94.925
  0
TEXT
  7
TextStyle03
  8
文字
  6
CONTINUOUS
 10
-127.75
 20
89.4
  1
はケーシング位置を示す
 40
3.0
 72
     5
 11
-91.0
 21
89.4
  0
TEXT
  7
TextStyle03
  8
文字
  6
CONTINUOUS
 10
-127.75
 20
86.025
  1
２ヶ所中1ヶ所に設定
 40
3.0
 72
     5
 11
-96.0625
 21
86.025
  0
TEXT
  7
TextStyle03
  8
文字
  6
CONTINUOUS
 10
67.45
 20
97.05
  1
ＮＳコード：ＮＳＦＨＺ
 40
5.0
 72
     5
 11
128.7
 21
97.05
  0
TEXT
  7
TextStyle03
  8
文字
  6
CONTINUOUS
 10
139.525
 20
-78.225
  1
網入り6.8t
 40
3.0
 72
     5
 11
156.2125
 21
-78.225
  0
TEXT
  7
TextStyle03
  8
文字
  6
CONTINUOUS
 10
146.2
 20
-82.9
  1
×３枚
 40
3.0
 72
     5
 11
155.95
 21
-82.9
  0
TEXT
  7
TextStyle03
  8
文字
  6
CONTINUOUS
 10
-97.65
 20
16.275
  1
アンカーピッチ
 40
3.0
 50
90.0
 72
     5
 11
-97.65
 21
39.525
  0
TEXT
  7
TextStyle03
  8
文字
  6
CONTINUOUS
 10
-65.5
 20
89.775
  1
アンカーピッチ
 40
3.0
 72
     5
 11
-42.25
 21
89.775
  0
TEXT
  7
TextStyle03
  8
文字
  6
CONTINUOUS
 10
-131.475
 20
80.05
  1
アンカー数量　１４ヶ所
 40
3.0
 72
     5
 11
-94.725
 21
80.05
  0
TEXT
  7
TextStyle03
  8
文字
  6
CONTINUOUS
 10
119.85
 20
14.75
  1
45°
 40
3.0
 50
90.0
 72
     5
 11
119.85
 21
21.125
  0
TEXT
  7
TextStyle03
  8
文字
  6
CONTINUOUS
 10
67.475
 20
124.525
  1
シリーズ：ＴＦ２ＦＨＬ
 40
5.0
 72
     5
 11
128.725
 21
124.525
  0
TEXT
  7
TextStyle03
  8
文字
  6
CONTINUOUS
 10
67.475
 20
118.9
  1
　　　　　（片側開閉）900×3500タイプ
 40
5.0
 72
     5
 11
170.9125
 21
118.9
  0
TEXT
  7
TextStyle03
  8
文字
  6
CONTINUOUS
 10
67.475
 20
113.275
  1

 40
5.0
 41
1.125
  0
TEXT
  7
TextStyle03
  8
文字
  6
CONTINUOUS
 10
67.475
 20
107.65
  1
図面名　：外観姿図
 40
5.0
 72
     5
 11
117.475
 21
107.65
  0
INSERT
  2
*DIM_0002
  8
寸法
  6
CONTINUOUS
 10
0.0
 20
0.0
  0
INSERT
  2
*DIM_0003
  8
寸法
  6
CONTINUOUS
 10
0.0
 20
0.0
  0
INSERT
  2
*DIM_0004
  8
寸法
  6
CONTINUOUS
 10
0.0
 20
0.0
  0
INSERT
  2
*DIM_0005
  8
寸法
  6
CONTINUOUS
 10
0.0
 20
0.0
  0
INSERT
  2
*DIM_0006
  8
寸法
  6
CONTINUOUS
 10
0.0
 20
0.0
  0
INSERT
  2
*DIM_0007
  8
寸法
  6
CONTINUOUS
 10
0.0
 20
0.0
  0
INSERT
  2
*DIM_0008
  8
寸法
  6
CONTINUOUS
 10
0.0
 20
0.0
  0
INSERT
  2
*DIM_0009
  8
寸法
  6
CONTINUOUS
 10
0.0
 20
0.0
  0
INSERT
  2
*DIM_0010
  8
寸法
  6
CONTINUOUS
 10
0.0
 20
0.0
  0
INSERT
  2
*DIM_0011
  8
寸法
  6
CONTINUOUS
 10
0.0
 20
0.0
  0
INSERT
  2
*DIM_0012
  8
寸法
  6
CONTINUOUS
 10
0.0
 20
0.0
  0
INSERT
  2
*DIM_0013
  8
寸法
  6
CONTINUOUS
 10
0.0
 20
0.0
  0
INSERT
  2
*DIM_0014
  8
寸法
  6
CONTINUOUS
 10
0.0
 20
0.0
  0
INSERT
  2
*DIM_0015
  8
寸法
  6
CONTINUOUS
 10
0.0
 20
0.0
  0
INSERT
  2
*DIM_0016
  8
寸法
  6
CONTINUOUS
 10
0.0
 20
0.0
  0
INSERT
  2
*DIM_0017
  8
寸法
  6
CONTINUOUS
 10
0.0
 20
0.0
  0
INSERT
  2
*DIM_0019
  8
寸法
  6
CONTINUOUS
 10
0.0
 20
0.0
  0
INSERT
  2
*GRP_0018
  8
別途部材
  6
CONTINUOUS
 10
0.0
 20
0.0
  0
ENDSEC
  0
EOF
