  0
SECTION
  2
HEADER
  9
$EXTMIN
 10
-210.0
 20
-148.5
  9
$EXTMAX
 10
210.0
 20
148.5
  9
$PDMODE
 70
    32
  9
$PDSIZE
 40
1.5
  9
$LTSCALE
 40
10.0
  0
ENDSEC
  0
SECTION
  2
TABLES
  0
TABLE
  2
LTYPE
 70
    15
  0
LTYPE
  2
CONTINUOUS
 70
    64
  3
実線
 72
    65
 73
     0
 40
0.0
  0
LTYPE
  2
DASHED
 70
    64
  3
破線A
 72
    65
 73
     2
 40
0.6
 49
0.4
 49
-0.2
  0
LTYPE
  2
DASHEDX2
 70
    64
  3
破線B
 72
    65
 73
     2
 40
1.3
 49
0.9
 49
-0.4
  0
LTYPE
  2
DASHDOT
 70
    64
  3
１点鎖線A
 72
    65
 73
     4
 40
0.5375
 49
0.375
 49
-0.05
 49
0.0625
 49
-0.05
  0
LTYPE
  2
DASHDOTX2
 70
    64
  3
１点鎖線B
 72
    65
 73
     4
 40
1.075
 49
0.75
 49
-0.1
 49
0.125
 49
-0.1
  0
LTYPE
  2
DIVIDE2
 70
    64
  3
２点鎖線A
 72
    65
 73
     6
 40
0.5125
 49
0.3
 49
-0.0375
 49
0.05
 49
-0.0375
 49
0.05
 49
-0.0375
  0
LTYPE
  2
DIVIDE
 70
    64
  3
２点鎖線B
 72
    65
 73
     6
 40
1.05
 49
0.55
 49
-0.1
 49
0.1
 49
-0.1
 49
0.1
 49
-0.1
  0
LTYPE
  2
DOT
 70
    64
  3
点線A
 72
    65
 73
     2
 40
0.1125
 49
0.0625
 49
-0.05
  0
LTYPE
  2
DOTX2
 70
    64
  3
点線B
 72
    65
 73
     2
 40
0.275
 49
0.15
 49
-0.125
  0
LTYPE
  2
CONTINUOUS
 70
    64
  3
実線
 72
    65
 73
     0
 40
0.0
  0
LTYPE
  2
CONTINUOUS
 70
    64
  3
実線
 72
    65
 73
     0
 40
0.0
  0
LTYPE
  2
CONTINUOUS
 70
    64
  3
実線
 72
    65
 73
     0
 40
0.0
  0
LTYPE
  2
CONTINUOUS
 70
    64
  3
実線
 72
    65
 73
     0
 40
0.0
  0
LTYPE
  2
CONTINUOUS
 70
    64
  3
実線
 72
    65
 73
     0
 40
0.0
  0
LTYPE
  2
CONTINUOUS
 70
    64
  3
実線
 72
    65
 73
     0
 40
0.0
  0
ENDTAB
  0
TABLE
  2
LAYER
 70
    34
  0
LAYER
  2
通り芯
 70
     0
 62
    15
  6
CONTINUOUS
  0
LAYER
  2
補助線
 70
     0
 62
    16
  6
DOT
  0
LAYER
  2
躯体
 70
     0
 62
    31
  6
CONTINUOUS
  0
LAYER
  2
型材
 70
     0
 62
    32
  6
CONTINUOUS
  0
LAYER
  2
型材断面
 70
     0
 62
    47
  6
CONTINUOUS
  0
LAYER
  2
ガラス
 70
     0
 62
    48
  6
CONTINUOUS
  0
LAYER
  2
ゴム等
 70
     0
 62
    63
  6
CONTINUOUS
  0
LAYER
  2
ボルト／ビス
 70
     0
 62
    64
  6
CONTINUOUS
  0
LAYER
  2
文字
 70
     0
 62
    79
  6
CONTINUOUS
  0
LAYER
  2
寸法
 70
     0
 62
    80
  6
CONTINUOUS
  0
LAYER
  2
ﾊｯﾁﾝｸﾞ
 70
     0
 62
    95
  6
CONTINUOUS
  0
LAYER
  2
別途部材
 70
     0
 62
    96
  6
CONTINUOUS
  0
LAYER
  2
曲げ物
 70
     0
 62
   111
  6
CONTINUOUS
  0
LAYER
  2
鉄骨等
 70
     0
 62
   112
  6
CONTINUOUS
  0
LAYER
  2
St
 70
     0
 62
   127
  6
CONTINUOUS
  0
LAYER
  2
その他部品等
 70
     0
 62
   128
  6
CONTINUOUS
  0
LAYER
  2
ｶﾞｽｹｯﾄ
 70
     0
 62
   143
  6
CONTINUOUS
  0
LAYER
  2
ｽｹｯﾁ
 70
     0
 62
    14
  6
CONTINUOUS
  0
LAYER
  2
0
 70
     0
 62
    17
  6
CONTINUOUS
  0
LAYER
  2
1
 70
     0
 62
    30
  6
CONTINUOUS
  0
LAYER
  2
4
 70
     0
 62
    33
  6
CONTINUOUS
  0
LAYER
  2
ﾚｲﾔ3
 70
     0
 62
    46
  6
CONTINUOUS
  0
LAYER
  2
外形線
 70
     0
 62
    49
  6
CONTINUOUS
  0
LAYER
  2
部品
 70
     0
 62
    14
  6
CONTINUOUS
  0
LAYER
  2
サッシ芯
 70
     0
 62
    17
  6
DASHDOTX2
  0
LAYER
  2
寸法線
 70
     0
 62
    62
  6
CONTINUOUS
  0
LAYER
  2
姿図外形線
 70
     0
 62
    65
  6
CONTINUOUS
  0
LAYER
  2
姿補助線
 70
     0
 62
    30
  6
CONTINUOUS
  0
LAYER
  2
透視線
 70
     0
 62
    78
  6
DOT
  0
LAYER
  2
用紙
 70
     0
 62
    81
  6
CONTINUOUS
  0
LAYER
  2
実線図枠
 70
     0
 62
    94
  6
CONTINUOUS
  0
LAYER
  2
補助図枠
 70
     0
 62
    97
  6
CONTINUOUS
  0
LAYER
  2
建具記号
 70
     0
 62
   110
  6
CONTINUOUS
  0
LAYER
  2
補助文字
 70
     0
 62
   113
  6
CONTINUOUS
  0
ENDTAB
  0
TABLE
  2
STYLE
 70
    10
  0
STYLE
  2
STANDARD
 70
     0
 40
1.0
 41
1.0
 42
1.0
 50
0.0
 71
     0
  3
TXT
  4
BIGFONT
  0
STYLE
  2
TATE
 70
     4
 40
1.0
 41
1.0
 42
1.0
 50
0.0
 71
     0
  3
TXT
  4
BIGFONT
  0
STYLE
  2
TextStyle03
 70
     0
 40
1.0
 41
1.0
 42
1.0
 50
0.0
 71
     0
  3
MONOTXT
  4
BIGFONT
  0
STYLE
  2
TextStyle04
 70
     0
 40
1.0
 41
1.0
 42
1.0
 50
0.0
 71
     0
  3
MONOTXT
  4
BIGFONT
  0
STYLE
  2
TextStyle05
 70
     0
 40
1.0
 41
1.0
 42
1.0
 50
0.0
 71
     0
  3
MONOTXT
  4
BIGFONT
  0
STYLE
  2
TextStyle06
 70
     0
 40
1.0
 41
1.0
 42
1.0
 50
0.0
 71
     0
  3
MONOTXT
  4
BIGFONT
  0
STYLE
  2
TextStyle07
 70
     0
 40
1.0
 41
1.0
 42
1.0
 50
0.0
 71
     0
  3
MONOTXT
  4
BIGFONT
  0
STYLE
  2
TextStyle08
 70
     0
 40
1.0
 41
1.0
 42
1.0
 50
0.0
 71
     0
  3
MONOTXT
  4
BIGFONT
  0
STYLE
  2
TextStyle09
 70
     0
 40
1.0
 41
1.0
 42
1.0
 50
0.0
 71
     0
  3
MONOTXT
  4
BIGFONT
  0
STYLE
  2
TextStyle10
 70
     0
 40
1.0
 41
1.0
 42
1.0
 50
0.0
 71
     0
  3
MONOTXT
  4
BIGFONT
  0
ENDTAB
  0
ENDSEC
  0
SECTION
  2
BLOCKS
  0
BLOCK
  2
*GRP_0001
 70
    65
 10
0.0
 20
0.0
  0
LINE
  8
型材断面
  6
CONTINUOUS
 10
195.0
 20
133.5
 11
195.0
 21
-133.5
  0
LINE
  8
型材断面
  6
CONTINUOUS
 10
195.0
 20
-133.5
 11
-185.0
 21
-133.5
  0
LINE
  8
型材断面
  6
CONTINUOUS
 10
-185.0
 20
-133.5
 11
-185.0
 21
133.5
  0
LINE
  8
型材断面
  6
CONTINUOUS
 10
195.0
 20
133.5
 11
-185.0
 21
133.5
  0
LINE
  8
型材断面
  6
CONTINUOUS
 10
145.0
 20
-133.5
 11
145.0
 21
-118.5
  0
LINE
  8
型材断面
  6
CONTINUOUS
 10
195.0
 20
-118.5
 11
145.0
 21
-118.5
  0
ENDBLK
  0
BLOCK
  2
*DIM_0002
 70
    65
 10
0.0
 20
0.0
  0
LINE
  8
寸法
  6
BYBLOCK
 62
     0
 10
-78.596933
 20
-13.511205
 11
-78.596933
 21
-13.121378
  0
LINE
  8
寸法
  6
BYBLOCK
 62
     0
 10
21.403067
 20
-13.121378
 11
-78.596933
 21
-13.121378
  0
POINT
  8
寸法
 62
     0
 10
21.403067
 20
-13.121378
  0
POINT
  8
寸法
 62
     0
 10
-78.596933
 20
-13.121378
  0
TEXT
  7
TextStyle03
  8
寸法
  6
CONTINUOUS
 62
     0
 10
-40.31875
 20
-12.75
  1
呼称寸法　3000
 40
3.0
 72
     5
 11
-16.88125
 21
-12.75
  0
ENDBLK
  0
BLOCK
  2
*DIM_0003
 70
    65
 10
0.0
 20
0.0
  0
LINE
  8
寸法
  6
BYBLOCK
 62
     0
 10
-61.930265
 20
19.183902
 11
-61.930265
 21
14.10329
  0
LINE
  8
寸法
  6
BYBLOCK
 62
     0
 10
4.7364
 20
19.183902
 11
4.7364
 21
14.10329
  0
LINE
  8
寸法
  6
BYBLOCK
 62
     0
 10
-61.930265
 20
14.10329
 11
4.7364
 21
14.10329
  0
POINT
  8
寸法
 62
     0
 10
-61.930265
 20
14.10329
  0
POINT
  8
寸法
 62
     0
 10
4.7364
 20
14.10329
  0
TEXT
  7
TextStyle03
  8
寸法
  6
CONTINUOUS
 62
     0
 10
-31.88125
 20
14.475
  1
2000
 40
3.0
 72
     5
 11
-25.31875
 21
14.475
  0
ENDBLK
  0
BLOCK
  2
*DIM_0004
 70
    65
 10
0.0
 20
0.0
  0
LINE
  8
寸法
  6
BYBLOCK
 62
     0
 10
19.403067
 20
17.20722
 11
19.403067
 21
14.182178
  0
LINE
  8
寸法
  6
BYBLOCK
 62
     0
 10
21.403067
 20
14.182178
 11
19.403067
 21
14.182178
  0
POINT
  8
寸法
 62
     0
 10
21.403067
 20
14.182178
  0
POINT
  8
寸法
 62
     0
 10
19.403067
 20
14.182178
  0
TEXT
  7
TextStyle03
  8
寸法
  6
CONTINUOUS
 62
     0
 10
17.53125
 20
10.4
  1
60
 40
3.0
 72
     5
 11
20.71875
 21
10.4
  0
ENDBLK
  0
BLOCK
  2
*DIM_0005
 70
    65
 10
0.0
 20
0.0
  0
LINE
  8
寸法
  6
BYBLOCK
 62
     0
 10
-76.596933
 20
17.20722
 11
-76.596933
 21
14.182178
  0
LINE
  8
寸法
  6
BYBLOCK
 62
     0
 10
-78.596933
 20
14.182178
 11
-76.596933
 21
14.182178
  0
POINT
  8
寸法
 62
     0
 10
-78.596933
 20
14.182178
  0
POINT
  8
寸法
 62
     0
 10
-76.596933
 20
14.182178
  0
TEXT
  7
TextStyle03
  8
寸法
  6
CONTINUOUS
 62
     0
 10
-77.89375
 20
10.4
  1
60
 40
3.0
 72
     5
 11
-74.70625
 21
10.4
  0
ENDBLK
  0
BLOCK
  2
*DIM_0006
 70
    65
 10
0.0
 20
0.0
  0
LINE
  8
寸法
  6
BYBLOCK
 62
     0
 10
56.879652
 20
22.814033
 11
56.879652
 21
52.814033
  0
POINT
  8
寸法
 62
     0
 10
56.879652
 20
22.814033
  0
POINT
  8
寸法
 62
     0
 10
56.879652
 20
52.814033
  0
TEXT
  7
TextStyle03
  8
寸法
  6
CONTINUOUS
 62
     0
 10
56.55
 20
26.9
  1
呼称寸法　900
 40
3.0
 50
90.0
 72
     5
 11
56.55
 21
48.65
  0
ENDBLK
  0
BLOCK
  2
*DIM_0007
 70
    65
 10
0.0
 20
0.0
  0
LINE
  8
寸法
  6
BYBLOCK
 62
     0
 10
113.288907
 20
56.147508
 11
56.879652
 21
56.147508
  0
LINE
  8
寸法
  6
BYBLOCK
 62
     0
 10
56.879652
 20
52.814033
 11
56.879652
 21
56.147508
  0
POINT
  8
寸法
 62
     0
 10
56.879652
 20
52.814033
  0
POINT
  8
寸法
 62
     0
 10
56.879652
 20
56.147508
  0
TEXT
  7
TextStyle03
  8
寸法
  6
CONTINUOUS
 62
     0
 10
59.85
 20
57.2375
  1
100
 40
3.0
 50
90.0
 72
     5
 11
59.85
 21
62.1125
  0
ENDBLK
  0
BLOCK
  2
*DIM_0008
 70
    65
 10
0.0
 20
0.0
  0
LINE
  8
寸法
  6
BYBLOCK
 62
     0
 10
113.288907
 20
19.480558
 11
56.879652
 21
19.480558
  0
LINE
  8
寸法
  6
BYBLOCK
 62
     0
 10
56.879652
 20
22.814033
 11
56.879652
 21
19.480558
  0
POINT
  8
寸法
 62
     0
 10
56.879652
 20
22.814033
  0
POINT
  8
寸法
 62
     0
 10
56.879652
 20
19.480558
  0
TEXT
  7
TextStyle03
  8
寸法
  6
CONTINUOUS
 62
     0
 10
59.85
 20
13.5125
  1
100
 40
3.0
 50
90.0
 72
     5
 11
59.85
 21
18.3875
  0
ENDBLK
  0
BLOCK
  2
*DIM_0009
 70
    65
 10
0.0
 20
0.0
  0
LINE
  8
寸法
  6
BYBLOCK
 62
     0
 10
24.736542
 20
-72.60973
 11
24.736542
 21
-13.121378
  0
LINE
  8
寸法
  6
BYBLOCK
 62
     0
 10
21.403067
 20
-13.121378
 11
24.736542
 21
-13.121378
  0
POINT
  8
寸法
 62
     0
 10
21.403067
 20
-13.121378
  0
POINT
  8
寸法
 62
     0
 10
24.736542
 20
-13.121378
  0
TEXT
  7
TextStyle03
  8
寸法
  6
CONTINUOUS
 62
     0
 10
25.7375
 20
-16.025
  1
100
 40
3.0
 72
     5
 11
30.6125
 21
-16.025
  0
ENDBLK
  0
BLOCK
  2
*DIM_0010
 70
    65
 10
0.0
 20
0.0
  0
LINE
  8
寸法
  6
BYBLOCK
 62
     0
 10
-81.930408
 20
-72.60973
 11
-81.930408
 21
-13.121378
  0
LINE
  8
寸法
  6
BYBLOCK
 62
     0
 10
-78.596933
 20
-13.121378
 11
-81.930408
 21
-13.121378
  0
POINT
  8
寸法
 62
     0
 10
-78.596933
 20
-13.121378
  0
POINT
  8
寸法
 62
     0
 10
-81.930408
 20
-13.121378
  0
TEXT
  7
TextStyle03
  8
寸法
  6
CONTINUOUS
 62
     0
 10
-87.8125
 20
-16.025
  1
100
 40
3.0
 72
     5
 11
-82.9375
 21
-16.025
  0
ENDBLK
  0
BLOCK
  2
*DIM_0011
 70
    65
 10
0.0
 20
0.0
  0
LINE
  8
寸法
  6
BYBLOCK
 62
     0
 10
160.91659
 20
-84.654215
 11
166.877572
 21
-84.654215
  0
LINE
  8
寸法
  6
BYBLOCK
 62
     0
 10
160.91659
 20
-54.487547
 11
166.877572
 21
-54.487547
  0
LINE
  8
寸法
  6
BYBLOCK
 62
     0
 10
166.877572
 20
-84.654215
 11
166.877572
 21
-54.487547
  0
POINT
  8
寸法
 62
     0
 10
166.877572
 20
-84.654215
  0
POINT
  8
寸法
 62
     0
 10
166.877572
 20
-54.487547
  0
TEXT
  7
TextStyle03
  8
寸法
  6
CONTINUOUS
 62
     0
 10
166.5
 20
-72.0125
  1
905
 40
3.0
 50
90.0
 72
     5
 11
166.5
 21
-67.1375
  0
ENDBLK
  0
BLOCK
  2
*DIM_0012
 70
    65
 10
0.0
 20
0.0
  0
LINE
  8
寸法
  6
BYBLOCK
 62
     0
 10
125.249922
 20
-51.487547
 11
125.249922
 21
-46.112457
  0
LINE
  8
寸法
  6
BYBLOCK
 62
     0
 10
157.91659
 20
-51.487547
 11
157.91659
 21
-46.112457
  0
LINE
  8
寸法
  6
BYBLOCK
 62
     0
 10
125.249922
 20
-46.112457
 11
157.91659
 21
-46.112457
  0
POINT
  8
寸法
 62
     0
 10
125.249922
 20
-46.112457
  0
POINT
  8
寸法
 62
     0
 10
157.91659
 20
-46.112457
  0
TEXT
  7
TextStyle03
  8
寸法
  6
CONTINUOUS
 62
     0
 10
139.1375
 20
-45.75
  1
980
 40
3.0
 72
     5
 11
144.0125
 21
-45.75
  0
ENDBLK
  0
BLOCK
  2
*DIM_0013
 70
    65
 10
0.0
 20
0.0
  0
LINE
  8
寸法
  6
BYBLOCK
 62
     0
 10
-81.596933
 20
47.814033
 11
-94.88977
 21
47.814033
  0
LINE
  8
寸法
  6
BYBLOCK
 62
     0
 10
-81.596933
 20
27.814033
 11
-94.88977
 21
27.814033
  0
LINE
  8
寸法
  6
BYBLOCK
 62
     0
 10
-94.88977
 20
47.814033
 11
-94.88977
 21
27.814033
  0
POINT
  8
寸法
 62
     0
 10
-94.88977
 20
47.814033
  0
POINT
  8
寸法
 62
     0
 10
-94.88977
 20
27.814033
  0
TEXT
  7
TextStyle03
  8
寸法
  6
CONTINUOUS
 62
     0
 10
-95.25
 20
35.3625
  1
600
 40
3.0
 50
90.0
 72
     5
 11
-95.25
 21
40.2375
  0
ENDBLK
  0
BLOCK
  2
*DIM_0014
 70
    65
 10
0.0
 20
0.0
  0
LINE
  8
寸法
  6
BYBLOCK
 62
     0
 10
-68.596933
 20
55.814033
 11
-68.596933
 21
84.922105
  0
LINE
  8
寸法
  6
BYBLOCK
 62
     0
 10
-41.930265
 20
55.814033
 11
-41.930265
 21
84.922105
  0
LINE
  8
寸法
  6
BYBLOCK
 62
     0
 10
-68.596933
 20
84.922105
 11
-41.930265
 21
84.922105
  0
POINT
  8
寸法
 62
     0
 10
-68.596933
 20
84.922105
  0
POINT
  8
寸法
 62
     0
 10
-41.930265
 20
84.922105
  0
TEXT
  7
TextStyle03
  8
寸法
  6
CONTINUOUS
 62
     0
 10
-57.7125
 20
85.3
  1
800
 40
3.0
 72
     5
 11
-52.8375
 21
85.3
  0
ENDBLK
  0
BLOCK
  2
*DIM_0015
 70
    65
 10
0.0
 20
0.0
  0
LINE
  8
寸法
  6
BYBLOCK
 62
     0
 10
-15.2636
 20
55.814033
 11
-15.2636
 21
84.922105
  0
LINE
  8
寸法
  6
BYBLOCK
 62
     0
 10
-41.930265
 20
84.922105
 11
-15.2636
 21
84.922105
  0
POINT
  8
寸法
 62
     0
 10
-15.2636
 20
84.922105
  0
TEXT
  7
TextStyle03
  8
寸法
  6
CONTINUOUS
 62
     0
 10
-31.0375
 20
85.3
  1
800
 40
3.0
 72
     5
 11
-26.1625
 21
85.3
  0
ENDBLK
  0
BLOCK
  2
*DIM_0016
 70
    65
 10
0.0
 20
0.0
  0
LINE
  8
寸法
  6
BYBLOCK
 62
     0
 10
11.403067
 20
55.814033
 11
11.403067
 21
84.922105
  0
LINE
  8
寸法
  6
BYBLOCK
 62
     0
 10
-15.2636
 20
84.922105
 11
11.403067
 21
84.922105
  0
POINT
  8
寸法
 62
     0
 10
11.403067
 20
84.922105
  0
TEXT
  7
TextStyle03
  8
寸法
  6
CONTINUOUS
 62
     0
 10
-4.3625
 20
85.3
  1
800
 40
3.0
 72
     5
 11
0.5125
 21
85.3
  0
ENDBLK
  0
BLOCK
  2
*GRP_0017
 70
    65
 10
0.0
 20
0.0
  0
LINE
  8
別途部材
  6
CONTINUOUS
 62
    96
 10
114.922218
 20
54.047693
 11
114.922218
 21
53.947693
  0
LINE
  8
別途部材
  6
CONTINUOUS
 62
    96
 10
112.821138
 20
54.147693
 11
112.89081
 21
55.478498
  0
LINE
  8
別途部材
  6
CONTINUOUS
 62
    96
 10
113.438883
 20
55.487693
 11
113.322218
 21
55.754357
  0
LINE
  8
別途部材
  6
CONTINUOUS
 62
    96
 10
113.338883
 20
55.466775
 11
113.271363
 21
55.621107
  0
LINE
  8
別途部材
  6
CONTINUOUS
 62
    96
 10
112.79204
 20
55.504613
 11
112.92249
 21
55.764815
  0
LINE
  8
別途部材
  6
CONTINUOUS
 62
    96
 10
112.89081
 20
55.478498
 11
113.02297
 21
55.742108
  0
LINE
  8
別途部材
  6
CONTINUOUS
 62
    96
 10
113.058573
 20
55.677227
 11
112.994925
 21
55.600098
  0
LINE
  8
別途部材
  6
DASHDOTX2
 62
    96
 10
113.122218
 20
55.754357
 11
112.808733
 21
55.754357
  0
LINE
  8
別途部材
  6
DASHDOTX2
 62
    96
 10
113.122218
 20
55.754357
 11
113.452678
 21
55.754357
  0
LINE
  8
別途部材
  6
DASHDOTX2
 62
    96
 10
113.122218
 20
55.754357
 11
113.122218
 21
55.490887
  0
LINE
  8
別途部材
  6
DASHDOTX2
 62
    96
 10
113.122218
 20
55.754357
 11
113.122218
 21
56.032668
  0
LINE
  8
別途部材
  6
CONTINUOUS
 62
    96
 10
113.338883
 20
53.947693
 11
113.338883
 21
55.466775
  0
LINE
  8
別途部材
  6
CONTINUOUS
 62
    96
 10
113.438883
 20
54.047693
 11
113.438883
 21
55.487693
  0
LINE
  8
別途部材
  6
CONTINUOUS
 62
    96
 10
111.587803
 20
54.247693
 11
112.726235
 21
54.247693
  0
LINE
  8
別途部材
  6
CONTINUOUS
 62
    96
 10
111.587803
 20
54.147693
 11
111.587803
 21
54.247693
  0
LINE
  8
別途部材
  6
CONTINUOUS
 62
    96
 10
111.587803
 20
54.147693
 11
112.821138
 21
54.147693
  0
CIRCLE
  8
別途部材
  6
CONTINUOUS
 62
    96
 10
113.122218
 20
55.754357
 40
0.1
  0
ARC
  8
別途部材
  6
CONTINUOUS
 62
    96
 10
113.122215
 20
55.75436
 40
0.2
 50
218.780606
 51
537.001556
  0
LINE
  8
別途部材
  6
CONTINUOUS
 62
    96
 10
113.338883
 20
53.947693
 11
114.922218
 21
53.947693
  0
LINE
  8
別途部材
  6
CONTINUOUS
 62
    96
 10
113.438883
 20
54.047693
 11
114.922218
 21
54.047693
  0
LINE
  8
別途部材
  6
CONTINUOUS
 62
    96
 10
112.79204
 20
55.504613
 11
112.726235
 21
54.247693
  0
ENDBLK
  0
BLOCK
  2
*DIM_0018
 70
    65
 10
0.0
 20
0.0
  0
LINE
  8
寸法
  6
CONTINUOUS
 10
29.736542
 20
-76.10973
 11
35.3697
 21
-76.10973
  0
LINE
  8
寸法
  6
CONTINUOUS
 10
28.0896
 20
-69.593182
 11
35.3697
 21
-69.593182
  0
LINE
  8
寸法
  6
CONTINUOUS
 10
35.3697
 20
-76.10973
 11
35.3697
 21
-69.593182
  0
POINT
  8
寸法
 10
35.3697
 20
-76.10973
  0
POINT
  8
寸法
 10
35.3697
 20
-69.593182
  0
TEXT
  7
TextStyle03
  8
寸法
  6
CONTINUOUS
 10
39.475
 20
-78.375
  1
195.5
 40
4.0
 50
90.0
 72
     5
 11
39.475
 21
-67.375
  0
ENDBLK
  0
ENDSEC
  0
SECTION
  2
ENTITIES
  0
POLYLINE
  8
通り芯
  6
CONTINUOUS
 66
     1
 70
     1
  0
VERTEX
  8
通り芯
 10
-210.0
 20
-148.5
  0
VERTEX
  8
通り芯
 10
210.0
 20
-148.5
  0
VERTEX
  8
通り芯
 10
210.0
 20
148.5
  0
VERTEX
  8
通り芯
 10
-210.0
 20
148.5
  0
SEQEND
  0
INSERT
  2
*GRP_0001
  8
型材断面
  6
CONTINUOUS
 10
0.0
 20
0.0
  0
LINE
  8
型材断面
  6
DASHDOT
 10
21.403067
 20
-77.836442
 11
21.403067
 21
52.814033
  0
LINE
  8
型材断面
  6
DASHDOT
 10
-28.596933
 20
-77.836442
 11
-28.596933
 21
52.814033
  0
LINE
  8
型材断面
  6
DASHDOT
 10
-78.596933
 20
-77.836442
 11
-78.596933
 21
52.814033
  0
LINE
  8
型材断面
  6
DASHDOT
 10
119.07983
 20
52.814033
 11
-78.596933
 21
52.814033
  0
LINE
  8
型材断面
  6
DASHDOT
 10
119.07983
 20
37.814033
 11
-78.596933
 21
37.814033
  0
LINE
  8
型材断面
  6
DASHDOT
 10
119.07983
 20
22.814033
 11
-78.596933
 21
22.814033
  0
LINE
  8
型材断面
  6
CONTINUOUS
 10
-61.930265
 20
55.444162
 11
-63.425895
 21
58.03467
  0
LINE
  8
型材断面
  6
CONTINUOUS
 10
-61.930265
 20
55.444162
 11
-60.434635
 21
58.03467
  0
LINE
  8
型材断面
  6
CONTINUOUS
 10
-60.434635
 20
58.03467
 11
-63.425895
 21
58.03467
  0
LINE
  8
型材断面
  6
CONTINUOUS
 10
-81.227063
 20
37.814033
 11
-83.81757
 21
39.309663
  0
LINE
  8
型材断面
  6
CONTINUOUS
 10
-81.227063
 20
37.814033
 11
-83.81757
 21
36.318403
  0
LINE
  8
型材断面
  6
CONTINUOUS
 10
-83.81757
 20
36.318403
 11
-83.81757
 21
39.309663
  0
LINE
  8
型材断面
  6
CONTINUOUS
 10
-61.930265
 20
20.183902
 11
-63.425895
 21
17.593395
  0
LINE
  8
型材断面
  6
CONTINUOUS
 10
-61.930265
 20
20.183902
 11
-60.434635
 21
17.593395
  0
LINE
  8
型材断面
  6
CONTINUOUS
 10
-60.434635
 20
17.593395
 11
-63.425895
 21
17.593395
  0
LINE
  8
型材断面
  6
CONTINUOUS
 10
-132.475455
 20
90.791505
 11
-131.8794
 21
88.200998
  0
LINE
  8
型材断面
  6
CONTINUOUS
 10
-132.475455
 20
90.791505
 11
-133.071512
 21
88.200998
  0
LINE
  8
型材断面
  6
CONTINUOUS
 10
-133.071512
 20
88.200998
 11
-131.8794
 21
88.200998
  0
LINE
  8
型材断面
  6
CONTINUOUS
 10
-138.498042
 20
84.922105
 11
-92.256265
 21
84.922105
  0
LINE
  8
型材断面
  6
CONTINUOUS
 10
-132.475455
 20
97.32138
 11
-133.971085
 21
94.730873
  0
LINE
  8
型材断面
  6
CONTINUOUS
 10
-132.475455
 20
97.32138
 11
-130.979825
 21
94.730873
  0
LINE
  8
型材断面
  6
CONTINUOUS
 10
-130.979825
 20
94.730873
 11
-133.971085
 21
94.730873
  0
LINE
  8
型材断面
  6
CONTINUOUS
 10
-138.498042
 20
93.792277
 11
-92.256265
 21
93.792277
  0
LINE
  8
型材断面
  6
CONTINUOUS
 10
-138.498042
 20
79.134073
 11
-92.256265
 21
79.134073
  0
LINE
  8
型材断面
  6
CONTINUOUS
 10
4.7364
 20
55.444162
 11
6.23203
 21
58.03467
  0
LINE
  8
型材断面
  6
CONTINUOUS
 10
4.7364
 20
55.444162
 11
3.24077
 21
58.03467
  0
LINE
  8
型材断面
  6
CONTINUOUS
 10
3.24077
 20
58.03467
 11
6.23203
 21
58.03467
  0
LINE
  8
型材断面
  6
CONTINUOUS
 10
4.7364
 20
20.183902
 11
6.23203
 21
17.593395
  0
LINE
  8
型材断面
  6
CONTINUOUS
 10
4.7364
 20
20.183902
 11
3.24077
 21
17.593395
  0
LINE
  8
型材断面
  6
CONTINUOUS
 10
3.24077
 20
17.593395
 11
6.23203
 21
17.593395
  0
POLYLINE
  8
型材断面
  6
DASHDOT
 66
     1
  0
VERTEX
  8
型材断面
 10
-78.596933
 20
22.814033
  0
VERTEX
  8
型材断面
 10
-28.596933
 20
52.814033
  0
VERTEX
  8
型材断面
 10
21.403067
 20
22.814033
  0
SEQEND
  0
LINE
  8
型材断面
  6
CONTINUOUS
 10
19.403067
 20
20.20722
 11
18.80701
 21
17.616715
  0
LINE
  8
型材断面
  6
CONTINUOUS
 10
19.403067
 20
20.20722
 11
19.999125
 21
17.616715
  0
LINE
  8
型材断面
  6
CONTINUOUS
 10
19.999125
 20
17.616715
 11
18.80701
 21
17.616715
  0
LINE
  8
型材断面
  6
CONTINUOUS
 10
-76.596933
 20
20.20722
 11
-76.000875
 21
17.616715
  0
LINE
  8
型材断面
  6
CONTINUOUS
 10
-76.596933
 20
20.20722
 11
-77.19299
 21
17.616715
  0
LINE
  8
型材断面
  6
CONTINUOUS
 10
-77.19299
 20
17.616715
 11
-76.000875
 21
17.616715
  0
LINE
  8
型材断面
  6
CONTINUOUS
 62
    47
 10
22.726403
 20
-72.149742
 11
22.736403
 21
-72.139743
  0
LINE
  8
型材断面
  6
CONTINUOUS
 62
    47
 10
22.726403
 20
-72.149742
 11
22.736403
 21
-72.159742
  0
LINE
  8
型材断面
  6
CONTINUOUS
 62
    47
 10
22.726403
 20
-72.791975
 11
22.736403
 21
-72.781975
  0
LINE
  8
型材断面
  6
CONTINUOUS
 62
    47
 10
22.726403
 20
-72.791975
 11
22.736403
 21
-72.801975
  0
LINE
  8
型材断面
  6
CONTINUOUS
 62
    47
 10
22.736403
 20
-73.209742
 11
22.736403
 21
-72.801975
  0
LINE
  8
型材断面
  6
CONTINUOUS
 62
    47
 10
22.736403
 20
-72.781975
 11
22.736403
 21
-72.159742
  0
LINE
  8
型材断面
  6
CONTINUOUS
 62
    47
 10
22.736403
 20
-72.139743
 11
22.736403
 21
-71.443058
  0
LINE
  8
型材断面
  6
CONTINUOUS
 62
    47
 10
24.00321
 20
-73.276068
 11
24.00321
 21
-73.442698
  0
LINE
  8
型材断面
  6
CONTINUOUS
 62
    47
 10
22.526542
 20
-74.343073
 11
22.536542
 21
-74.333072
  0
LINE
  8
型材断面
  6
CONTINUOUS
 62
    47
 10
22.526542
 20
-74.343073
 11
22.536542
 21
-74.353072
  0
LINE
  8
型材断面
  6
CONTINUOUS
 62
    47
 10
22.526542
 20
-74.809747
 11
22.536542
 21
-74.799748
  0
LINE
  8
型材断面
  6
CONTINUOUS
 62
    47
 10
22.526542
 20
-74.809747
 11
22.536542
 21
-74.819747
  0
LINE
  8
型材断面
  6
CONTINUOUS
 62
    47
 10
22.536542
 20
-73.709723
 11
22.536542
 21
-74.333072
  0
LINE
  8
型材断面
  6
CONTINUOUS
 62
    47
 10
22.536542
 20
-74.353072
 11
22.536542
 21
-74.799748
  0
LINE
  8
型材断面
  6
CONTINUOUS
 62
    47
 10
24.736542
 20
-75.60973
 11
24.736542
 21
-76.109732
  0
LINE
  8
型材断面
  6
CONTINUOUS
 62
    47
 10
24.23655
 20
-76.443062
 11
24.23655
 21
-76.109732
  0
LINE
  8
型材断面
  6
CONTINUOUS
 62
    47
 10
24.736542
 20
-75.60973
 11
22.536542
 21
-75.443062
  0
LINE
  8
型材断面
  6
CONTINUOUS
 62
    47
 10
21.803067
 20
-75.443062
 11
22.469875
 21
-75.443062
  0
LINE
  8
型材断面
  6
CONTINUOUS
 62
    47
 10
22.526542
 20
-75.343063
 11
22.536542
 21
-75.333062
  0
LINE
  8
型材断面
  6
CONTINUOUS
 62
    47
 10
22.526542
 20
-75.343063
 11
22.536542
 21
-75.353063
  0
LINE
  8
型材断面
  6
CONTINUOUS
 62
    47
 10
22.536542
 20
-75.443062
 11
22.536542
 21
-75.353063
  0
LINE
  8
型材断面
  6
CONTINUOUS
 62
    47
 10
22.536542
 20
-74.819747
 11
22.536542
 21
-75.333062
  0
LINE
  8
型材断面
  6
CONTINUOUS
 62
    47
 10
24.00321
 20
-73.709723
 11
24.00321
 21
-73.576405
  0
LINE
  8
型材断面
  6
CONTINUOUS
 62
    47
 10
22.736403
 20
-73.209742
 11
24.00321
 21
-73.276068
  0
LINE
  8
型材断面
  6
CONTINUOUS
 62
    47
 10
24.23655
 20
-76.443062
 11
-28.596933
 21
-76.443062
  0
LINE
  8
型材断面
  6
CONTINUOUS
 62
    47
 10
24.736542
 20
-76.109732
 11
-28.596933
 21
-76.109732
  0
LINE
  8
型材断面
  6
CONTINUOUS
 10
24.736542
 20
-75.60973
 11
-28.596933
 21
-75.60973
  0
LINE
  8
型材断面
  6
CONTINUOUS
 10
22.536542
 20
-75.443062
 11
-28.596933
 21
-75.443062
  0
LINE
  8
型材断面
  6
CONTINUOUS
 10
24.00321
 20
-73.276068
 11
-28.596933
 21
-73.276068
  0
LINE
  8
型材断面
  6
CONTINUOUS
 62
    47
 10
24.00321
 20
-73.576405
 11
-28.596933
 21
-73.576405
  0
LINE
  8
型材断面
  6
CONTINUOUS
 62
    47
 10
24.00321
 20
-73.442698
 11
-28.596933
 21
-73.442698
  0
LINE
  8
型材断面
  6
CONTINUOUS
 62
    47
 10
24.00321
 20
-73.709723
 11
-28.596933
 21
-73.709723
  0
LINE
  8
型材断面
  6
CONTINUOUS
 10
22.736403
 20
-73.209742
 11
-28.596933
 21
-73.209742
  0
LINE
  8
型材断面
  6
CONTINUOUS
 62
    47
 10
-79.920268
 20
-72.149742
 11
-79.930267
 21
-72.139743
  0
LINE
  8
型材断面
  6
CONTINUOUS
 62
    47
 10
-79.920268
 20
-72.149742
 11
-79.930267
 21
-72.159742
  0
LINE
  8
型材断面
  6
CONTINUOUS
 62
    47
 10
-79.920268
 20
-72.791975
 11
-79.930267
 21
-72.781975
  0
LINE
  8
型材断面
  6
CONTINUOUS
 62
    47
 10
-79.920268
 20
-72.791975
 11
-79.930267
 21
-72.801975
  0
LINE
  8
型材断面
  6
CONTINUOUS
 62
    47
 10
-79.930267
 20
-73.209742
 11
-79.930267
 21
-72.801975
  0
LINE
  8
型材断面
  6
CONTINUOUS
 62
    47
 10
-79.930267
 20
-72.781975
 11
-79.930267
 21
-72.159742
  0
LINE
  8
型材断面
  6
CONTINUOUS
 62
    47
 10
-79.930267
 20
-72.139743
 11
-79.930267
 21
-71.443058
  0
LINE
  8
型材断面
  6
CONTINUOUS
 62
    47
 10
-81.197075
 20
-73.276068
 11
-81.197075
 21
-73.442698
  0
LINE
  8
型材断面
  6
CONTINUOUS
 62
    47
 10
-79.720407
 20
-74.343073
 11
-79.730407
 21
-74.333072
  0
LINE
  8
型材断面
  6
CONTINUOUS
 62
    47
 10
-79.720407
 20
-74.343073
 11
-79.730407
 21
-74.353072
  0
LINE
  8
型材断面
  6
CONTINUOUS
 62
    47
 10
-79.720407
 20
-74.809747
 11
-79.730407
 21
-74.799748
  0
LINE
  8
型材断面
  6
CONTINUOUS
 62
    47
 10
-79.720407
 20
-74.809747
 11
-79.730407
 21
-74.819747
  0
LINE
  8
型材断面
  6
CONTINUOUS
 62
    47
 10
-79.730407
 20
-73.709723
 11
-79.730407
 21
-74.333072
  0
LINE
  8
型材断面
  6
CONTINUOUS
 62
    47
 10
-79.730407
 20
-74.353072
 11
-79.730407
 21
-74.799748
  0
LINE
  8
型材断面
  6
CONTINUOUS
 62
    47
 10
-81.930408
 20
-75.60973
 11
-81.930408
 21
-76.109732
  0
LINE
  8
型材断面
  6
CONTINUOUS
 62
    47
 10
-81.430415
 20
-76.443062
 11
-81.430415
 21
-76.109732
  0
LINE
  8
型材断面
  6
CONTINUOUS
 62
    47
 10
-81.930408
 20
-75.60973
 11
-79.730407
 21
-75.443062
  0
LINE
  8
型材断面
  6
CONTINUOUS
 62
    47
 10
-78.996933
 20
-75.443062
 11
-79.66374
 21
-75.443062
  0
LINE
  8
型材断面
  6
CONTINUOUS
 62
    47
 10
-79.720407
 20
-75.343063
 11
-79.730407
 21
-75.333062
  0
LINE
  8
型材断面
  6
CONTINUOUS
 62
    47
 10
-79.720407
 20
-75.343063
 11
-79.730407
 21
-75.353063
  0
LINE
  8
型材断面
  6
CONTINUOUS
 62
    47
 10
-79.730407
 20
-75.443062
 11
-79.730407
 21
-75.353063
  0
LINE
  8
型材断面
  6
CONTINUOUS
 62
    47
 10
-79.730407
 20
-74.819747
 11
-79.730407
 21
-75.333062
  0
LINE
  8
型材断面
  6
CONTINUOUS
 62
    47
 10
-81.197075
 20
-73.709723
 11
-81.197075
 21
-73.576405
  0
LINE
  8
型材断面
  6
CONTINUOUS
 62
    47
 10
-79.930267
 20
-73.209742
 11
-81.197075
 21
-73.276068
  0
LINE
  8
型材断面
  6
CONTINUOUS
 62
    47
 10
-81.430415
 20
-76.443062
 11
-28.596933
 21
-76.443062
  0
LINE
  8
型材断面
  6
CONTINUOUS
 62
    47
 10
-81.930408
 20
-76.109732
 11
-28.596933
 21
-76.109732
  0
LINE
  8
型材断面
  6
CONTINUOUS
 10
-81.930408
 20
-75.60973
 11
-28.596933
 21
-75.60973
  0
LINE
  8
型材断面
  6
CONTINUOUS
 10
-79.730407
 20
-75.443062
 11
-28.596933
 21
-75.443062
  0
LINE
  8
型材断面
  6
CONTINUOUS
 10
-81.197075
 20
-73.276068
 11
-28.596933
 21
-73.276068
  0
LINE
  8
型材断面
  6
CONTINUOUS
 62
    47
 10
-81.197075
 20
-73.576405
 11
-28.596933
 21
-73.576405
  0
LINE
  8
型材断面
  6
CONTINUOUS
 62
    47
 10
-81.197075
 20
-73.442698
 11
-28.596933
 21
-73.442698
  0
LINE
  8
型材断面
  6
CONTINUOUS
 62
    47
 10
-81.197075
 20
-73.709723
 11
-28.596933
 21
-73.709723
  0
LINE
  8
型材断面
  6
CONTINUOUS
 10
-79.930267
 20
-73.209742
 11
-28.596933
 21
-73.209742
  0
LINE
  8
型材断面
  6
CONTINUOUS
 62
    47
 10
-79.930267
 20
-71.443058
 11
-28.596933
 21
-71.443058
  0
LINE
  8
型材断面
  6
CONTINUOUS
 10
24.736542
 20
19.480558
 11
-28.596933
 21
19.480558
  0
LINE
  8
型材断面
  6
CONTINUOUS
 10
24.736542
 20
56.147508
 11
-28.596933
 21
56.147508
  0
LINE
  8
型材断面
  6
CONTINUOUS
 10
-81.930408
 20
56.147508
 11
-28.596933
 21
56.147508
  0
LINE
  8
型材断面
  6
CONTINUOUS
 10
-81.930408
 20
19.480558
 11
-28.596933
 21
19.480558
  0
LINE
  8
型材断面
  6
CONTINUOUS
 10
24.00321
 20
20.21389
 11
-28.596933
 21
20.213875
  0
LINE
  8
型材断面
  6
CONTINUOUS
 10
24.00321
 20
55.414175
 11
-28.596933
 21
55.41419
  0
LINE
  8
型材断面
  6
CONTINUOUS
 10
-81.197075
 20
55.414175
 11
-28.596933
 21
55.41419
  0
LINE
  8
型材断面
  6
CONTINUOUS
 10
-81.197075
 20
20.21389
 11
-28.596933
 21
20.213875
  0
ARC
  8
型材断面
  6
DASHDOT
 10
113.122217
 20
55.754359
 40
35.540502
 50
225.0
 51
269.918816
  0
LINE
  8
型材断面
  6
CONTINUOUS
 62
    47
 10
111.778905
 20
54.137368
 11
111.768905
 21
54.147367
  0
LINE
  8
型材断面
  6
CONTINUOUS
 62
    47
 10
111.778905
 20
54.137368
 11
111.788905
 21
54.147367
  0
LINE
  8
型材断面
  6
CONTINUOUS
 62
    47
 10
112.421138
 20
54.137368
 11
112.411138
 21
54.147367
  0
LINE
  8
型材断面
  6
CONTINUOUS
 62
    47
 10
112.421138
 20
54.137368
 11
112.431137
 21
54.147367
  0
LINE
  8
型材断面
  6
CONTINUOUS
 62
    47
 10
112.838905
 20
54.147367
 11
112.431137
 21
54.147367
  0
LINE
  8
型材断面
  6
CONTINUOUS
 62
    47
 10
112.411138
 20
54.147367
 11
111.788905
 21
54.147367
  0
LINE
  8
型材断面
  6
CONTINUOUS
 62
    47
 10
111.768905
 20
54.147367
 11
111.07222
 21
54.147367
  0
LINE
  8
型材断面
  6
CONTINUOUS
 62
    47
 10
112.90523
 20
55.414178
 11
113.071858
 21
55.414178
  0
LINE
  8
型材断面
  6
CONTINUOUS
 62
    47
 10
113.972235
 20
53.937507
 11
113.962235
 21
53.947508
  0
LINE
  8
型材断面
  6
CONTINUOUS
 62
    47
 10
113.972235
 20
53.937507
 11
113.982235
 21
53.947508
  0
LINE
  8
型材断面
  6
CONTINUOUS
 62
    47
 10
114.438907
 20
53.937507
 11
114.428908
 21
53.947508
  0
LINE
  8
型材断面
  6
CONTINUOUS
 62
    47
 10
114.438907
 20
53.937507
 11
114.448907
 21
53.947508
  0
LINE
  8
型材断面
  6
CONTINUOUS
 62
    47
 10
113.338883
 20
53.947508
 11
113.962235
 21
53.947508
  0
LINE
  8
型材断面
  6
CONTINUOUS
 62
    47
 10
113.982235
 20
53.947508
 11
114.428908
 21
53.947508
  0
LINE
  8
型材断面
  6
CONTINUOUS
 62
    47
 10
115.238892
 20
56.147508
 11
115.738892
 21
56.147508
  0
LINE
  8
型材断面
  6
CONTINUOUS
 62
    47
 10
116.072225
 20
55.647517
 11
115.738892
 21
55.647517
  0
LINE
  8
型材断面
  6
CONTINUOUS
 62
    47
 10
115.238892
 20
56.147508
 11
115.072225
 21
53.947508
  0
LINE
  8
型材断面
  6
CONTINUOUS
 62
    47
 10
115.072225
 20
53.214033
 11
115.072225
 21
53.880842
  0
LINE
  8
型材断面
  6
CONTINUOUS
 62
    47
 10
114.972225
 20
53.937507
 11
114.962225
 21
53.947508
  0
LINE
  8
型材断面
  6
CONTINUOUS
 62
    47
 10
114.972225
 20
53.937507
 11
114.982225
 21
53.947508
  0
LINE
  8
型材断面
  6
CONTINUOUS
 62
    47
 10
115.072225
 20
53.947508
 11
114.982225
 21
53.947508
  0
LINE
  8
型材断面
  6
CONTINUOUS
 62
    47
 10
114.448907
 20
53.947508
 11
114.962225
 21
53.947508
  0
LINE
  8
型材断面
  6
CONTINUOUS
 62
    47
 10
113.338883
 20
55.414175
 11
113.205567
 21
55.414175
  0
LINE
  8
型材断面
  6
CONTINUOUS
 62
    47
 10
112.838905
 20
54.147367
 11
112.90523
 21
55.414178
  0
LINE
  8
型材断面
  6
CONTINUOUS
 62
    47
 10
111.07222
 20
54.147367
 11
111.07222
 21
37.814035
  0
LINE
  8
型材断面
  6
CONTINUOUS
 62
    47
 10
113.205567
 20
55.414175
 11
113.205567
 21
37.814035
  0
LINE
  8
型材断面
  6
CONTINUOUS
 62
    47
 10
113.338883
 20
55.414175
 11
113.338883
 21
37.814035
  0
LINE
  8
型材断面
  6
CONTINUOUS
 62
    47
 10
113.071858
 20
55.414178
 11
113.071858
 21
37.814035
  0
LINE
  8
型材断面
  6
CONTINUOUS
 10
112.838905
 20
54.147367
 11
112.838905
 21
37.814035
  0
LINE
  8
型材断面
  6
CONTINUOUS
 10
112.90523
 20
55.414178
 11
112.90523
 21
37.814035
  0
LINE
  8
型材断面
  6
CONTINUOUS
 10
115.072225
 20
53.947508
 11
115.072225
 21
37.814035
  0
LINE
  8
型材断面
  6
CONTINUOUS
 10
115.238892
 20
56.147508
 11
115.238892
 21
37.814035
  0
LINE
  8
型材断面
  6
CONTINUOUS
 62
    47
 10
115.738892
 20
56.147508
 11
115.738892
 21
37.814035
  0
LINE
  8
型材断面
  6
CONTINUOUS
 62
    47
 10
116.072225
 20
55.647517
 11
116.072225
 21
37.814035
  0
LINE
  8
型材断面
  6
CONTINUOUS
 62
    47
 10
111.778905
 20
21.490703
 11
111.768905
 21
21.480703
  0
LINE
  8
型材断面
  6
CONTINUOUS
 62
    47
 10
111.778905
 20
21.490703
 11
111.788905
 21
21.480703
  0
LINE
  8
型材断面
  6
CONTINUOUS
 62
    47
 10
112.421138
 20
21.490703
 11
112.411138
 21
21.480703
  0
LINE
  8
型材断面
  6
CONTINUOUS
 62
    47
 10
112.421138
 20
21.490703
 11
112.431137
 21
21.480703
  0
LINE
  8
型材断面
  6
CONTINUOUS
 62
    47
 10
112.838905
 20
21.480703
 11
112.431137
 21
21.480703
  0
LINE
  8
型材断面
  6
CONTINUOUS
 62
    47
 10
112.411138
 20
21.480703
 11
111.788905
 21
21.480703
  0
LINE
  8
型材断面
  6
CONTINUOUS
 62
    47
 10
111.768905
 20
21.480703
 11
111.07222
 21
21.480703
  0
LINE
  8
型材断面
  6
CONTINUOUS
 62
    47
 10
112.90523
 20
20.213892
 11
113.071858
 21
20.213892
  0
LINE
  8
型材断面
  6
CONTINUOUS
 62
    47
 10
113.972235
 20
21.690562
 11
113.962235
 21
21.680563
  0
LINE
  8
型材断面
  6
CONTINUOUS
 62
    47
 10
113.972235
 20
21.690562
 11
113.982235
 21
21.680563
  0
LINE
  8
型材断面
  6
CONTINUOUS
 62
    47
 10
114.438907
 20
21.690562
 11
114.428908
 21
21.680563
  0
LINE
  8
型材断面
  6
CONTINUOUS
 62
    47
 10
114.438907
 20
21.690562
 11
114.448907
 21
21.680563
  0
LINE
  8
型材断面
  6
CONTINUOUS
 62
    47
 10
113.338883
 20
21.680563
 11
113.962235
 21
21.680563
  0
LINE
  8
型材断面
  6
CONTINUOUS
 62
    47
 10
113.982235
 20
21.680563
 11
114.428908
 21
21.680563
  0
LINE
  8
型材断面
  6
CONTINUOUS
 62
    47
 10
115.238892
 20
19.480563
 11
115.738892
 21
19.480563
  0
LINE
  8
型材断面
  6
CONTINUOUS
 62
    47
 10
116.072225
 20
19.980552
 11
115.738892
 21
19.980552
  0
LINE
  8
型材断面
  6
CONTINUOUS
 62
    47
 10
115.238892
 20
19.480563
 11
115.072225
 21
21.680563
  0
LINE
  8
型材断面
  6
CONTINUOUS
 62
    47
 10
115.072225
 20
22.414038
 11
115.072225
 21
21.747228
  0
LINE
  8
型材断面
  6
CONTINUOUS
 62
    47
 10
114.972225
 20
21.690562
 11
114.962225
 21
21.680563
  0
LINE
  8
型材断面
  6
CONTINUOUS
 62
    47
 10
114.972225
 20
21.690562
 11
114.982225
 21
21.680563
  0
LINE
  8
型材断面
  6
CONTINUOUS
 62
    47
 10
115.072225
 20
21.680563
 11
114.982225
 21
21.680563
  0
LINE
  8
型材断面
  6
CONTINUOUS
 62
    47
 10
114.448907
 20
21.680563
 11
114.962225
 21
21.680563
  0
LINE
  8
型材断面
  6
CONTINUOUS
 62
    47
 10
113.338883
 20
20.213895
 11
113.205567
 21
20.213895
  0
LINE
  8
型材断面
  6
CONTINUOUS
 62
    47
 10
112.838905
 20
21.480703
 11
112.90523
 21
20.213892
  0
LINE
  8
型材断面
  6
CONTINUOUS
 62
    47
 10
111.07222
 20
21.480703
 11
111.07222
 21
37.814035
  0
LINE
  8
型材断面
  6
CONTINUOUS
 62
    47
 10
113.205567
 20
20.213895
 11
113.205567
 21
37.814035
  0
LINE
  8
型材断面
  6
CONTINUOUS
 62
    47
 10
113.338883
 20
20.213895
 11
113.338883
 21
37.814035
  0
LINE
  8
型材断面
  6
CONTINUOUS
 62
    47
 10
113.071858
 20
20.213892
 11
113.071858
 21
37.814035
  0
LINE
  8
型材断面
  6
CONTINUOUS
 10
112.838905
 20
21.480703
 11
112.838905
 21
37.814035
  0
LINE
  8
型材断面
  6
CONTINUOUS
 10
112.90523
 20
20.213892
 11
112.90523
 21
37.814035
  0
LINE
  8
型材断面
  6
CONTINUOUS
 10
115.072225
 20
21.680563
 11
115.072225
 21
37.814035
  0
LINE
  8
型材断面
  6
CONTINUOUS
 10
115.238892
 20
19.480563
 11
115.238892
 21
37.814035
  0
LINE
  8
型材断面
  6
CONTINUOUS
 62
    47
 10
115.738892
 20
19.480563
 11
115.738892
 21
37.814035
  0
LINE
  8
型材断面
  6
CONTINUOUS
 62
    47
 10
116.072225
 20
19.980552
 11
116.072225
 21
37.814035
  0
LINE
  8
型材断面
  6
CONTINUOUS
 10
109.389012
 20
21.284025
 11
110.889012
 21
21.284025
  0
LINE
  8
型材断面
  6
CONTINUOUS
 10
109.389012
 20
21.127503
 11
109.222345
 21
21.127503
  0
LINE
  8
型材断面
  6
CONTINUOUS
 62
    47
 10
110.889012
 20
21.284025
 11
110.889012
 21
37.814035
  0
LINE
  8
型材断面
  6
CONTINUOUS
 62
    47
 10
109.389012
 20
21.127503
 11
109.389012
 21
37.814035
  0
LINE
  8
型材断面
  6
CONTINUOUS
 62
    47
 10
109.222345
 20
21.127503
 11
109.222345
 21
37.814035
  0
LINE
  8
型材断面
  6
CONTINUOUS
 10
109.389012
 20
54.344045
 11
110.889012
 21
54.344045
  0
LINE
  8
型材断面
  6
CONTINUOUS
 10
109.389012
 20
54.500568
 11
109.222345
 21
54.500568
  0
LINE
  8
型材断面
  6
CONTINUOUS
 62
    47
 10
110.889012
 20
54.344045
 11
110.889012
 21
37.814035
  0
LINE
  8
型材断面
  6
CONTINUOUS
 62
    47
 10
109.389012
 20
54.500568
 11
109.389012
 21
37.814035
  0
LINE
  8
型材断面
  6
CONTINUOUS
 62
    47
 10
109.222345
 20
54.500568
 11
109.222345
 21
37.814035
  0
LINE
  8
型材断面
  6
DOT
 62
    47
 10
111.028967
 20
55.560837
 11
111.028967
 21
55.57498
  0
LINE
  8
型材断面
  6
DOT
 62
    47
 10
111.028967
 20
55.560837
 11
111.04311
 21
55.560837
  0
LINE
  8
型材断面
  6
DOT
 62
    47
 10
111.483093
 20
55.106712
 11
111.483093
 21
55.120855
  0
LINE
  8
型材断面
  6
DOT
 62
    47
 10
111.483093
 20
55.106712
 11
111.497235
 21
55.106712
  0
LINE
  8
型材断面
  6
DOT
 62
    47
 10
111.785572
 20
54.818377
 11
111.497235
 21
55.106712
  0
LINE
  8
型材断面
  6
DOT
 62
    47
 10
111.483093
 20
55.120855
 11
111.04311
 21
55.560837
  0
LINE
  8
型材断面
  6
DOT
 62
    47
 10
111.028967
 20
55.57498
 11
110.536338
 21
56.067612
  0
LINE
  8
型材断面
  6
DOT
 62
    47
 10
112.728238
 20
55.667247
 11
112.846062
 21
55.549423
  0
LINE
  8
型材断面
  6
DOT
 62
    47
 10
111.785572
 20
54.818377
 11
112.728238
 21
55.667247
  0
LINE
  8
型材断面
  6
DOT
 62
    47
 10
110.345425
 20
55.8767
 11
110.180352
 21
56.041772
  0
LINE
  8
型材断面
  6
DOT
 62
    47
 10
110.536338
 20
56.067612
 11
98.986927
 21
44.5182
  0
LINE
  8
型材断面
  6
DOT
 62
    47
 10
112.846062
 20
55.549423
 11
100.400883
 21
43.104242
  0
LINE
  8
型材断面
  6
DOT
 10
111.785572
 20
54.818377
 11
100.23616
 21
43.268965
  0
LINE
  8
型材断面
  6
DOT
 10
112.728238
 20
55.667247
 11
100.28306
 21
43.222068
  0
LINE
  8
型材断面
  6
DOT
 62
    47
 10
87.944288
 20
32.476158
 11
87.930145
 21
32.476158
  0
LINE
  8
型材断面
  6
DOT
 62
    47
 10
87.944288
 20
32.476158
 11
87.944288
 21
32.462018
  0
LINE
  8
型材断面
  6
DOT
 62
    47
 10
88.398415
 20
32.022033
 11
88.384273
 21
32.022033
  0
LINE
  8
型材断面
  6
DOT
 62
    47
 10
88.398415
 20
32.022033
 11
88.398415
 21
32.00789
  0
LINE
  8
型材断面
  6
DOT
 62
    47
 10
88.68675
 20
31.719555
 11
88.398415
 21
32.00789
  0
LINE
  8
型材断面
  6
DOT
 62
    47
 10
88.384273
 20
32.022033
 11
87.944288
 21
32.462018
  0
LINE
  8
型材断面
  6
DOT
 62
    47
 10
87.930145
 20
32.476158
 11
87.437515
 21
32.96879
  0
LINE
  8
型材断面
  6
DOT
 62
    47
 10
87.83788
 20
30.776887
 11
87.955703
 21
30.659063
  0
LINE
  8
型材断面
  6
DOT
 62
    47
 10
88.68675
 20
31.719555
 11
87.83788
 21
30.776887
  0
LINE
  8
型材断面
  6
DOT
 62
    47
 10
87.628428
 20
33.159702
 11
87.463355
 21
33.324772
  0
LINE
  8
型材断面
  6
DOT
 62
    47
 10
87.437515
 20
32.96879
 11
98.986927
 21
44.5182
  0
LINE
  8
型材断面
  6
DOT
 62
    47
 10
87.955703
 20
30.659063
 11
100.400883
 21
43.104242
  0
LINE
  8
型材断面
  6
DOT
 10
88.68675
 20
31.719555
 11
100.23616
 21
43.268965
  0
LINE
  8
型材断面
  6
DOT
 10
87.83788
 20
30.776887
 11
100.28306
 21
43.222068
  0
LINE
  8
型材断面
  6
DOT
 10
86.108235
 20
34.019928
 11
87.168895
 21
32.959267
  0
LINE
  8
型材断面
  6
DOT
 10
85.997558
 20
33.909247
 11
85.879708
 21
34.0271
  0
LINE
  8
型材断面
  6
DOT
 62
    47
 10
87.168895
 20
32.959267
 11
98.857378
 21
44.647747
  0
LINE
  8
型材断面
  6
DOT
 62
    47
 10
85.997558
 20
33.909247
 11
97.796717
 21
45.708408
  0
LINE
  8
型材断面
  6
DOT
 62
    47
 10
85.879708
 20
34.0271
 11
97.678867
 21
45.82626
  0
LINE
  8
型材断面
  6
DOT
 10
109.4852
 20
57.39689
 11
110.54586
 21
56.33623
  0
LINE
  8
型材断面
  6
DOT
 10
109.595877
 20
57.507568
 11
109.478027
 21
57.62542
  0
LINE
  8
型材断面
  6
DOT
 62
    47
 10
110.54586
 20
56.33623
 11
98.857378
 21
44.647747
  0
LINE
  8
型材断面
  6
DOT
 62
    47
 10
109.595877
 20
57.507568
 11
97.796717
 21
45.708408
  0
LINE
  8
型材断面
  6
DOT
 62
    47
 10
109.478027
 20
57.62542
 11
97.678867
 21
45.82626
  0
LINE
  8
型材断面
  6
CONTINUOUS
 10
22.93308
 20
-69.75985
 11
22.93308
 21
-71.25985
  0
LINE
  8
型材断面
  6
CONTINUOUS
 10
23.0896
 20
-69.75985
 11
23.0896
 21
-69.593182
  0
LINE
  8
型材断面
  6
CONTINUOUS
 62
    47
 10
22.736403
 20
-71.443058
 11
-28.596933
 21
-71.443058
  0
LINE
  8
型材断面
  6
CONTINUOUS
 62
    47
 10
23.0896
 20
-69.593182
 11
-28.596933
 21
-69.593182
  0
LINE
  8
型材断面
  6
CONTINUOUS
 62
    47
 10
23.0896
 20
-69.75985
 11
-28.596933
 21
-69.75985
  0
LINE
  8
型材断面
  6
CONTINUOUS
 62
    47
 10
22.93308
 20
-71.25985
 11
-28.596933
 21
-71.25985
  0
LINE
  8
型材断面
  6
CONTINUOUS
 10
-80.126945
 20
-69.75985
 11
-80.126945
 21
-71.25985
  0
LINE
  8
型材断面
  6
CONTINUOUS
 10
-80.283465
 20
-69.75985
 11
-80.283465
 21
-69.593182
  0
LINE
  8
型材断面
  6
CONTINUOUS
 62
    47
 10
-80.283465
 20
-69.593182
 11
-28.596933
 21
-69.593182
  0
LINE
  8
型材断面
  6
CONTINUOUS
 62
    47
 10
-80.283465
 20
-69.75985
 11
-28.596933
 21
-69.75985
  0
LINE
  8
型材断面
  6
CONTINUOUS
 62
    47
 10
-80.126945
 20
-71.25985
 11
-28.596933
 21
-71.25985
  0
LINE
  8
型材断面
  6
CONTINUOUS
 62
    47
 10
22.466412
 20
-71.443058
 11
22.466412
 21
-71.25985
  0
LINE
  8
型材断面
  6
CONTINUOUS
 62
    47
 10
-79.660278
 20
-71.443058
 11
-79.660278
 21
-71.25985
  0
LINE
  8
型材断面
  6
CONTINUOUS
 62
    47
 10
111.07222
 20
53.877377
 11
110.889012
 21
53.877377
  0
LINE
  8
型材断面
  6
CONTINUOUS
 62
    47
 10
111.07222
 20
21.750692
 11
110.889012
 21
21.750692
  0
LINE
  8
型材断面
  6
DASHDOT
 10
-11.7236
 20
22.814033
 11
-11.7236
 21
52.814033
  0
LINE
  8
型材断面
  6
CONTINUOUS
 10
-10.4736
 20
24.460822
 11
-12.9736
 21
24.460822
  0
LINE
  8
型材断面
  6
CONTINUOUS
 10
-10.4736
 20
24.460822
 11
-10.4736
 21
51.167243
  0
LINE
  8
型材断面
  6
CONTINUOUS
 10
-12.9736
 20
24.460822
 11
-12.9736
 21
51.167243
  0
LINE
  8
型材断面
  6
CONTINUOUS
 10
-10.4736
 20
51.167243
 11
-12.9736
 21
51.167243
  0
LINE
  8
型材断面
  6
CONTINUOUS
 10
4.423068
 20
23.627495
 11
4.423068
 21
21.127495
  0
LINE
  8
型材断面
  6
CONTINUOUS
 10
5.256402
 20
23.627495
 11
5.256402
 21
21.127495
  0
LINE
  8
型材断面
  6
CONTINUOUS
 10
-29.0136
 20
23.627495
 11
-29.0136
 21
21.127495
  0
LINE
  8
型材断面
  6
CONTINUOUS
 10
-28.180265
 20
23.627495
 11
-28.180265
 21
21.127495
  0
LINE
  8
型材断面
  6
CONTINUOUS
 10
4.423068
 20
52.00057
 11
4.423068
 21
54.50057
  0
LINE
  8
型材断面
  6
CONTINUOUS
 10
5.256402
 20
52.00057
 11
5.256402
 21
54.50057
  0
LINE
  8
型材断面
  6
CONTINUOUS
 10
-29.0136
 20
52.00057
 11
-29.0136
 21
54.50057
  0
LINE
  8
型材断面
  6
CONTINUOUS
 10
-28.180265
 20
52.00057
 11
-28.180265
 21
54.50057
  0
LINE
  8
型材断面
  6
CONTINUOUS
 10
24.73654
 20
19.48056
 11
24.73654
 21
37.814033
  0
LINE
  8
型材断面
  6
CONTINUOUS
 10
24.73654
 20
56.147505
 11
24.73654
 21
37.814033
  0
LINE
  8
型材断面
  6
CONTINUOUS
 10
24.003207
 20
55.414175
 11
24.003207
 21
37.814033
  0
LINE
  8
型材断面
  6
CONTINUOUS
 10
24.003207
 20
20.21389
 11
24.003207
 21
37.814033
  0
LINE
  8
型材断面
  6
CONTINUOUS
 10
22.8539
 20
21.127495
 11
23.089597
 21
21.363203
  0
LINE
  8
型材断面
  6
CONTINUOUS
 10
24.73654
 20
19.48056
 11
22.97175
 21
21.24535
  0
LINE
  8
型材断面
  6
CONTINUOUS
 10
20.353895
 20
23.627495
 11
22.853895
 21
21.1275
  0
LINE
  8
型材断面
  6
CONTINUOUS
 10
20.589597
 20
23.863198
 11
23.0896
 21
21.3632
  0
LINE
  8
型材断面
  6
CONTINUOUS
 10
20.3539
 20
23.6275
 11
20.589597
 21
23.863198
  0
LINE
  8
型材断面
  6
CONTINUOUS
 10
23.089597
 20
37.814033
 11
23.089597
 21
21.363203
  0
LINE
  8
型材断面
  6
CONTINUOUS
 10
23.089597
 20
37.397365
 11
20.589597
 21
37.397365
  0
LINE
  8
型材断面
  6
CONTINUOUS
 10
23.089597
 20
38.2307
 11
20.589597
 21
38.2307
  0
LINE
  8
型材断面
  6
CONTINUOUS
 10
20.589597
 20
37.397365
 11
20.589597
 21
23.863198
  0
LINE
  8
型材断面
  6
CONTINUOUS
 10
22.8539
 20
54.50057
 11
23.089597
 21
54.264862
  0
LINE
  8
型材断面
  6
CONTINUOUS
 10
24.73654
 20
56.147505
 11
22.97175
 21
54.382715
  0
LINE
  8
型材断面
  6
CONTINUOUS
 10
20.353895
 20
52.00057
 11
22.853895
 21
54.500565
  0
LINE
  8
型材断面
  6
CONTINUOUS
 10
20.589597
 20
51.764868
 11
23.0896
 21
54.264865
  0
LINE
  8
型材断面
  6
CONTINUOUS
 10
20.589597
 20
38.2307
 11
20.589597
 21
51.764868
  0
LINE
  8
型材断面
  6
CONTINUOUS
 10
20.589597
 20
51.764868
 11
20.3539
 21
52.000565
  0
LINE
  8
型材断面
  6
CONTINUOUS
 10
23.089597
 20
37.814033
 11
23.089597
 21
54.264862
  0
LINE
  8
型材断面
  6
CONTINUOUS
 10
-28.596933
 20
54.50058
 11
22.853895
 21
54.500565
  0
LINE
  8
型材断面
  6
CONTINUOUS
 10
-28.596933
 20
21.127485
 11
22.853895
 21
21.1275
  0
LINE
  8
型材断面
  6
CONTINUOUS
 10
-28.596933
 20
52.000583
 11
4.423068
 21
52.00057
  0
LINE
  8
型材断面
  6
CONTINUOUS
 10
5.256402
 20
52.00057
 11
20.35389
 21
52.000565
  0
LINE
  8
型材断面
  6
CONTINUOUS
 10
-28.596933
 20
23.627483
 11
4.423068
 21
23.627495
  0
LINE
  8
型材断面
  6
CONTINUOUS
 10
5.256402
 20
23.627495
 11
20.35389
 21
23.6275
  0
LINE
  8
型材断面
  6
CONTINUOUS
 10
24.033197
 20
37.814033
 11
26.623705
 21
39.309663
  0
LINE
  8
型材断面
  6
CONTINUOUS
 10
24.033197
 20
37.814033
 11
26.623705
 21
36.318403
  0
LINE
  8
型材断面
  6
CONTINUOUS
 10
26.623705
 20
36.318403
 11
26.623705
 21
39.309663
  0
LINE
  8
型材断面
  6
DASHDOT
 10
-45.470265
 20
22.814033
 11
-45.470265
 21
52.814033
  0
LINE
  8
型材断面
  6
CONTINUOUS
 10
-46.720265
 20
24.460822
 11
-44.220265
 21
24.460822
  0
LINE
  8
型材断面
  6
CONTINUOUS
 10
-46.720265
 20
24.460822
 11
-46.720265
 21
51.167243
  0
LINE
  8
型材断面
  6
CONTINUOUS
 10
-44.220265
 20
24.460822
 11
-44.220265
 21
51.167243
  0
LINE
  8
型材断面
  6
CONTINUOUS
 10
-46.720265
 20
51.167243
 11
-44.220265
 21
51.167243
  0
LINE
  8
型材断面
  6
CONTINUOUS
 10
-61.616932
 20
23.627495
 11
-61.616932
 21
21.127495
  0
LINE
  8
型材断面
  6
CONTINUOUS
 10
-62.450267
 20
23.627495
 11
-62.450267
 21
21.127495
  0
LINE
  8
型材断面
  6
CONTINUOUS
 10
-61.616932
 20
52.00057
 11
-61.616932
 21
54.50057
  0
LINE
  8
型材断面
  6
CONTINUOUS
 10
-62.450267
 20
52.00057
 11
-62.450267
 21
54.50057
  0
LINE
  8
型材断面
  6
CONTINUOUS
 10
-81.930405
 20
19.48056
 11
-81.930405
 21
37.814033
  0
LINE
  8
型材断面
  6
CONTINUOUS
 10
-81.930405
 20
56.147505
 11
-81.930405
 21
37.814033
  0
LINE
  8
型材断面
  6
CONTINUOUS
 10
-81.197073
 20
55.414175
 11
-81.197073
 21
37.814033
  0
LINE
  8
型材断面
  6
CONTINUOUS
 10
-81.197073
 20
20.21389
 11
-81.197073
 21
37.814033
  0
LINE
  8
型材断面
  6
CONTINUOUS
 10
-80.047765
 20
21.127495
 11
-80.283463
 21
21.363203
  0
LINE
  8
型材断面
  6
CONTINUOUS
 10
-81.930405
 20
19.48056
 11
-80.165615
 21
21.24535
  0
LINE
  8
型材断面
  6
CONTINUOUS
 10
-77.54776
 20
23.627495
 11
-80.04776
 21
21.1275
  0
LINE
  8
型材断面
  6
CONTINUOUS
 10
-77.783463
 20
23.863198
 11
-80.283465
 21
21.3632
  0
LINE
  8
型材断面
  6
CONTINUOUS
 10
-77.547765
 20
23.6275
 11
-77.783463
 21
23.863198
  0
LINE
  8
型材断面
  6
CONTINUOUS
 10
-80.283463
 20
37.814033
 11
-80.283463
 21
21.363203
  0
LINE
  8
型材断面
  6
CONTINUOUS
 10
-80.283463
 20
37.397365
 11
-77.783463
 21
37.397365
  0
LINE
  8
型材断面
  6
CONTINUOUS
 10
-80.283463
 20
38.2307
 11
-77.783463
 21
38.2307
  0
LINE
  8
型材断面
  6
CONTINUOUS
 10
-77.783463
 20
37.397365
 11
-77.783463
 21
23.863198
  0
LINE
  8
型材断面
  6
CONTINUOUS
 10
-80.047765
 20
54.50057
 11
-80.283463
 21
54.264862
  0
LINE
  8
型材断面
  6
CONTINUOUS
 10
-81.930405
 20
56.147505
 11
-80.165615
 21
54.382715
  0
LINE
  8
型材断面
  6
CONTINUOUS
 10
-77.54776
 20
52.00057
 11
-80.04776
 21
54.500565
  0
LINE
  8
型材断面
  6
CONTINUOUS
 10
-77.783463
 20
51.764868
 11
-80.283465
 21
54.264865
  0
LINE
  8
型材断面
  6
CONTINUOUS
 10
-77.783463
 20
38.2307
 11
-77.783463
 21
51.764868
  0
LINE
  8
型材断面
  6
CONTINUOUS
 10
-77.783463
 20
51.764868
 11
-77.547765
 21
52.000565
  0
LINE
  8
型材断面
  6
CONTINUOUS
 10
-80.283463
 20
37.814033
 11
-80.283463
 21
54.264862
  0
LINE
  8
型材断面
  6
CONTINUOUS
 10
-62.450267
 20
52.00057
 11
-77.547755
 21
52.000565
  0
LINE
  8
型材断面
  6
CONTINUOUS
 10
-62.450267
 20
23.627495
 11
-77.547755
 21
23.6275
  0
LINE
  8
型材断面
  6
CONTINUOUS
 10
-28.596933
 20
54.50058
 11
-80.04776
 21
54.500565
  0
LINE
  8
型材断面
  6
CONTINUOUS
 10
-28.596933
 20
52.000583
 11
-61.616932
 21
52.00057
  0
LINE
  8
型材断面
  6
CONTINUOUS
 10
-28.596933
 20
23.627483
 11
-61.616932
 21
23.627495
  0
LINE
  8
型材断面
  6
CONTINUOUS
 10
-28.596933
 20
21.127485
 11
-80.04776
 21
21.1275
  0
LINE
  8
ガラス
  6
CONTINUOUS
 10
-61.70617
 20
39.228945
 11
-64.337135
 21
36.59798
  0
LINE
  8
ガラス
  6
CONTINUOUS
 10
-62.362342
 20
37.254153
 11
-63.68096
 21
38.572775
  0
LINE
  8
ガラス
  6
CONTINUOUS
 10
-63.215387
 20
37.284605
 11
-62.198873
 21
38.30112
  0
LINE
  8
ガラス
  6
CONTINUOUS
 10
-62.827917
 20
38.542325
 11
-63.84443
 21
37.52581
  0
LINE
  8
ガラス
  6
CONTINUOUS
 10
-27.368617
 20
39.228945
 11
-29.999582
 21
36.59798
  0
LINE
  8
ガラス
  6
CONTINUOUS
 10
-28.02479
 20
37.254153
 11
-29.343408
 21
38.572775
  0
LINE
  8
ガラス
  6
CONTINUOUS
 10
-28.877835
 20
37.284605
 11
-27.86132
 21
38.30112
  0
LINE
  8
ガラス
  6
CONTINUOUS
 10
-28.490365
 20
38.542325
 11
-29.506877
 21
37.52581
  0
LINE
  8
ガラス
  6
CONTINUOUS
 10
6.670968
 20
39.228945
 11
4.040003
 21
36.59798
  0
LINE
  8
ガラス
  6
CONTINUOUS
 10
6.014795
 20
37.254153
 11
4.696177
 21
38.572775
  0
LINE
  8
ガラス
  6
CONTINUOUS
 10
5.16175
 20
37.284605
 11
6.178265
 21
38.30112
  0
LINE
  8
ガラス
  6
CONTINUOUS
 10
5.54922
 20
38.542325
 11
4.532707
 21
37.52581
  0
LINE
  8
ガラス
  6
CONTINUOUS
 10
157.91659
 20
-84.654215
 11
125.249922
 21
-84.654215
  0
LINE
  8
ガラス
  6
CONTINUOUS
 10
157.91659
 20
-84.654215
 11
157.91659
 21
-54.487547
  0
LINE
  8
ガラス
  6
CONTINUOUS
 10
157.91659
 20
-54.487547
 11
125.249922
 21
-54.487547
  0
LINE
  8
ガラス
  6
CONTINUOUS
 10
125.249922
 20
-84.654215
 11
125.249922
 21
-54.487547
  0
LINE
  8
ガラス
  6
CONTINUOUS
 10
-63.864833
 20
39.228945
 11
-61.233867
 21
36.59798
  0
LINE
  8
ガラス
  6
CONTINUOUS
 10
-63.20866
 20
37.254153
 11
-61.890042
 21
38.572775
  0
LINE
  8
ガラス
  6
CONTINUOUS
 10
-62.355615
 20
37.284605
 11
-63.37213
 21
38.30112
  0
LINE
  8
ガラス
  6
CONTINUOUS
 10
-62.743085
 20
38.542325
 11
-61.726573
 21
37.52581
  0
TEXT
  7
TextStyle03
  8
文字
  6
CONTINUOUS
 10
-129.675
 20
94.925
  1
は排水穴位置を示す
 40
3.0
 72
     5
 11
-99.675
 21
94.925
  0
TEXT
  7
TextStyle03
  8
文字
  6
CONTINUOUS
 10
-129.675
 20
89.4
  1
はケーシング位置を示す
 40
3.0
 72
     5
 11
-92.925
 21
89.4
  0
TEXT
  7
TextStyle03
  8
文字
  6
CONTINUOUS
 10
-129.675
 20
86.025
  1
２ヶ所中1ヶ所に設定
 40
3.0
 72
     5
 11
-97.9875
 21
86.025
  0
TEXT
  7
TextStyle03
  8
文字
  6
CONTINUOUS
 10
67.45
 20
97.05
  1
ＮＳコード：ＮＳＦＨＺ
 40
5.0
 72
     5
 11
128.7
 21
97.05
  0
TEXT
  7
TextStyle03
  8
文字
  6
CONTINUOUS
 10
139.525
 20
-78.225
  1
網入り6.8t
 40
3.0
 72
     5
 11
156.2125
 21
-78.225
  0
TEXT
  7
TextStyle03
  8
文字
  6
CONTINUOUS
 10
146.2
 20
-82.9
  1
×３枚
 40
3.0
 72
     5
 11
155.95
 21
-82.9
  0
TEXT
  7
TextStyle03
  8
文字
  6
CONTINUOUS
 10
-99.575
 20
16.275
  1
アンカーピッチ
 40
3.0
 50
90.0
 72
     5
 11
-99.575
 21
39.525
  0
TEXT
  7
TextStyle03
  8
文字
  6
CONTINUOUS
 10
-68.625
 20
90.225
  1
アンカーピッチ
 40
3.0
 72
     5
 11
-45.375
 21
90.225
  0
TEXT
  7
TextStyle03
  8
文字
  6
CONTINUOUS
 10
-133.4
 20
80.05
  1
アンカー数量　１２ヶ所
 40
3.0
 72
     5
 11
-96.65
 21
80.05
  0
TEXT
  7
TextStyle03
  8
文字
  6
CONTINUOUS
 10
101.25
 20
14.75
  1
45°
 40
3.0
 50
90.0
 72
     5
 11
101.25
 21
21.125
  0
TEXT
  7
TextStyle03
  8
文字
  6
CONTINUOUS
 10
67.475
 20
124.525
  1
シリーズ：ＴＦ２ＦＨＬ
 40
5.0
 72
     5
 11
128.725
 21
124.525
  0
TEXT
  7
TextStyle03
  8
文字
  6
CONTINUOUS
 10
67.475
 20
118.9
  1
　　　　　（片側開閉）900×3000タイプ
 40
5.0
 72
     5
 11
170.9125
 21
118.9
  0
TEXT
  7
TextStyle03
  8
文字
  6
CONTINUOUS
 10
67.475
 20
113.275
  1

 40
5.0
 41
1.125
  0
TEXT
  7
TextStyle03
  8
文字
  6
CONTINUOUS
 10
67.475
 20
107.65
  1
図面名　：外観姿図
 40
5.0
 72
     5
 11
117.475
 21
107.65
  0
INSERT
  2
*DIM_0002
  8
寸法
  6
CONTINUOUS
 10
0.0
 20
0.0
  0
INSERT
  2
*DIM_0003
  8
寸法
  6
CONTINUOUS
 10
0.0
 20
0.0
  0
INSERT
  2
*DIM_0004
  8
寸法
  6
CONTINUOUS
 10
0.0
 20
0.0
  0
INSERT
  2
*DIM_0005
  8
寸法
  6
CONTINUOUS
 10
0.0
 20
0.0
  0
INSERT
  2
*DIM_0006
  8
寸法
  6
CONTINUOUS
 10
0.0
 20
0.0
  0
INSERT
  2
*DIM_0007
  8
寸法
  6
CONTINUOUS
 10
0.0
 20
0.0
  0
INSERT
  2
*DIM_0008
  8
寸法
  6
CONTINUOUS
 10
0.0
 20
0.0
  0
INSERT
  2
*DIM_0009
  8
寸法
  6
CONTINUOUS
 10
0.0
 20
0.0
  0
INSERT
  2
*DIM_0010
  8
寸法
  6
CONTINUOUS
 10
0.0
 20
0.0
  0
INSERT
  2
*DIM_0011
  8
寸法
  6
CONTINUOUS
 10
0.0
 20
0.0
  0
INSERT
  2
*DIM_0012
  8
寸法
  6
CONTINUOUS
 10
0.0
 20
0.0
  0
INSERT
  2
*DIM_0013
  8
寸法
  6
CONTINUOUS
 10
0.0
 20
0.0
  0
INSERT
  2
*DIM_0014
  8
寸法
  6
CONTINUOUS
 10
0.0
 20
0.0
  0
INSERT
  2
*DIM_0015
  8
寸法
  6
CONTINUOUS
 10
0.0
 20
0.0
  0
INSERT
  2
*DIM_0016
  8
寸法
  6
CONTINUOUS
 10
0.0
 20
0.0
  0
INSERT
  2
*DIM_0018
  8
寸法
  6
CONTINUOUS
 10
0.0
 20
0.0
  0
INSERT
  2
*GRP_0017
  8
別途部材
  6
CONTINUOUS
 10
0.0
 20
0.0
  0
ENDSEC
  0
EOF
