  0
SECTION
  2
HEADER
  9
$EXTMIN
 10
-210.0
 20
-148.5
  9
$EXTMAX
 10
210.0
 20
148.5
  9
$PDMODE
 70
    32
  9
$PDSIZE
 40
1.5
  9
$LTSCALE
 40
10.0
  0
ENDSEC
  0
SECTION
  2
TABLES
  0
TABLE
  2
LTYPE
 70
    15
  0
LTYPE
  2
CONTINUOUS
 70
    64
  3
実線
 72
    65
 73
     0
 40
0.0
  0
LTYPE
  2
DASHED
 70
    64
  3
破線A
 72
    65
 73
     2
 40
0.6
 49
0.4
 49
-0.2
  0
LTYPE
  2
DASHEDX2
 70
    64
  3
破線B
 72
    65
 73
     2
 40
1.3
 49
0.9
 49
-0.4
  0
LTYPE
  2
DASHDOT
 70
    64
  3
１点鎖線A
 72
    65
 73
     4
 40
0.5375
 49
0.375
 49
-0.05
 49
0.0625
 49
-0.05
  0
LTYPE
  2
DASHDOTX2
 70
    64
  3
１点鎖線B
 72
    65
 73
     4
 40
1.075
 49
0.75
 49
-0.1
 49
0.125
 49
-0.1
  0
LTYPE
  2
DIVIDE2
 70
    64
  3
２点鎖線A
 72
    65
 73
     6
 40
0.5125
 49
0.3
 49
-0.0375
 49
0.05
 49
-0.0375
 49
0.05
 49
-0.0375
  0
LTYPE
  2
DIVIDE
 70
    64
  3
２点鎖線B
 72
    65
 73
     6
 40
1.05
 49
0.55
 49
-0.1
 49
0.1
 49
-0.1
 49
0.1
 49
-0.1
  0
LTYPE
  2
DOT
 70
    64
  3
点線A
 72
    65
 73
     2
 40
0.1125
 49
0.0625
 49
-0.05
  0
LTYPE
  2
DOTX2
 70
    64
  3
点線B
 72
    65
 73
     2
 40
0.275
 49
0.15
 49
-0.125
  0
LTYPE
  2
CONTINUOUS
 70
    64
  3
実線
 72
    65
 73
     0
 40
0.0
  0
LTYPE
  2
CONTINUOUS
 70
    64
  3
実線
 72
    65
 73
     0
 40
0.0
  0
LTYPE
  2
CONTINUOUS
 70
    64
  3
実線
 72
    65
 73
     0
 40
0.0
  0
LTYPE
  2
CONTINUOUS
 70
    64
  3
実線
 72
    65
 73
     0
 40
0.0
  0
LTYPE
  2
CONTINUOUS
 70
    64
  3
実線
 72
    65
 73
     0
 40
0.0
  0
LTYPE
  2
CONTINUOUS
 70
    64
  3
実線
 72
    65
 73
     0
 40
0.0
  0
ENDTAB
  0
TABLE
  2
LAYER
 70
    34
  0
LAYER
  2
通り芯
 70
     0
 62
    15
  6
CONTINUOUS
  0
LAYER
  2
補助線
 70
     0
 62
    16
  6
DOT
  0
LAYER
  2
躯体
 70
     0
 62
    31
  6
CONTINUOUS
  0
LAYER
  2
型材
 70
     0
 62
    32
  6
CONTINUOUS
  0
LAYER
  2
型材断面
 70
     0
 62
    47
  6
CONTINUOUS
  0
LAYER
  2
ガラス
 70
     0
 62
    48
  6
CONTINUOUS
  0
LAYER
  2
ゴム等
 70
     0
 62
    63
  6
CONTINUOUS
  0
LAYER
  2
ボルト／ビス
 70
     0
 62
    64
  6
CONTINUOUS
  0
LAYER
  2
文字
 70
     0
 62
    79
  6
CONTINUOUS
  0
LAYER
  2
寸法
 70
     0
 62
    80
  6
CONTINUOUS
  0
LAYER
  2
ﾊｯﾁﾝｸﾞ
 70
     0
 62
    95
  6
CONTINUOUS
  0
LAYER
  2
別途部材
 70
     0
 62
    96
  6
CONTINUOUS
  0
LAYER
  2
曲げ物
 70
     0
 62
   111
  6
CONTINUOUS
  0
LAYER
  2
鉄骨等
 70
     0
 62
   112
  6
CONTINUOUS
  0
LAYER
  2
St
 70
     0
 62
   127
  6
CONTINUOUS
  0
LAYER
  2
その他部品等
 70
     0
 62
   128
  6
CONTINUOUS
  0
LAYER
  2
ｶﾞｽｹｯﾄ
 70
     0
 62
   143
  6
CONTINUOUS
  0
LAYER
  2
ｽｹｯﾁ
 70
     0
 62
    14
  6
CONTINUOUS
  0
LAYER
  2
0
 70
     0
 62
    17
  6
CONTINUOUS
  0
LAYER
  2
1
 70
     0
 62
    30
  6
CONTINUOUS
  0
LAYER
  2
4
 70
     0
 62
    33
  6
CONTINUOUS
  0
LAYER
  2
ﾚｲﾔ3
 70
     0
 62
    46
  6
CONTINUOUS
  0
LAYER
  2
外形線
 70
     0
 62
    49
  6
CONTINUOUS
  0
LAYER
  2
部品
 70
     0
 62
    14
  6
CONTINUOUS
  0
LAYER
  2
サッシ芯
 70
     0
 62
    17
  6
DASHDOTX2
  0
LAYER
  2
寸法線
 70
     0
 62
    62
  6
CONTINUOUS
  0
LAYER
  2
姿図外形線
 70
     0
 62
    65
  6
CONTINUOUS
  0
LAYER
  2
姿補助線
 70
     0
 62
    30
  6
CONTINUOUS
  0
LAYER
  2
透視線
 70
     0
 62
    78
  6
DOT
  0
LAYER
  2
用紙
 70
     0
 62
    81
  6
CONTINUOUS
  0
LAYER
  2
実線図枠
 70
     0
 62
    94
  6
CONTINUOUS
  0
LAYER
  2
補助図枠
 70
     0
 62
    97
  6
CONTINUOUS
  0
LAYER
  2
建具記号
 70
     0
 62
   110
  6
CONTINUOUS
  0
LAYER
  2
補助文字
 70
     0
 62
   113
  6
CONTINUOUS
  0
ENDTAB
  0
TABLE
  2
STYLE
 70
    10
  0
STYLE
  2
STANDARD
 70
     0
 40
1.0
 41
1.0
 42
1.0
 50
0.0
 71
     0
  3
TXT
  4
BIGFONT
  0
STYLE
  2
TATE
 70
     4
 40
1.0
 41
1.0
 42
1.0
 50
0.0
 71
     0
  3
TXT
  4
BIGFONT
  0
STYLE
  2
TextStyle03
 70
     0
 40
1.0
 41
1.0
 42
1.0
 50
0.0
 71
     0
  3
MONOTXT
  4
BIGFONT
  0
STYLE
  2
TextStyle04
 70
     0
 40
1.0
 41
1.0
 42
1.0
 50
0.0
 71
     0
  3
MONOTXT
  4
BIGFONT
  0
STYLE
  2
TextStyle05
 70
     0
 40
1.0
 41
1.0
 42
1.0
 50
0.0
 71
     0
  3
MONOTXT
  4
BIGFONT
  0
STYLE
  2
TextStyle06
 70
     0
 40
1.0
 41
1.0
 42
1.0
 50
0.0
 71
     0
  3
MONOTXT
  4
BIGFONT
  0
STYLE
  2
TextStyle07
 70
     0
 40
1.0
 41
1.0
 42
1.0
 50
0.0
 71
     0
  3
MONOTXT
  4
BIGFONT
  0
STYLE
  2
TextStyle08
 70
     0
 40
1.0
 41
1.0
 42
1.0
 50
0.0
 71
     0
  3
MONOTXT
  4
BIGFONT
  0
STYLE
  2
TextStyle09
 70
     0
 40
1.0
 41
1.0
 42
1.0
 50
0.0
 71
     0
  3
MONOTXT
  4
BIGFONT
  0
STYLE
  2
TextStyle10
 70
     0
 40
1.0
 41
1.0
 42
1.0
 50
0.0
 71
     0
  3
MONOTXT
  4
BIGFONT
  0
ENDTAB
  0
ENDSEC
  0
SECTION
  2
BLOCKS
  0
BLOCK
  2
*GRP_0001
 70
    65
 10
0.0
 20
0.0
  0
LINE
  8
型材断面
  6
CONTINUOUS
 10
195.0
 20
133.5
 11
195.0
 21
-133.5
  0
LINE
  8
型材断面
  6
CONTINUOUS
 10
195.0
 20
-133.5
 11
-185.0
 21
-133.5
  0
LINE
  8
型材断面
  6
CONTINUOUS
 10
-185.0
 20
-133.5
 11
-185.0
 21
133.5
  0
LINE
  8
型材断面
  6
CONTINUOUS
 10
195.0
 20
133.5
 11
-185.0
 21
133.5
  0
LINE
  8
型材断面
  6
CONTINUOUS
 10
145.0
 20
-133.5
 11
145.0
 21
-118.5
  0
LINE
  8
型材断面
  6
CONTINUOUS
 10
195.0
 20
-118.5
 11
145.0
 21
-118.5
  0
ENDBLK
  0
BLOCK
  2
*DIM_0002
 70
    65
 10
0.0
 20
0.0
  0
LINE
  8
寸法
  6
BYBLOCK
 62
     0
 10
4.712865
 20
-13.121378
 11
-78.620467
 21
-13.121378
  0
POINT
  8
寸法
 62
     0
 10
4.712865
 20
-13.121378
  0
POINT
  8
寸法
 62
     0
 10
-78.620467
 20
-13.121378
  0
TEXT
  7
TextStyle03
  8
寸法
  6
CONTINUOUS
 62
     0
 10
-48.69375
 20
-12.75
  1
呼称寸法　2500
 40
3.0
 72
     5
 11
-25.25625
 21
-12.75
  0
ENDBLK
  0
BLOCK
  2
*DIM_0003
 70
    65
 10
0.0
 20
0.0
  0
LINE
  8
寸法
  6
BYBLOCK
 62
     0
 10
-61.9538
 20
19.183902
 11
-61.9538
 21
14.01842
  0
LINE
  8
寸法
  6
BYBLOCK
 62
     0
 10
-11.953805
 20
19.183902
 11
-11.953805
 21
14.01842
  0
LINE
  8
寸法
  6
BYBLOCK
 62
     0
 10
-61.9538
 20
14.01842
 11
-11.953805
 21
14.01842
  0
POINT
  8
寸法
 62
     0
 10
-61.9538
 20
14.01842
  0
POINT
  8
寸法
 62
     0
 10
-11.953805
 20
14.01842
  0
TEXT
  7
TextStyle03
  8
寸法
  6
CONTINUOUS
 62
     0
 10
-40.23125
 20
14.375
  1
1500
 40
3.0
 72
     5
 11
-33.66875
 21
14.375
  0
ENDBLK
  0
BLOCK
  2
*DIM_0004
 70
    65
 10
0.0
 20
0.0
  0
LINE
  8
寸法
  6
BYBLOCK
 62
     0
 10
2.712865
 20
17.20722
 11
2.712865
 21
14.182178
  0
LINE
  8
寸法
  6
BYBLOCK
 62
     0
 10
4.712865
 20
14.182178
 11
2.712865
 21
14.182178
  0
POINT
  8
寸法
 62
     0
 10
4.712865
 20
14.182178
  0
POINT
  8
寸法
 62
     0
 10
2.712865
 20
14.182178
  0
TEXT
  7
TextStyle03
  8
寸法
  6
CONTINUOUS
 62
     0
 10
0.83125
 20
10.4
  1
60
 40
3.0
 72
     5
 11
4.01875
 21
10.4
  0
ENDBLK
  0
BLOCK
  2
*DIM_0005
 70
    65
 10
0.0
 20
0.0
  0
LINE
  8
寸法
  6
BYBLOCK
 62
     0
 10
-76.62047
 20
17.20722
 11
-76.62047
 21
14.182178
  0
LINE
  8
寸法
  6
BYBLOCK
 62
     0
 10
-78.62047
 20
14.182178
 11
-76.62047
 21
14.182178
  0
POINT
  8
寸法
 62
     0
 10
-78.62047
 20
14.182178
  0
POINT
  8
寸法
 62
     0
 10
-76.62047
 20
14.182178
  0
TEXT
  7
TextStyle03
  8
寸法
  6
CONTINUOUS
 62
     0
 10
-77.94375
 20
10.4
  1
60
 40
3.0
 72
     5
 11
-74.75625
 21
10.4
  0
ENDBLK
  0
BLOCK
  2
*DIM_0006
 70
    65
 10
0.0
 20
0.0
  0
LINE
  8
寸法
  6
BYBLOCK
 62
     0
 10
8.04634
 20
-72.60973
 11
8.04634
 21
-13.121378
  0
LINE
  8
寸法
  6
BYBLOCK
 62
     0
 10
4.712865
 20
-13.121378
 11
8.04634
 21
-13.121378
  0
POINT
  8
寸法
 62
     0
 10
4.712865
 20
-13.121378
  0
POINT
  8
寸法
 62
     0
 10
8.04634
 20
-13.121378
  0
TEXT
  7
TextStyle03
  8
寸法
  6
CONTINUOUS
 62
     0
 10
9.2625
 20
-16.025
  1
100
 40
3.0
 72
     5
 11
14.1375
 21
-16.025
  0
ENDBLK
  0
BLOCK
  2
*DIM_0007
 70
    65
 10
0.0
 20
0.0
  0
LINE
  8
寸法
  6
BYBLOCK
 62
     0
 10
-81.953945
 20
-72.60973
 11
-81.953945
 21
-13.121378
  0
LINE
  8
寸法
  6
BYBLOCK
 62
     0
 10
-78.62047
 20
-13.121378
 11
-81.953945
 21
-13.121378
  0
POINT
  8
寸法
 62
     0
 10
-78.62047
 20
-13.121378
  0
POINT
  8
寸法
 62
     0
 10
-81.953945
 20
-13.121378
  0
TEXT
  7
TextStyle03
  8
寸法
  6
CONTINUOUS
 62
     0
 10
-88.0625
 20
-16.025
  1
100
 40
3.0
 72
     5
 11
-83.1875
 21
-16.025
  0
ENDBLK
  0
BLOCK
  2
*DIM_0008
 70
    65
 10
0.0
 20
0.0
  0
LINE
  8
寸法
  6
BYBLOCK
 62
     0
 10
38.732515
 20
22.814033
 11
38.732515
 21
42.814033
  0
POINT
  8
寸法
 62
     0
 10
38.732515
 20
22.814033
  0
POINT
  8
寸法
 62
     0
 10
38.732515
 20
42.814033
  0
TEXT
  7
TextStyle03
  8
寸法
  6
CONTINUOUS
 62
     0
 10
38.35
 20
21.925
  1
呼称寸法　600
 40
3.0
 50
90.0
 72
     5
 11
38.35
 21
43.675
  0
ENDBLK
  0
BLOCK
  2
*DIM_0009
 70
    65
 10
0.0
 20
0.0
  0
LINE
  8
寸法
  6
BYBLOCK
 62
     0
 10
96.646248
 20
46.147505
 11
38.732515
 21
46.147505
  0
LINE
  8
寸法
  6
BYBLOCK
 62
     0
 10
38.732515
 20
42.814033
 11
38.732515
 21
46.147505
  0
POINT
  8
寸法
 62
     0
 10
38.732515
 20
42.814033
  0
POINT
  8
寸法
 62
     0
 10
38.732515
 20
46.147505
  0
TEXT
  7
TextStyle03
  8
寸法
  6
CONTINUOUS
 62
     0
 10
41.725
 20
46.9625
  1
100
 40
3.0
 50
90.0
 72
     5
 11
41.725
 21
51.8375
  0
ENDBLK
  0
BLOCK
  2
*DIM_0010
 70
    65
 10
0.0
 20
0.0
  0
LINE
  8
寸法
  6
BYBLOCK
 62
     0
 10
96.646248
 20
19.48056
 11
38.732515
 21
19.48056
  0
LINE
  8
寸法
  6
BYBLOCK
 62
     0
 10
38.732515
 20
22.814033
 11
38.732515
 21
19.48056
  0
POINT
  8
寸法
 62
     0
 10
38.732515
 20
22.814033
  0
POINT
  8
寸法
 62
     0
 10
38.732515
 20
19.48056
  0
TEXT
  7
TextStyle03
  8
寸法
  6
CONTINUOUS
 62
     0
 10
41.725
 20
13.7875
  1
100
 40
3.0
 50
90.0
 72
     5
 11
41.725
 21
18.6625
  0
ENDBLK
  0
BLOCK
  2
*DIM_0011
 70
    65
 10
0.0
 20
0.0
  0
LINE
  8
寸法
  6
BYBLOCK
 62
     0
 10
160.91659
 20
-84.654215
 11
166.877572
 21
-84.654215
  0
LINE
  8
寸法
  6
BYBLOCK
 62
     0
 10
160.91659
 20
-64.487547
 11
166.877572
 21
-64.487547
  0
LINE
  8
寸法
  6
BYBLOCK
 62
     0
 10
166.877572
 20
-84.654215
 11
166.877572
 21
-64.487547
  0
POINT
  8
寸法
 62
     0
 10
166.877572
 20
-84.654215
  0
POINT
  8
寸法
 62
     0
 10
166.877572
 20
-64.487547
  0
TEXT
  7
TextStyle03
  8
寸法
  6
CONTINUOUS
 62
     0
 10
166.5
 20
-77.0125
  1
605
 40
3.0
 50
90.0
 72
     5
 11
166.5
 21
-72.1375
  0
ENDBLK
  0
BLOCK
  2
*DIM_0012
 70
    65
 10
0.0
 20
0.0
  0
LINE
  8
寸法
  6
BYBLOCK
 62
     0
 10
-81.620467
 20
39.4807
 11
-94.913305
 21
39.4807
  0
LINE
  8
寸法
  6
BYBLOCK
 62
     0
 10
-81.620467
 20
26.147365
 11
-94.913305
 21
26.147365
  0
LINE
  8
寸法
  6
BYBLOCK
 62
     0
 10
-94.913305
 20
39.4807
 11
-94.913305
 21
26.147365
  0
POINT
  8
寸法
 62
     0
 10
-94.913305
 20
39.4807
  0
POINT
  8
寸法
 62
     0
 10
-94.913305
 20
26.147365
  0
TEXT
  7
TextStyle03
  8
寸法
  6
CONTINUOUS
 62
     0
 10
-95.325
 20
30.3625
  1
400
 40
3.0
 50
90.0
 72
     5
 11
-95.325
 21
35.2375
  0
ENDBLK
  0
BLOCK
  2
*DIM_0013
 70
    65
 10
0.0
 20
0.0
  0
LINE
  8
寸法
  6
BYBLOCK
 62
     0
 10
-71.953802
 20
45.814033
 11
-71.953802
 21
75.561652
  0
LINE
  8
寸法
  6
BYBLOCK
 62
     0
 10
-48.62047
 20
45.814033
 11
-48.62047
 21
75.561652
  0
LINE
  8
寸法
  6
BYBLOCK
 62
     0
 10
-71.953802
 20
75.561652
 11
-48.62047
 21
75.561652
  0
POINT
  8
寸法
 62
     0
 10
-71.953802
 20
75.561652
  0
POINT
  8
寸法
 62
     0
 10
-48.62047
 20
75.561652
  0
TEXT
  7
TextStyle03
  8
寸法
  6
CONTINUOUS
 62
     0
 10
-62.7125
 20
75.95
  1
700
 40
3.0
 72
     5
 11
-57.8375
 21
75.95
  0
ENDBLK
  0
BLOCK
  2
*DIM_0014
 70
    65
 10
0.0
 20
0.0
  0
LINE
  8
寸法
  6
BYBLOCK
 62
     0
 10
-25.287135
 20
45.814033
 11
-25.287135
 21
75.561652
  0
LINE
  8
寸法
  6
BYBLOCK
 62
     0
 10
-48.62047
 20
75.561652
 11
-25.287135
 21
75.561652
  0
POINT
  8
寸法
 62
     0
 10
-25.287135
 20
75.561652
  0
TEXT
  7
TextStyle03
  8
寸法
  6
CONTINUOUS
 62
     0
 10
-39.3875
 20
75.95
  1
700
 40
3.0
 72
     5
 11
-34.5125
 21
75.95
  0
ENDBLK
  0
BLOCK
  2
*DIM_0015
 70
    65
 10
0.0
 20
0.0
  0
LINE
  8
寸法
  6
BYBLOCK
 62
     0
 10
-1.953802
 20
45.814033
 11
-1.953802
 21
75.561652
  0
LINE
  8
寸法
  6
BYBLOCK
 62
     0
 10
-25.287135
 20
75.561652
 11
-1.953802
 21
75.561652
  0
POINT
  8
寸法
 62
     0
 10
-1.953802
 20
75.561652
  0
TEXT
  7
TextStyle03
  8
寸法
  6
CONTINUOUS
 62
     0
 10
-16.0375
 20
75.95
  1
700
 40
3.0
 72
     5
 11
-11.1625
 21
75.95
  0
ENDBLK
  0
BLOCK
  2
*DIM_0016
 70
    65
 10
0.0
 20
0.0
  0
LINE
  8
寸法
  6
CONTINUOUS
 10
13.04634
 20
-76.109732
 11
24.083585
 21
-76.109732
  0
LINE
  8
寸法
  6
CONTINUOUS
 10
11.399397
 20
-69.593185
 11
24.083585
 21
-69.593185
  0
LINE
  8
寸法
  6
CONTINUOUS
 10
24.083585
 20
-76.109732
 11
24.083585
 21
-69.593185
  0
POINT
  8
寸法
 10
24.083585
 20
-76.109732
  0
POINT
  8
寸法
 10
24.083585
 20
-69.593185
  0
TEXT
  7
TextStyle03
  8
寸法
  6
CONTINUOUS
 10
28.2
 20
-78.375
  1
195.5
 40
4.0
 50
90.0
 72
     5
 11
28.2
 21
-67.375
  0
ENDBLK
  0
BLOCK
  2
*GRP_0017
 70
    65
 10
0.0
 20
0.0
  0
LINE
  8
別途部材
  6
CONTINUOUS
 62
    96
 10
98.892752
 20
44.047688
 11
98.892752
 21
43.947688
  0
LINE
  8
別途部材
  6
CONTINUOUS
 62
    96
 10
96.791672
 20
44.147688
 11
96.861345
 21
45.478492
  0
LINE
  8
別途部材
  6
CONTINUOUS
 62
    96
 10
97.40942
 20
45.487687
 11
97.292752
 21
45.754355
  0
LINE
  8
別途部材
  6
CONTINUOUS
 62
    96
 10
97.30942
 20
45.466772
 11
97.2419
 21
45.621105
  0
LINE
  8
別途部材
  6
CONTINUOUS
 62
    96
 10
96.762575
 20
45.50461
 11
96.893025
 21
45.764812
  0
LINE
  8
別途部材
  6
CONTINUOUS
 62
    96
 10
96.861345
 20
45.478492
 11
96.993505
 21
45.742105
  0
LINE
  8
別途部材
  6
CONTINUOUS
 62
    96
 10
97.029107
 20
45.677223
 11
96.96546
 21
45.600093
  0
LINE
  8
別途部材
  6
DASHDOTX2
 62
    96
 10
97.092752
 20
45.754355
 11
96.779268
 21
45.754355
  0
LINE
  8
別途部材
  6
DASHDOTX2
 62
    96
 10
97.092752
 20
45.754355
 11
97.423213
 21
45.754355
  0
LINE
  8
別途部材
  6
DASHDOTX2
 62
    96
 10
97.092752
 20
45.754355
 11
97.092752
 21
45.490883
  0
LINE
  8
別途部材
  6
DASHDOTX2
 62
    96
 10
97.092752
 20
45.754355
 11
97.092752
 21
46.032665
  0
LINE
  8
別途部材
  6
CONTINUOUS
 62
    96
 10
97.30942
 20
43.947688
 11
97.30942
 21
45.466772
  0
LINE
  8
別途部材
  6
CONTINUOUS
 62
    96
 10
97.40942
 20
44.047688
 11
97.40942
 21
45.487687
  0
LINE
  8
別途部材
  6
CONTINUOUS
 62
    96
 10
95.55834
 20
44.24769
 11
96.69677
 21
44.24769
  0
LINE
  8
別途部材
  6
CONTINUOUS
 62
    96
 10
95.55834
 20
44.147688
 11
95.55834
 21
44.24769
  0
LINE
  8
別途部材
  6
CONTINUOUS
 62
    96
 10
95.55834
 20
44.147688
 11
96.791672
 21
44.147688
  0
CIRCLE
  8
別途部材
  6
CONTINUOUS
 62
    96
 10
97.092752
 20
45.754355
 40
0.1
  0
ARC
  8
別途部材
  6
CONTINUOUS
 62
    96
 10
97.092752
 20
45.754356
 40
0.2
 50
218.780606
 51
537.001556
  0
LINE
  8
別途部材
  6
CONTINUOUS
 62
    96
 10
97.30942
 20
43.947688
 11
98.892752
 21
43.947688
  0
LINE
  8
別途部材
  6
CONTINUOUS
 62
    96
 10
97.40942
 20
44.047688
 11
98.892752
 21
44.047688
  0
LINE
  8
別途部材
  6
CONTINUOUS
 62
    96
 10
96.762575
 20
45.50461
 11
96.69677
 21
44.24769
  0
ENDBLK
  0
BLOCK
  2
*DIM_0018
 70
    65
 10
0.0
 20
0.0
  0
LINE
  8
寸法
  6
CONTINUOUS
 10
157.91659
 20
-56.057377
 11
116.71659
 21
-56.057377
  0
POINT
  8
寸法
 10
157.91659
 20
-56.057377
  0
POINT
  8
寸法
 10
116.71659
 20
-56.057377
  0
TEXT
  7
TextStyle03
  8
寸法
  6
CONTINUOUS
 10
134.01875
 20
-55.725
  1
1236
 40
3.0
 72
     5
 11
140.58125
 21
-55.725
  0
ENDBLK
  0
ENDSEC
  0
SECTION
  2
ENTITIES
  0
POLYLINE
  8
通り芯
  6
CONTINUOUS
 66
     1
 70
     1
  0
VERTEX
  8
通り芯
 10
-210.0
 20
-148.5
  0
VERTEX
  8
通り芯
 10
210.0
 20
-148.5
  0
VERTEX
  8
通り芯
 10
210.0
 20
148.5
  0
VERTEX
  8
通り芯
 10
-210.0
 20
148.5
  0
SEQEND
  0
INSERT
  2
*GRP_0001
  8
型材断面
  6
CONTINUOUS
 10
0.0
 20
0.0
  0
LINE
  8
型材断面
  6
DASHDOT
 10
4.712865
 20
-77.836442
 11
4.712865
 21
42.814033
  0
LINE
  8
型材断面
  6
DASHDOT
 10
-36.953802
 20
-77.836442
 11
-36.953802
 21
42.814033
  0
LINE
  8
型材断面
  6
DASHDOT
 10
-78.620467
 20
-77.836442
 11
-78.620467
 21
42.814033
  0
LINE
  8
型材断面
  6
DASHDOT
 10
102.389627
 20
42.814033
 11
-78.620467
 21
42.814033
  0
LINE
  8
型材断面
  6
DASHDOT
 10
102.389627
 20
32.814033
 11
-78.620467
 21
32.814033
  0
LINE
  8
型材断面
  6
DASHDOT
 10
102.389627
 20
22.814033
 11
-78.620467
 21
22.814033
  0
LINE
  8
型材断面
  6
DASHDOT
 10
-36.953802
 20
22.814033
 11
-36.953802
 21
42.814033
  0
LINE
  8
型材断面
  6
CONTINUOUS
 10
-61.9538
 20
45.444162
 11
-63.44943
 21
48.03467
  0
LINE
  8
型材断面
  6
CONTINUOUS
 10
-61.9538
 20
45.444162
 11
-60.45817
 21
48.03467
  0
LINE
  8
型材断面
  6
CONTINUOUS
 10
-60.45817
 20
48.03467
 11
-63.44943
 21
48.03467
  0
LINE
  8
型材断面
  6
CONTINUOUS
 10
-119.472675
 20
80.791505
 11
-118.87662
 21
78.200998
  0
LINE
  8
型材断面
  6
CONTINUOUS
 10
-119.472675
 20
80.791505
 11
-120.068732
 21
78.200998
  0
LINE
  8
型材断面
  6
CONTINUOUS
 10
-120.068732
 20
78.200998
 11
-118.87662
 21
78.200998
  0
LINE
  8
型材断面
  6
CONTINUOUS
 10
-125.495263
 20
74.922105
 11
-79.253485
 21
74.922105
  0
LINE
  8
型材断面
  6
CONTINUOUS
 10
-119.472675
 20
87.32138
 11
-120.968305
 21
84.730873
  0
LINE
  8
型材断面
  6
CONTINUOUS
 10
-119.472675
 20
87.32138
 11
-117.977045
 21
84.730873
  0
LINE
  8
型材断面
  6
CONTINUOUS
 10
-117.977045
 20
84.730873
 11
-120.968305
 21
84.730873
  0
LINE
  8
型材断面
  6
CONTINUOUS
 10
-125.495263
 20
83.792277
 11
-79.253485
 21
83.792277
  0
LINE
  8
型材断面
  6
CONTINUOUS
 10
-125.495263
 20
69.134073
 11
-79.253485
 21
69.134073
  0
LINE
  8
型材断面
  6
CONTINUOUS
 10
-81.250597
 20
32.814033
 11
-83.841105
 21
34.309663
  0
LINE
  8
型材断面
  6
CONTINUOUS
 10
-81.250597
 20
32.814033
 11
-83.841105
 21
31.318403
  0
LINE
  8
型材断面
  6
CONTINUOUS
 10
-83.841105
 20
31.318403
 11
-83.841105
 21
34.309663
  0
LINE
  8
型材断面
  6
CONTINUOUS
 10
-61.9538
 20
20.183902
 11
-63.44943
 21
17.593395
  0
LINE
  8
型材断面
  6
CONTINUOUS
 10
-61.9538
 20
20.183902
 11
-60.45817
 21
17.593395
  0
LINE
  8
型材断面
  6
CONTINUOUS
 10
-60.45817
 20
17.593395
 11
-63.44943
 21
17.593395
  0
LINE
  8
型材断面
  6
CONTINUOUS
 10
-11.953805
 20
45.444162
 11
-10.458175
 21
48.03467
  0
LINE
  8
型材断面
  6
CONTINUOUS
 10
-11.953805
 20
45.444162
 11
-13.449435
 21
48.03467
  0
LINE
  8
型材断面
  6
CONTINUOUS
 10
-13.449435
 20
48.03467
 11
-10.458175
 21
48.03467
  0
LINE
  8
型材断面
  6
CONTINUOUS
 10
7.342993
 20
32.814033
 11
9.9335
 21
34.309663
  0
LINE
  8
型材断面
  6
CONTINUOUS
 10
7.342993
 20
32.814033
 11
9.9335
 21
31.318403
  0
LINE
  8
型材断面
  6
CONTINUOUS
 10
9.9335
 20
31.318403
 11
9.9335
 21
34.309663
  0
LINE
  8
型材断面
  6
CONTINUOUS
 10
-11.953805
 20
20.183902
 11
-10.458175
 21
17.593395
  0
LINE
  8
型材断面
  6
CONTINUOUS
 10
-11.953805
 20
20.183902
 11
-13.449435
 21
17.593395
  0
LINE
  8
型材断面
  6
CONTINUOUS
 10
-13.449435
 20
17.593395
 11
-10.458175
 21
17.593395
  0
POLYLINE
  8
型材断面
  6
DASHDOT
 66
     1
  0
VERTEX
  8
型材断面
 10
-78.620467
 20
22.814033
  0
VERTEX
  8
型材断面
 10
-36.953802
 20
42.814033
  0
VERTEX
  8
型材断面
 10
4.712865
 20
22.814033
  0
SEQEND
  0
LINE
  8
型材断面
  6
CONTINUOUS
 10
2.712865
 20
20.20722
 11
2.116807
 21
17.616715
  0
LINE
  8
型材断面
  6
CONTINUOUS
 10
2.712865
 20
20.20722
 11
3.308922
 21
17.616715
  0
LINE
  8
型材断面
  6
CONTINUOUS
 10
3.308922
 20
17.616715
 11
2.116807
 21
17.616715
  0
LINE
  8
型材断面
  6
CONTINUOUS
 10
-76.62047
 20
20.20722
 11
-76.024413
 21
17.616715
  0
LINE
  8
型材断面
  6
CONTINUOUS
 10
-76.62047
 20
20.20722
 11
-77.216528
 21
17.616715
  0
LINE
  8
型材断面
  6
CONTINUOUS
 10
-77.216528
 20
17.616715
 11
-76.024413
 21
17.616715
  0
LINE
  8
型材断面
  6
CONTINUOUS
 62
    47
 10
6.0362
 20
-72.149745
 11
6.0462
 21
-72.139745
  0
LINE
  8
型材断面
  6
CONTINUOUS
 62
    47
 10
6.0362
 20
-72.149745
 11
6.0462
 21
-72.159745
  0
LINE
  8
型材断面
  6
CONTINUOUS
 62
    47
 10
6.0362
 20
-72.791975
 11
6.0462
 21
-72.781975
  0
LINE
  8
型材断面
  6
CONTINUOUS
 62
    47
 10
6.0362
 20
-72.791975
 11
6.0462
 21
-72.801975
  0
LINE
  8
型材断面
  6
CONTINUOUS
 62
    47
 10
6.0462
 20
-73.209745
 11
6.0462
 21
-72.801975
  0
LINE
  8
型材断面
  6
CONTINUOUS
 62
    47
 10
6.0462
 20
-72.781975
 11
6.0462
 21
-72.159745
  0
LINE
  8
型材断面
  6
CONTINUOUS
 62
    47
 10
6.0462
 20
-72.139745
 11
6.0462
 21
-71.44306
  0
LINE
  8
型材断面
  6
CONTINUOUS
 62
    47
 10
7.313007
 20
-73.27607
 11
7.313007
 21
-73.442698
  0
LINE
  8
型材断面
  6
CONTINUOUS
 62
    47
 10
5.83634
 20
-74.343075
 11
5.84634
 21
-74.333075
  0
LINE
  8
型材断面
  6
CONTINUOUS
 62
    47
 10
5.83634
 20
-74.343075
 11
5.84634
 21
-74.353075
  0
LINE
  8
型材断面
  6
CONTINUOUS
 62
    47
 10
5.83634
 20
-74.809747
 11
5.84634
 21
-74.799748
  0
LINE
  8
型材断面
  6
CONTINUOUS
 62
    47
 10
5.83634
 20
-74.809747
 11
5.84634
 21
-74.819747
  0
LINE
  8
型材断面
  6
CONTINUOUS
 62
    47
 10
5.84634
 20
-73.709723
 11
5.84634
 21
-74.333075
  0
LINE
  8
型材断面
  6
CONTINUOUS
 62
    47
 10
5.84634
 20
-74.353075
 11
5.84634
 21
-74.799748
  0
LINE
  8
型材断面
  6
CONTINUOUS
 62
    47
 10
8.04634
 20
-75.60973
 11
8.04634
 21
-76.109732
  0
LINE
  8
型材断面
  6
CONTINUOUS
 62
    47
 10
7.546348
 20
-76.443065
 11
7.546348
 21
-76.109732
  0
LINE
  8
型材断面
  6
CONTINUOUS
 62
    47
 10
8.04634
 20
-75.60973
 11
5.84634
 21
-75.443065
  0
LINE
  8
型材断面
  6
CONTINUOUS
 62
    47
 10
5.112865
 20
-75.443065
 11
5.779673
 21
-75.443065
  0
LINE
  8
型材断面
  6
CONTINUOUS
 62
    47
 10
5.83634
 20
-75.343065
 11
5.84634
 21
-75.333065
  0
LINE
  8
型材断面
  6
CONTINUOUS
 62
    47
 10
5.83634
 20
-75.343065
 11
5.84634
 21
-75.353065
  0
LINE
  8
型材断面
  6
CONTINUOUS
 62
    47
 10
5.84634
 20
-75.443065
 11
5.84634
 21
-75.353065
  0
LINE
  8
型材断面
  6
CONTINUOUS
 62
    47
 10
5.84634
 20
-74.819747
 11
5.84634
 21
-75.333065
  0
LINE
  8
型材断面
  6
CONTINUOUS
 62
    47
 10
7.313005
 20
-73.709723
 11
7.313005
 21
-73.576405
  0
LINE
  8
型材断面
  6
CONTINUOUS
 62
    47
 10
6.0462
 20
-73.209745
 11
7.313007
 21
-73.27607
  0
LINE
  8
型材断面
  6
CONTINUOUS
 62
    47
 10
8.04634
 20
-76.109732
 11
-36.953802
 21
-76.109732
  0
LINE
  8
型材断面
  6
CONTINUOUS
 62
    47
 10
7.546348
 20
-76.443065
 11
-36.953802
 21
-76.443065
  0
LINE
  8
型材断面
  6
CONTINUOUS
 10
5.84634
 20
-75.443065
 11
-36.953802
 21
-75.443065
  0
LINE
  8
型材断面
  6
CONTINUOUS
 10
8.04634
 20
-75.60973
 11
-36.953802
 21
-75.60973
  0
LINE
  8
型材断面
  6
CONTINUOUS
 10
6.0462
 20
-73.209745
 11
-36.953802
 21
-73.209745
  0
LINE
  8
型材断面
  6
CONTINUOUS
 62
    47
 10
7.313007
 20
-73.442698
 11
-36.953802
 21
-73.442698
  0
LINE
  8
型材断面
  6
CONTINUOUS
 10
7.313007
 20
-73.27607
 11
-36.953802
 21
-73.27607
  0
LINE
  8
型材断面
  6
CONTINUOUS
 62
    47
 10
7.313005
 20
-73.576405
 11
-36.953802
 21
-73.576405
  0
LINE
  8
型材断面
  6
CONTINUOUS
 62
    47
 10
7.313005
 20
-73.709723
 11
-36.953802
 21
-73.709723
  0
LINE
  8
型材断面
  6
CONTINUOUS
 62
    47
 10
6.0462
 20
-71.44306
 11
-36.953802
 21
-71.44306
  0
LINE
  8
型材断面
  6
CONTINUOUS
 62
    47
 10
-79.943805
 20
-72.149745
 11
-79.953805
 21
-72.139745
  0
LINE
  8
型材断面
  6
CONTINUOUS
 62
    47
 10
-79.943805
 20
-72.149745
 11
-79.953805
 21
-72.159745
  0
LINE
  8
型材断面
  6
CONTINUOUS
 62
    47
 10
-79.943805
 20
-72.791975
 11
-79.953805
 21
-72.781975
  0
LINE
  8
型材断面
  6
CONTINUOUS
 62
    47
 10
-79.943805
 20
-72.791975
 11
-79.953805
 21
-72.801975
  0
LINE
  8
型材断面
  6
CONTINUOUS
 62
    47
 10
-79.953805
 20
-73.209745
 11
-79.953805
 21
-72.801975
  0
LINE
  8
型材断面
  6
CONTINUOUS
 62
    47
 10
-79.953805
 20
-72.781975
 11
-79.953805
 21
-72.159745
  0
LINE
  8
型材断面
  6
CONTINUOUS
 62
    47
 10
-79.953805
 20
-72.139745
 11
-79.953805
 21
-71.44306
  0
LINE
  8
型材断面
  6
CONTINUOUS
 62
    47
 10
-81.220612
 20
-73.27607
 11
-81.220612
 21
-73.442698
  0
LINE
  8
型材断面
  6
CONTINUOUS
 62
    47
 10
-79.743945
 20
-74.343075
 11
-79.753945
 21
-74.333075
  0
LINE
  8
型材断面
  6
CONTINUOUS
 62
    47
 10
-79.743945
 20
-74.343075
 11
-79.753945
 21
-74.353075
  0
LINE
  8
型材断面
  6
CONTINUOUS
 62
    47
 10
-79.743945
 20
-74.809747
 11
-79.753945
 21
-74.799748
  0
LINE
  8
型材断面
  6
CONTINUOUS
 62
    47
 10
-79.743945
 20
-74.809747
 11
-79.753945
 21
-74.819747
  0
LINE
  8
型材断面
  6
CONTINUOUS
 62
    47
 10
-79.753945
 20
-73.709723
 11
-79.753945
 21
-74.333075
  0
LINE
  8
型材断面
  6
CONTINUOUS
 62
    47
 10
-79.753945
 20
-74.353075
 11
-79.753945
 21
-74.799748
  0
LINE
  8
型材断面
  6
CONTINUOUS
 62
    47
 10
-81.953945
 20
-75.60973
 11
-81.953945
 21
-76.109732
  0
LINE
  8
型材断面
  6
CONTINUOUS
 62
    47
 10
-81.453953
 20
-76.443065
 11
-81.453953
 21
-76.109732
  0
LINE
  8
型材断面
  6
CONTINUOUS
 62
    47
 10
-81.953945
 20
-75.60973
 11
-79.753945
 21
-75.443065
  0
LINE
  8
型材断面
  6
CONTINUOUS
 62
    47
 10
-79.02047
 20
-75.443065
 11
-79.687277
 21
-75.443065
  0
LINE
  8
型材断面
  6
CONTINUOUS
 62
    47
 10
-79.743945
 20
-75.343065
 11
-79.753945
 21
-75.333065
  0
LINE
  8
型材断面
  6
CONTINUOUS
 62
    47
 10
-79.743945
 20
-75.343065
 11
-79.753945
 21
-75.353065
  0
LINE
  8
型材断面
  6
CONTINUOUS
 62
    47
 10
-79.753945
 20
-75.443065
 11
-79.753945
 21
-75.353065
  0
LINE
  8
型材断面
  6
CONTINUOUS
 62
    47
 10
-79.753945
 20
-74.819747
 11
-79.753945
 21
-75.333065
  0
LINE
  8
型材断面
  6
CONTINUOUS
 62
    47
 10
-81.22061
 20
-73.709723
 11
-81.22061
 21
-73.576405
  0
LINE
  8
型材断面
  6
CONTINUOUS
 62
    47
 10
-79.953805
 20
-73.209745
 11
-81.220612
 21
-73.27607
  0
LINE
  8
型材断面
  6
CONTINUOUS
 62
    47
 10
-81.953945
 20
-76.109732
 11
-36.953802
 21
-76.109732
  0
LINE
  8
型材断面
  6
CONTINUOUS
 62
    47
 10
-81.453953
 20
-76.443065
 11
-36.953802
 21
-76.443065
  0
LINE
  8
型材断面
  6
CONTINUOUS
 10
-79.753945
 20
-75.443065
 11
-36.953802
 21
-75.443065
  0
LINE
  8
型材断面
  6
CONTINUOUS
 10
-81.953945
 20
-75.60973
 11
-36.953802
 21
-75.60973
  0
LINE
  8
型材断面
  6
CONTINUOUS
 10
-79.953805
 20
-73.209745
 11
-36.953802
 21
-73.209745
  0
LINE
  8
型材断面
  6
CONTINUOUS
 62
    47
 10
-81.220612
 20
-73.442698
 11
-36.953802
 21
-73.442698
  0
LINE
  8
型材断面
  6
CONTINUOUS
 10
-81.220612
 20
-73.27607
 11
-36.953802
 21
-73.27607
  0
LINE
  8
型材断面
  6
CONTINUOUS
 62
    47
 10
-81.22061
 20
-73.576405
 11
-36.953802
 21
-73.576405
  0
LINE
  8
型材断面
  6
CONTINUOUS
 62
    47
 10
-81.22061
 20
-73.709723
 11
-36.953802
 21
-73.709723
  0
LINE
  8
型材断面
  6
CONTINUOUS
 62
    47
 10
-79.953805
 20
-71.44306
 11
-36.953802
 21
-71.44306
  0
LINE
  8
型材断面
  6
CONTINUOUS
 10
8.04634
 20
19.48056
 11
-36.953802
 21
19.48056
  0
LINE
  8
型材断面
  6
CONTINUOUS
 10
8.04634
 20
46.147505
 11
-36.953802
 21
46.147505
  0
LINE
  8
型材断面
  6
CONTINUOUS
 10
-81.953945
 20
46.147505
 11
-36.953802
 21
46.147505
  0
LINE
  8
型材断面
  6
CONTINUOUS
 10
-81.953945
 20
19.48056
 11
-36.953802
 21
19.48056
  0
LINE
  8
型材断面
  6
CONTINUOUS
 10
6.242878
 20
-69.759853
 11
6.242878
 21
-71.259853
  0
LINE
  8
型材断面
  6
CONTINUOUS
 10
6.399397
 20
-69.759853
 11
6.399397
 21
-69.593185
  0
LINE
  8
型材断面
  6
CONTINUOUS
 62
    47
 10
6.242878
 20
-71.259853
 11
-36.953802
 21
-71.259853
  0
LINE
  8
型材断面
  6
CONTINUOUS
 62
    47
 10
6.399397
 20
-69.593185
 11
-36.953802
 21
-69.593185
  0
LINE
  8
型材断面
  6
CONTINUOUS
 62
    47
 10
6.399397
 20
-69.759853
 11
-36.953802
 21
-69.759853
  0
LINE
  8
型材断面
  6
CONTINUOUS
 62
    47
 10
95.74944
 20
44.137365
 11
95.73944
 21
44.147365
  0
LINE
  8
型材断面
  6
CONTINUOUS
 62
    47
 10
95.74944
 20
44.137365
 11
95.75944
 21
44.147365
  0
LINE
  8
型材断面
  6
CONTINUOUS
 62
    47
 10
96.391672
 20
44.137365
 11
96.381673
 21
44.147365
  0
LINE
  8
型材断面
  6
CONTINUOUS
 62
    47
 10
96.391672
 20
44.137365
 11
96.401672
 21
44.147365
  0
LINE
  8
型材断面
  6
CONTINUOUS
 62
    47
 10
96.80944
 20
44.147365
 11
96.401672
 21
44.147365
  0
LINE
  8
型材断面
  6
CONTINUOUS
 62
    47
 10
96.381673
 20
44.147365
 11
95.75944
 21
44.147365
  0
LINE
  8
型材断面
  6
CONTINUOUS
 62
    47
 10
95.73944
 20
44.147365
 11
95.042755
 21
44.147365
  0
LINE
  8
型材断面
  6
CONTINUOUS
 62
    47
 10
95.042755
 20
44.147365
 11
95.042755
 21
32.81403
  0
LINE
  8
型材断面
  6
CONTINUOUS
 10
96.80944
 20
44.147365
 11
96.80944
 21
32.81403
  0
LINE
  8
型材断面
  6
CONTINUOUS
 10
96.875765
 20
32.81403
 11
96.875765
 21
45.414172
  0
LINE
  8
型材断面
  6
CONTINUOUS
 62
    47
 10
96.875765
 20
45.414172
 11
97.042395
 21
45.414172
  0
LINE
  8
型材断面
  6
CONTINUOUS
 62
    47
 10
97.042395
 20
32.81403
 11
97.042395
 21
45.414172
  0
LINE
  8
型材断面
  6
CONTINUOUS
 62
    47
 10
97.94277
 20
43.937505
 11
97.93277
 21
43.947505
  0
LINE
  8
型材断面
  6
CONTINUOUS
 62
    47
 10
97.94277
 20
43.937505
 11
97.95277
 21
43.947505
  0
LINE
  8
型材断面
  6
CONTINUOUS
 62
    47
 10
98.409445
 20
43.937505
 11
98.399445
 21
43.947505
  0
LINE
  8
型材断面
  6
CONTINUOUS
 62
    47
 10
98.409445
 20
43.937505
 11
98.419445
 21
43.947505
  0
LINE
  8
型材断面
  6
CONTINUOUS
 62
    47
 10
97.30942
 20
43.947505
 11
97.93277
 21
43.947505
  0
LINE
  8
型材断面
  6
CONTINUOUS
 62
    47
 10
97.95277
 20
43.947505
 11
98.399445
 21
43.947505
  0
LINE
  8
型材断面
  6
CONTINUOUS
 62
    47
 10
99.209427
 20
46.147505
 11
99.70943
 21
46.147505
  0
LINE
  8
型材断面
  6
CONTINUOUS
 62
    47
 10
100.04276
 20
45.647513
 11
99.70943
 21
45.647513
  0
LINE
  8
型材断面
  6
CONTINUOUS
 62
    47
 10
99.209427
 20
46.147505
 11
99.04276
 21
43.947505
  0
LINE
  8
型材断面
  6
CONTINUOUS
 62
    47
 10
99.04276
 20
43.21403
 11
99.04276
 21
43.880838
  0
LINE
  8
型材断面
  6
CONTINUOUS
 62
    47
 10
98.94276
 20
43.937505
 11
98.93276
 21
43.947505
  0
LINE
  8
型材断面
  6
CONTINUOUS
 62
    47
 10
98.94276
 20
43.937505
 11
98.95276
 21
43.947505
  0
LINE
  8
型材断面
  6
CONTINUOUS
 62
    47
 10
99.04276
 20
43.947505
 11
98.95276
 21
43.947505
  0
LINE
  8
型材断面
  6
CONTINUOUS
 62
    47
 10
98.419445
 20
43.947505
 11
98.93276
 21
43.947505
  0
LINE
  8
型材断面
  6
CONTINUOUS
 62
    47
 10
97.176102
 20
32.81403
 11
97.176102
 21
45.414172
  0
LINE
  8
型材断面
  6
CONTINUOUS
 62
    47
 10
97.30942
 20
45.414172
 11
97.176102
 21
45.414172
  0
LINE
  8
型材断面
  6
CONTINUOUS
 62
    47
 10
97.30942
 20
45.414172
 11
97.30942
 21
32.81403
  0
LINE
  8
型材断面
  6
CONTINUOUS
 10
99.04276
 20
32.81403
 11
99.04276
 21
43.947505
  0
LINE
  8
型材断面
  6
CONTINUOUS
 10
99.209427
 20
32.81403
 11
99.209427
 21
46.147505
  0
LINE
  8
型材断面
  6
CONTINUOUS
 62
    47
 10
99.70943
 20
46.147505
 11
99.70943
 21
32.81403
  0
LINE
  8
型材断面
  6
CONTINUOUS
 62
    47
 10
100.04276
 20
45.647513
 11
100.04276
 21
32.81403
  0
LINE
  8
型材断面
  6
CONTINUOUS
 62
    47
 10
96.80944
 20
44.147365
 11
96.875765
 21
45.414172
  0
LINE
  8
型材断面
  6
CONTINUOUS
 62
    47
 10
95.042755
 20
43.877375
 11
94.80931
 21
43.877375
  0
LINE
  8
型材断面
  6
CONTINUOUS
 62
    47
 10
95.74944
 20
21.490697
 11
95.73944
 21
21.480697
  0
LINE
  8
型材断面
  6
CONTINUOUS
 62
    47
 10
95.74944
 20
21.490697
 11
95.75944
 21
21.480697
  0
LINE
  8
型材断面
  6
CONTINUOUS
 62
    47
 10
96.391672
 20
21.490697
 11
96.381673
 21
21.480697
  0
LINE
  8
型材断面
  6
CONTINUOUS
 62
    47
 10
96.391672
 20
21.490697
 11
96.401672
 21
21.480697
  0
LINE
  8
型材断面
  6
CONTINUOUS
 62
    47
 10
96.80944
 20
21.480697
 11
96.401672
 21
21.480697
  0
LINE
  8
型材断面
  6
CONTINUOUS
 62
    47
 10
96.381673
 20
21.480697
 11
95.75944
 21
21.480697
  0
LINE
  8
型材断面
  6
CONTINUOUS
 62
    47
 10
95.73944
 20
21.480697
 11
95.042755
 21
21.480697
  0
LINE
  8
型材断面
  6
CONTINUOUS
 62
    47
 10
95.042755
 20
21.480697
 11
95.042755
 21
32.814033
  0
LINE
  8
型材断面
  6
CONTINUOUS
 10
96.80944
 20
21.480697
 11
96.80944
 21
32.814033
  0
LINE
  8
型材断面
  6
CONTINUOUS
 10
96.875765
 20
32.814033
 11
96.875765
 21
20.21389
  0
LINE
  8
型材断面
  6
CONTINUOUS
 62
    47
 10
96.875765
 20
20.21389
 11
97.042395
 21
20.21389
  0
LINE
  8
型材断面
  6
CONTINUOUS
 62
    47
 10
97.042395
 20
32.814033
 11
97.042395
 21
20.21389
  0
LINE
  8
型材断面
  6
CONTINUOUS
 62
    47
 10
97.94277
 20
21.690558
 11
97.93277
 21
21.680558
  0
LINE
  8
型材断面
  6
CONTINUOUS
 62
    47
 10
97.94277
 20
21.690558
 11
97.95277
 21
21.680558
  0
LINE
  8
型材断面
  6
CONTINUOUS
 62
    47
 10
98.409445
 20
21.690558
 11
98.399445
 21
21.680558
  0
LINE
  8
型材断面
  6
CONTINUOUS
 62
    47
 10
98.409445
 20
21.690558
 11
98.419445
 21
21.680558
  0
LINE
  8
型材断面
  6
CONTINUOUS
 62
    47
 10
97.30942
 20
21.680558
 11
97.93277
 21
21.680558
  0
LINE
  8
型材断面
  6
CONTINUOUS
 62
    47
 10
97.95277
 20
21.680558
 11
98.399445
 21
21.680558
  0
LINE
  8
型材断面
  6
CONTINUOUS
 62
    47
 10
99.209427
 20
19.480558
 11
99.70943
 21
19.480558
  0
LINE
  8
型材断面
  6
CONTINUOUS
 62
    47
 10
100.04276
 20
19.98055
 11
99.70943
 21
19.98055
  0
LINE
  8
型材断面
  6
CONTINUOUS
 62
    47
 10
99.209427
 20
19.480558
 11
99.04276
 21
21.680558
  0
LINE
  8
型材断面
  6
CONTINUOUS
 62
    47
 10
99.04276
 20
22.414033
 11
99.04276
 21
21.747225
  0
LINE
  8
型材断面
  6
CONTINUOUS
 62
    47
 10
98.94276
 20
21.690558
 11
98.93276
 21
21.680558
  0
LINE
  8
型材断面
  6
CONTINUOUS
 62
    47
 10
98.94276
 20
21.690558
 11
98.95276
 21
21.680558
  0
LINE
  8
型材断面
  6
CONTINUOUS
 62
    47
 10
99.04276
 20
21.680558
 11
98.95276
 21
21.680558
  0
LINE
  8
型材断面
  6
CONTINUOUS
 62
    47
 10
98.419445
 20
21.680558
 11
98.93276
 21
21.680558
  0
LINE
  8
型材断面
  6
CONTINUOUS
 62
    47
 10
97.176102
 20
32.814033
 11
97.176102
 21
20.213892
  0
LINE
  8
型材断面
  6
CONTINUOUS
 62
    47
 10
97.30942
 20
20.213892
 11
97.176102
 21
20.213892
  0
LINE
  8
型材断面
  6
CONTINUOUS
 62
    47
 10
97.30942
 20
20.213892
 11
97.30942
 21
32.814033
  0
LINE
  8
型材断面
  6
CONTINUOUS
 10
99.04276
 20
32.814033
 11
99.04276
 21
21.680558
  0
LINE
  8
型材断面
  6
CONTINUOUS
 10
99.209427
 20
32.814033
 11
99.209427
 21
19.480558
  0
LINE
  8
型材断面
  6
CONTINUOUS
 62
    47
 10
99.70943
 20
19.480558
 11
99.70943
 21
32.814033
  0
LINE
  8
型材断面
  6
CONTINUOUS
 62
    47
 10
100.04276
 20
19.98055
 11
100.04276
 21
32.814033
  0
LINE
  8
型材断面
  6
CONTINUOUS
 62
    47
 10
96.80944
 20
21.480697
 11
96.875765
 21
20.21389
  0
ARC
  8
型材断面
  6
DASHDOT
 10
97.092753
 20
45.754356
 40
25.540515
 50
224.887028
 51
269.88703
  0
LINE
  8
型材断面
  6
CONTINUOUS
 10
93.359548
 20
44.344043
 11
94.859548
 21
44.344043
  0
LINE
  8
型材断面
  6
CONTINUOUS
 62
    47
 10
94.859548
 20
32.814033
 11
94.859548
 21
44.344043
  0
LINE
  8
型材断面
  6
CONTINUOUS
 10
93.359548
 20
44.500562
 11
93.19288
 21
44.500562
  0
LINE
  8
型材断面
  6
CONTINUOUS
 62
    47
 10
93.19288
 20
32.814033
 11
93.19288
 21
44.500562
  0
LINE
  8
型材断面
  6
CONTINUOUS
 62
    47
 10
93.359548
 20
32.814033
 11
93.359548
 21
44.500562
  0
LINE
  8
型材断面
  6
CONTINUOUS
 10
93.359548
 20
21.284022
 11
94.859548
 21
21.284022
  0
LINE
  8
型材断面
  6
CONTINUOUS
 62
    47
 10
94.859548
 20
32.814033
 11
94.859548
 21
21.284022
  0
LINE
  8
型材断面
  6
CONTINUOUS
 10
93.359548
 20
21.1275
 11
93.19288
 21
21.1275
  0
LINE
  8
型材断面
  6
CONTINUOUS
 62
    47
 10
93.19288
 20
32.814033
 11
93.19288
 21
21.1275
  0
LINE
  8
型材断面
  6
CONTINUOUS
 62
    47
 10
93.359548
 20
32.814033
 11
93.359548
 21
21.1275
  0
LINE
  8
型材断面
  6
DOT
 62
    47
 10
94.999503
 20
45.560835
 11
94.999503
 21
45.574978
  0
LINE
  8
型材断面
  6
DOT
 62
    47
 10
94.999503
 20
45.560835
 11
95.013645
 21
45.560835
  0
LINE
  8
型材断面
  6
DOT
 62
    47
 10
95.45363
 20
45.106708
 11
95.45363
 21
45.120852
  0
LINE
  8
型材断面
  6
DOT
 62
    47
 10
95.45363
 20
45.106708
 11
95.46777
 21
45.106708
  0
LINE
  8
型材断面
  6
DOT
 62
    47
 10
95.756107
 20
44.818373
 11
95.46777
 21
45.106708
  0
LINE
  8
型材断面
  6
DOT
 62
    47
 10
95.45363
 20
45.120852
 11
95.013645
 21
45.560835
  0
LINE
  8
型材断面
  6
DOT
 62
    47
 10
94.999503
 20
45.574978
 11
94.506872
 21
46.067607
  0
LINE
  8
型材断面
  6
DOT
 62
    47
 10
94.506872
 20
46.067607
 11
86.492995
 21
38.05373
  0
LINE
  8
型材断面
  6
DOT
 10
95.756107
 20
44.818373
 11
87.74223
 21
36.804495
  0
LINE
  8
型材断面
  6
DOT
 10
87.789127
 20
36.757597
 11
96.698775
 21
45.667243
  0
LINE
  8
型材断面
  6
DOT
 62
    47
 10
96.698775
 20
45.667243
 11
96.8166
 21
45.549417
  0
LINE
  8
型材断面
  6
DOT
 62
    47
 10
87.906953
 20
36.639773
 11
96.8166
 21
45.549417
  0
LINE
  8
型材断面
  6
DOT
 62
    47
 10
95.756107
 20
44.818373
 11
96.698775
 21
45.667243
  0
LINE
  8
型材断面
  6
DOT
 62
    47
 10
94.31596
 20
45.876698
 11
94.15089
 21
46.041768
  0
LINE
  8
型材断面
  6
DOT
 62
    47
 10
78.98589
 20
29.547222
 11
78.97175
 21
29.547222
  0
LINE
  8
型材断面
  6
DOT
 62
    47
 10
78.98589
 20
29.547222
 11
78.98589
 21
29.533082
  0
LINE
  8
型材断面
  6
DOT
 62
    47
 10
79.440018
 20
29.093097
 11
79.425875
 21
29.093097
  0
LINE
  8
型材断面
  6
DOT
 62
    47
 10
79.440018
 20
29.093097
 11
79.440018
 21
29.078955
  0
LINE
  8
型材断面
  6
DOT
 62
    47
 10
79.728355
 20
28.79062
 11
79.440018
 21
29.078955
  0
LINE
  8
型材断面
  6
DOT
 62
    47
 10
79.425875
 20
29.093097
 11
78.98589
 21
29.533082
  0
LINE
  8
型材断面
  6
DOT
 62
    47
 10
78.97175
 20
29.547222
 11
78.47912
 21
30.039855
  0
LINE
  8
型材断面
  6
DOT
 62
    47
 10
78.47912
 20
30.039855
 11
86.492997
 21
38.053732
  0
LINE
  8
型材断面
  6
DOT
 10
79.728355
 20
28.79062
 11
87.742232
 21
36.804498
  0
LINE
  8
型材断面
  6
DOT
 10
87.78913
 20
36.757597
 11
78.879485
 21
27.847953
  0
LINE
  8
型材断面
  6
DOT
 62
    47
 10
78.879485
 20
27.847953
 11
78.997307
 21
27.730127
  0
LINE
  8
型材断面
  6
DOT
 62
    47
 10
87.906955
 20
36.639775
 11
78.997307
 21
27.730127
  0
LINE
  8
型材断面
  6
DOT
 62
    47
 10
79.728355
 20
28.79062
 11
78.879485
 21
27.847953
  0
LINE
  8
型材断面
  6
DOT
 62
    47
 10
78.67003
 20
30.230768
 11
78.50496
 21
30.395838
  0
LINE
  8
型材断面
  6
DOT
 10
93.455735
 20
47.396888
 11
94.516395
 21
46.336227
  0
LINE
  8
型材断面
  6
DOT
 62
    47
 10
86.363448
 20
38.183278
 11
94.516395
 21
46.336227
  0
LINE
  8
型材断面
  6
DOT
 10
93.566415
 20
47.507565
 11
93.448562
 21
47.625418
  0
LINE
  8
型材断面
  6
DOT
 62
    47
 10
85.184935
 20
39.36179
 11
93.448562
 21
47.625418
  0
LINE
  8
型材断面
  6
DOT
 62
    47
 10
85.302787
 20
39.24394
 11
93.566415
 21
47.507565
  0
LINE
  8
型材断面
  6
DOT
 10
77.14984
 20
31.090992
 11
78.2105
 21
30.03033
  0
LINE
  8
型材断面
  6
DOT
 62
    47
 10
86.363448
 20
38.183278
 11
78.2105
 21
30.03033
  0
LINE
  8
型材断面
  6
DOT
 10
77.039163
 20
30.980313
 11
76.92131
 21
31.098165
  0
LINE
  8
型材断面
  6
DOT
 62
    47
 10
85.184935
 20
39.36179
 11
76.92131
 21
31.098165
  0
LINE
  8
型材断面
  6
DOT
 62
    47
 10
85.302787
 20
39.24394
 11
77.039163
 21
30.980313
  0
LINE
  8
型材断面
  6
CONTINUOUS
 10
-80.150482
 20
-69.759853
 11
-80.150482
 21
-71.259853
  0
LINE
  8
型材断面
  6
CONTINUOUS
 10
-80.307002
 20
-69.759853
 11
-80.307002
 21
-69.593185
  0
LINE
  8
型材断面
  6
CONTINUOUS
 62
    47
 10
-80.150482
 20
-71.259853
 11
-36.953802
 21
-71.259853
  0
LINE
  8
型材断面
  6
CONTINUOUS
 62
    47
 10
-80.307002
 20
-69.593185
 11
-36.953802
 21
-69.593185
  0
LINE
  8
型材断面
  6
CONTINUOUS
 62
    47
 10
-80.307002
 20
-69.759853
 11
-36.953802
 21
-69.759853
  0
LINE
  8
型材断面
  6
CONTINUOUS
 10
7.313007
 20
20.213892
 11
-36.953802
 21
20.213892
  0
LINE
  8
型材断面
  6
CONTINUOUS
 10
7.313007
 20
45.414175
 11
-36.953802
 21
45.414175
  0
LINE
  8
型材断面
  6
CONTINUOUS
 10
-81.220612
 20
20.213892
 11
-36.953802
 21
20.213892
  0
LINE
  8
型材断面
  6
CONTINUOUS
 10
-81.220612
 20
45.414175
 11
-36.953802
 21
45.414175
  0
LINE
  8
型材断面
  6
CONTINUOUS
 62
    47
 10
-79.683815
 20
-71.44306
 11
-79.683815
 21
-71.259853
  0
LINE
  8
型材断面
  6
CONTINUOUS
 62
    47
 10
5.77621
 20
-71.44306
 11
5.77621
 21
-71.259853
  0
LINE
  8
型材断面
  6
CONTINUOUS
 62
    47
 10
95.042755
 20
21.750687
 11
94.859548
 21
21.750687
  0
LINE
  8
型材断面
  6
CONTINUOUS
 10
-35.703802
 20
24.460835
 11
-38.203802
 21
24.460835
  0
LINE
  8
型材断面
  6
CONTINUOUS
 10
-35.703802
 20
24.460835
 11
-35.703802
 21
41.16723
  0
LINE
  8
型材断面
  6
CONTINUOUS
 10
-35.703802
 20
41.16723
 11
-38.203802
 21
41.16723
  0
LINE
  8
型材断面
  6
CONTINUOUS
 10
-38.203802
 20
24.460835
 11
-38.203802
 21
41.16723
  0
LINE
  8
型材断面
  6
CONTINUOUS
 10
-15.7038
 20
23.627503
 11
-15.7038
 21
21.127503
  0
LINE
  8
型材断面
  6
CONTINUOUS
 10
-16.537135
 20
23.627503
 11
-16.537135
 21
21.127503
  0
LINE
  8
型材断面
  6
CONTINUOUS
 10
-15.7038
 20
42.000562
 11
-15.7038
 21
44.500562
  0
LINE
  8
型材断面
  6
CONTINUOUS
 10
-16.537135
 20
42.000562
 11
-16.537135
 21
44.500562
  0
LINE
  8
型材断面
  6
CONTINUOUS
 10
-16.537135
 20
42.000562
 11
-36.953802
 21
42.000562
  0
LINE
  8
型材断面
  6
CONTINUOUS
 10
-16.537135
 20
23.627503
 11
-36.953802
 21
23.627503
  0
LINE
  8
型材断面
  6
CONTINUOUS
 10
8.046337
 20
19.48056
 11
8.046337
 21
32.814033
  0
LINE
  8
型材断面
  6
CONTINUOUS
 10
8.046337
 20
46.147505
 11
8.046337
 21
32.814033
  0
LINE
  8
型材断面
  6
CONTINUOUS
 10
7.313007
 20
32.814033
 11
7.313007
 21
45.414175
  0
LINE
  8
型材断面
  6
CONTINUOUS
 10
7.313007
 20
32.814033
 11
7.313007
 21
20.21389
  0
LINE
  8
型材断面
  6
CONTINUOUS
 10
6.163697
 20
21.127495
 11
6.399395
 21
21.363203
  0
LINE
  8
型材断面
  6
CONTINUOUS
 10
8.046337
 20
19.48056
 11
6.281547
 21
21.24535
  0
LINE
  8
型材断面
  6
CONTINUOUS
 10
3.663693
 20
23.627495
 11
6.163693
 21
21.1275
  0
LINE
  8
型材断面
  6
CONTINUOUS
 10
3.899395
 20
23.863198
 11
6.399397
 21
21.3632
  0
LINE
  8
型材断面
  6
CONTINUOUS
 10
3.663697
 20
23.6275
 11
3.899395
 21
23.863198
  0
LINE
  8
型材断面
  6
CONTINUOUS
 10
6.163697
 20
44.50057
 11
6.399395
 21
44.264862
  0
LINE
  8
型材断面
  6
CONTINUOUS
 10
8.046337
 20
46.147505
 11
6.281547
 21
44.382715
  0
LINE
  8
型材断面
  6
CONTINUOUS
 10
3.663693
 20
42.00057
 11
6.163693
 21
44.500565
  0
LINE
  8
型材断面
  6
CONTINUOUS
 10
3.899395
 20
41.764868
 11
6.399397
 21
44.264865
  0
LINE
  8
型材断面
  6
CONTINUOUS
 10
3.663697
 20
42.000565
 11
3.899395
 21
41.764868
  0
LINE
  8
型材断面
  6
CONTINUOUS
 10
6.399397
 20
21.3632
 11
6.399397
 21
44.264865
  0
LINE
  8
型材断面
  6
CONTINUOUS
 10
3.899395
 20
32.397365
 11
6.399397
 21
32.397365
  0
LINE
  8
型材断面
  6
CONTINUOUS
 10
3.899395
 20
33.2307
 11
6.399397
 21
33.2307
  0
LINE
  8
型材断面
  6
CONTINUOUS
 10
3.899395
 20
23.863198
 11
3.899395
 21
32.397365
  0
LINE
  8
型材断面
  6
CONTINUOUS
 10
3.899395
 20
33.2307
 11
3.899395
 21
41.764868
  0
LINE
  8
型材断面
  6
CONTINUOUS
 10
-36.953802
 20
44.500565
 11
6.163693
 21
44.500565
  0
LINE
  8
型材断面
  6
CONTINUOUS
 10
-15.7038
 20
42.000562
 11
3.663685
 21
42.000562
  0
LINE
  8
型材断面
  6
CONTINUOUS
 10
-15.7038
 20
23.627503
 11
3.663685
 21
23.627503
  0
LINE
  8
型材断面
  6
CONTINUOUS
 10
-36.953802
 20
21.127503
 11
6.16369
 21
21.127503
  0
LINE
  8
型材断面
  6
CONTINUOUS
 10
-58.203805
 20
23.627503
 11
-58.203805
 21
21.127503
  0
LINE
  8
型材断面
  6
CONTINUOUS
 10
-57.37047
 20
23.627503
 11
-57.37047
 21
21.127503
  0
LINE
  8
型材断面
  6
CONTINUOUS
 10
-58.203805
 20
42.000562
 11
-58.203805
 21
44.500562
  0
LINE
  8
型材断面
  6
CONTINUOUS
 10
-57.37047
 20
42.000562
 11
-57.37047
 21
44.500562
  0
LINE
  8
型材断面
  6
CONTINUOUS
 10
-81.953942
 20
19.48056
 11
-81.953942
 21
32.814033
  0
LINE
  8
型材断面
  6
CONTINUOUS
 10
-81.953942
 20
46.147505
 11
-81.953942
 21
32.814033
  0
LINE
  8
型材断面
  6
CONTINUOUS
 10
-81.220612
 20
32.814033
 11
-81.220612
 21
45.414175
  0
LINE
  8
型材断面
  6
CONTINUOUS
 10
-81.220612
 20
32.814033
 11
-81.220612
 21
20.21389
  0
LINE
  8
型材断面
  6
CONTINUOUS
 10
-80.071303
 20
21.127495
 11
-80.307
 21
21.363203
  0
LINE
  8
型材断面
  6
CONTINUOUS
 10
-81.953942
 20
19.48056
 11
-80.189153
 21
21.24535
  0
LINE
  8
型材断面
  6
CONTINUOUS
 10
-77.571298
 20
23.627495
 11
-80.071298
 21
21.1275
  0
LINE
  8
型材断面
  6
CONTINUOUS
 10
-77.807
 20
23.863198
 11
-80.307002
 21
21.3632
  0
LINE
  8
型材断面
  6
CONTINUOUS
 10
-77.571303
 20
23.6275
 11
-77.807
 21
23.863198
  0
LINE
  8
型材断面
  6
CONTINUOUS
 10
-80.071303
 20
44.50057
 11
-80.307
 21
44.264862
  0
LINE
  8
型材断面
  6
CONTINUOUS
 10
-81.953942
 20
46.147505
 11
-80.189153
 21
44.382715
  0
LINE
  8
型材断面
  6
CONTINUOUS
 10
-77.571298
 20
42.00057
 11
-80.071298
 21
44.500565
  0
LINE
  8
型材断面
  6
CONTINUOUS
 10
-77.807
 20
41.764868
 11
-80.307002
 21
44.264865
  0
LINE
  8
型材断面
  6
CONTINUOUS
 10
-77.571303
 20
42.000565
 11
-77.807
 21
41.764868
  0
LINE
  8
型材断面
  6
CONTINUOUS
 10
-80.307002
 20
21.3632
 11
-80.307002
 21
44.264865
  0
LINE
  8
型材断面
  6
CONTINUOUS
 10
-77.807
 20
32.397365
 11
-80.307002
 21
32.397365
  0
LINE
  8
型材断面
  6
CONTINUOUS
 10
-77.807
 20
33.2307
 11
-80.307002
 21
33.2307
  0
LINE
  8
型材断面
  6
CONTINUOUS
 10
-77.807
 20
23.863198
 11
-77.807
 21
32.397365
  0
LINE
  8
型材断面
  6
CONTINUOUS
 10
-77.807
 20
33.2307
 11
-77.807
 21
41.764868
  0
LINE
  8
型材断面
  6
CONTINUOUS
 10
-58.203805
 20
42.000562
 11
-77.57129
 21
42.000562
  0
LINE
  8
型材断面
  6
CONTINUOUS
 10
-58.203805
 20
23.627503
 11
-77.57129
 21
23.627503
  0
LINE
  8
型材断面
  6
CONTINUOUS
 10
-36.953802
 20
23.627503
 11
-57.37047
 21
23.627503
  0
LINE
  8
型材断面
  6
CONTINUOUS
 10
-36.953802
 20
42.000562
 11
-57.37047
 21
42.000562
  0
LINE
  8
型材断面
  6
CONTINUOUS
 10
-36.953802
 20
44.500565
 11
-80.071298
 21
44.500565
  0
LINE
  8
型材断面
  6
CONTINUOUS
 10
-36.953802
 20
21.127503
 11
-80.071295
 21
21.127503
  0
LINE
  8
ガラス
  6
CONTINUOUS
 10
-14.67942
 20
33.953
 11
-17.310385
 21
31.322038
  0
LINE
  8
ガラス
  6
CONTINUOUS
 10
-15.335595
 20
31.97821
 11
-16.65421
 21
33.296832
  0
LINE
  8
ガラス
  6
CONTINUOUS
 10
-16.18864
 20
32.00866
 11
-15.172123
 21
33.025178
  0
LINE
  8
ガラス
  6
CONTINUOUS
 10
-15.801167
 20
33.26638
 11
-16.81768
 21
32.249865
  0
LINE
  8
ガラス
  6
CONTINUOUS
 10
-56.6376
 20
33.953
 11
-59.268565
 21
31.322038
  0
LINE
  8
ガラス
  6
CONTINUOUS
 10
-57.293775
 20
31.97821
 11
-58.61239
 21
33.296832
  0
LINE
  8
ガラス
  6
CONTINUOUS
 10
-58.14682
 20
32.00866
 11
-57.130303
 21
33.025178
  0
LINE
  8
ガラス
  6
CONTINUOUS
 10
-57.759347
 20
33.26638
 11
-58.77586
 21
32.249865
  0
LINE
  8
ガラス
  6
CONTINUOUS
 10
157.91659
 20
-84.654215
 11
157.91659
 21
-64.487547
  0
LINE
  8
ガラス
  6
CONTINUOUS
 10
157.91659
 20
-64.487547
 11
116.71659
 21
-64.487547
  0
LINE
  8
ガラス
  6
CONTINUOUS
 10
157.91659
 20
-84.654215
 11
116.71659
 21
-84.654215
  0
LINE
  8
ガラス
  6
CONTINUOUS
 10
116.71659
 20
-64.487547
 11
116.71659
 21
-84.654215
  0
LINE
  8
ガラス
  6
CONTINUOUS
 10
-59.228185
 20
33.953
 11
-56.59722
 21
31.322038
  0
LINE
  8
ガラス
  6
CONTINUOUS
 10
-58.57201
 20
31.97821
 11
-57.253395
 21
33.296832
  0
LINE
  8
ガラス
  6
CONTINUOUS
 10
-57.718965
 20
32.00866
 11
-58.735483
 21
33.025178
  0
LINE
  8
ガラス
  6
CONTINUOUS
 10
-58.106437
 20
33.26638
 11
-57.089925
 21
32.249865
  0
TEXT
  7
TextStyle03
  8
文字
  6
CONTINUOUS
 10
-116.675
 20
84.95
  1
は排水穴位置を示す
 40
3.0
 72
     5
 11
-86.675
 21
84.95
  0
TEXT
  7
TextStyle03
  8
文字
  6
CONTINUOUS
 10
-116.675
 20
79.425
  1
はケーシング位置を示す
 40
3.0
 72
     5
 11
-79.925
 21
79.425
  0
TEXT
  7
TextStyle03
  8
文字
  6
CONTINUOUS
 10
-116.675
 20
76.05
  1
２ヶ所中1ヶ所に設定
 40
3.0
 72
     5
 11
-84.9875
 21
76.05
  0
TEXT
  7
TextStyle03
  8
文字
  6
CONTINUOUS
 10
67.45
 20
97.05
  1
ＮＳコード：ＮＳＦＨＺ
 40
5.0
 72
     5
 11
128.7
 21
97.05
  0
TEXT
  7
TextStyle03
  8
文字
  6
CONTINUOUS
 10
139.525
 20
-78.225
  1
網入り6.8t
 40
3.0
 72
     5
 11
156.2125
 21
-78.225
  0
TEXT
  7
TextStyle03
  8
文字
  6
CONTINUOUS
 10
146.2
 20
-82.9
  1
×２枚
 40
3.0
 72
     5
 11
155.95
 21
-82.9
  0
TEXT
  7
TextStyle03
  8
文字
  6
CONTINUOUS
 10
-99.675
 20
11.275
  1
アンカーピッチ
 40
3.0
 50
90.0
 72
     5
 11
-99.675
 21
34.525
  0
TEXT
  7
TextStyle03
  8
文字
  6
CONTINUOUS
 10
-71.975
 20
80.85
  1
アンカーピッチ
 40
3.0
 72
     5
 11
-48.725
 21
80.85
  0
TEXT
  7
TextStyle03
  8
文字
  6
CONTINUOUS
 10
-120.4
 20
70.075
  1
アンカー数量　１２ヶ所
 40
3.0
 72
     5
 11
-83.65
 21
70.075
  0
TEXT
  7
TextStyle03
  8
文字
  6
CONTINUOUS
 10
88.525
 20
14.5
  1
45°
 40
3.0
 50
90.0
 72
     5
 11
88.525
 21
20.875
  0
LINE
  8
文字
  6
CONTINUOUS
 10
157.91659
 20
-56.057377
 11
157.91659
 21
-62.083897
  0
LINE
  8
文字
  6
CONTINUOUS
 10
116.71659
 20
-56.057377
 11
116.71659
 21
-62.083897
  0
TEXT
  7
TextStyle03
  8
文字
  6
CONTINUOUS
 10
67.475
 20
124.525
  1
シリーズ：ＴＦ２ＦＨＬ
 40
5.0
 72
     5
 11
128.725
 21
124.525
  0
TEXT
  7
TextStyle03
  8
文字
  6
CONTINUOUS
 10
67.475
 20
118.9
  1
　　　　　（片側開閉）600×2500タイプ
 40
5.0
 72
     5
 11
170.9125
 21
118.9
  0
TEXT
  7
TextStyle03
  8
文字
  6
CONTINUOUS
 10
67.475
 20
113.275
  1

 40
5.0
 41
1.125
  0
TEXT
  7
TextStyle03
  8
文字
  6
CONTINUOUS
 10
67.475
 20
107.65
  1
図面名　：外観姿図
 40
5.0
 72
     5
 11
117.475
 21
107.65
  0
INSERT
  2
*DIM_0002
  8
寸法
  6
CONTINUOUS
 10
0.0
 20
0.0
  0
INSERT
  2
*DIM_0003
  8
寸法
  6
CONTINUOUS
 10
0.0
 20
0.0
  0
INSERT
  2
*DIM_0004
  8
寸法
  6
CONTINUOUS
 10
0.0
 20
0.0
  0
INSERT
  2
*DIM_0005
  8
寸法
  6
CONTINUOUS
 10
0.0
 20
0.0
  0
INSERT
  2
*DIM_0006
  8
寸法
  6
CONTINUOUS
 10
0.0
 20
0.0
  0
INSERT
  2
*DIM_0007
  8
寸法
  6
CONTINUOUS
 10
0.0
 20
0.0
  0
INSERT
  2
*DIM_0008
  8
寸法
  6
CONTINUOUS
 10
0.0
 20
0.0
  0
INSERT
  2
*DIM_0009
  8
寸法
  6
CONTINUOUS
 10
0.0
 20
0.0
  0
INSERT
  2
*DIM_0010
  8
寸法
  6
CONTINUOUS
 10
0.0
 20
0.0
  0
INSERT
  2
*DIM_0011
  8
寸法
  6
CONTINUOUS
 10
0.0
 20
0.0
  0
INSERT
  2
*DIM_0012
  8
寸法
  6
CONTINUOUS
 10
0.0
 20
0.0
  0
INSERT
  2
*DIM_0013
  8
寸法
  6
CONTINUOUS
 10
0.0
 20
0.0
  0
INSERT
  2
*DIM_0014
  8
寸法
  6
CONTINUOUS
 10
0.0
 20
0.0
  0
INSERT
  2
*DIM_0015
  8
寸法
  6
CONTINUOUS
 10
0.0
 20
0.0
  0
INSERT
  2
*DIM_0016
  8
寸法
  6
CONTINUOUS
 10
0.0
 20
0.0
  0
INSERT
  2
*DIM_0018
  8
寸法
  6
CONTINUOUS
 10
0.0
 20
0.0
  0
INSERT
  2
*GRP_0017
  8
別途部材
  6
CONTINUOUS
 10
0.0
 20
0.0
  0
ENDSEC
  0
EOF
