  0
SECTION
  2
HEADER
  9
$EXTMIN
 10
-210.0
 20
-148.5
  9
$EXTMAX
 10
210.0
 20
148.5
  9
$PDMODE
 70
    32
  9
$PDSIZE
 40
1.5
  9
$LTSCALE
 40
10.0
  0
ENDSEC
  0
SECTION
  2
TABLES
  0
TABLE
  2
LTYPE
 70
    15
  0
LTYPE
  2
CONTINUOUS
 70
    64
  3
実線
 72
    65
 73
     0
 40
0.0
  0
LTYPE
  2
DASHED
 70
    64
  3
破線A
 72
    65
 73
     2
 40
0.6
 49
0.4
 49
-0.2
  0
LTYPE
  2
DASHEDX2
 70
    64
  3
破線B
 72
    65
 73
     2
 40
1.3
 49
0.9
 49
-0.4
  0
LTYPE
  2
DASHDOT
 70
    64
  3
１点鎖線A
 72
    65
 73
     4
 40
0.5375
 49
0.375
 49
-0.05
 49
0.0625
 49
-0.05
  0
LTYPE
  2
DASHDOTX2
 70
    64
  3
１点鎖線B
 72
    65
 73
     4
 40
1.075
 49
0.75
 49
-0.1
 49
0.125
 49
-0.1
  0
LTYPE
  2
DIVIDE2
 70
    64
  3
２点鎖線A
 72
    65
 73
     6
 40
0.5125
 49
0.3
 49
-0.0375
 49
0.05
 49
-0.0375
 49
0.05
 49
-0.0375
  0
LTYPE
  2
DIVIDE
 70
    64
  3
２点鎖線B
 72
    65
 73
     6
 40
1.05
 49
0.55
 49
-0.1
 49
0.1
 49
-0.1
 49
0.1
 49
-0.1
  0
LTYPE
  2
DOT
 70
    64
  3
点線A
 72
    65
 73
     2
 40
0.1125
 49
0.0625
 49
-0.05
  0
LTYPE
  2
DOTX2
 70
    64
  3
点線B
 72
    65
 73
     2
 40
0.275
 49
0.15
 49
-0.125
  0
LTYPE
  2
CONTINUOUS
 70
    64
  3
実線
 72
    65
 73
     0
 40
0.0
  0
LTYPE
  2
CONTINUOUS
 70
    64
  3
実線
 72
    65
 73
     0
 40
0.0
  0
LTYPE
  2
CONTINUOUS
 70
    64
  3
実線
 72
    65
 73
     0
 40
0.0
  0
LTYPE
  2
CONTINUOUS
 70
    64
  3
実線
 72
    65
 73
     0
 40
0.0
  0
LTYPE
  2
CONTINUOUS
 70
    64
  3
実線
 72
    65
 73
     0
 40
0.0
  0
LTYPE
  2
CONTINUOUS
 70
    64
  3
実線
 72
    65
 73
     0
 40
0.0
  0
ENDTAB
  0
TABLE
  2
LAYER
 70
    34
  0
LAYER
  2
通り芯
 70
     0
 62
    15
  6
CONTINUOUS
  0
LAYER
  2
補助線
 70
     0
 62
    16
  6
DOT
  0
LAYER
  2
躯体
 70
     0
 62
    31
  6
CONTINUOUS
  0
LAYER
  2
型材
 70
     0
 62
    32
  6
CONTINUOUS
  0
LAYER
  2
型材断面
 70
     0
 62
    47
  6
CONTINUOUS
  0
LAYER
  2
ガラス
 70
     0
 62
    48
  6
CONTINUOUS
  0
LAYER
  2
ゴム等
 70
     0
 62
    63
  6
CONTINUOUS
  0
LAYER
  2
ボルト／ビス
 70
     0
 62
    64
  6
CONTINUOUS
  0
LAYER
  2
文字
 70
     0
 62
    79
  6
CONTINUOUS
  0
LAYER
  2
寸法
 70
     0
 62
    80
  6
CONTINUOUS
  0
LAYER
  2
ﾊｯﾁﾝｸﾞ
 70
     0
 62
    95
  6
CONTINUOUS
  0
LAYER
  2
別途部材
 70
     0
 62
    96
  6
CONTINUOUS
  0
LAYER
  2
曲げ物
 70
     0
 62
   111
  6
CONTINUOUS
  0
LAYER
  2
鉄骨等
 70
     0
 62
   112
  6
CONTINUOUS
  0
LAYER
  2
St
 70
     0
 62
   127
  6
CONTINUOUS
  0
LAYER
  2
その他部品等
 70
     0
 62
   128
  6
CONTINUOUS
  0
LAYER
  2
ｶﾞｽｹｯﾄ
 70
     0
 62
   143
  6
CONTINUOUS
  0
LAYER
  2
ｽｹｯﾁ
 70
     0
 62
    14
  6
CONTINUOUS
  0
LAYER
  2
0
 70
     0
 62
    17
  6
CONTINUOUS
  0
LAYER
  2
1
 70
     0
 62
    30
  6
CONTINUOUS
  0
LAYER
  2
4
 70
     0
 62
    33
  6
CONTINUOUS
  0
LAYER
  2
ﾚｲﾔ3
 70
     0
 62
    46
  6
CONTINUOUS
  0
LAYER
  2
外形線
 70
     0
 62
    49
  6
CONTINUOUS
  0
LAYER
  2
部品
 70
     0
 62
    14
  6
CONTINUOUS
  0
LAYER
  2
サッシ芯
 70
     0
 62
    17
  6
DASHDOTX2
  0
LAYER
  2
寸法線
 70
     0
 62
    62
  6
CONTINUOUS
  0
LAYER
  2
姿図外形線
 70
     0
 62
    65
  6
CONTINUOUS
  0
LAYER
  2
姿補助線
 70
     0
 62
    30
  6
CONTINUOUS
  0
LAYER
  2
透視線
 70
     0
 62
    78
  6
DOT
  0
LAYER
  2
用紙
 70
     0
 62
    81
  6
CONTINUOUS
  0
LAYER
  2
実線図枠
 70
     0
 62
    94
  6
CONTINUOUS
  0
LAYER
  2
補助図枠
 70
     0
 62
    97
  6
CONTINUOUS
  0
LAYER
  2
建具記号
 70
     0
 62
   110
  6
CONTINUOUS
  0
LAYER
  2
補助文字
 70
     0
 62
   113
  6
CONTINUOUS
  0
ENDTAB
  0
TABLE
  2
STYLE
 70
    10
  0
STYLE
  2
STANDARD
 70
     0
 40
1.0
 41
1.0
 42
1.0
 50
0.0
 71
     0
  3
TXT
  4
BIGFONT
  0
STYLE
  2
TATE
 70
     4
 40
1.0
 41
1.0
 42
1.0
 50
0.0
 71
     0
  3
TXT
  4
BIGFONT
  0
STYLE
  2
TextStyle03
 70
     0
 40
1.0
 41
1.0
 42
1.0
 50
0.0
 71
     0
  3
MONOTXT
  4
BIGFONT
  0
STYLE
  2
TextStyle04
 70
     0
 40
1.0
 41
1.0
 42
1.0
 50
0.0
 71
     0
  3
MONOTXT
  4
BIGFONT
  0
STYLE
  2
TextStyle05
 70
     0
 40
1.0
 41
1.0
 42
1.0
 50
0.0
 71
     0
  3
MONOTXT
  4
BIGFONT
  0
STYLE
  2
TextStyle06
 70
     0
 40
1.0
 41
1.0
 42
1.0
 50
0.0
 71
     0
  3
MONOTXT
  4
BIGFONT
  0
STYLE
  2
TextStyle07
 70
     0
 40
1.0
 41
1.0
 42
1.0
 50
0.0
 71
     0
  3
MONOTXT
  4
BIGFONT
  0
STYLE
  2
TextStyle08
 70
     0
 40
1.0
 41
1.0
 42
1.0
 50
0.0
 71
     0
  3
MONOTXT
  4
BIGFONT
  0
STYLE
  2
TextStyle09
 70
     0
 40
1.0
 41
1.0
 42
1.0
 50
0.0
 71
     0
  3
MONOTXT
  4
BIGFONT
  0
STYLE
  2
TextStyle10
 70
     0
 40
1.0
 41
1.0
 42
1.0
 50
0.0
 71
     0
  3
MONOTXT
  4
BIGFONT
  0
ENDTAB
  0
ENDSEC
  0
SECTION
  2
BLOCKS
  0
BLOCK
  2
*GRP_0001
 70
    65
 10
0.0
 20
0.0
  0
LINE
  8
型材断面
  6
CONTINUOUS
 10
195.0
 20
133.5
 11
195.0
 21
-133.5
  0
LINE
  8
型材断面
  6
CONTINUOUS
 10
195.0
 20
-133.5
 11
-185.0
 21
-133.5
  0
LINE
  8
型材断面
  6
CONTINUOUS
 10
-185.0
 20
-133.5
 11
-185.0
 21
133.5
  0
LINE
  8
型材断面
  6
CONTINUOUS
 10
195.0
 20
133.5
 11
-185.0
 21
133.5
  0
LINE
  8
型材断面
  6
CONTINUOUS
 10
145.0
 20
-133.5
 11
145.0
 21
-118.5
  0
LINE
  8
型材断面
  6
CONTINUOUS
 10
195.0
 20
-118.5
 11
145.0
 21
-118.5
  0
ENDBLK
  0
BLOCK
  2
*DIM_0002
 70
    65
 10
0.0
 20
0.0
  0
LINE
  8
寸法
  6
BYBLOCK
 62
     0
 10
21.33489
 20
-22.536362
 11
-111.998442
 21
-22.536362
  0
POINT
  8
寸法
 62
     0
 10
21.33489
 20
-22.536362
  0
POINT
  8
寸法
 62
     0
 10
-111.998442
 20
-22.536362
  0
TEXT
  7
TextStyle03
  8
寸法
  6
CONTINUOUS
 62
     0
 10
-57.04375
 20
-22.175
  1
呼称寸法　4000
 40
3.0
 72
     5
 11
-33.60625
 21
-22.175
  0
ENDBLK
  0
BLOCK
  2
*DIM_0003
 70
    65
 10
0.0
 20
0.0
  0
LINE
  8
寸法
  6
BYBLOCK
 62
     0
 10
-95.331775
 20
9.76892
 11
-95.331775
 21
4.873685
  0
LINE
  8
寸法
  6
BYBLOCK
 62
     0
 10
4.66822
 20
9.76892
 11
4.66822
 21
4.873685
  0
LINE
  8
寸法
  6
BYBLOCK
 62
     0
 10
-95.331775
 20
4.873685
 11
4.66822
 21
4.873685
  0
POINT
  8
寸法
 62
     0
 10
-95.331775
 20
4.873685
  0
POINT
  8
寸法
 62
     0
 10
4.66822
 20
4.873685
  0
TEXT
  7
TextStyle03
  8
寸法
  6
CONTINUOUS
 62
     0
 10
-48.63125
 20
5.225
  1
3000
 40
3.0
 72
     5
 11
-42.06875
 21
5.225
  0
ENDBLK
  0
BLOCK
  2
*DIM_0004
 70
    65
 10
0.0
 20
0.0
  0
LINE
  8
寸法
  6
BYBLOCK
 62
     0
 10
55.35454
 20
13.399048
 11
55.35454
 21
56.73238
  0
POINT
  8
寸法
 62
     0
 10
55.35454
 20
13.399048
  0
POINT
  8
寸法
 62
     0
 10
55.35454
 20
56.73238
  0
TEXT
  7
TextStyle03
  8
寸法
  6
CONTINUOUS
 62
     0
 10
55.025
 20
23.33125
  1
呼称寸法　1300
 40
3.0
 50
90.0
 72
     5
 11
55.025
 21
46.76875
  0
ENDBLK
  0
BLOCK
  2
*DIM_0005
 70
    65
 10
0.0
 20
0.0
  0
LINE
  8
寸法
  6
BYBLOCK
 62
     0
 10
112.050583
 20
60.065853
 11
55.35454
 21
60.065853
  0
LINE
  8
寸法
  6
BYBLOCK
 62
     0
 10
55.35454
 20
56.73238
 11
55.35454
 21
60.065853
  0
POINT
  8
寸法
 62
     0
 10
55.35454
 20
56.73238
  0
POINT
  8
寸法
 62
     0
 10
55.35454
 20
60.065853
  0
TEXT
  7
TextStyle03
  8
寸法
  6
CONTINUOUS
 62
     0
 10
58.375
 20
61.1125
  1
100
 40
3.0
 50
90.0
 72
     5
 11
58.375
 21
65.9875
  0
ENDBLK
  0
BLOCK
  2
*DIM_0006
 70
    65
 10
0.0
 20
0.0
  0
LINE
  8
寸法
  6
BYBLOCK
 62
     0
 10
112.050583
 20
10.065577
 11
55.35454
 21
10.065577
  0
LINE
  8
寸法
  6
BYBLOCK
 62
     0
 10
55.35454
 20
13.39905
 11
55.35454
 21
10.065577
  0
POINT
  8
寸法
 62
     0
 10
55.35454
 20
13.39905
  0
POINT
  8
寸法
 62
     0
 10
55.35454
 20
10.065577
  0
TEXT
  7
TextStyle03
  8
寸法
  6
CONTINUOUS
 62
     0
 10
58.375
 20
4.1375
  1
100
 40
3.0
 50
90.0
 72
     5
 11
58.375
 21
9.0125
  0
ENDBLK
  0
BLOCK
  2
*DIM_0007
 70
    65
 10
0.0
 20
0.0
  0
LINE
  8
寸法
  6
BYBLOCK
 62
     0
 10
24.668362
 20
-82.024715
 11
24.668362
 21
-22.536362
  0
LINE
  8
寸法
  6
BYBLOCK
 62
     0
 10
21.33489
 20
-22.536362
 11
24.668362
 21
-22.536362
  0
POINT
  8
寸法
 62
     0
 10
21.33489
 20
-22.536362
  0
POINT
  8
寸法
 62
     0
 10
24.668362
 20
-22.536362
  0
TEXT
  7
TextStyle03
  8
寸法
  6
CONTINUOUS
 62
     0
 10
25.7625
 20
-25.2
  1
100
 40
3.0
 72
     5
 11
30.6375
 21
-25.2
  0
ENDBLK
  0
BLOCK
  2
*DIM_0008
 70
    65
 10
0.0
 20
0.0
  0
LINE
  8
寸法
  6
BYBLOCK
 62
     0
 10
-115.331917
 20
-82.024715
 11
-115.331917
 21
-22.536362
  0
LINE
  8
寸法
  6
BYBLOCK
 62
     0
 10
-111.998445
 20
-22.536362
 11
-115.331917
 21
-22.536362
  0
POINT
  8
寸法
 62
     0
 10
-111.998445
 20
-22.536362
  0
POINT
  8
寸法
 62
     0
 10
-115.331917
 20
-22.536362
  0
TEXT
  7
TextStyle03
  8
寸法
  6
CONTINUOUS
 62
     0
 10
-121.3125
 20
-25.2
  1
100
 40
3.0
 72
     5
 11
-116.4375
 21
-25.2
  0
ENDBLK
  0
BLOCK
  2
*DIM_0009
 70
    65
 10
0.0
 20
0.0
  0
LINE
  8
寸法
  6
BYBLOCK
 62
     0
 10
160.91659
 20
-84.654215
 11
166.877572
 21
-84.654215
  0
LINE
  8
寸法
  6
BYBLOCK
 62
     0
 10
160.91659
 20
-41.154215
 11
166.877572
 21
-41.154215
  0
LINE
  8
寸法
  6
BYBLOCK
 62
     0
 10
166.877572
 20
-84.654215
 11
166.877572
 21
-41.154215
  0
POINT
  8
寸法
 62
     0
 10
166.877572
 20
-84.654215
  0
POINT
  8
寸法
 62
     0
 10
166.877572
 20
-41.154215
  0
TEXT
  7
TextStyle03
  8
寸法
  6
CONTINUOUS
 62
     0
 10
166.5
 20
-66.20625
  1
1305
 40
3.0
 50
90.0
 72
     5
 11
166.5
 21
-59.64375
  0
ENDBLK
  0
BLOCK
  2
*DIM_0010
 70
    65
 10
0.0
 20
0.0
  0
LINE
  8
寸法
  6
BYBLOCK
 62
     0
 10
-114.998442
 20
23.399048
 11
-143.943607
 21
23.399048
  0
LINE
  8
寸法
  6
BYBLOCK
 62
     0
 10
-114.998442
 20
46.732382
 11
-143.943607
 21
46.732382
  0
LINE
  8
寸法
  6
BYBLOCK
 62
     0
 10
-143.943607
 20
23.399048
 11
-143.943607
 21
46.732382
  0
POINT
  8
寸法
 62
     0
 10
-143.943607
 20
23.399048
  0
POINT
  8
寸法
 62
     0
 10
-143.943607
 20
46.732382
  0
TEXT
  7
TextStyle03
  8
寸法
  6
CONTINUOUS
 62
     0
 10
-144.275
 20
32.6125
  1
700
 40
3.0
 50
90.0
 72
     5
 11
-144.275
 21
37.4875
  0
ENDBLK
  0
BLOCK
  2
*DIM_0011
 70
    65
 10
0.0
 20
0.0
  0
LINE
  8
寸法
  6
BYBLOCK
 62
     0
 10
-103.66511
 20
59.73238
 11
-103.66511
 21
88.840452
  0
LINE
  8
寸法
  6
BYBLOCK
 62
     0
 10
-80.331778
 20
59.73238
 11
-80.331778
 21
88.840452
  0
LINE
  8
寸法
  6
BYBLOCK
 62
     0
 10
-103.66511
 20
88.840452
 11
-80.331778
 21
88.840452
  0
POINT
  8
寸法
 62
     0
 10
-103.66511
 20
88.840452
  0
POINT
  8
寸法
 62
     0
 10
-80.331778
 20
88.840452
  0
TEXT
  7
TextStyle03
  8
寸法
  6
CONTINUOUS
 62
     0
 10
-94.4375
 20
89.2
  1
700
 40
3.0
 72
     5
 11
-89.5625
 21
89.2
  0
ENDBLK
  0
BLOCK
  2
*DIM_0012
 70
    65
 10
0.0
 20
0.0
  0
LINE
  8
寸法
  6
BYBLOCK
 62
     0
 10
-56.998445
 20
59.73238
 11
-56.998445
 21
88.840452
  0
LINE
  8
寸法
  6
BYBLOCK
 62
     0
 10
-80.331778
 20
88.840452
 11
-56.998445
 21
88.840452
  0
POINT
  8
寸法
 62
     0
 10
-56.998445
 20
88.840452
  0
TEXT
  7
TextStyle03
  8
寸法
  6
CONTINUOUS
 62
     0
 10
-71.1125
 20
89.2
  1
700
 40
3.0
 72
     5
 11
-66.2375
 21
89.2
  0
ENDBLK
  0
BLOCK
  2
*DIM_0013
 70
    65
 10
0.0
 20
0.0
  0
LINE
  8
寸法
  6
BYBLOCK
 62
     0
 10
-33.66511
 20
59.73238
 11
-33.66511
 21
88.840452
  0
LINE
  8
寸法
  6
BYBLOCK
 62
     0
 10
-56.998445
 20
88.840452
 11
-33.66511
 21
88.840452
  0
POINT
  8
寸法
 62
     0
 10
-33.66511
 20
88.840452
  0
TEXT
  7
TextStyle03
  8
寸法
  6
CONTINUOUS
 62
     0
 10
-47.7875
 20
89.2
  1
700
 40
3.0
 72
     5
 11
-42.9125
 21
89.2
  0
ENDBLK
  0
BLOCK
  2
*DIM_0014
 70
    65
 10
0.0
 20
0.0
  0
LINE
  8
寸法
  6
BYBLOCK
 62
     0
 10
-10.331778
 20
59.73238
 11
-10.331778
 21
88.840452
  0
LINE
  8
寸法
  6
BYBLOCK
 62
     0
 10
-33.66511
 20
88.840452
 11
-10.331778
 21
88.840452
  0
POINT
  8
寸法
 62
     0
 10
-10.331778
 20
88.840452
  0
TEXT
  7
TextStyle03
  8
寸法
  6
CONTINUOUS
 62
     0
 10
-24.4375
 20
89.2
  1
700
 40
3.0
 72
     5
 11
-19.5625
 21
89.2
  0
ENDBLK
  0
BLOCK
  2
*DIM_0015
 70
    65
 10
0.0
 20
0.0
  0
LINE
  8
寸法
  6
BYBLOCK
 62
     0
 10
13.001555
 20
59.73238
 11
13.001555
 21
88.840452
  0
LINE
  8
寸法
  6
BYBLOCK
 62
     0
 10
-10.331778
 20
88.840452
 11
13.001555
 21
88.840452
  0
POINT
  8
寸法
 62
     0
 10
13.001555
 20
88.840452
  0
TEXT
  7
TextStyle03
  8
寸法
  6
CONTINUOUS
 62
     0
 10
-1.1125
 20
89.2
  1
700
 40
3.0
 72
     5
 11
3.7625
 21
89.2
  0
ENDBLK
  0
BLOCK
  2
*DIM_0016
 70
    65
 10
0.0
 20
0.0
  0
LINE
  8
寸法
  6
CONTINUOUS
 10
29.668362
 20
-85.524718
 11
35.30152
 21
-85.524718
  0
LINE
  8
寸法
  6
CONTINUOUS
 10
28.02142
 20
-79.008168
 11
35.30152
 21
-79.008168
  0
LINE
  8
寸法
  6
CONTINUOUS
 10
35.30152
 20
-85.524718
 11
35.30152
 21
-79.008168
  0
POINT
  8
寸法
 10
35.30152
 20
-85.524718
  0
POINT
  8
寸法
 10
35.30152
 20
-79.008168
  0
TEXT
  7
TextStyle03
  8
寸法
  6
CONTINUOUS
 10
39.425
 20
-87.775
  1
195.5
 40
4.0
 50
90.0
 72
     5
 11
39.425
 21
-76.775
  0
ENDBLK
  0
BLOCK
  2
*GRP_0017
 70
    65
 10
0.0
 20
0.0
  0
LINE
  8
別途部材
  6
CONTINUOUS
 62
    96
 10
114.733907
 20
57.966035
 11
114.733907
 21
57.866035
  0
LINE
  8
別途部材
  6
CONTINUOUS
 62
    96
 10
112.632827
 20
58.066035
 11
112.7025
 21
59.39684
  0
LINE
  8
別途部材
  6
CONTINUOUS
 62
    96
 10
113.250573
 20
59.406035
 11
113.133907
 21
59.672703
  0
LINE
  8
別途部材
  6
CONTINUOUS
 62
    96
 10
113.150573
 20
59.38512
 11
113.083052
 21
59.539452
  0
LINE
  8
別途部材
  6
CONTINUOUS
 62
    96
 10
112.60373
 20
59.422957
 11
112.73418
 21
59.68316
  0
LINE
  8
別途部材
  6
CONTINUOUS
 62
    96
 10
112.7025
 20
59.39684
 11
112.83466
 21
59.660453
  0
LINE
  8
別途部材
  6
CONTINUOUS
 62
    96
 10
112.870263
 20
59.59557
 11
112.806615
 21
59.51844
  0
LINE
  8
別途部材
  6
DASHDOTX2
 62
    96
 10
112.933907
 20
59.672703
 11
112.620422
 21
59.672703
  0
LINE
  8
別途部材
  6
DASHDOTX2
 62
    96
 10
112.933907
 20
59.672703
 11
113.264367
 21
59.672703
  0
LINE
  8
別途部材
  6
DASHDOTX2
 62
    96
 10
112.933907
 20
59.672703
 11
112.933907
 21
59.40923
  0
LINE
  8
別途部材
  6
DASHDOTX2
 62
    96
 10
112.933907
 20
59.672703
 11
112.933907
 21
59.951013
  0
LINE
  8
別途部材
  6
CONTINUOUS
 62
    96
 10
113.150573
 20
57.866035
 11
113.150573
 21
59.38512
  0
LINE
  8
別途部材
  6
CONTINUOUS
 62
    96
 10
113.250573
 20
57.966035
 11
113.250573
 21
59.406035
  0
LINE
  8
別途部材
  6
CONTINUOUS
 62
    96
 10
111.399493
 20
58.166037
 11
112.537925
 21
58.166037
  0
LINE
  8
別途部材
  6
CONTINUOUS
 62
    96
 10
111.399493
 20
58.066035
 11
111.399493
 21
58.166037
  0
LINE
  8
別途部材
  6
CONTINUOUS
 62
    96
 10
111.399493
 20
58.066035
 11
112.632827
 21
58.066035
  0
CIRCLE
  8
別途部材
  6
CONTINUOUS
 62
    96
 10
112.933907
 20
59.672703
 40
0.1
  0
ARC
  8
別途部材
  6
CONTINUOUS
 62
    96
 10
112.933906
 20
59.672704
 40
0.2
 50
218.780606
 51
537.001556
  0
LINE
  8
別途部材
  6
CONTINUOUS
 62
    96
 10
113.150573
 20
57.866035
 11
114.733907
 21
57.866035
  0
LINE
  8
別途部材
  6
CONTINUOUS
 62
    96
 10
113.250573
 20
57.966035
 11
114.733907
 21
57.966035
  0
LINE
  8
別途部材
  6
CONTINUOUS
 62
    96
 10
112.60373
 20
59.422957
 11
112.537925
 21
58.166037
  0
ENDBLK
  0
BLOCK
  2
*DIM_0018
 70
    65
 10
0.0
 20
0.0
  0
LINE
  8
寸法
  6
BYBLOCK
 62
     0
 10
125.349922
 20
-38.154215
 11
125.349922
 21
-32.648685
  0
LINE
  8
寸法
  6
BYBLOCK
 62
     0
 10
157.91659
 20
-38.154215
 11
157.91659
 21
-32.648685
  0
LINE
  8
寸法
  6
BYBLOCK
 62
     0
 10
125.349922
 20
-32.648685
 11
157.91659
 21
-32.648685
  0
POINT
  8
寸法
 62
     0
 10
125.349922
 20
-32.648685
  0
POINT
  8
寸法
 62
     0
 10
157.91659
 20
-32.648685
  0
TEXT
  7
TextStyle03
  8
寸法
  6
CONTINUOUS
 62
     0
 10
139.1875
 20
-32.275
  1
977
 40
3.0
 72
     5
 11
144.0625
 21
-32.275
  0
ENDBLK
  0
ENDSEC
  0
SECTION
  2
ENTITIES
  0
POLYLINE
  8
通り芯
  6
CONTINUOUS
 66
     1
 70
     1
  0
VERTEX
  8
通り芯
 10
-210.0
 20
-148.5
  0
VERTEX
  8
通り芯
 10
210.0
 20
-148.5
  0
VERTEX
  8
通り芯
 10
210.0
 20
148.5
  0
VERTEX
  8
通り芯
 10
-210.0
 20
148.5
  0
SEQEND
  0
INSERT
  2
*GRP_0001
  8
型材断面
  6
CONTINUOUS
 10
0.0
 20
0.0
  0
LINE
  8
型材断面
  6
DASHDOT
 10
21.33489
 20
-87.251428
 11
21.33489
 21
56.73238
  0
LINE
  8
型材断面
  6
DASHDOT
 10
-45.331778
 20
-87.251428
 11
-45.331778
 21
56.73238
  0
LINE
  8
型材断面
  6
DASHDOT
 10
-111.998442
 20
-87.251428
 11
-111.998442
 21
56.73238
  0
LINE
  8
型材断面
  6
DASHDOT
 10
119.011652
 20
13.399048
 11
-111.998442
 21
13.399048
  0
LINE
  8
型材断面
  6
DASHDOT
 10
119.011652
 20
56.73238
 11
-111.998442
 21
56.73238
  0
LINE
  8
型材断面
  6
DASHDOT
 10
119.011652
 20
35.065715
 11
-111.998442
 21
35.065715
  0
LINE
  8
型材断面
  6
CONTINUOUS
 10
-114.628572
 20
35.065715
 11
-117.21908
 21
36.561345
  0
LINE
  8
型材断面
  6
CONTINUOUS
 10
-114.628572
 20
35.065715
 11
-117.21908
 21
33.570085
  0
LINE
  8
型材断面
  6
CONTINUOUS
 10
-117.21908
 20
33.570085
 11
-117.21908
 21
36.561345
  0
LINE
  8
型材断面
  6
CONTINUOUS
 10
-95.331775
 20
59.36251
 11
-96.827405
 21
61.953017
  0
LINE
  8
型材断面
  6
CONTINUOUS
 10
-95.331775
 20
59.36251
 11
-93.836145
 21
61.953017
  0
LINE
  8
型材断面
  6
CONTINUOUS
 10
-93.836145
 20
61.953017
 11
-96.827405
 21
61.953017
  0
LINE
  8
型材断面
  6
CONTINUOUS
 10
-152.85065
 20
94.709852
 11
-152.254595
 21
92.119345
  0
LINE
  8
型材断面
  6
CONTINUOUS
 10
-152.85065
 20
94.709852
 11
-153.446707
 21
92.119345
  0
LINE
  8
型材断面
  6
CONTINUOUS
 10
-153.446707
 20
92.119345
 11
-152.254595
 21
92.119345
  0
LINE
  8
型材断面
  6
CONTINUOUS
 10
-158.873237
 20
88.840452
 11
-112.63146
 21
88.840452
  0
LINE
  8
型材断面
  6
CONTINUOUS
 10
-152.85065
 20
101.239727
 11
-154.34628
 21
98.64922
  0
LINE
  8
型材断面
  6
CONTINUOUS
 10
-152.85065
 20
101.239727
 11
-151.35502
 21
98.64922
  0
LINE
  8
型材断面
  6
CONTINUOUS
 10
-151.35502
 20
98.64922
 11
-154.34628
 21
98.64922
  0
LINE
  8
型材断面
  6
CONTINUOUS
 10
-158.873237
 20
97.710625
 11
-112.63146
 21
97.710625
  0
LINE
  8
型材断面
  6
CONTINUOUS
 10
-158.873237
 20
83.05242
 11
-112.63146
 21
83.05242
  0
LINE
  8
型材断面
  6
CONTINUOUS
 10
-95.331775
 20
10.76892
 11
-96.827405
 21
8.178413
  0
LINE
  8
型材断面
  6
CONTINUOUS
 10
-95.331775
 20
10.76892
 11
-93.836145
 21
8.178413
  0
LINE
  8
型材断面
  6
CONTINUOUS
 10
-93.836145
 20
8.178413
 11
-96.827405
 21
8.178413
  0
LINE
  8
型材断面
  6
CONTINUOUS
 10
23.965018
 20
35.065715
 11
26.555525
 21
36.561345
  0
LINE
  8
型材断面
  6
CONTINUOUS
 10
23.965018
 20
35.065715
 11
26.555525
 21
33.570085
  0
LINE
  8
型材断面
  6
CONTINUOUS
 10
26.555525
 20
33.570085
 11
26.555525
 21
36.561345
  0
LINE
  8
型材断面
  6
CONTINUOUS
 10
4.66822
 20
59.36251
 11
6.16385
 21
61.953017
  0
LINE
  8
型材断面
  6
CONTINUOUS
 10
4.66822
 20
59.36251
 11
3.17259
 21
61.953017
  0
LINE
  8
型材断面
  6
CONTINUOUS
 10
3.17259
 20
61.953017
 11
6.16385
 21
61.953017
  0
LINE
  8
型材断面
  6
CONTINUOUS
 10
4.66822
 20
10.76892
 11
6.16385
 21
8.178413
  0
LINE
  8
型材断面
  6
CONTINUOUS
 10
4.66822
 20
10.76892
 11
3.17259
 21
8.178413
  0
LINE
  8
型材断面
  6
CONTINUOUS
 10
3.17259
 20
8.178413
 11
6.16385
 21
8.178413
  0
POLYLINE
  8
型材断面
  6
DASHDOT
 66
     1
  0
VERTEX
  8
型材断面
 10
-111.998442
 20
13.399048
  0
VERTEX
  8
型材断面
 10
-45.331778
 20
56.73238
  0
VERTEX
  8
型材断面
 10
21.33489
 20
13.399048
  0
SEQEND
  0
LINE
  8
型材断面
  6
CONTINUOUS
 62
    47
 10
22.658223
 20
-81.564728
 11
22.668223
 21
-81.554727
  0
LINE
  8
型材断面
  6
CONTINUOUS
 62
    47
 10
22.658223
 20
-81.564728
 11
22.668223
 21
-81.574727
  0
LINE
  8
型材断面
  6
CONTINUOUS
 62
    47
 10
22.658223
 20
-82.20696
 11
22.668223
 21
-82.19696
  0
LINE
  8
型材断面
  6
CONTINUOUS
 62
    47
 10
22.658223
 20
-82.20696
 11
22.668223
 21
-82.21696
  0
LINE
  8
型材断面
  6
CONTINUOUS
 62
    47
 10
22.668223
 20
-82.624727
 11
22.668223
 21
-82.21696
  0
LINE
  8
型材断面
  6
CONTINUOUS
 62
    47
 10
22.668223
 20
-82.19696
 11
22.668223
 21
-81.574727
  0
LINE
  8
型材断面
  6
CONTINUOUS
 62
    47
 10
22.668223
 20
-81.554727
 11
22.668223
 21
-80.858043
  0
LINE
  8
型材断面
  6
CONTINUOUS
 62
    47
 10
23.93503
 20
-82.691053
 11
23.93503
 21
-82.857683
  0
LINE
  8
型材断面
  6
CONTINUOUS
 62
    47
 10
22.458362
 20
-83.758057
 11
22.468362
 21
-83.748057
  0
LINE
  8
型材断面
  6
CONTINUOUS
 62
    47
 10
22.458362
 20
-83.758057
 11
22.468362
 21
-83.768058
  0
LINE
  8
型材断面
  6
CONTINUOUS
 62
    47
 10
22.458362
 20
-84.224733
 11
22.468362
 21
-84.214732
  0
LINE
  8
型材断面
  6
CONTINUOUS
 62
    47
 10
22.458362
 20
-84.224733
 11
22.468362
 21
-84.234732
  0
LINE
  8
型材断面
  6
CONTINUOUS
 62
    47
 10
22.468362
 20
-83.124708
 11
22.468362
 21
-83.748057
  0
LINE
  8
型材断面
  6
CONTINUOUS
 62
    47
 10
22.468362
 20
-83.768058
 11
22.468362
 21
-84.214732
  0
LINE
  8
型材断面
  6
CONTINUOUS
 62
    47
 10
24.668362
 20
-85.024715
 11
24.668362
 21
-85.524718
  0
LINE
  8
型材断面
  6
CONTINUOUS
 62
    47
 10
24.16837
 20
-85.858047
 11
24.16837
 21
-85.524718
  0
LINE
  8
型材断面
  6
CONTINUOUS
 62
    47
 10
24.668362
 20
-85.024715
 11
22.468362
 21
-84.858047
  0
LINE
  8
型材断面
  6
CONTINUOUS
 62
    47
 10
21.734887
 20
-84.858047
 11
22.401695
 21
-84.858047
  0
LINE
  8
型材断面
  6
CONTINUOUS
 62
    47
 10
22.458362
 20
-84.758047
 11
22.468362
 21
-84.748048
  0
LINE
  8
型材断面
  6
CONTINUOUS
 62
    47
 10
22.458362
 20
-84.758047
 11
22.468362
 21
-84.768048
  0
LINE
  8
型材断面
  6
CONTINUOUS
 62
    47
 10
22.468362
 20
-84.858047
 11
22.468362
 21
-84.768048
  0
LINE
  8
型材断面
  6
CONTINUOUS
 62
    47
 10
22.468362
 20
-84.234732
 11
22.468362
 21
-84.748048
  0
LINE
  8
型材断面
  6
CONTINUOUS
 62
    47
 10
23.935028
 20
-83.124708
 11
23.935028
 21
-82.99139
  0
LINE
  8
型材断面
  6
CONTINUOUS
 62
    47
 10
22.668223
 20
-82.624727
 11
23.93503
 21
-82.691053
  0
LINE
  8
型材断面
  6
CONTINUOUS
 62
    47
 10
24.668362
 20
-85.524718
 11
-45.331778
 21
-85.524718
  0
LINE
  8
型材断面
  6
CONTINUOUS
 62
    47
 10
24.16837
 20
-85.858047
 11
-45.331778
 21
-85.858047
  0
LINE
  8
型材断面
  6
CONTINUOUS
 10
24.668362
 20
-85.024715
 11
-45.331778
 21
-85.024715
  0
LINE
  8
型材断面
  6
CONTINUOUS
 10
22.468362
 20
-84.858047
 11
-45.331778
 21
-84.858047
  0
LINE
  8
型材断面
  6
CONTINUOUS
 62
    47
 10
23.935028
 20
-82.99139
 11
-45.331778
 21
-82.99139
  0
LINE
  8
型材断面
  6
CONTINUOUS
 62
    47
 10
23.935028
 20
-83.124708
 11
-45.331778
 21
-83.124708
  0
LINE
  8
型材断面
  6
CONTINUOUS
 62
    47
 10
23.93503
 20
-82.857683
 11
-45.331778
 21
-82.857683
  0
LINE
  8
型材断面
  6
CONTINUOUS
 10
22.668223
 20
-82.624727
 11
-45.331778
 21
-82.624727
  0
LINE
  8
型材断面
  6
CONTINUOUS
 10
23.93503
 20
-82.691053
 11
-45.331778
 21
-82.691053
  0
LINE
  8
型材断面
  6
CONTINUOUS
 62
    47
 10
-113.321778
 20
-81.564728
 11
-113.331778
 21
-81.554727
  0
LINE
  8
型材断面
  6
CONTINUOUS
 62
    47
 10
-113.321778
 20
-81.564728
 11
-113.331778
 21
-81.574727
  0
LINE
  8
型材断面
  6
CONTINUOUS
 62
    47
 10
-113.321778
 20
-82.20696
 11
-113.331778
 21
-82.19696
  0
LINE
  8
型材断面
  6
CONTINUOUS
 62
    47
 10
-113.321778
 20
-82.20696
 11
-113.331778
 21
-82.21696
  0
LINE
  8
型材断面
  6
CONTINUOUS
 62
    47
 10
-113.331778
 20
-82.624727
 11
-113.331778
 21
-82.21696
  0
LINE
  8
型材断面
  6
CONTINUOUS
 62
    47
 10
-113.331778
 20
-82.19696
 11
-113.331778
 21
-81.574727
  0
LINE
  8
型材断面
  6
CONTINUOUS
 62
    47
 10
-113.331778
 20
-81.554727
 11
-113.331778
 21
-80.858043
  0
LINE
  8
型材断面
  6
CONTINUOUS
 62
    47
 10
-114.598585
 20
-82.691053
 11
-114.598585
 21
-82.857683
  0
LINE
  8
型材断面
  6
CONTINUOUS
 62
    47
 10
-113.121918
 20
-83.758057
 11
-113.131917
 21
-83.748057
  0
LINE
  8
型材断面
  6
CONTINUOUS
 62
    47
 10
-113.121918
 20
-83.758057
 11
-113.131917
 21
-83.768058
  0
LINE
  8
型材断面
  6
CONTINUOUS
 62
    47
 10
-113.121918
 20
-84.224733
 11
-113.131917
 21
-84.214732
  0
LINE
  8
型材断面
  6
CONTINUOUS
 62
    47
 10
-113.121918
 20
-84.224733
 11
-113.131917
 21
-84.234732
  0
LINE
  8
型材断面
  6
CONTINUOUS
 62
    47
 10
-113.131917
 20
-83.124708
 11
-113.131917
 21
-83.748057
  0
LINE
  8
型材断面
  6
CONTINUOUS
 62
    47
 10
-113.131917
 20
-83.768058
 11
-113.131917
 21
-84.214732
  0
LINE
  8
型材断面
  6
CONTINUOUS
 62
    47
 10
-115.331917
 20
-85.024715
 11
-115.331917
 21
-85.524718
  0
LINE
  8
型材断面
  6
CONTINUOUS
 62
    47
 10
-114.831925
 20
-85.858047
 11
-114.831925
 21
-85.524718
  0
LINE
  8
型材断面
  6
CONTINUOUS
 62
    47
 10
-115.331917
 20
-85.024715
 11
-113.131917
 21
-84.858047
  0
LINE
  8
型材断面
  6
CONTINUOUS
 62
    47
 10
-112.398442
 20
-84.858047
 11
-113.06525
 21
-84.858047
  0
LINE
  8
型材断面
  6
CONTINUOUS
 62
    47
 10
-113.121918
 20
-84.758047
 11
-113.131917
 21
-84.748048
  0
LINE
  8
型材断面
  6
CONTINUOUS
 62
    47
 10
-113.121918
 20
-84.758047
 11
-113.131917
 21
-84.768048
  0
LINE
  8
型材断面
  6
CONTINUOUS
 62
    47
 10
-113.131917
 20
-84.858047
 11
-113.131917
 21
-84.768048
  0
LINE
  8
型材断面
  6
CONTINUOUS
 62
    47
 10
-113.131917
 20
-84.234732
 11
-113.131917
 21
-84.748048
  0
LINE
  8
型材断面
  6
CONTINUOUS
 62
    47
 10
-114.598582
 20
-83.124708
 11
-114.598582
 21
-82.99139
  0
LINE
  8
型材断面
  6
CONTINUOUS
 62
    47
 10
-113.331778
 20
-82.624727
 11
-114.598585
 21
-82.691053
  0
LINE
  8
型材断面
  6
CONTINUOUS
 62
    47
 10
-115.331917
 20
-85.524718
 11
-45.331778
 21
-85.524718
  0
LINE
  8
型材断面
  6
CONTINUOUS
 62
    47
 10
-114.831925
 20
-85.858047
 11
-45.331778
 21
-85.858047
  0
LINE
  8
型材断面
  6
CONTINUOUS
 10
-115.331917
 20
-85.024715
 11
-45.331778
 21
-85.024715
  0
LINE
  8
型材断面
  6
CONTINUOUS
 10
-113.131917
 20
-84.858047
 11
-45.331778
 21
-84.858047
  0
LINE
  8
型材断面
  6
CONTINUOUS
 62
    47
 10
-114.598582
 20
-82.99139
 11
-45.331778
 21
-82.99139
  0
LINE
  8
型材断面
  6
CONTINUOUS
 62
    47
 10
-114.598582
 20
-83.124708
 11
-45.331778
 21
-83.124708
  0
LINE
  8
型材断面
  6
CONTINUOUS
 62
    47
 10
-114.598585
 20
-82.857683
 11
-45.331778
 21
-82.857683
  0
LINE
  8
型材断面
  6
CONTINUOUS
 10
-113.331778
 20
-82.624727
 11
-45.331778
 21
-82.624727
  0
LINE
  8
型材断面
  6
CONTINUOUS
 10
-114.598585
 20
-82.691053
 11
-45.331778
 21
-82.691053
  0
LINE
  8
型材断面
  6
CONTINUOUS
 62
    47
 10
-113.331778
 20
-80.858043
 11
-45.331778
 21
-80.858043
  0
LINE
  8
型材断面
  6
CONTINUOUS
 10
24.668223
 20
10.065715
 11
-45.331778
 21
10.065715
  0
LINE
  8
型材断面
  6
CONTINUOUS
 10
24.668223
 20
60.065715
 11
-45.331778
 21
60.065715
  0
LINE
  8
型材断面
  6
CONTINUOUS
 10
-115.331778
 20
60.065715
 11
-45.331778
 21
60.065715
  0
LINE
  8
型材断面
  6
CONTINUOUS
 10
-115.331778
 20
10.065715
 11
-45.331778
 21
10.065715
  0
LINE
  8
型材断面
  6
DASHDOT
 10
-45.331778
 20
13.399048
 11
-45.331778
 21
56.73238
  0
LINE
  8
型材断面
  6
DASHDOT
 10
85.67832
 20
13.399048
 11
-111.998442
 21
13.399048
  0
LINE
  8
型材断面
  6
CONTINUOUS
 10
23.93489
 20
10.799048
 11
-45.331778
 21
10.79902
  0
LINE
  8
型材断面
  6
CONTINUOUS
 10
23.93489
 20
59.332382
 11
-45.331778
 21
59.33241
  0
LINE
  8
型材断面
  6
CONTINUOUS
 10
-114.598445
 20
59.332382
 11
-45.331778
 21
59.33241
  0
LINE
  8
型材断面
  6
CONTINUOUS
 10
-114.598445
 20
10.799048
 11
-45.331778
 21
10.79902
  0
LINE
  8
型材断面
  6
CONTINUOUS
 10
22.8649
 20
-79.174835
 11
22.8649
 21
-80.674835
  0
LINE
  8
型材断面
  6
CONTINUOUS
 10
23.02142
 20
-79.174835
 11
23.02142
 21
-79.008168
  0
LINE
  8
型材断面
  6
CONTINUOUS
 62
    47
 10
23.02142
 20
-79.174835
 11
-45.331778
 21
-79.174835
  0
LINE
  8
型材断面
  6
CONTINUOUS
 62
    47
 10
23.02142
 20
-79.008168
 11
-45.331778
 21
-79.008168
  0
LINE
  8
型材断面
  6
CONTINUOUS
 62
    47
 10
22.668223
 20
-80.858043
 11
-45.331778
 21
-80.858043
  0
LINE
  8
型材断面
  6
CONTINUOUS
 62
    47
 10
22.8649
 20
-80.674835
 11
-45.331778
 21
-80.674835
  0
LINE
  8
型材断面
  6
CONTINUOUS
 10
-113.528455
 20
-79.174835
 11
-113.528455
 21
-80.674835
  0
LINE
  8
型材断面
  6
CONTINUOUS
 10
-113.684975
 20
-79.174835
 11
-113.684975
 21
-79.008168
  0
LINE
  8
型材断面
  6
CONTINUOUS
 62
    47
 10
-113.684975
 20
-79.174835
 11
-45.331778
 21
-79.174835
  0
LINE
  8
型材断面
  6
CONTINUOUS
 62
    47
 10
-113.684975
 20
-79.008168
 11
-45.331778
 21
-79.008168
  0
LINE
  8
型材断面
  6
CONTINUOUS
 62
    47
 10
-113.528455
 20
-80.674835
 11
-45.331778
 21
-80.674835
  0
ARC
  8
型材断面
  6
DASHDOT
 10
112.933907
 20
59.672704
 40
48.873825
 50
224.940963
 51
269.940964
  0
LINE
  8
型材断面
  6
CONTINUOUS
 62
    47
 10
111.590595
 20
58.055712
 11
111.580595
 21
58.065712
  0
LINE
  8
型材断面
  6
CONTINUOUS
 62
    47
 10
111.590595
 20
58.055712
 11
111.600595
 21
58.065712
  0
LINE
  8
型材断面
  6
CONTINUOUS
 62
    47
 10
112.232827
 20
58.055712
 11
112.222827
 21
58.065712
  0
LINE
  8
型材断面
  6
CONTINUOUS
 62
    47
 10
112.232827
 20
58.055712
 11
112.242828
 21
58.065712
  0
LINE
  8
型材断面
  6
CONTINUOUS
 62
    47
 10
112.650595
 20
58.065712
 11
112.242828
 21
58.065712
  0
LINE
  8
型材断面
  6
CONTINUOUS
 62
    47
 10
112.222827
 20
58.065712
 11
111.600595
 21
58.065712
  0
LINE
  8
型材断面
  6
CONTINUOUS
 62
    47
 10
111.580595
 20
58.065712
 11
110.88391
 21
58.065712
  0
LINE
  8
型材断面
  6
CONTINUOUS
 62
    47
 10
112.71692
 20
59.33252
 11
112.883547
 21
59.33252
  0
LINE
  8
型材断面
  6
CONTINUOUS
 62
    47
 10
113.783925
 20
57.855853
 11
113.773925
 21
57.865853
  0
LINE
  8
型材断面
  6
CONTINUOUS
 62
    47
 10
113.783925
 20
57.855853
 11
113.793925
 21
57.865853
  0
LINE
  8
型材断面
  6
CONTINUOUS
 62
    47
 10
114.250598
 20
57.855853
 11
114.240597
 21
57.865853
  0
LINE
  8
型材断面
  6
CONTINUOUS
 62
    47
 10
114.250598
 20
57.855853
 11
114.260598
 21
57.865853
  0
LINE
  8
型材断面
  6
CONTINUOUS
 62
    47
 10
113.150573
 20
57.865853
 11
113.773925
 21
57.865853
  0
LINE
  8
型材断面
  6
CONTINUOUS
 62
    47
 10
113.793925
 20
57.865853
 11
114.240597
 21
57.865853
  0
LINE
  8
型材断面
  6
CONTINUOUS
 62
    47
 10
115.050583
 20
60.065853
 11
115.550583
 21
60.065853
  0
LINE
  8
型材断面
  6
CONTINUOUS
 62
    47
 10
115.883915
 20
59.56586
 11
115.550583
 21
59.56586
  0
LINE
  8
型材断面
  6
CONTINUOUS
 62
    47
 10
115.050583
 20
60.065853
 11
114.883915
 21
57.865853
  0
LINE
  8
型材断面
  6
CONTINUOUS
 62
    47
 10
114.883915
 20
57.132378
 11
114.883915
 21
57.799185
  0
LINE
  8
型材断面
  6
CONTINUOUS
 62
    47
 10
114.783915
 20
57.855853
 11
114.773915
 21
57.865853
  0
LINE
  8
型材断面
  6
CONTINUOUS
 62
    47
 10
114.783915
 20
57.855853
 11
114.793915
 21
57.865853
  0
LINE
  8
型材断面
  6
CONTINUOUS
 62
    47
 10
114.883915
 20
57.865853
 11
114.793915
 21
57.865853
  0
LINE
  8
型材断面
  6
CONTINUOUS
 62
    47
 10
114.260598
 20
57.865853
 11
114.773915
 21
57.865853
  0
LINE
  8
型材断面
  6
CONTINUOUS
 62
    47
 10
113.150573
 20
59.33252
 11
113.017258
 21
59.33252
  0
LINE
  8
型材断面
  6
CONTINUOUS
 62
    47
 10
112.650595
 20
58.065712
 11
112.71692
 21
59.33252
  0
LINE
  8
型材断面
  6
CONTINUOUS
 62
    47
 10
110.88391
 20
58.065712
 11
110.88391
 21
35.065712
  0
LINE
  8
型材断面
  6
CONTINUOUS
 10
112.650595
 20
58.065712
 11
112.650595
 21
35.065712
  0
LINE
  8
型材断面
  6
CONTINUOUS
 10
112.71692
 20
59.33252
 11
112.71692
 21
35.065712
  0
LINE
  8
型材断面
  6
CONTINUOUS
 62
    47
 10
113.017258
 20
59.33252
 11
113.017258
 21
35.065712
  0
LINE
  8
型材断面
  6
CONTINUOUS
 62
    47
 10
113.150573
 20
59.33252
 11
113.150573
 21
35.065712
  0
LINE
  8
型材断面
  6
CONTINUOUS
 62
    47
 10
112.883547
 20
59.33252
 11
112.883547
 21
35.065712
  0
LINE
  8
型材断面
  6
CONTINUOUS
 10
114.883915
 20
57.865853
 11
114.883915
 21
35.065712
  0
LINE
  8
型材断面
  6
CONTINUOUS
 10
115.050583
 20
60.065853
 11
115.050583
 21
35.065712
  0
LINE
  8
型材断面
  6
CONTINUOUS
 62
    47
 10
115.550583
 20
60.065853
 11
115.550583
 21
35.065712
  0
LINE
  8
型材断面
  6
CONTINUOUS
 62
    47
 10
115.883915
 20
59.56586
 11
115.883915
 21
35.065712
  0
LINE
  8
型材断面
  6
CONTINUOUS
 62
    47
 10
111.590595
 20
12.075713
 11
111.580595
 21
12.065712
  0
LINE
  8
型材断面
  6
CONTINUOUS
 62
    47
 10
111.590595
 20
12.075713
 11
111.600595
 21
12.065712
  0
LINE
  8
型材断面
  6
CONTINUOUS
 62
    47
 10
112.232827
 20
12.075713
 11
112.222827
 21
12.065712
  0
LINE
  8
型材断面
  6
CONTINUOUS
 62
    47
 10
112.232827
 20
12.075713
 11
112.242828
 21
12.065712
  0
LINE
  8
型材断面
  6
CONTINUOUS
 62
    47
 10
112.650595
 20
12.065712
 11
112.242828
 21
12.065712
  0
LINE
  8
型材断面
  6
CONTINUOUS
 62
    47
 10
112.222827
 20
12.065712
 11
111.600595
 21
12.065712
  0
LINE
  8
型材断面
  6
CONTINUOUS
 62
    47
 10
111.580595
 20
12.065712
 11
110.88391
 21
12.065712
  0
LINE
  8
型材断面
  6
CONTINUOUS
 62
    47
 10
112.71692
 20
10.798905
 11
112.883547
 21
10.798905
  0
LINE
  8
型材断面
  6
CONTINUOUS
 62
    47
 10
113.783925
 20
12.275573
 11
113.773925
 21
12.265573
  0
LINE
  8
型材断面
  6
CONTINUOUS
 62
    47
 10
113.783925
 20
12.275573
 11
113.793925
 21
12.265573
  0
LINE
  8
型材断面
  6
CONTINUOUS
 62
    47
 10
114.250598
 20
12.275573
 11
114.240597
 21
12.265573
  0
LINE
  8
型材断面
  6
CONTINUOUS
 62
    47
 10
114.250598
 20
12.275573
 11
114.260598
 21
12.265573
  0
LINE
  8
型材断面
  6
CONTINUOUS
 62
    47
 10
113.150573
 20
12.265573
 11
113.773925
 21
12.265573
  0
LINE
  8
型材断面
  6
CONTINUOUS
 62
    47
 10
113.793925
 20
12.265573
 11
114.240597
 21
12.265573
  0
LINE
  8
型材断面
  6
CONTINUOUS
 62
    47
 10
115.050583
 20
10.065573
 11
115.550583
 21
10.065573
  0
LINE
  8
型材断面
  6
CONTINUOUS
 62
    47
 10
115.883915
 20
10.565565
 11
115.550583
 21
10.565565
  0
LINE
  8
型材断面
  6
CONTINUOUS
 62
    47
 10
115.050583
 20
10.065573
 11
114.883915
 21
12.265573
  0
LINE
  8
型材断面
  6
CONTINUOUS
 62
    47
 10
114.883915
 20
12.999048
 11
114.883915
 21
12.33224
  0
LINE
  8
型材断面
  6
CONTINUOUS
 62
    47
 10
114.783915
 20
12.275573
 11
114.773915
 21
12.265573
  0
LINE
  8
型材断面
  6
CONTINUOUS
 62
    47
 10
114.783915
 20
12.275573
 11
114.793915
 21
12.265573
  0
LINE
  8
型材断面
  6
CONTINUOUS
 62
    47
 10
114.883915
 20
12.265573
 11
114.793915
 21
12.265573
  0
LINE
  8
型材断面
  6
CONTINUOUS
 62
    47
 10
114.260598
 20
12.265573
 11
114.773915
 21
12.265573
  0
LINE
  8
型材断面
  6
CONTINUOUS
 62
    47
 10
113.150573
 20
10.798905
 11
113.017258
 21
10.798905
  0
LINE
  8
型材断面
  6
CONTINUOUS
 62
    47
 10
112.650595
 20
12.065712
 11
112.71692
 21
10.798905
  0
LINE
  8
型材断面
  6
CONTINUOUS
 62
    47
 10
110.88391
 20
12.335702
 11
110.650462
 21
12.335702
  0
LINE
  8
型材断面
  6
CONTINUOUS
 62
    47
 10
110.88391
 20
12.065712
 11
110.88391
 21
35.065712
  0
LINE
  8
型材断面
  6
CONTINUOUS
 10
112.650595
 20
12.065712
 11
112.650595
 21
35.065712
  0
LINE
  8
型材断面
  6
CONTINUOUS
 10
112.71692
 20
10.798905
 11
112.71692
 21
35.065712
  0
LINE
  8
型材断面
  6
CONTINUOUS
 62
    47
 10
113.017258
 20
10.798905
 11
113.017258
 21
35.065712
  0
LINE
  8
型材断面
  6
CONTINUOUS
 62
    47
 10
113.150573
 20
10.798905
 11
113.150573
 21
35.065712
  0
LINE
  8
型材断面
  6
CONTINUOUS
 62
    47
 10
112.883547
 20
10.798905
 11
112.883547
 21
35.065712
  0
LINE
  8
型材断面
  6
CONTINUOUS
 10
114.883915
 20
12.265573
 11
114.883915
 21
35.065712
  0
LINE
  8
型材断面
  6
CONTINUOUS
 10
115.050583
 20
10.065573
 11
115.050583
 21
35.065712
  0
LINE
  8
型材断面
  6
CONTINUOUS
 62
    47
 10
115.550583
 20
10.065573
 11
115.550583
 21
35.065712
  0
LINE
  8
型材断面
  6
CONTINUOUS
 62
    47
 10
115.883915
 20
10.565565
 11
115.883915
 21
35.065712
  0
LINE
  8
型材断面
  6
CONTINUOUS
 62
    47
 10
110.88391
 20
57.795723
 11
110.500705
 21
57.795723
  0
LINE
  8
型材断面
  6
CONTINUOUS
 10
109.200703
 20
11.869035
 11
110.700703
 21
11.869035
  0
LINE
  8
型材断面
  6
CONTINUOUS
 10
109.200703
 20
11.712515
 11
109.034035
 21
11.712515
  0
LINE
  8
型材断面
  6
CONTINUOUS
 62
    47
 10
110.700703
 20
11.869035
 11
110.700703
 21
35.065712
  0
LINE
  8
型材断面
  6
CONTINUOUS
 62
    47
 10
109.034035
 20
11.712515
 11
109.034035
 21
35.065712
  0
LINE
  8
型材断面
  6
CONTINUOUS
 62
    47
 10
109.200703
 20
11.712515
 11
109.200703
 21
35.065712
  0
LINE
  8
型材断面
  6
CONTINUOUS
 10
109.200703
 20
58.26239
 11
110.700703
 21
58.26239
  0
LINE
  8
型材断面
  6
CONTINUOUS
 10
109.200703
 20
58.41891
 11
109.034035
 21
58.41891
  0
LINE
  8
型材断面
  6
CONTINUOUS
 62
    47
 10
110.700703
 20
58.26239
 11
110.700703
 21
35.065712
  0
LINE
  8
型材断面
  6
CONTINUOUS
 62
    47
 10
109.034035
 20
58.41891
 11
109.034035
 21
35.065712
  0
LINE
  8
型材断面
  6
CONTINUOUS
 62
    47
 10
109.200703
 20
58.41891
 11
109.200703
 21
35.065712
  0
LINE
  8
型材断面
  6
DOT
 62
    47
 10
110.840658
 20
59.479183
 11
110.840658
 21
59.493325
  0
LINE
  8
型材断面
  6
DOT
 62
    47
 10
110.840658
 20
59.479183
 11
110.8548
 21
59.479183
  0
LINE
  8
型材断面
  6
DOT
 62
    47
 10
111.294782
 20
59.025055
 11
111.294782
 21
59.0392
  0
LINE
  8
型材断面
  6
DOT
 62
    47
 10
111.294782
 20
59.025055
 11
111.308925
 21
59.025055
  0
LINE
  8
型材断面
  6
DOT
 62
    47
 10
111.597263
 20
58.73672
 11
111.308925
 21
59.025055
  0
LINE
  8
型材断面
  6
DOT
 62
    47
 10
111.294782
 20
59.0392
 11
110.8548
 21
59.479183
  0
LINE
  8
型材断面
  6
DOT
 62
    47
 10
110.840658
 20
59.493325
 11
110.348027
 21
59.985955
  0
LINE
  8
型材断面
  6
DOT
 62
    47
 10
112.539927
 20
59.58559
 11
112.657753
 21
59.467765
  0
LINE
  8
型材断面
  6
DOT
 62
    47
 10
111.597263
 20
58.73672
 11
112.539927
 21
59.58559
  0
LINE
  8
型材断面
  6
DOT
 62
    47
 10
110.348027
 20
59.985955
 11
94.08457
 21
43.7225
  0
LINE
  8
型材断面
  6
DOT
 10
111.597263
 20
58.73672
 11
95.333805
 21
42.473265
  0
LINE
  8
型材断面
  6
DOT
 10
112.539927
 20
59.58559
 11
95.380705
 21
42.426365
  0
LINE
  8
型材断面
  6
DOT
 62
    47
 10
112.657753
 20
59.467765
 11
95.498527
 21
42.308542
  0
LINE
  8
型材断面
  6
DOT
 62
    47
 10
78.327888
 20
26.966412
 11
78.313745
 21
26.966412
  0
LINE
  8
型材断面
  6
DOT
 62
    47
 10
78.327888
 20
26.966412
 11
78.327888
 21
26.95227
  0
LINE
  8
型材断面
  6
DOT
 62
    47
 10
78.782013
 20
26.512285
 11
78.767872
 21
26.512285
  0
LINE
  8
型材断面
  6
DOT
 62
    47
 10
78.782013
 20
26.512285
 11
78.782013
 21
26.498145
  0
LINE
  8
型材断面
  6
DOT
 62
    47
 10
79.07035
 20
26.20981
 11
78.782013
 21
26.498145
  0
LINE
  8
型材断面
  6
DOT
 62
    47
 10
78.767872
 20
26.512285
 11
78.327888
 21
26.95227
  0
LINE
  8
型材断面
  6
DOT
 62
    47
 10
78.313745
 20
26.966412
 11
77.821115
 21
27.459045
  0
LINE
  8
型材断面
  6
DOT
 62
    47
 10
78.22148
 20
25.26714
 11
78.339302
 21
25.149317
  0
LINE
  8
型材断面
  6
DOT
 62
    47
 10
79.07035
 20
26.20981
 11
78.22148
 21
25.26714
  0
LINE
  8
型材断面
  6
DOT
 62
    47
 10
78.012027
 20
27.649955
 11
77.846955
 21
27.815027
  0
LINE
  8
型材断面
  6
DOT
 62
    47
 10
77.821115
 20
27.459045
 11
94.08457
 21
43.7225
  0
LINE
  8
型材断面
  6
DOT
 10
79.07035
 20
26.20981
 11
95.333805
 21
42.473265
  0
LINE
  8
型材断面
  6
DOT
 10
78.22148
 20
25.26714
 11
95.380705
 21
42.426365
  0
LINE
  8
型材断面
  6
DOT
 62
    47
 10
78.339302
 20
25.149317
 11
95.498527
 21
42.308542
  0
LINE
  8
型材断面
  6
DOT
 62
    47
 10
110.157115
 20
59.795045
 11
109.886147
 21
60.06601
  0
LINE
  8
型材断面
  6
DOT
 10
76.491835
 20
28.51018
 11
77.552495
 21
27.44952
  0
LINE
  8
型材断面
  6
DOT
 10
76.381157
 20
28.399503
 11
76.263307
 21
28.517355
  0
LINE
  8
型材断面
  6
DOT
 62
    47
 10
77.552495
 20
27.44952
 11
93.955023
 21
43.852047
  0
LINE
  8
型材断面
  6
DOT
 62
    47
 10
76.263307
 20
28.517355
 11
92.776512
 21
45.03056
  0
LINE
  8
型材断面
  6
DOT
 62
    47
 10
76.381157
 20
28.399503
 11
92.894362
 21
44.912708
  0
LINE
  8
型材断面
  6
DOT
 10
109.29689
 20
61.315235
 11
110.35755
 21
60.254575
  0
LINE
  8
型材断面
  6
DOT
 10
109.407568
 20
61.425913
 11
109.289718
 21
61.543765
  0
LINE
  8
型材断面
  6
DOT
 62
    47
 10
110.35755
 20
60.254575
 11
93.955023
 21
43.852047
  0
LINE
  8
型材断面
  6
DOT
 62
    47
 10
109.289718
 20
61.543765
 11
92.776512
 21
45.03056
  0
LINE
  8
型材断面
  6
DOT
 62
    47
 10
109.407568
 20
61.425913
 11
92.894362
 21
44.912708
  0
LINE
  8
型材断面
  6
CONTINUOUS
 62
    47
 10
22.398233
 20
-80.858043
 11
22.398233
 21
-80.674835
  0
LINE
  8
型材断面
  6
CONTINUOUS
 62
    47
 10
-113.061787
 20
-80.858043
 11
-113.061787
 21
-80.674835
  0
LINE
  8
型材断面
  6
DASHDOT
 10
-78.976775
 20
13.399048
 11
-78.976775
 21
56.73238
  0
LINE
  8
型材断面
  6
DASHDOT
 10
-11.68678
 20
13.399048
 11
-11.68678
 21
56.73238
  0
LINE
  8
型材断面
  6
CONTINUOUS
 10
-10.43678
 20
15.04598
 11
-12.93678
 21
15.04598
  0
LINE
  8
型材断面
  6
CONTINUOUS
 10
-10.43678
 20
15.04598
 11
-10.43678
 21
55.08545
  0
LINE
  8
型材断面
  6
CONTINUOUS
 10
-12.93678
 20
15.04598
 11
-12.93678
 21
55.08545
  0
LINE
  8
型材断面
  6
CONTINUOUS
 10
-10.43678
 20
55.08545
 11
-12.93678
 21
55.08545
  0
LINE
  8
型材断面
  6
CONTINUOUS
 10
-44.081778
 20
15.04598
 11
-46.581778
 21
15.04598
  0
LINE
  8
型材断面
  6
CONTINUOUS
 10
-44.081778
 20
15.04598
 11
-44.081778
 21
55.08545
  0
LINE
  8
型材断面
  6
CONTINUOUS
 10
-46.581778
 20
15.04598
 11
-46.581778
 21
55.08545
  0
LINE
  8
型材断面
  6
CONTINUOUS
 10
-44.081778
 20
55.08545
 11
-46.581778
 21
55.08545
  0
LINE
  8
型材断面
  6
CONTINUOUS
 10
-77.726775
 20
15.04598
 11
-80.226775
 21
15.04598
  0
LINE
  8
型材断面
  6
CONTINUOUS
 10
-77.726775
 20
15.04598
 11
-77.726775
 21
55.08545
  0
LINE
  8
型材断面
  6
CONTINUOUS
 10
-80.226775
 20
15.04598
 11
-80.226775
 21
55.08545
  0
LINE
  8
型材断面
  6
CONTINUOUS
 10
-77.726775
 20
55.08545
 11
-80.226775
 21
55.08545
  0
LINE
  8
型材断面
  6
CONTINUOUS
 10
24.668362
 20
10.065575
 11
24.668362
 21
35.065715
  0
LINE
  8
型材断面
  6
CONTINUOUS
 10
24.668362
 20
60.065855
 11
24.668362
 21
35.065715
  0
LINE
  8
型材断面
  6
CONTINUOUS
 10
23.93503
 20
10.798907
 11
23.93503
 21
35.065715
  0
LINE
  8
型材断面
  6
CONTINUOUS
 10
23.93503
 20
59.332523
 11
23.93503
 21
35.065715
  0
LINE
  8
型材断面
  6
CONTINUOUS
 10
22.785722
 20
11.71251
 11
23.02142
 21
11.948217
  0
LINE
  8
型材断面
  6
CONTINUOUS
 10
24.668362
 20
10.065575
 11
22.903572
 21
11.830365
  0
LINE
  8
型材断面
  6
CONTINUOUS
 10
20.285717
 20
14.21251
 11
22.785715
 21
11.712517
  0
LINE
  8
型材断面
  6
CONTINUOUS
 10
20.52142
 20
14.448213
 11
23.02142
 21
11.948217
  0
LINE
  8
型材断面
  6
CONTINUOUS
 10
23.02142
 20
35.065715
 11
23.02142
 21
11.948217
  0
LINE
  8
型材断面
  6
CONTINUOUS
 10
20.285722
 20
14.212517
 11
20.52142
 21
14.448213
  0
LINE
  8
型材断面
  6
CONTINUOUS
 10
22.785722
 20
58.41892
 11
23.02142
 21
58.183213
  0
LINE
  8
型材断面
  6
CONTINUOUS
 10
20.52142
 20
55.683217
 11
20.285722
 21
55.918913
  0
LINE
  8
型材断面
  6
CONTINUOUS
 10
20.52142
 20
55.683217
 11
23.02142
 21
58.183213
  0
LINE
  8
型材断面
  6
CONTINUOUS
 10
23.02142
 20
35.065715
 11
23.02142
 21
58.183213
  0
LINE
  8
型材断面
  6
CONTINUOUS
 10
20.285717
 20
55.91892
 11
22.785715
 21
58.418913
  0
LINE
  8
型材断面
  6
CONTINUOUS
 10
24.668362
 20
60.065855
 11
22.903572
 21
58.301065
  0
LINE
  8
型材断面
  6
CONTINUOUS
 10
20.521428
 20
34.649048
 11
23.02143
 21
34.649048
  0
LINE
  8
型材断面
  6
CONTINUOUS
 10
20.521428
 20
35.482382
 11
23.02143
 21
35.482382
  0
LINE
  8
型材断面
  6
CONTINUOUS
 10
20.52142
 20
35.482382
 11
20.52142
 21
55.683217
  0
LINE
  8
型材断面
  6
CONTINUOUS
 10
20.52142
 20
14.448213
 11
20.52142
 21
34.649048
  0
LINE
  8
型材断面
  6
CONTINUOUS
 10
5.240723
 20
14.212652
 11
5.240723
 21
11.71265
  0
LINE
  8
型材断面
  6
CONTINUOUS
 10
4.407388
 20
14.212652
 11
4.407388
 21
11.71265
  0
LINE
  8
型材断面
  6
CONTINUOUS
 10
-28.09261
 20
14.212652
 11
-28.09261
 21
11.71265
  0
LINE
  8
型材断面
  6
CONTINUOUS
 10
-28.925945
 20
14.212652
 11
-28.925945
 21
11.71265
  0
LINE
  8
型材断面
  6
CONTINUOUS
 10
-28.925945
 20
14.21264
 11
-45.331778
 21
14.212635
  0
LINE
  8
型材断面
  6
CONTINUOUS
 10
5.240723
 20
55.918778
 11
5.240723
 21
58.41878
  0
LINE
  8
型材断面
  6
CONTINUOUS
 10
4.407388
 20
55.918778
 11
4.407388
 21
58.41878
  0
LINE
  8
型材断面
  6
CONTINUOUS
 10
-28.09261
 20
55.918778
 11
-28.09261
 21
58.41878
  0
LINE
  8
型材断面
  6
CONTINUOUS
 10
-28.925945
 20
55.918778
 11
-28.925945
 21
58.41878
  0
LINE
  8
型材断面
  6
CONTINUOUS
 10
4.407388
 20
14.212652
 11
-28.09261
 21
14.21264
  0
LINE
  8
型材断面
  6
CONTINUOUS
 10
4.407388
 20
55.918778
 11
-28.09261
 21
55.91879
  0
LINE
  8
型材断面
  6
CONTINUOUS
 10
-28.925945
 20
55.91879
 11
-45.331778
 21
55.918795
  0
LINE
  8
型材断面
  6
CONTINUOUS
 10
-115.331917
 20
10.065575
 11
-115.331917
 21
35.065715
  0
LINE
  8
型材断面
  6
CONTINUOUS
 10
-115.331917
 20
60.065855
 11
-115.331917
 21
35.065715
  0
LINE
  8
型材断面
  6
CONTINUOUS
 10
-114.598585
 20
10.798907
 11
-114.598585
 21
35.065715
  0
LINE
  8
型材断面
  6
CONTINUOUS
 10
-114.598585
 20
59.332523
 11
-114.598585
 21
35.065715
  0
LINE
  8
型材断面
  6
CONTINUOUS
 10
-113.449277
 20
11.71251
 11
-113.684975
 21
11.948217
  0
LINE
  8
型材断面
  6
CONTINUOUS
 10
-115.331917
 20
10.065575
 11
-113.567127
 21
11.830365
  0
LINE
  8
型材断面
  6
CONTINUOUS
 10
-110.949273
 20
14.21251
 11
-113.44927
 21
11.712517
  0
LINE
  8
型材断面
  6
CONTINUOUS
 10
-111.184975
 20
14.448213
 11
-113.684975
 21
11.948217
  0
LINE
  8
型材断面
  6
CONTINUOUS
 10
-113.684975
 20
35.065715
 11
-113.684975
 21
11.948217
  0
LINE
  8
型材断面
  6
CONTINUOUS
 10
-110.949277
 20
14.212517
 11
-111.184975
 21
14.448213
  0
LINE
  8
型材断面
  6
CONTINUOUS
 10
-113.449277
 20
58.41892
 11
-113.684975
 21
58.183213
  0
LINE
  8
型材断面
  6
CONTINUOUS
 10
-111.184975
 20
55.683217
 11
-110.949277
 21
55.918913
  0
LINE
  8
型材断面
  6
CONTINUOUS
 10
-111.184975
 20
55.683217
 11
-113.684975
 21
58.183213
  0
LINE
  8
型材断面
  6
CONTINUOUS
 10
-113.684975
 20
35.065715
 11
-113.684975
 21
58.183213
  0
LINE
  8
型材断面
  6
CONTINUOUS
 10
-110.949273
 20
55.91892
 11
-113.44927
 21
58.418913
  0
LINE
  8
型材断面
  6
CONTINUOUS
 10
-115.331917
 20
60.065855
 11
-113.567127
 21
58.301065
  0
LINE
  8
型材断面
  6
CONTINUOUS
 10
-111.184983
 20
34.649048
 11
-113.684985
 21
34.649048
  0
LINE
  8
型材断面
  6
CONTINUOUS
 10
-111.184983
 20
35.482382
 11
-113.684985
 21
35.482382
  0
LINE
  8
型材断面
  6
CONTINUOUS
 10
-111.184975
 20
35.482382
 11
-111.184975
 21
55.683217
  0
LINE
  8
型材断面
  6
CONTINUOUS
 10
-111.184975
 20
14.448213
 11
-111.184975
 21
34.649048
  0
LINE
  8
型材断面
  6
CONTINUOUS
 10
-95.904277
 20
14.212652
 11
-95.904277
 21
11.71265
  0
LINE
  8
型材断面
  6
CONTINUOUS
 10
-95.070943
 20
14.212652
 11
-95.070943
 21
11.71265
  0
LINE
  8
型材断面
  6
CONTINUOUS
 10
-62.570945
 20
14.212652
 11
-62.570945
 21
11.71265
  0
LINE
  8
型材断面
  6
CONTINUOUS
 10
-61.73761
 20
14.212652
 11
-61.73761
 21
11.71265
  0
LINE
  8
型材断面
  6
CONTINUOUS
 10
-95.904277
 20
55.918778
 11
-95.904277
 21
58.41878
  0
LINE
  8
型材断面
  6
CONTINUOUS
 10
-95.070943
 20
55.918778
 11
-95.070943
 21
58.41878
  0
LINE
  8
型材断面
  6
CONTINUOUS
 10
-62.570945
 20
55.918778
 11
-62.570945
 21
58.41878
  0
LINE
  8
型材断面
  6
CONTINUOUS
 10
-61.73761
 20
55.918778
 11
-61.73761
 21
58.41878
  0
LINE
  8
型材断面
  6
CONTINUOUS
 10
-95.070943
 20
14.212652
 11
-62.570945
 21
14.21264
  0
LINE
  8
型材断面
  6
CONTINUOUS
 10
-95.070943
 20
55.918778
 11
-62.570945
 21
55.91879
  0
LINE
  8
型材断面
  6
CONTINUOUS
 10
-45.331778
 20
14.212635
 11
-61.73761
 21
14.21264
  0
LINE
  8
型材断面
  6
CONTINUOUS
 10
-45.331778
 20
55.918795
 11
-61.73761
 21
55.91879
  0
LINE
  8
型材断面
  6
CONTINUOUS
 10
-95.904277
 20
55.918778
 11
-110.949125
 21
55.918772
  0
LINE
  8
型材断面
  6
CONTINUOUS
 10
-45.331778
 20
58.418802
 11
-113.44913
 21
58.418772
  0
LINE
  8
型材断面
  6
CONTINUOUS
 10
-95.904277
 20
14.212652
 11
-110.949125
 21
14.212658
  0
LINE
  8
型材断面
  6
CONTINUOUS
 10
-45.331778
 20
11.712628
 11
-113.44913
 21
11.712658
  0
LINE
  8
型材断面
  6
CONTINUOUS
 10
-45.331778
 20
11.712628
 11
22.785575
 21
11.712658
  0
LINE
  8
型材断面
  6
CONTINUOUS
 10
5.240723
 20
14.212652
 11
20.28557
 21
14.212658
  0
LINE
  8
型材断面
  6
CONTINUOUS
 10
5.240723
 20
55.918778
 11
20.28557
 21
55.918772
  0
LINE
  8
型材断面
  6
CONTINUOUS
 10
-45.331778
 20
58.418802
 11
22.785575
 21
58.418772
  0
LINE
  8
ガラス
  6
CONTINUOUS
 10
157.91659
 20
-84.654215
 11
157.91659
 21
-41.154215
  0
LINE
  8
ガラス
  6
CONTINUOUS
 10
157.91659
 20
-41.154215
 11
125.349922
 21
-41.154215
  0
LINE
  8
ガラス
  6
CONTINUOUS
 10
125.349922
 20
-41.154215
 11
125.349922
 21
-84.654215
  0
LINE
  8
ガラス
  6
CONTINUOUS
 10
157.91659
 20
-84.654215
 11
125.349922
 21
-84.654215
  0
TEXT
  7
TextStyle03
  8
文字
  6
CONTINUOUS
 10
-150.05
 20
98.85
  1
は排水穴位置を示す
 40
3.0
 72
     5
 11
-120.05
 21
98.85
  0
TEXT
  7
TextStyle03
  8
文字
  6
CONTINUOUS
 10
-150.05
 20
93.325
  1
はケーシング位置を示す
 40
3.0
 72
     5
 11
-113.3
 21
93.325
  0
TEXT
  7
TextStyle03
  8
文字
  6
CONTINUOUS
 10
-150.05
 20
89.95
  1
２ヶ所中1ヶ所に設定
 40
3.0
 72
     5
 11
-118.3625
 21
89.95
  0
TEXT
  7
TextStyle03
  8
文字
  6
CONTINUOUS
 10
67.45
 20
97.05
  1
ＮＳコード：ＮＳＦＨＺ
 40
5.0
 72
     5
 11
128.7
 21
97.05
  0
TEXT
  7
TextStyle03
  8
文字
  6
CONTINUOUS
 10
139.525
 20
-78.225
  1
網入り6.8t
 40
3.0
 72
     5
 11
156.2125
 21
-78.225
  0
TEXT
  7
TextStyle03
  8
文字
  6
CONTINUOUS
 10
146.2
 20
-82.9
  1
×４枚
 40
3.0
 72
     5
 11
155.95
 21
-82.9
  0
TEXT
  7
TextStyle03
  8
文字
  6
CONTINUOUS
 10
-149.475
 20
23.975
  1
アンカーピッチ
 40
3.0
 50
90.0
 72
     5
 11
-149.475
 21
47.225
  0
TEXT
  7
TextStyle03
  8
文字
  6
CONTINUOUS
 10
-103.9
 20
94.75
  1
アンカーピッチ
 40
3.0
 72
     5
 11
-80.65
 21
94.75
  0
TEXT
  7
TextStyle03
  8
文字
  6
CONTINUOUS
 10
-153.775
 20
83.975
  1
アンカー数量　１６ヶ所
 40
3.0
 72
     5
 11
-117.025
 21
83.975
  0
TEXT
  7
TextStyle03
  8
文字
  6
CONTINUOUS
 10
97.25
 20
4.675
  1
45°
 40
3.0
 50
90.0
 72
     5
 11
97.25
 21
11.05
  0
TEXT
  7
TextStyle03
  8
文字
  6
CONTINUOUS
 10
67.475
 20
124.525
  1
シリーズ：ＴＦ２ＦＨＬ
 40
5.0
 72
     5
 11
128.725
 21
124.525
  0
TEXT
  7
TextStyle03
  8
文字
  6
CONTINUOUS
 10
67.475
 20
118.9
  1
　　　　　（片側開閉）1300×4000タイプ
 40
5.0
 72
     5
 11
173.725
 21
118.9
  0
TEXT
  7
TextStyle03
  8
文字
  6
CONTINUOUS
 10
67.475
 20
113.275
  1

 40
5.0
 41
1.125
  0
TEXT
  7
TextStyle03
  8
文字
  6
CONTINUOUS
 10
67.475
 20
107.65
  1
図面名　：外観姿図
 40
5.0
 72
     5
 11
117.475
 21
107.65
  0
INSERT
  2
*DIM_0002
  8
寸法
  6
CONTINUOUS
 10
0.0
 20
0.0
  0
INSERT
  2
*DIM_0003
  8
寸法
  6
CONTINUOUS
 10
0.0
 20
0.0
  0
INSERT
  2
*DIM_0004
  8
寸法
  6
CONTINUOUS
 10
0.0
 20
0.0
  0
INSERT
  2
*DIM_0005
  8
寸法
  6
CONTINUOUS
 10
0.0
 20
0.0
  0
INSERT
  2
*DIM_0006
  8
寸法
  6
CONTINUOUS
 10
0.0
 20
0.0
  0
INSERT
  2
*DIM_0007
  8
寸法
  6
CONTINUOUS
 10
0.0
 20
0.0
  0
INSERT
  2
*DIM_0008
  8
寸法
  6
CONTINUOUS
 10
0.0
 20
0.0
  0
INSERT
  2
*DIM_0009
  8
寸法
  6
CONTINUOUS
 10
0.0
 20
0.0
  0
INSERT
  2
*DIM_0010
  8
寸法
  6
CONTINUOUS
 10
0.0
 20
0.0
  0
INSERT
  2
*DIM_0011
  8
寸法
  6
CONTINUOUS
 10
0.0
 20
0.0
  0
INSERT
  2
*DIM_0012
  8
寸法
  6
CONTINUOUS
 10
0.0
 20
0.0
  0
INSERT
  2
*DIM_0013
  8
寸法
  6
CONTINUOUS
 10
0.0
 20
0.0
  0
INSERT
  2
*DIM_0014
  8
寸法
  6
CONTINUOUS
 10
0.0
 20
0.0
  0
INSERT
  2
*DIM_0015
  8
寸法
  6
CONTINUOUS
 10
0.0
 20
0.0
  0
INSERT
  2
*DIM_0016
  8
寸法
  6
CONTINUOUS
 10
0.0
 20
0.0
  0
INSERT
  2
*DIM_0018
  8
寸法
  6
CONTINUOUS
 10
0.0
 20
0.0
  0
INSERT
  2
*GRP_0017
  8
別途部材
  6
CONTINUOUS
 10
0.0
 20
0.0
  0
LINE
  8
曲げ物
  6
CONTINUOUS
 10
6.06062
 20
37.022003
 11
2.365308
 21
33.32669
  0
LINE
  8
曲げ物
  6
CONTINUOUS
 10
5.35715
 20
35.485893
 11
3.90142
 21
34.030163
  0
LINE
  8
曲げ物
  6
CONTINUOUS
 10
4.52451
 20
36.318533
 11
3.06878
 21
34.862803
  0
LINE
  8
曲げ物
  6
CONTINUOUS
 10
-25.093697
 20
37.022003
 11
-28.78901
 21
33.32669
  0
LINE
  8
曲げ物
  6
CONTINUOUS
 10
-25.797167
 20
35.485893
 11
-27.252898
 21
34.030163
  0
LINE
  8
曲げ物
  6
CONTINUOUS
 10
-26.629807
 20
36.318533
 11
-28.085538
 21
34.862803
  0
LINE
  8
曲げ物
  6
CONTINUOUS
 10
-59.757963
 20
37.022003
 11
-63.453275
 21
33.32669
  0
LINE
  8
曲げ物
  6
CONTINUOUS
 10
-60.461432
 20
35.485893
 11
-61.917162
 21
34.030163
  0
LINE
  8
曲げ物
  6
CONTINUOUS
 10
-61.294073
 20
36.318533
 11
-62.749802
 21
34.862803
  0
LINE
  8
曲げ物
  6
CONTINUOUS
 10
-92.98952
 20
37.022003
 11
-96.684832
 21
33.32669
  0
LINE
  8
曲げ物
  6
CONTINUOUS
 10
-93.69299
 20
35.485893
 11
-95.14872
 21
34.030163
  0
LINE
  8
曲げ物
  6
CONTINUOUS
 10
-94.52563
 20
36.318533
 11
-95.98136
 21
34.862803
  0
ENDSEC
  0
EOF
