  0
SECTION
  2
HEADER
  9
$EXTMIN
 10
-210.0
 20
-148.5
  9
$EXTMAX
 10
210.0
 20
148.5
  9
$PDMODE
 70
    32
  9
$PDSIZE
 40
1.5
  9
$LTSCALE
 40
10.0
  0
ENDSEC
  0
SECTION
  2
TABLES
  0
TABLE
  2
LTYPE
 70
    15
  0
LTYPE
  2
CONTINUOUS
 70
    64
  3
実線
 72
    65
 73
     0
 40
0.0
  0
LTYPE
  2
DASHED
 70
    64
  3
破線A
 72
    65
 73
     2
 40
0.6
 49
0.4
 49
-0.2
  0
LTYPE
  2
DASHEDX2
 70
    64
  3
破線B
 72
    65
 73
     2
 40
1.3
 49
0.9
 49
-0.4
  0
LTYPE
  2
DASHDOT
 70
    64
  3
１点鎖線A
 72
    65
 73
     4
 40
0.5375
 49
0.375
 49
-0.05
 49
0.0625
 49
-0.05
  0
LTYPE
  2
DASHDOTX2
 70
    64
  3
１点鎖線B
 72
    65
 73
     4
 40
1.075
 49
0.75
 49
-0.1
 49
0.125
 49
-0.1
  0
LTYPE
  2
DIVIDE2
 70
    64
  3
２点鎖線A
 72
    65
 73
     6
 40
0.5125
 49
0.3
 49
-0.0375
 49
0.05
 49
-0.0375
 49
0.05
 49
-0.0375
  0
LTYPE
  2
DIVIDE
 70
    64
  3
２点鎖線B
 72
    65
 73
     6
 40
1.05
 49
0.55
 49
-0.1
 49
0.1
 49
-0.1
 49
0.1
 49
-0.1
  0
LTYPE
  2
DOT
 70
    64
  3
点線A
 72
    65
 73
     2
 40
0.1125
 49
0.0625
 49
-0.05
  0
LTYPE
  2
DOTX2
 70
    64
  3
点線B
 72
    65
 73
     2
 40
0.275
 49
0.15
 49
-0.125
  0
LTYPE
  2
CONTINUOUS
 70
    64
  3
実線
 72
    65
 73
     0
 40
0.0
  0
LTYPE
  2
CONTINUOUS
 70
    64
  3
実線
 72
    65
 73
     0
 40
0.0
  0
LTYPE
  2
CONTINUOUS
 70
    64
  3
実線
 72
    65
 73
     0
 40
0.0
  0
LTYPE
  2
CONTINUOUS
 70
    64
  3
実線
 72
    65
 73
     0
 40
0.0
  0
LTYPE
  2
CONTINUOUS
 70
    64
  3
実線
 72
    65
 73
     0
 40
0.0
  0
LTYPE
  2
CONTINUOUS
 70
    64
  3
実線
 72
    65
 73
     0
 40
0.0
  0
ENDTAB
  0
TABLE
  2
LAYER
 70
    34
  0
LAYER
  2
通り芯
 70
     0
 62
    15
  6
CONTINUOUS
  0
LAYER
  2
補助線
 70
     0
 62
    16
  6
DOT
  0
LAYER
  2
躯体
 70
     0
 62
    31
  6
CONTINUOUS
  0
LAYER
  2
型材
 70
     0
 62
    32
  6
CONTINUOUS
  0
LAYER
  2
型材断面
 70
     0
 62
    47
  6
CONTINUOUS
  0
LAYER
  2
ガラス
 70
     0
 62
    48
  6
CONTINUOUS
  0
LAYER
  2
ゴム等
 70
     0
 62
    63
  6
CONTINUOUS
  0
LAYER
  2
ボルト／ビス
 70
     0
 62
    64
  6
CONTINUOUS
  0
LAYER
  2
文字
 70
     0
 62
    79
  6
CONTINUOUS
  0
LAYER
  2
寸法
 70
     0
 62
    80
  6
CONTINUOUS
  0
LAYER
  2
ﾊｯﾁﾝｸﾞ
 70
     0
 62
    95
  6
CONTINUOUS
  0
LAYER
  2
別途部材
 70
     0
 62
    96
  6
CONTINUOUS
  0
LAYER
  2
曲げ物
 70
     0
 62
   111
  6
CONTINUOUS
  0
LAYER
  2
鉄骨等
 70
     0
 62
   112
  6
CONTINUOUS
  0
LAYER
  2
St
 70
     0
 62
   127
  6
CONTINUOUS
  0
LAYER
  2
その他部品等
 70
     0
 62
   128
  6
CONTINUOUS
  0
LAYER
  2
ｶﾞｽｹｯﾄ
 70
     0
 62
   143
  6
CONTINUOUS
  0
LAYER
  2
ｽｹｯﾁ
 70
     0
 62
    14
  6
CONTINUOUS
  0
LAYER
  2
0
 70
     0
 62
    17
  6
CONTINUOUS
  0
LAYER
  2
1
 70
     0
 62
    30
  6
CONTINUOUS
  0
LAYER
  2
4
 70
     0
 62
    33
  6
CONTINUOUS
  0
LAYER
  2
ﾚｲﾔ3
 70
     0
 62
    46
  6
CONTINUOUS
  0
LAYER
  2
外形線
 70
     0
 62
    49
  6
CONTINUOUS
  0
LAYER
  2
部品
 70
     0
 62
    14
  6
CONTINUOUS
  0
LAYER
  2
サッシ芯
 70
     0
 62
    17
  6
DASHDOTX2
  0
LAYER
  2
寸法線
 70
     0
 62
    62
  6
CONTINUOUS
  0
LAYER
  2
姿図外形線
 70
     0
 62
    65
  6
CONTINUOUS
  0
LAYER
  2
姿補助線
 70
     0
 62
    30
  6
CONTINUOUS
  0
LAYER
  2
透視線
 70
     0
 62
    78
  6
DOT
  0
LAYER
  2
用紙
 70
     0
 62
    81
  6
CONTINUOUS
  0
LAYER
  2
実線図枠
 70
     0
 62
    94
  6
CONTINUOUS
  0
LAYER
  2
補助図枠
 70
     0
 62
    97
  6
CONTINUOUS
  0
LAYER
  2
建具記号
 70
     0
 62
   110
  6
CONTINUOUS
  0
LAYER
  2
補助文字
 70
     0
 62
   113
  6
CONTINUOUS
  0
ENDTAB
  0
TABLE
  2
STYLE
 70
    10
  0
STYLE
  2
STANDARD
 70
     0
 40
1.0
 41
1.0
 42
1.0
 50
0.0
 71
     0
  3
TXT
  4
BIGFONT
  0
STYLE
  2
TATE
 70
     4
 40
1.0
 41
1.0
 42
1.0
 50
0.0
 71
     0
  3
TXT
  4
BIGFONT
  0
STYLE
  2
TextStyle03
 70
     0
 40
1.0
 41
1.0
 42
1.0
 50
0.0
 71
     0
  3
MONOTXT
  4
BIGFONT
  0
STYLE
  2
TextStyle04
 70
     0
 40
1.0
 41
1.0
 42
1.0
 50
0.0
 71
     0
  3
MONOTXT
  4
BIGFONT
  0
STYLE
  2
TextStyle05
 70
     0
 40
1.0
 41
1.0
 42
1.0
 50
0.0
 71
     0
  3
MONOTXT
  4
BIGFONT
  0
STYLE
  2
TextStyle06
 70
     0
 40
1.0
 41
1.0
 42
1.0
 50
0.0
 71
     0
  3
MONOTXT
  4
BIGFONT
  0
STYLE
  2
TextStyle07
 70
     0
 40
1.0
 41
1.0
 42
1.0
 50
0.0
 71
     0
  3
MONOTXT
  4
BIGFONT
  0
STYLE
  2
TextStyle08
 70
     0
 40
1.0
 41
1.0
 42
1.0
 50
0.0
 71
     0
  3
MONOTXT
  4
BIGFONT
  0
STYLE
  2
TextStyle09
 70
     0
 40
1.0
 41
1.0
 42
1.0
 50
0.0
 71
     0
  3
MONOTXT
  4
BIGFONT
  0
STYLE
  2
TextStyle10
 70
     0
 40
1.0
 41
1.0
 42
1.0
 50
0.0
 71
     0
  3
MONOTXT
  4
BIGFONT
  0
ENDTAB
  0
ENDSEC
  0
SECTION
  2
BLOCKS
  0
BLOCK
  2
*HAT_0001
 70
    65
 10
0.0
 20
0.0
  0
LINE
  8
ゴム等
 10
-75.675
 20
-21.675
 11
-74.125
 21
-20.175
  0
LINE
  8
ゴム等
 10
-77.325
 20
-21.675
 11
-74.125
 21
-18.475
  0
LINE
  8
ゴム等
 10
-79.025
 20
-21.675
 11
-74.125
 21
-16.775
  0
LINE
  8
ゴム等
 10
-80.725
 20
-21.675
 11
-74.725
 21
-15.675
  0
LINE
  8
ゴム等
 10
-82.425
 20
-21.675
 11
-76.425
 21
-15.675
  0
LINE
  8
ゴム等
 10
-84.125
 20
-21.675
 11
-78.125
 21
-15.675
  0
LINE
  8
ゴム等
 10
-85.825
 20
-21.675
 11
-79.825
 21
-15.675
  0
LINE
  8
ゴム等
 10
-87.525
 20
-21.675
 11
-81.525
 21
-15.675
  0
LINE
  8
ゴム等
 10
-89.125
 20
-21.625
 11
-83.225
 21
-15.675
  0
LINE
  8
ゴム等
 10
-89.125
 20
-19.925
 11
-84.925
 21
-15.675
  0
LINE
  8
ゴム等
 10
-89.125
 20
-18.225
 11
-86.625
 21
-15.675
  0
LINE
  8
ゴム等
 10
-89.125
 20
-16.525
 11
-88.275
 21
-15.675
  0
ENDBLK
  0
BLOCK
  2
*HAT_0002
 70
    65
 10
0.0
 20
0.0
  0
LINE
  8
ゴム等
 10
-105.175
 20
-21.65
 11
-104.025
 21
-20.5
  0
LINE
  8
ゴム等
 10
-103.675
 20
-20.2
 11
-102.525
 21
-19.05
  0
LINE
  8
ゴム等
 10
-106.875
 20
-21.65
 11
-105.875
 21
-20.65
  0
LINE
  8
ゴム等
 10
-103.525
 20
-18.35
 11
-102.575
 21
-17.35
  0
LINE
  8
ゴム等
 10
-108.575
 20
-21.65
 11
-107.575
 21
-20.65
  0
LINE
  8
ゴム等
 10
-103.825
 20
-16.95
 11
-103.125
 21
-16.25
  0
LINE
  8
ゴム等
 10
-110.225
 20
-21.65
 11
-109.225
 21
-20.65
  0
LINE
  8
ゴム等
 10
-105.225
 20
-16.65
 11
-104.275
 21
-15.7
  0
LINE
  8
ゴム等
 10
-111.925
 20
-21.65
 11
-110.925
 21
-20.65
  0
LINE
  8
ゴム等
 10
-106.925
 20
-16.65
 11
-105.925
 21
-15.65
  0
LINE
  8
ゴム等
 10
-113.425
 20
-21.45
 11
-112.625
 21
-20.65
  0
LINE
  8
ゴム等
 10
-108.625
 20
-16.65
 11
-105.425
 21
-13.45
  0
LINE
  8
ゴム等
 10
-114.275
 20
-20.65
 11
-113.525
 21
-19.85
  0
LINE
  8
ゴム等
 10
-110.325
 20
-16.65
 11
-106.325
 21
-12.65
  0
LINE
  8
ゴム等
 10
-114.525
 20
-19.2
 11
-113.525
 21
-18.2
  0
LINE
  8
ゴム等
 10
-112.025
 20
-16.65
 11
-111.025
 21
-15.65
  0
LINE
  8
ゴム等
 10
-110.675
 20
-15.35
 11
-108.025
 21
-12.65
  0
LINE
  8
ゴム等
 10
-114.525
 20
-17.5
 11
-112.725
 21
-15.7
  0
LINE
  8
ゴム等
 10
-111.275
 20
-14.2
 11
-109.725
 21
-12.65
  0
LINE
  8
ゴム等
 10
-111.825
 20
-13.1
 11
-111.425
 21
-12.65
  0
ENDBLK
  0
BLOCK
  2
*HAT_0003
 70
    65
 10
0.0
 20
0.0
  0
LINE
  8
ﾊｯﾁﾝｸﾞ
 10
-26.625
 20
81.225
 11
-27.825
 21
82.425
  0
LINE
  8
ﾊｯﾁﾝｸﾞ
 10
-24.525
 20
81.225
 11
-27.825
 21
84.525
  0
LINE
  8
ﾊｯﾁﾝｸﾞ
 10
-22.425
 20
81.225
 11
-27.825
 21
86.625
  0
LINE
  8
ﾊｯﾁﾝｸﾞ
 10
-20.85
 20
81.75
 11
-27.825
 21
88.725
  0
LINE
  8
ﾊｯﾁﾝｸﾞ
 10
-20.85
 20
83.85
 11
-27.825
 21
90.9
  0
LINE
  8
ﾊｯﾁﾝｸﾞ
 10
-20.85
 20
86.025
 11
-26.475
 21
91.65
  0
LINE
  8
ﾊｯﾁﾝｸﾞ
 10
-20.85
 20
88.125
 11
-24.3
 21
91.65
  0
LINE
  8
ﾊｯﾁﾝｸﾞ
 10
-20.85
 20
90.225
 11
-22.2
 21
91.65
  0
LINE
  8
ﾊｯﾁﾝｸﾞ
 10
-20.85
 20
81.675
 11
-21.3
 21
81.225
  0
LINE
  8
ﾊｯﾁﾝｸﾞ
 10
-20.85
 20
83.85
 11
-23.4
 21
81.225
  0
LINE
  8
ﾊｯﾁﾝｸﾞ
 10
-20.85
 20
85.95
 11
-25.5
 21
81.225
  0
LINE
  8
ﾊｯﾁﾝｸﾞ
 10
-20.85
 20
88.05
 11
-27.675
 21
81.225
  0
LINE
  8
ﾊｯﾁﾝｸﾞ
 10
-20.85
 20
90.15
 11
-27.825
 21
83.175
  0
LINE
  8
ﾊｯﾁﾝｸﾞ
 10
-21.45
 20
91.65
 11
-27.825
 21
85.275
  0
LINE
  8
ﾊｯﾁﾝｸﾞ
 10
-23.625
 20
91.65
 11
-27.825
 21
87.45
  0
LINE
  8
ﾊｯﾁﾝｸﾞ
 10
-25.725
 20
91.65
 11
-27.825
 21
89.55
  0
ENDBLK
  0
BLOCK
  2
*HAT_0004
 70
    65
 10
0.0
 20
0.0
  0
LINE
  8
その他部品等
 10
-54.45
 20
-78.975
 11
-54.35
 21
-78.875
  0
LINE
  8
その他部品等
 10
-55.975
 20
-79.1
 11
-54.475
 21
-77.6
  0
LINE
  8
その他部品等
 10
-57.5
 20
-79.2
 11
-55.9
 21
-77.6
  0
LINE
  8
その他部品等
 10
-59.025
 20
-79.325
 11
-57.3
 21
-77.6
  0
LINE
  8
その他部品等
 10
-60.55
 20
-79.45
 11
-58.725
 21
-77.6
  0
LINE
  8
その他部品等
 10
-62.075
 20
-79.55
 11
-60.125
 21
-77.6
  0
LINE
  8
その他部品等
 10
-63.6
 20
-79.675
 11
-61.55
 21
-77.6
  0
LINE
  8
その他部品等
 10
-65.125
 20
-79.8
 11
-62.95
 21
-77.6
  0
LINE
  8
その他部品等
 10
-66.65
 20
-79.9
 11
-64.375
 21
-77.6
  0
LINE
  8
その他部品等
 10
-68.2
 20
-80.025
 11
-65.775
 21
-77.6
  0
LINE
  8
その他部品等
 10
-69.725
 20
-80.125
 11
-67.2
 21
-77.6
  0
LINE
  8
その他部品等
 10
-71.25
 20
-80.25
 11
-68.6
 21
-77.6
  0
LINE
  8
その他部品等
 10
-72.775
 20
-80.375
 11
-70.025
 21
-77.6
  0
LINE
  8
その他部品等
 10
-74.3
 20
-80.475
 11
-71.425
 21
-77.6
  0
LINE
  8
その他部品等
 10
-75.825
 20
-80.6
 11
-72.825
 21
-77.6
  0
LINE
  8
その他部品等
 10
-77.35
 20
-80.725
 11
-74.25
 21
-77.6
  0
LINE
  8
その他部品等
 10
-78.875
 20
-80.825
 11
-75.775
 21
-77.725
  0
LINE
  8
その他部品等
 10
-80.4
 20
-80.95
 11
-77.3
 21
-77.825
  0
LINE
  8
その他部品等
 10
-81.95
 20
-81.05
 11
-78.825
 21
-77.95
  0
LINE
  8
その他部品等
 10
-83.475
 20
-81.175
 11
-80.35
 21
-78.075
  0
LINE
  8
その他部品等
 10
-85.0
 20
-81.3
 11
-81.875
 21
-78.175
  0
LINE
  8
その他部品等
 10
-86.525
 20
-81.4
 11
-83.425
 21
-78.3
  0
LINE
  8
その他部品等
 10
-88.05
 20
-81.525
 11
-84.95
 21
-78.425
  0
LINE
  8
その他部品等
 10
-89.575
 20
-81.65
 11
-86.475
 21
-78.525
  0
LINE
  8
その他部品等
 10
-91.1
 20
-81.75
 11
-88.0
 21
-78.65
  0
LINE
  8
その他部品等
 10
-92.625
 20
-81.875
 11
-89.525
 21
-78.75
  0
LINE
  8
その他部品等
 10
-94.15
 20
-81.975
 11
-91.05
 21
-78.875
  0
LINE
  8
その他部品等
 10
-95.7
 20
-82.1
 11
-92.575
 21
-79.0
  0
LINE
  8
その他部品等
 10
-97.225
 20
-82.225
 11
-94.1
 21
-79.1
  0
LINE
  8
その他部品等
 10
-98.75
 20
-82.325
 11
-95.625
 21
-79.225
  0
LINE
  8
その他部品等
 10
-100.275
 20
-82.45
 11
-97.15
 21
-79.35
  0
LINE
  8
その他部品等
 10
-101.8
 20
-82.575
 11
-98.7
 21
-79.45
  0
LINE
  8
その他部品等
 10
-103.325
 20
-82.675
 11
-100.225
 21
-79.575
  0
LINE
  8
その他部品等
 10
-104.85
 20
-82.8
 11
-101.75
 21
-79.7
  0
LINE
  8
その他部品等
 10
-106.375
 20
-82.9
 11
-103.275
 21
-79.8
  0
LINE
  8
その他部品等
 10
-107.9
 20
-83.025
 11
-104.8
 21
-79.925
  0
LINE
  8
その他部品等
 10
-109.425
 20
-83.15
 11
-106.325
 21
-80.025
  0
LINE
  8
その他部品等
 10
-110.975
 20
-83.25
 11
-107.85
 21
-80.15
  0
LINE
  8
その他部品等
 10
-112.5
 20
-83.375
 11
-109.375
 21
-80.275
  0
LINE
  8
その他部品等
 10
-114.025
 20
-83.5
 11
-110.9
 21
-80.375
  0
LINE
  8
その他部品等
 10
-115.55
 20
-83.6
 11
-112.45
 21
-80.5
  0
LINE
  8
その他部品等
 10
-117.075
 20
-83.725
 11
-113.975
 21
-80.625
  0
LINE
  8
その他部品等
 10
-118.6
 20
-83.85
 11
-115.5
 21
-80.725
  0
LINE
  8
その他部品等
 10
-120.125
 20
-83.95
 11
-117.025
 21
-80.85
  0
LINE
  8
その他部品等
 10
-121.65
 20
-84.075
 11
-118.55
 21
-80.95
  0
LINE
  8
その他部品等
 10
-123.175
 20
-84.175
 11
-120.075
 21
-81.075
  0
LINE
  8
その他部品等
 10
-124.725
 20
-84.3
 11
-121.6
 21
-81.2
  0
LINE
  8
その他部品等
 10
-135.425
 20
-93.6
 11
-135.35
 21
-93.525
  0
LINE
  8
その他部品等
 10
-136.85
 20
-93.6
 11
-135.35
 21
-92.1
  0
LINE
  8
その他部品等
 10
-138.25
 20
-93.6
 11
-135.35
 21
-90.7
  0
LINE
  8
その他部品等
 10
-126.25
 20
-84.425
 11
-123.125
 21
-81.3
  0
LINE
  8
その他部品等
 10
-127.775
 20
-84.525
 11
-124.65
 21
-81.425
  0
LINE
  8
その他部品等
 10
-129.3
 20
-84.65
 11
-126.2
 21
-81.55
  0
LINE
  8
その他部品等
 10
-138.35
 20
-92.275
 11
-135.35
 21
-89.275
  0
LINE
  8
その他部品等
 10
-138.35
 20
-90.875
 11
-135.35
 21
-87.875
  0
LINE
  8
その他部品等
 10
-130.825
 20
-84.775
 11
-127.725
 21
-81.65
  0
LINE
  8
その他部品等
 10
-132.35
 20
-84.875
 11
-129.25
 21
-81.775
  0
LINE
  8
その他部品等
 10
-138.35
 20
-89.475
 11
-135.275
 21
-86.375
  0
LINE
  8
その他部品等
 10
-133.9
 20
-85.0
 11
-130.775
 21
-81.9
  0
LINE
  8
その他部品等
 10
-138.35
 20
-88.05
 11
-132.3
 21
-82.0
  0
LINE
  8
その他部品等
 10
-138.35
 20
-86.65
 11
-133.825
 21
-82.125
  0
LINE
  8
その他部品等
 10
-138.35
 20
-85.225
 11
-135.35
 21
-82.225
  0
LINE
  8
その他部品等
 10
-138.35
 20
-83.825
 11
-136.875
 21
-82.35
  0
LINE
  8
その他部品等
 10
-138.35
 20
-92.8
 11
-137.55
 21
-93.6
  0
LINE
  8
その他部品等
 10
-138.35
 20
-91.4
 11
-136.15
 21
-93.6
  0
LINE
  8
その他部品等
 10
-138.35
 20
-90.0
 11
-135.35
 21
-93.0
  0
LINE
  8
その他部品等
 10
-138.35
 20
-88.575
 11
-135.35
 21
-91.575
  0
LINE
  8
その他部品等
 10
-138.35
 20
-87.175
 11
-135.35
 21
-90.175
  0
LINE
  8
その他部品等
 10
-138.35
 20
-85.75
 11
-135.35
 21
-88.75
  0
LINE
  8
その他部品等
 10
-138.35
 20
-84.35
 11
-135.35
 21
-87.35
  0
LINE
  8
その他部品等
 10
-138.35
 20
-82.925
 11
-135.15
 21
-86.125
  0
LINE
  8
その他部品等
 10
-137.475
 20
-82.4
 11
-134.55
 21
-85.3
  0
LINE
  8
その他部品等
 10
-136.175
 20
-82.3
 11
-133.5
 21
-84.95
  0
LINE
  8
その他部品等
 10
-134.85
 20
-82.2
 11
-132.175
 21
-84.875
  0
LINE
  8
その他部品等
 10
-133.55
 20
-82.1
 11
-130.875
 21
-84.775
  0
LINE
  8
その他部品等
 10
-132.225
 20
-82.0
 11
-129.55
 21
-84.675
  0
LINE
  8
その他部品等
 10
-130.925
 20
-81.9
 11
-128.25
 21
-84.575
  0
LINE
  8
その他部品等
 10
-129.6
 20
-81.8
 11
-126.925
 21
-84.475
  0
LINE
  8
その他部品等
 10
-128.3
 20
-81.7
 11
-125.625
 21
-84.375
  0
LINE
  8
その他部品等
 10
-126.975
 20
-81.6
 11
-124.3
 21
-84.275
  0
LINE
  8
その他部品等
 10
-125.675
 20
-81.5
 11
-123.0
 21
-84.175
  0
LINE
  8
その他部品等
 10
-124.35
 20
-81.4
 11
-121.675
 21
-84.075
  0
LINE
  8
その他部品等
 10
-123.05
 20
-81.3
 11
-120.375
 21
-83.975
  0
LINE
  8
その他部品等
 10
-121.725
 20
-81.2
 11
-119.05
 21
-83.875
  0
LINE
  8
その他部品等
 10
-120.4
 20
-81.1
 11
-117.75
 21
-83.775
  0
LINE
  8
その他部品等
 10
-119.1
 20
-81.0
 11
-116.425
 21
-83.675
  0
LINE
  8
その他部品等
 10
-117.8
 20
-80.9
 11
-115.125
 21
-83.575
  0
LINE
  8
その他部品等
 10
-116.475
 20
-80.8
 11
-113.8
 21
-83.475
  0
LINE
  8
その他部品等
 10
-115.175
 20
-80.7
 11
-112.5
 21
-83.375
  0
LINE
  8
その他部品等
 10
-113.85
 20
-80.6
 11
-111.175
 21
-83.275
  0
LINE
  8
その他部品等
 10
-112.55
 20
-80.5
 11
-109.875
 21
-83.175
  0
LINE
  8
その他部品等
 10
-111.225
 20
-80.4
 11
-108.55
 21
-83.075
  0
LINE
  8
その他部品等
 10
-109.925
 20
-80.3
 11
-107.25
 21
-82.975
  0
LINE
  8
その他部品等
 10
-108.6
 20
-80.2
 11
-105.925
 21
-82.875
  0
LINE
  8
その他部品等
 10
-107.3
 20
-80.1
 11
-104.625
 21
-82.775
  0
LINE
  8
その他部品等
 10
-105.975
 20
-80.0
 11
-103.3
 21
-82.675
  0
LINE
  8
その他部品等
 10
-104.675
 20
-79.9
 11
-102.0
 21
-82.575
  0
LINE
  8
その他部品等
 10
-103.35
 20
-79.8
 11
-100.675
 21
-82.475
  0
LINE
  8
その他部品等
 10
-102.05
 20
-79.7
 11
-99.375
 21
-82.375
  0
LINE
  8
その他部品等
 10
-100.725
 20
-79.6
 11
-98.05
 21
-82.275
  0
LINE
  8
その他部品等
 10
-99.425
 20
-79.5
 11
-96.75
 21
-82.175
  0
LINE
  8
その他部品等
 10
-98.1
 20
-79.4
 11
-95.425
 21
-82.075
  0
LINE
  8
その他部品等
 10
-96.8
 20
-79.3
 11
-94.125
 21
-81.975
  0
LINE
  8
その他部品等
 10
-95.475
 20
-79.2
 11
-92.8
 21
-81.875
  0
LINE
  8
その他部品等
 10
-94.175
 20
-79.1
 11
-91.5
 21
-81.775
  0
LINE
  8
その他部品等
 10
-92.85
 20
-79.0
 11
-90.175
 21
-81.675
  0
LINE
  8
その他部品等
 10
-91.55
 20
-78.925
 11
-88.875
 21
-81.575
  0
LINE
  8
その他部品等
 10
-90.225
 20
-78.825
 11
-87.55
 21
-81.475
  0
LINE
  8
その他部品等
 10
-88.925
 20
-78.725
 11
-86.25
 21
-81.375
  0
LINE
  8
その他部品等
 10
-87.6
 20
-78.625
 11
-84.925
 21
-81.275
  0
LINE
  8
その他部品等
 10
-86.3
 20
-78.525
 11
-83.625
 21
-81.175
  0
LINE
  8
その他部品等
 10
-84.975
 20
-78.425
 11
-82.3
 21
-81.075
  0
LINE
  8
その他部品等
 10
-83.675
 20
-78.325
 11
-81.0
 21
-80.975
  0
LINE
  8
その他部品等
 10
-82.35
 20
-78.225
 11
-79.675
 21
-80.875
  0
LINE
  8
その他部品等
 10
-81.025
 20
-78.125
 11
-78.375
 21
-80.775
  0
LINE
  8
その他部品等
 10
-79.725
 20
-78.025
 11
-77.05
 21
-80.675
  0
LINE
  8
その他部品等
 10
-78.425
 20
-77.925
 11
-75.75
 21
-80.575
  0
LINE
  8
その他部品等
 10
-77.1
 20
-77.825
 11
-74.425
 21
-80.5
  0
LINE
  8
その他部品等
 10
-75.8
 20
-77.725
 11
-73.125
 21
-80.4
  0
LINE
  8
その他部品等
 10
-74.475
 20
-77.625
 11
-71.8
 21
-80.3
  0
LINE
  8
その他部品等
 10
-73.075
 20
-77.6
 11
-70.5
 21
-80.2
  0
LINE
  8
その他部品等
 10
-71.675
 20
-77.6
 11
-69.175
 21
-80.1
  0
LINE
  8
その他部品等
 10
-70.25
 20
-77.6
 11
-67.875
 21
-80.0
  0
LINE
  8
その他部品等
 10
-68.85
 20
-77.6
 11
-66.55
 21
-79.9
  0
LINE
  8
その他部品等
 10
-67.425
 20
-77.6
 11
-65.25
 21
-79.8
  0
LINE
  8
その他部品等
 10
-66.025
 20
-77.6
 11
-63.925
 21
-79.7
  0
LINE
  8
その他部品等
 10
-64.6
 20
-77.6
 11
-62.625
 21
-79.6
  0
LINE
  8
その他部品等
 10
-63.2
 20
-77.6
 11
-61.3
 21
-79.5
  0
LINE
  8
その他部品等
 10
-61.775
 20
-77.6
 11
-60.0
 21
-79.4
  0
LINE
  8
その他部品等
 10
-60.375
 20
-77.6
 11
-58.675
 21
-79.3
  0
LINE
  8
その他部品等
 10
-58.95
 20
-77.6
 11
-57.375
 21
-79.2
  0
LINE
  8
その他部品等
 10
-57.55
 20
-77.6
 11
-56.05
 21
-79.1
  0
LINE
  8
その他部品等
 10
-56.125
 20
-77.6
 11
-54.75
 21
-79.0
  0
LINE
  8
その他部品等
 10
-54.725
 20
-77.6
 11
-54.35
 21
-77.975
  0
ENDBLK
  0
BLOCK
  2
*HAT_0005
 70
    65
 10
0.0
 20
0.0
  0
LINE
  8
その他部品等
 10
-54.775
 20
-92.0
 11
-54.35
 21
-91.6
  0
LINE
  8
その他部品等
 10
-56.175
 20
-92.0
 11
-54.35
 21
-90.175
  0
LINE
  8
その他部品等
 10
-57.575
 20
-92.0
 11
-54.35
 21
-88.775
  0
LINE
  8
その他部品等
 10
-59.0
 20
-92.0
 11
-54.35
 21
-87.35
  0
LINE
  8
その他部品等
 10
-60.4
 20
-92.0
 11
-54.35
 21
-85.95
  0
LINE
  8
その他部品等
 10
-61.825
 20
-92.0
 11
-54.35
 21
-84.525
  0
LINE
  8
その他部品等
 10
-63.225
 20
-92.0
 11
-54.35
 21
-83.125
  0
LINE
  8
その他部品等
 10
-64.65
 20
-92.0
 11
-54.35
 21
-81.7
  0
LINE
  8
その他部品等
 10
-66.05
 20
-92.0
 11
-54.65
 21
-80.6
  0
LINE
  8
その他部品等
 10
-67.475
 20
-92.0
 11
-56.175
 21
-80.725
  0
LINE
  8
その他部品等
 10
-68.875
 20
-92.0
 11
-57.7
 21
-80.825
  0
LINE
  8
その他部品等
 10
-70.3
 20
-92.0
 11
-59.225
 21
-80.95
  0
LINE
  8
その他部品等
 10
-71.7
 20
-92.0
 11
-60.75
 21
-81.05
  0
LINE
  8
その他部品等
 10
-73.125
 20
-92.0
 11
-62.275
 21
-81.175
  0
LINE
  8
その他部品等
 10
-74.15
 20
-91.625
 11
-63.825
 21
-81.3
  0
LINE
  8
その他部品等
 10
-74.15
 20
-90.2
 11
-65.35
 21
-81.4
  0
LINE
  8
その他部品等
 10
-74.15
 20
-88.8
 11
-66.875
 21
-81.525
  0
LINE
  8
その他部品等
 10
-74.15
 20
-87.375
 11
-68.4
 21
-81.65
  0
LINE
  8
その他部品等
 10
-74.15
 20
-85.975
 11
-69.925
 21
-81.75
  0
LINE
  8
その他部品等
 10
-74.15
 20
-84.575
 11
-71.45
 21
-81.875
  0
LINE
  8
その他部品等
 10
-74.15
 20
-83.15
 11
-72.975
 21
-82.0
  0
LINE
  8
その他部品等
 10
-74.15
 20
-90.65
 11
-72.8
 21
-92.0
  0
LINE
  8
その他部品等
 10
-74.15
 20
-89.25
 11
-71.375
 21
-92.0
  0
LINE
  8
その他部品等
 10
-74.15
 20
-87.825
 11
-69.975
 21
-92.0
  0
LINE
  8
その他部品等
 10
-74.15
 20
-86.425
 11
-68.55
 21
-92.0
  0
LINE
  8
その他部品等
 10
-74.15
 20
-85.0
 11
-67.15
 21
-92.0
  0
LINE
  8
その他部品等
 10
-74.15
 20
-83.6
 11
-65.75
 21
-92.0
  0
LINE
  8
その他部品等
 10
-74.15
 20
-82.175
 11
-64.325
 21
-92.0
  0
LINE
  8
その他部品等
 10
-72.925
 20
-81.975
 11
-62.925
 21
-92.0
  0
LINE
  8
その他部品等
 10
-71.625
 20
-81.875
 11
-61.5
 21
-92.0
  0
LINE
  8
その他部品等
 10
-70.325
 20
-81.775
 11
-60.1
 21
-92.0
  0
LINE
  8
その他部品等
 10
-69.0
 20
-81.675
 11
-58.675
 21
-92.0
  0
LINE
  8
その他部品等
 10
-67.7
 20
-81.575
 11
-57.275
 21
-92.0
  0
LINE
  8
その他部品等
 10
-66.375
 20
-81.475
 11
-55.85
 21
-92.0
  0
LINE
  8
その他部品等
 10
-65.05
 20
-81.375
 11
-54.45
 21
-92.0
  0
LINE
  8
その他部品等
 10
-63.75
 20
-81.275
 11
-54.35
 21
-90.675
  0
LINE
  8
その他部品等
 10
-62.425
 20
-81.175
 11
-54.35
 21
-89.275
  0
LINE
  8
その他部品等
 10
-61.125
 20
-81.1
 11
-54.35
 21
-87.85
  0
LINE
  8
その他部品等
 10
-59.8
 20
-81.0
 11
-54.35
 21
-86.45
  0
LINE
  8
その他部品等
 10
-58.5
 20
-80.9
 11
-54.35
 21
-85.025
  0
LINE
  8
その他部品等
 10
-57.2
 20
-80.8
 11
-54.35
 21
-83.625
  0
LINE
  8
その他部品等
 10
-55.875
 20
-80.7
 11
-54.35
 21
-82.2
  0
LINE
  8
その他部品等
 10
-54.55
 20
-80.6
 11
-54.35
 21
-80.8
  0
ENDBLK
  0
BLOCK
  2
*GRP_0001
 70
    65
 10
0.0
 20
0.0
  0
LINE
  8
型材断面
  6
CONTINUOUS
 10
195.0
 20
133.5
 11
195.0
 21
-133.5
  0
LINE
  8
型材断面
  6
CONTINUOUS
 10
195.0
 20
-133.5
 11
-185.0
 21
-133.5
  0
LINE
  8
型材断面
  6
CONTINUOUS
 10
-185.0
 20
-133.5
 11
-185.0
 21
133.5
  0
LINE
  8
型材断面
  6
CONTINUOUS
 10
195.0
 20
133.5
 11
-185.0
 21
133.5
  0
LINE
  8
型材断面
  6
CONTINUOUS
 10
145.0
 20
-133.5
 11
145.0
 21
-118.5
  0
LINE
  8
型材断面
  6
CONTINUOUS
 10
195.0
 20
-118.5
 11
145.0
 21
-118.5
  0
ENDBLK
  0
BLOCK
  2
*GRP_0002
 70
    65
 10
0.0
 20
0.0
  0
LINE
  8
別途部材
  6
CONTINUOUS
 62
    47
 10
-61.460205
 20
-93.62707
 11
-118.96018
 21
-93.62707
  0
LINE
  8
別途部材
  6
CONTINUOUS
 62
    47
 10
-61.460205
 20
-92.02707
 11
-118.96018
 21
-92.02707
  0
LINE
  8
別途部材
  6
CONTINUOUS
 62
    47
 10
-104.460205
 20
-93.62707
 11
-110.69558
 21
-97.22707
  0
LINE
  8
別途部材
  6
CONTINUOUS
 62
    47
 10
-118.96018
 20
-97.22707
 11
-110.69558
 21
-97.22707
  0
LINE
  8
別途部材
  6
CONTINUOUS
 62
    47
 10
-118.96018
 20
-95.62707
 11
-111.124305
 21
-95.62707
  0
LINE
  8
別途部材
  6
CONTINUOUS
 62
    47
 10
-107.660205
 20
-93.62707
 11
-111.124305
 21
-95.62707
  0
LINE
  8
別途部材
  6
CONTINUOUS
 62
    47
 10
-118.96018
 20
-93.62707
 11
-118.96018
 21
-92.02707
  0
LINE
  8
別途部材
  6
CONTINUOUS
 62
    47
 10
-118.96018
 20
-95.62707
 11
-118.96018
 21
-97.22707
  0
LINE
  8
別途部材
  6
CONTINUOUS
 62
    47
 10
-75.960205
 20
-93.62707
 11
-69.72483
 21
-97.22707
  0
LINE
  8
別途部材
  6
CONTINUOUS
 62
    47
 10
-61.460205
 20
-97.22707
 11
-69.72483
 21
-97.22707
  0
LINE
  8
別途部材
  6
CONTINUOUS
 62
    47
 10
-61.460205
 20
-95.62707
 11
-69.29608
 21
-95.62707
  0
LINE
  8
別途部材
  6
CONTINUOUS
 62
    47
 10
-72.76018
 20
-93.62707
 11
-69.29608
 21
-95.62707
  0
LINE
  8
別途部材
  6
CONTINUOUS
 62
    47
 10
-61.460205
 20
-95.62707
 11
-61.460205
 21
-97.22707
  0
LINE
  8
別途部材
  6
CONTINUOUS
 62
    47
 10
-97.96018
 20
-110.02707
 11
-97.96018
 21
-93.62707
  0
LINE
  8
別途部材
  6
CONTINUOUS
 62
    47
 10
-96.360205
 20
-110.02707
 11
-96.360205
 21
-93.62707
  0
LINE
  8
別途部材
  6
CONTINUOUS
 62
    47
 10
-97.96018
 20
-110.02707
 11
-96.360205
 21
-110.02707
  0
LINE
  8
別途部材
  6
CONTINUOUS
 62
    47
 10
-61.460205
 20
-92.02707
 11
-61.460205
 21
-93.62707
  0
ENDBLK
  0
BLOCK
  2
*GRP_0003
 70
    65
 10
0.0
 20
0.0
  0
LINE
  8
型材
  6
CONTINUOUS
 62
    47
 10
-33.805843
 20
57.873078
 11
-33.805843
 21
56.973078
  0
LINE
  8
型材
  6
CONTINUOUS
 62
    47
 10
-33.205843
 20
58.473078
 11
-33.805843
 21
57.873078
  0
LINE
  8
型材
  6
CONTINUOUS
 62
    47
 10
-33.805843
 20
56.973078
 11
-31.305837
 21
56.973092
  0
LINE
  8
型材
  6
CONTINUOUS
 62
    47
 10
-33.205843
 20
58.473078
 11
-29.805837
 21
58.473085
  0
LINE
  8
型材
  6
CONTINUOUS
 62
    47
 10
-29.805837
 20
55.473085
 11
-37.705738
 21
47.573185
  0
LINE
  8
型材
  6
CONTINUOUS
 62
    47
 10
-29.805837
 20
58.473092
 11
-29.805822
 21
55.4731
  0
LINE
  8
型材
  6
CONTINUOUS
 62
    47
 10
-31.305837
 20
56.973085
 11
-31.305837
 21
56.094407
  0
LINE
  8
型材
  6
CONTINUOUS
 62
    47
 10
-39.305728
 20
46.873187
 11
-39.305728
 21
48.094518
  0
LINE
  8
型材
  6
CONTINUOUS
 62
    47
 10
-37.705722
 20
45.373187
 11
-37.705722
 21
47.5732
  0
LINE
  8
型材
  6
CONTINUOUS
 62
    47
 10
-38.805837
 20
57.873063
 11
-38.805837
 21
56.973063
  0
LINE
  8
型材
  6
CONTINUOUS
 62
    47
 10
-38.805837
 20
57.873063
 11
-39.405837
 21
58.473055
  0
LINE
  8
型材
  6
CONTINUOUS
 62
    47
 10
-39.405837
 20
58.473055
 11
-42.805843
 21
58.473048
  0
LINE
  8
型材
  6
CONTINUOUS
 62
    47
 10
-38.805837
 20
56.973063
 11
-41.305828
 21
56.973048
  0
LINE
  8
型材
  6
CONTINUOUS
 62
    47
 10
-41.805732
 20
44.273193
 11
-41.805732
 21
46.873187
  0
LINE
  8
型材
  6
CONTINUOUS
 62
    47
 10
-40.305732
 20
44.273193
 11
-40.305732
 21
45.373187
  0
LINE
  8
型材
  6
CONTINUOUS
 62
    47
 10
-40.305732
 20
44.273193
 11
-41.805732
 21
44.273193
  0
LINE
  8
型材
  6
CONTINUOUS
 62
    47
 10
-39.305728
 20
46.873187
 11
-41.805732
 21
46.873187
  0
LINE
  8
型材
  6
CONTINUOUS
 62
    47
 10
-51.606073
 20
46.27318
 11
-53.602707
 21
46.27318
  0
LINE
  8
型材
  6
CONTINUOUS
 62
    47
 10
-51.606073
 20
46.27318
 11
-51.606073
 21
44.273185
  0
LINE
  8
型材
  6
CONTINUOUS
 62
    47
 10
-51.606073
 20
44.273185
 11
-55.102707
 21
44.273185
  0
LINE
  8
型材
  6
CONTINUOUS
 62
    47
 10
-55.102707
 20
44.273185
 11
-55.102707
 21
58.473018
  0
LINE
  8
型材
  6
CONTINUOUS
 62
    47
 10
-55.102707
 20
58.473018
 11
-53.602707
 21
58.473025
  0
LINE
  8
型材
  6
CONTINUOUS
 62
    47
 10
-39.305728
 20
48.094518
 11
-35.427178
 21
51.97306
  0
LINE
  8
型材
  6
CONTINUOUS
 62
    47
 10
-31.305853
 20
56.094392
 11
-33.927178
 21
53.473068
  0
LINE
  8
型材
  6
CONTINUOUS
 62
    47
 10
-41.305828
 20
56.9731
 11
-41.305828
 21
53.473053
  0
LINE
  8
型材
  6
CONTINUOUS
 62
    47
 10
-53.602707
 20
58.473025
 11
-53.602707
 21
53.47303
  0
LINE
  8
型材
  6
CONTINUOUS
 62
    47
 10
-35.427178
 20
51.97306
 11
-53.602707
 21
51.973022
  0
LINE
  8
型材
  6
CONTINUOUS
 62
    47
 10
-53.602707
 20
46.27318
 11
-53.602707
 21
51.973022
  0
LINE
  8
型材
  6
CONTINUOUS
 62
    47
 10
-42.805843
 20
58.4731
 11
-42.805812
 21
53.473053
  0
LINE
  8
型材
  6
CONTINUOUS
 62
    47
 10
-33.927178
 20
53.473068
 11
-41.305828
 21
53.473053
  0
LINE
  8
型材
  6
CONTINUOUS
 62
    47
 10
-47.106073
 20
53.173045
 11
-47.406073
 21
53.473045
  0
LINE
  8
型材
  6
CONTINUOUS
 62
    47
 10
-47.106073
 20
53.173045
 11
-46.806073
 21
53.473045
  0
LINE
  8
型材
  6
CONTINUOUS
 62
    47
 10
-42.805812
 20
53.473053
 11
-46.806073
 21
53.473045
  0
LINE
  8
型材
  6
CONTINUOUS
 62
    47
 10
-47.406073
 20
53.473045
 11
-53.602707
 21
53.47303
  0
LINE
  8
型材
  6
CONTINUOUS
 62
    47
 10
-40.305732
 20
45.373187
 11
-37.705722
 21
45.373187
  0
ENDBLK
  0
BLOCK
  2
*GRP_0004
 70
    65
 10
0.0
 20
0.0
  0
POLYLINE
  8
ガラス
  6
CONTINUOUS
 66
     1
 70
     4
  0
VERTEX
  8
ガラス
 10
-33.85
 20
-73.65
 70
     8
  0
VERTEX
  8
ガラス
 10
-33.775
 20
-73.65
 70
     8
  0
VERTEX
  8
ガラス
 10
-33.675
 20
-73.65
 70
     8
  0
VERTEX
  8
ガラス
 10
-33.575
 20
-73.625
 70
     8
  0
VERTEX
  8
ガラス
 10
-33.475
 20
-73.625
 70
     8
  0
VERTEX
  8
ガラス
 10
-33.4
 20
-73.6
 70
     8
  0
VERTEX
  8
ガラス
 10
-33.3
 20
-73.6
 70
     8
  0
VERTEX
  8
ガラス
 10
-33.2
 20
-73.6
 70
     8
  0
VERTEX
  8
ガラス
 10
-33.125
 20
-73.6
 70
     8
  0
VERTEX
  8
ガラス
 10
-33.025
 20
-73.575
 70
     8
  0
VERTEX
  8
ガラス
 10
-32.95
 20
-73.575
 70
     8
  0
VERTEX
  8
ガラス
 10
-32.85
 20
-73.575
 70
     8
  0
VERTEX
  8
ガラス
 10
-32.775
 20
-73.575
 70
     8
  0
VERTEX
  8
ガラス
 10
-32.675
 20
-73.6
 70
     8
  0
VERTEX
  8
ガラス
 10
-32.6
 20
-73.6
 70
     8
  0
VERTEX
  8
ガラス
 10
-32.5
 20
-73.6
 70
     8
  0
VERTEX
  8
ガラス
 10
-32.425
 20
-73.625
 70
     8
  0
VERTEX
  8
ガラス
 10
-32.35
 20
-73.625
 70
     8
  0
VERTEX
  8
ガラス
 10
-32.25
 20
-73.65
 70
     8
  0
VERTEX
  8
ガラス
 10
-32.175
 20
-73.675
 70
     8
  0
VERTEX
  8
ガラス
 10
-32.1
 20
-73.7
 70
     8
  0
VERTEX
  8
ガラス
 10
-32.025
 20
-73.725
 70
     8
  0
VERTEX
  8
ガラス
 10
-31.95
 20
-73.775
 70
     8
  0
VERTEX
  8
ガラス
 10
-31.875
 20
-73.8
 70
     8
  0
VERTEX
  8
ガラス
 10
-31.8
 20
-73.85
 70
     8
  0
VERTEX
  8
ガラス
 10
-31.725
 20
-73.9
 70
     8
  0
VERTEX
  8
ガラス
 10
-31.65
 20
-73.95
 70
     8
  0
VERTEX
  8
ガラス
 10
-31.6
 20
-74.0
 70
     8
  0
VERTEX
  8
ガラス
 10
-31.525
 20
-74.05
 70
     8
  0
VERTEX
  8
ガラス
 10
-31.45
 20
-74.1
 70
     8
  0
VERTEX
  8
ガラス
 10
-31.4
 20
-74.15
 70
     8
  0
VERTEX
  8
ガラス
 10
-31.325
 20
-74.225
 70
     8
  0
VERTEX
  8
ガラス
 10
-31.275
 20
-74.275
 70
     8
  0
VERTEX
  8
ガラス
 10
-31.2
 20
-74.35
 70
     8
  0
VERTEX
  8
ガラス
 10
-31.15
 20
-74.425
 70
     8
  0
VERTEX
  8
ガラス
 10
-31.075
 20
-74.475
 70
     8
  0
VERTEX
  8
ガラス
 10
-31.025
 20
-74.55
 70
     8
  0
VERTEX
  8
ガラス
 10
-30.95
 20
-74.625
 70
     8
  0
VERTEX
  8
ガラス
 10
-30.9
 20
-74.7
 70
     8
  0
VERTEX
  8
ガラス
 10
-30.825
 20
-74.75
 70
     8
  0
VERTEX
  8
ガラス
 10
-30.775
 20
-74.825
 70
     8
  0
SEQEND
  0
POLYLINE
  8
ガラス
  6
CONTINUOUS
 66
     1
 70
     4
  0
VERTEX
  8
ガラス
 10
-30.775
 20
-74.825
 70
     8
  0
VERTEX
  8
ガラス
 10
-30.825
 20
-74.825
 70
     8
  0
VERTEX
  8
ガラス
 10
-30.9
 20
-74.85
 70
     8
  0
VERTEX
  8
ガラス
 10
-30.95
 20
-74.85
 70
     8
  0
VERTEX
  8
ガラス
 10
-31.025
 20
-74.85
 70
     8
  0
VERTEX
  8
ガラス
 10
-31.075
 20
-74.85
 70
     8
  0
VERTEX
  8
ガラス
 10
-31.125
 20
-74.875
 70
     8
  0
VERTEX
  8
ガラス
 10
-31.2
 20
-74.875
 70
     8
  0
VERTEX
  8
ガラス
 10
-31.25
 20
-74.875
 70
     8
  0
VERTEX
  8
ガラス
 10
-31.325
 20
-74.9
 70
     8
  0
VERTEX
  8
ガラス
 10
-31.375
 20
-74.9
 70
     8
  0
VERTEX
  8
ガラス
 10
-31.45
 20
-74.9
 70
     8
  0
VERTEX
  8
ガラス
 10
-31.5
 20
-74.925
 70
     8
  0
VERTEX
  8
ガラス
 10
-31.55
 20
-74.925
 70
     8
  0
VERTEX
  8
ガラス
 10
-31.625
 20
-74.95
 70
     8
  0
VERTEX
  8
ガラス
 10
-31.675
 20
-74.95
 70
     8
  0
VERTEX
  8
ガラス
 10
-31.75
 20
-74.95
 70
     8
  0
VERTEX
  8
ガラス
 10
-31.8
 20
-74.975
 70
     8
  0
VERTEX
  8
ガラス
 10
-31.85
 20
-74.975
 70
     8
  0
VERTEX
  8
ガラス
 10
-31.925
 20
-75.0
 70
     8
  0
VERTEX
  8
ガラス
 10
-31.975
 20
-75.025
 70
     8
  0
VERTEX
  8
ガラス
 10
-32.05
 20
-75.025
 70
     8
  0
VERTEX
  8
ガラス
 10
-32.1
 20
-75.05
 70
     8
  0
VERTEX
  8
ガラス
 10
-32.15
 20
-75.05
 70
     8
  0
VERTEX
  8
ガラス
 10
-32.225
 20
-75.075
 70
     8
  0
VERTEX
  8
ガラス
 10
-32.275
 20
-75.1
 70
     8
  0
VERTEX
  8
ガラス
 10
-32.325
 20
-75.125
 70
     8
  0
VERTEX
  8
ガラス
 10
-32.4
 20
-75.125
 70
     8
  0
VERTEX
  8
ガラス
 10
-32.45
 20
-75.15
 70
     8
  0
VERTEX
  8
ガラス
 10
-32.5
 20
-75.175
 70
     8
  0
VERTEX
  8
ガラス
 10
-32.575
 20
-75.2
 70
     8
  0
VERTEX
  8
ガラス
 10
-32.625
 20
-75.225
 70
     8
  0
VERTEX
  8
ガラス
 10
-32.675
 20
-75.25
 70
     8
  0
VERTEX
  8
ガラス
 10
-32.725
 20
-75.275
 70
     8
  0
VERTEX
  8
ガラス
 10
-32.8
 20
-75.275
 70
     8
  0
VERTEX
  8
ガラス
 10
-32.85
 20
-75.3
 70
     8
  0
VERTEX
  8
ガラス
 10
-32.9
 20
-75.325
 70
     8
  0
VERTEX
  8
ガラス
 10
-32.975
 20
-75.35
 70
     8
  0
VERTEX
  8
ガラス
 10
-33.025
 20
-75.375
 70
     8
  0
VERTEX
  8
ガラス
 10
-33.075
 20
-75.4
 70
     8
  0
VERTEX
  8
ガラス
 10
-33.125
 20
-75.425
 70
     8
  0
SEQEND
  0
ARC
  8
ガラス
  6
CONTINUOUS
 10
-33.484094
 20
-74.530583
 40
0.955135
 50
112.264588
 51
292.264588
  0
ENDBLK
  0
BLOCK
  2
*GRP_0005
 70
    65
 10
0.0
 20
0.0
  0
POLYLINE
  8
ガラス
  6
CONTINUOUS
 66
     1
 70
     4
  0
VERTEX
  8
ガラス
 10
-48.175
 20
-73.65
 70
     8
  0
VERTEX
  8
ガラス
 10
-48.075
 20
-73.65
 70
     8
  0
VERTEX
  8
ガラス
 10
-48.0
 20
-73.65
 70
     8
  0
VERTEX
  8
ガラス
 10
-47.9
 20
-73.625
 70
     8
  0
VERTEX
  8
ガラス
 10
-47.8
 20
-73.625
 70
     8
  0
VERTEX
  8
ガラス
 10
-47.725
 20
-73.6
 70
     8
  0
VERTEX
  8
ガラス
 10
-47.625
 20
-73.6
 70
     8
  0
VERTEX
  8
ガラス
 10
-47.525
 20
-73.6
 70
     8
  0
VERTEX
  8
ガラス
 10
-47.45
 20
-73.6
 70
     8
  0
VERTEX
  8
ガラス
 10
-47.35
 20
-73.575
 70
     8
  0
VERTEX
  8
ガラス
 10
-47.25
 20
-73.575
 70
     8
  0
VERTEX
  8
ガラス
 10
-47.175
 20
-73.575
 70
     8
  0
VERTEX
  8
ガラス
 10
-47.075
 20
-73.575
 70
     8
  0
VERTEX
  8
ガラス
 10
-47.0
 20
-73.6
 70
     8
  0
VERTEX
  8
ガラス
 10
-46.9
 20
-73.6
 70
     8
  0
VERTEX
  8
ガラス
 10
-46.825
 20
-73.6
 70
     8
  0
VERTEX
  8
ガラス
 10
-46.75
 20
-73.625
 70
     8
  0
VERTEX
  8
ガラス
 10
-46.65
 20
-73.625
 70
     8
  0
VERTEX
  8
ガラス
 10
-46.575
 20
-73.65
 70
     8
  0
VERTEX
  8
ガラス
 10
-46.5
 20
-73.675
 70
     8
  0
VERTEX
  8
ガラス
 10
-46.425
 20
-73.7
 70
     8
  0
VERTEX
  8
ガラス
 10
-46.35
 20
-73.725
 70
     8
  0
VERTEX
  8
ガラス
 10
-46.275
 20
-73.775
 70
     8
  0
VERTEX
  8
ガラス
 10
-46.2
 20
-73.8
 70
     8
  0
VERTEX
  8
ガラス
 10
-46.125
 20
-73.85
 70
     8
  0
VERTEX
  8
ガラス
 10
-46.05
 20
-73.9
 70
     8
  0
VERTEX
  8
ガラス
 10
-45.975
 20
-73.95
 70
     8
  0
VERTEX
  8
ガラス
 10
-45.925
 20
-74.0
 70
     8
  0
VERTEX
  8
ガラス
 10
-45.85
 20
-74.05
 70
     8
  0
VERTEX
  8
ガラス
 10
-45.775
 20
-74.1
 70
     8
  0
VERTEX
  8
ガラス
 10
-45.725
 20
-74.15
 70
     8
  0
VERTEX
  8
ガラス
 10
-45.65
 20
-74.225
 70
     8
  0
VERTEX
  8
ガラス
 10
-45.575
 20
-74.275
 70
     8
  0
VERTEX
  8
ガラス
 10
-45.525
 20
-74.35
 70
     8
  0
VERTEX
  8
ガラス
 10
-45.45
 20
-74.425
 70
     8
  0
VERTEX
  8
ガラス
 10
-45.4
 20
-74.475
 70
     8
  0
VERTEX
  8
ガラス
 10
-45.325
 20
-74.55
 70
     8
  0
VERTEX
  8
ガラス
 10
-45.275
 20
-74.625
 70
     8
  0
VERTEX
  8
ガラス
 10
-45.2
 20
-74.7
 70
     8
  0
VERTEX
  8
ガラス
 10
-45.15
 20
-74.75
 70
     8
  0
VERTEX
  8
ガラス
 10
-45.1
 20
-74.825
 70
     8
  0
SEQEND
  0
POLYLINE
  8
ガラス
  6
CONTINUOUS
 66
     1
 70
     4
  0
VERTEX
  8
ガラス
 10
-45.1
 20
-74.825
 70
     8
  0
VERTEX
  8
ガラス
 10
-45.15
 20
-74.825
 70
     8
  0
VERTEX
  8
ガラス
 10
-45.2
 20
-74.85
 70
     8
  0
VERTEX
  8
ガラス
 10
-45.275
 20
-74.85
 70
     8
  0
VERTEX
  8
ガラス
 10
-45.325
 20
-74.85
 70
     8
  0
VERTEX
  8
ガラス
 10
-45.4
 20
-74.85
 70
     8
  0
VERTEX
  8
ガラス
 10
-45.45
 20
-74.875
 70
     8
  0
VERTEX
  8
ガラス
 10
-45.525
 20
-74.875
 70
     8
  0
VERTEX
  8
ガラス
 10
-45.575
 20
-74.875
 70
     8
  0
VERTEX
  8
ガラス
 10
-45.65
 20
-74.9
 70
     8
  0
VERTEX
  8
ガラス
 10
-45.7
 20
-74.9
 70
     8
  0
VERTEX
  8
ガラス
 10
-45.75
 20
-74.9
 70
     8
  0
VERTEX
  8
ガラス
 10
-45.825
 20
-74.925
 70
     8
  0
VERTEX
  8
ガラス
 10
-45.875
 20
-74.925
 70
     8
  0
VERTEX
  8
ガラス
 10
-45.95
 20
-74.95
 70
     8
  0
VERTEX
  8
ガラス
 10
-46.0
 20
-74.95
 70
     8
  0
VERTEX
  8
ガラス
 10
-46.075
 20
-74.95
 70
     8
  0
VERTEX
  8
ガラス
 10
-46.125
 20
-74.975
 70
     8
  0
VERTEX
  8
ガラス
 10
-46.175
 20
-74.975
 70
     8
  0
VERTEX
  8
ガラス
 10
-46.25
 20
-75.0
 70
     8
  0
VERTEX
  8
ガラス
 10
-46.3
 20
-75.025
 70
     8
  0
VERTEX
  8
ガラス
 10
-46.35
 20
-75.025
 70
     8
  0
VERTEX
  8
ガラス
 10
-46.425
 20
-75.05
 70
     8
  0
VERTEX
  8
ガラス
 10
-46.475
 20
-75.05
 70
     8
  0
VERTEX
  8
ガラス
 10
-46.525
 20
-75.075
 70
     8
  0
VERTEX
  8
ガラス
 10
-46.6
 20
-75.1
 70
     8
  0
VERTEX
  8
ガラス
 10
-46.65
 20
-75.125
 70
     8
  0
VERTEX
  8
ガラス
 10
-46.7
 20
-75.125
 70
     8
  0
VERTEX
  8
ガラス
 10
-46.775
 20
-75.15
 70
     8
  0
VERTEX
  8
ガラス
 10
-46.825
 20
-75.175
 70
     8
  0
VERTEX
  8
ガラス
 10
-46.875
 20
-75.2
 70
     8
  0
VERTEX
  8
ガラス
 10
-46.95
 20
-75.225
 70
     8
  0
VERTEX
  8
ガラス
 10
-47.0
 20
-75.25
 70
     8
  0
VERTEX
  8
ガラス
 10
-47.05
 20
-75.275
 70
     8
  0
VERTEX
  8
ガラス
 10
-47.125
 20
-75.275
 70
     8
  0
VERTEX
  8
ガラス
 10
-47.175
 20
-75.3
 70
     8
  0
VERTEX
  8
ガラス
 10
-47.225
 20
-75.325
 70
     8
  0
VERTEX
  8
ガラス
 10
-47.275
 20
-75.35
 70
     8
  0
VERTEX
  8
ガラス
 10
-47.35
 20
-75.375
 70
     8
  0
VERTEX
  8
ガラス
 10
-47.4
 20
-75.4
 70
     8
  0
VERTEX
  8
ガラス
 10
-47.45
 20
-75.425
 70
     8
  0
SEQEND
  0
ARC
  8
ガラス
  6
CONTINUOUS
 10
-47.804482
 20
-74.530583
 40
0.955135
 50
112.264588
 51
292.264588
  0
ENDBLK
  0
BLOCK
  2
*GRP_0006
 70
    65
 10
0.0
 20
0.0
  0
POLYLINE
  8
ガラス
  6
CONTINUOUS
 66
     1
 70
     4
  0
VERTEX
  8
ガラス
 10
-65.675
 20
-73.65
 70
     8
  0
VERTEX
  8
ガラス
 10
-65.575
 20
-73.65
 70
     8
  0
VERTEX
  8
ガラス
 10
-65.5
 20
-73.65
 70
     8
  0
VERTEX
  8
ガラス
 10
-65.4
 20
-73.625
 70
     8
  0
VERTEX
  8
ガラス
 10
-65.3
 20
-73.625
 70
     8
  0
VERTEX
  8
ガラス
 10
-65.2
 20
-73.6
 70
     8
  0
VERTEX
  8
ガラス
 10
-65.125
 20
-73.6
 70
     8
  0
VERTEX
  8
ガラス
 10
-65.025
 20
-73.6
 70
     8
  0
VERTEX
  8
ガラス
 10
-64.95
 20
-73.6
 70
     8
  0
VERTEX
  8
ガラス
 10
-64.85
 20
-73.575
 70
     8
  0
VERTEX
  8
ガラス
 10
-64.75
 20
-73.575
 70
     8
  0
VERTEX
  8
ガラス
 10
-64.675
 20
-73.575
 70
     8
  0
VERTEX
  8
ガラス
 10
-64.575
 20
-73.575
 70
     8
  0
VERTEX
  8
ガラス
 10
-64.5
 20
-73.6
 70
     8
  0
VERTEX
  8
ガラス
 10
-64.4
 20
-73.6
 70
     8
  0
VERTEX
  8
ガラス
 10
-64.325
 20
-73.6
 70
     8
  0
VERTEX
  8
ガラス
 10
-64.25
 20
-73.625
 70
     8
  0
VERTEX
  8
ガラス
 10
-64.15
 20
-73.625
 70
     8
  0
VERTEX
  8
ガラス
 10
-64.075
 20
-73.65
 70
     8
  0
VERTEX
  8
ガラス
 10
-64.0
 20
-73.675
 70
     8
  0
VERTEX
  8
ガラス
 10
-63.925
 20
-73.7
 70
     8
  0
VERTEX
  8
ガラス
 10
-63.85
 20
-73.725
 70
     8
  0
VERTEX
  8
ガラス
 10
-63.775
 20
-73.775
 70
     8
  0
VERTEX
  8
ガラス
 10
-63.7
 20
-73.8
 70
     8
  0
VERTEX
  8
ガラス
 10
-63.625
 20
-73.85
 70
     8
  0
VERTEX
  8
ガラス
 10
-63.55
 20
-73.9
 70
     8
  0
VERTEX
  8
ガラス
 10
-63.475
 20
-73.95
 70
     8
  0
VERTEX
  8
ガラス
 10
-63.4
 20
-74.0
 70
     8
  0
VERTEX
  8
ガラス
 10
-63.35
 20
-74.05
 70
     8
  0
VERTEX
  8
ガラス
 10
-63.275
 20
-74.1
 70
     8
  0
VERTEX
  8
ガラス
 10
-63.2
 20
-74.15
 70
     8
  0
VERTEX
  8
ガラス
 10
-63.15
 20
-74.225
 70
     8
  0
VERTEX
  8
ガラス
 10
-63.075
 20
-74.275
 70
     8
  0
VERTEX
  8
ガラス
 10
-63.025
 20
-74.35
 70
     8
  0
VERTEX
  8
ガラス
 10
-62.95
 20
-74.425
 70
     8
  0
VERTEX
  8
ガラス
 10
-62.9
 20
-74.475
 70
     8
  0
VERTEX
  8
ガラス
 10
-62.825
 20
-74.55
 70
     8
  0
VERTEX
  8
ガラス
 10
-62.775
 20
-74.625
 70
     8
  0
VERTEX
  8
ガラス
 10
-62.7
 20
-74.7
 70
     8
  0
VERTEX
  8
ガラス
 10
-62.65
 20
-74.75
 70
     8
  0
VERTEX
  8
ガラス
 10
-62.575
 20
-74.825
 70
     8
  0
SEQEND
  0
POLYLINE
  8
ガラス
  6
CONTINUOUS
 66
     1
 70
     4
  0
VERTEX
  8
ガラス
 10
-62.575
 20
-74.825
 70
     8
  0
VERTEX
  8
ガラス
 10
-62.65
 20
-74.825
 70
     8
  0
VERTEX
  8
ガラス
 10
-62.7
 20
-74.85
 70
     8
  0
VERTEX
  8
ガラス
 10
-62.775
 20
-74.85
 70
     8
  0
VERTEX
  8
ガラス
 10
-62.825
 20
-74.85
 70
     8
  0
VERTEX
  8
ガラス
 10
-62.9
 20
-74.85
 70
     8
  0
VERTEX
  8
ガラス
 10
-62.95
 20
-74.875
 70
     8
  0
VERTEX
  8
ガラス
 10
-63.025
 20
-74.875
 70
     8
  0
VERTEX
  8
ガラス
 10
-63.075
 20
-74.875
 70
     8
  0
VERTEX
  8
ガラス
 10
-63.125
 20
-74.9
 70
     8
  0
VERTEX
  8
ガラス
 10
-63.2
 20
-74.9
 70
     8
  0
VERTEX
  8
ガラス
 10
-63.25
 20
-74.9
 70
     8
  0
VERTEX
  8
ガラス
 10
-63.325
 20
-74.925
 70
     8
  0
VERTEX
  8
ガラス
 10
-63.375
 20
-74.925
 70
     8
  0
VERTEX
  8
ガラス
 10
-63.45
 20
-74.95
 70
     8
  0
VERTEX
  8
ガラス
 10
-63.5
 20
-74.95
 70
     8
  0
VERTEX
  8
ガラス
 10
-63.55
 20
-74.95
 70
     8
  0
VERTEX
  8
ガラス
 10
-63.625
 20
-74.975
 70
     8
  0
VERTEX
  8
ガラス
 10
-63.675
 20
-74.975
 70
     8
  0
VERTEX
  8
ガラス
 10
-63.75
 20
-75.0
 70
     8
  0
VERTEX
  8
ガラス
 10
-63.8
 20
-75.025
 70
     8
  0
VERTEX
  8
ガラス
 10
-63.85
 20
-75.025
 70
     8
  0
VERTEX
  8
ガラス
 10
-63.925
 20
-75.05
 70
     8
  0
VERTEX
  8
ガラス
 10
-63.975
 20
-75.05
 70
     8
  0
VERTEX
  8
ガラス
 10
-64.025
 20
-75.075
 70
     8
  0
VERTEX
  8
ガラス
 10
-64.1
 20
-75.1
 70
     8
  0
VERTEX
  8
ガラス
 10
-64.15
 20
-75.125
 70
     8
  0
VERTEX
  8
ガラス
 10
-64.2
 20
-75.125
 70
     8
  0
VERTEX
  8
ガラス
 10
-64.275
 20
-75.15
 70
     8
  0
VERTEX
  8
ガラス
 10
-64.325
 20
-75.175
 70
     8
  0
VERTEX
  8
ガラス
 10
-64.375
 20
-75.2
 70
     8
  0
VERTEX
  8
ガラス
 10
-64.45
 20
-75.225
 70
     8
  0
VERTEX
  8
ガラス
 10
-64.5
 20
-75.25
 70
     8
  0
VERTEX
  8
ガラス
 10
-64.55
 20
-75.275
 70
     8
  0
VERTEX
  8
ガラス
 10
-64.6
 20
-75.275
 70
     8
  0
VERTEX
  8
ガラス
 10
-64.675
 20
-75.3
 70
     8
  0
VERTEX
  8
ガラス
 10
-64.725
 20
-75.325
 70
     8
  0
VERTEX
  8
ガラス
 10
-64.775
 20
-75.35
 70
     8
  0
VERTEX
  8
ガラス
 10
-64.85
 20
-75.375
 70
     8
  0
VERTEX
  8
ガラス
 10
-64.9
 20
-75.4
 70
     8
  0
VERTEX
  8
ガラス
 10
-64.95
 20
-75.425
 70
     8
  0
SEQEND
  0
ARC
  8
ガラス
  6
CONTINUOUS
 10
-65.300988
 20
-74.530583
 40
0.955135
 50
112.264588
 51
292.264588
  0
ENDBLK
  0
BLOCK
  2
*GRP_0007
 70
    65
 10
0.0
 20
0.0
  0
POLYLINE
  8
ガラス
  6
CONTINUOUS
 66
     1
 70
     4
  0
VERTEX
  8
ガラス
 10
-79.65
 20
-73.65
 70
     8
  0
VERTEX
  8
ガラス
 10
-79.575
 20
-73.65
 70
     8
  0
VERTEX
  8
ガラス
 10
-79.475
 20
-73.65
 70
     8
  0
VERTEX
  8
ガラス
 10
-79.375
 20
-73.625
 70
     8
  0
VERTEX
  8
ガラス
 10
-79.3
 20
-73.625
 70
     8
  0
VERTEX
  8
ガラス
 10
-79.2
 20
-73.6
 70
     8
  0
VERTEX
  8
ガラス
 10
-79.1
 20
-73.6
 70
     8
  0
VERTEX
  8
ガラス
 10
-79.025
 20
-73.6
 70
     8
  0
VERTEX
  8
ガラス
 10
-78.925
 20
-73.6
 70
     8
  0
VERTEX
  8
ガラス
 10
-78.825
 20
-73.575
 70
     8
  0
VERTEX
  8
ガラス
 10
-78.75
 20
-73.575
 70
     8
  0
VERTEX
  8
ガラス
 10
-78.65
 20
-73.575
 70
     8
  0
VERTEX
  8
ガラス
 10
-78.575
 20
-73.575
 70
     8
  0
VERTEX
  8
ガラス
 10
-78.475
 20
-73.6
 70
     8
  0
VERTEX
  8
ガラス
 10
-78.4
 20
-73.6
 70
     8
  0
VERTEX
  8
ガラス
 10
-78.3
 20
-73.6
 70
     8
  0
VERTEX
  8
ガラス
 10
-78.225
 20
-73.625
 70
     8
  0
VERTEX
  8
ガラス
 10
-78.15
 20
-73.625
 70
     8
  0
VERTEX
  8
ガラス
 10
-78.075
 20
-73.65
 70
     8
  0
VERTEX
  8
ガラス
 10
-77.975
 20
-73.675
 70
     8
  0
VERTEX
  8
ガラス
 10
-77.9
 20
-73.7
 70
     8
  0
VERTEX
  8
ガラス
 10
-77.825
 20
-73.725
 70
     8
  0
VERTEX
  8
ガラス
 10
-77.75
 20
-73.775
 70
     8
  0
VERTEX
  8
ガラス
 10
-77.675
 20
-73.8
 70
     8
  0
VERTEX
  8
ガラス
 10
-77.6
 20
-73.85
 70
     8
  0
VERTEX
  8
ガラス
 10
-77.525
 20
-73.9
 70
     8
  0
VERTEX
  8
ガラス
 10
-77.475
 20
-73.95
 70
     8
  0
VERTEX
  8
ガラス
 10
-77.4
 20
-74.0
 70
     8
  0
VERTEX
  8
ガラス
 10
-77.325
 20
-74.05
 70
     8
  0
VERTEX
  8
ガラス
 10
-77.25
 20
-74.1
 70
     8
  0
VERTEX
  8
ガラス
 10
-77.2
 20
-74.15
 70
     8
  0
VERTEX
  8
ガラス
 10
-77.125
 20
-74.225
 70
     8
  0
VERTEX
  8
ガラス
 10
-77.075
 20
-74.275
 70
     8
  0
VERTEX
  8
ガラス
 10
-77.0
 20
-74.35
 70
     8
  0
VERTEX
  8
ガラス
 10
-76.95
 20
-74.425
 70
     8
  0
VERTEX
  8
ガラス
 10
-76.875
 20
-74.475
 70
     8
  0
VERTEX
  8
ガラス
 10
-76.825
 20
-74.55
 70
     8
  0
VERTEX
  8
ガラス
 10
-76.75
 20
-74.625
 70
     8
  0
VERTEX
  8
ガラス
 10
-76.7
 20
-74.7
 70
     8
  0
VERTEX
  8
ガラス
 10
-76.625
 20
-74.75
 70
     8
  0
VERTEX
  8
ガラス
 10
-76.575
 20
-74.825
 70
     8
  0
SEQEND
  0
POLYLINE
  8
ガラス
  6
CONTINUOUS
 66
     1
 70
     4
  0
VERTEX
  8
ガラス
 10
-76.575
 20
-74.825
 70
     8
  0
VERTEX
  8
ガラス
 10
-76.625
 20
-74.825
 70
     8
  0
VERTEX
  8
ガラス
 10
-76.7
 20
-74.85
 70
     8
  0
VERTEX
  8
ガラス
 10
-76.75
 20
-74.85
 70
     8
  0
VERTEX
  8
ガラス
 10
-76.825
 20
-74.85
 70
     8
  0
VERTEX
  8
ガラス
 10
-76.875
 20
-74.85
 70
     8
  0
VERTEX
  8
ガラス
 10
-76.95
 20
-74.875
 70
     8
  0
VERTEX
  8
ガラス
 10
-77.0
 20
-74.875
 70
     8
  0
VERTEX
  8
ガラス
 10
-77.05
 20
-74.875
 70
     8
  0
VERTEX
  8
ガラス
 10
-77.125
 20
-74.9
 70
     8
  0
VERTEX
  8
ガラス
 10
-77.175
 20
-74.9
 70
     8
  0
VERTEX
  8
ガラス
 10
-77.25
 20
-74.9
 70
     8
  0
VERTEX
  8
ガラス
 10
-77.3
 20
-74.925
 70
     8
  0
VERTEX
  8
ガラス
 10
-77.375
 20
-74.925
 70
     8
  0
VERTEX
  8
ガラス
 10
-77.425
 20
-74.95
 70
     8
  0
VERTEX
  8
ガラス
 10
-77.475
 20
-74.95
 70
     8
  0
VERTEX
  8
ガラス
 10
-77.55
 20
-74.95
 70
     8
  0
VERTEX
  8
ガラス
 10
-77.6
 20
-74.975
 70
     8
  0
VERTEX
  8
ガラス
 10
-77.675
 20
-74.975
 70
     8
  0
VERTEX
  8
ガラス
 10
-77.725
 20
-75.0
 70
     8
  0
VERTEX
  8
ガラス
 10
-77.775
 20
-75.025
 70
     8
  0
VERTEX
  8
ガラス
 10
-77.85
 20
-75.025
 70
     8
  0
VERTEX
  8
ガラス
 10
-77.9
 20
-75.05
 70
     8
  0
VERTEX
  8
ガラス
 10
-77.95
 20
-75.05
 70
     8
  0
VERTEX
  8
ガラス
 10
-78.025
 20
-75.075
 70
     8
  0
VERTEX
  8
ガラス
 10
-78.075
 20
-75.1
 70
     8
  0
VERTEX
  8
ガラス
 10
-78.125
 20
-75.125
 70
     8
  0
VERTEX
  8
ガラス
 10
-78.2
 20
-75.125
 70
     8
  0
VERTEX
  8
ガラス
 10
-78.25
 20
-75.15
 70
     8
  0
VERTEX
  8
ガラス
 10
-78.3
 20
-75.175
 70
     8
  0
VERTEX
  8
ガラス
 10
-78.375
 20
-75.2
 70
     8
  0
VERTEX
  8
ガラス
 10
-78.425
 20
-75.225
 70
     8
  0
VERTEX
  8
ガラス
 10
-78.475
 20
-75.25
 70
     8
  0
VERTEX
  8
ガラス
 10
-78.55
 20
-75.275
 70
     8
  0
VERTEX
  8
ガラス
 10
-78.6
 20
-75.275
 70
     8
  0
VERTEX
  8
ガラス
 10
-78.65
 20
-75.3
 70
     8
  0
VERTEX
  8
ガラス
 10
-78.7
 20
-75.325
 70
     8
  0
VERTEX
  8
ガラス
 10
-78.775
 20
-75.35
 70
     8
  0
VERTEX
  8
ガラス
 10
-78.825
 20
-75.375
 70
     8
  0
VERTEX
  8
ガラス
 10
-78.875
 20
-75.4
 70
     8
  0
VERTEX
  8
ガラス
 10
-78.95
 20
-75.425
 70
     8
  0
SEQEND
  0
ARC
  8
ガラス
  6
CONTINUOUS
 10
-79.287048
 20
-74.530583
 40
0.955135
 50
112.264588
 51
292.264588
  0
ENDBLK
  0
BLOCK
  2
*GRP_0008
 70
    65
 10
0.0
 20
0.0
  0
INSERT
  2
*HAT_0001
  8
ゴム等
 10
0.0
 20
0.0
  0
LINE
  8
ゴム等
  6
CONTINUOUS
 10
-74.00618
 20
-15.62645
 11
-74.00618
 21
-21.62645
  0
LINE
  8
ゴム等
  6
CONTINUOUS
 10
-74.00618
 20
-21.62645
 11
-89.00618
 21
-21.62645
  0
LINE
  8
ゴム等
  6
CONTINUOUS
 10
-89.00618
 20
-21.62645
 11
-89.00618
 21
-15.62645
  0
LINE
  8
ゴム等
  6
CONTINUOUS
 10
-74.00618
 20
-15.62645
 11
-89.00618
 21
-15.62645
  0
ENDBLK
  0
BLOCK
  2
*GRP_0009
 70
    65
 10
0.0
 20
0.0
  0
INSERT
  2
*HAT_0002
  8
ゴム等
 10
0.0
 20
0.0
  0
LINE
  8
ゴム等
  6
CONTINUOUS
 10
-112.000813
 20
-12.626825
 11
-105.001738
 21
-12.626825
  0
LINE
  8
ゴム等
  6
CONTINUOUS
 10
-105.001738
 20
-12.626825
 11
-106.501713
 21
-15.626825
  0
LINE
  8
ゴム等
  6
CONTINUOUS
 10
-112.000813
 20
-12.626825
 11
-110.501012
 21
-15.62645
  0
LINE
  8
ゴム等
  6
CONTINUOUS
 10
-112.501263
 20
-15.62645
 11
-110.501012
 21
-15.62645
  0
ARC
  8
ゴム等
  6
CONTINUOUS
 10
-112.501258
 20
-17.626423
 40
2.0
 50
90.0
 51
180.0
  0
LINE
  8
ゴム等
  6
CONTINUOUS
 10
-114.501288
 20
-19.626425
 11
-114.501288
 21
-17.626425
  0
ARC
  8
ゴム等
  6
CONTINUOUS
 10
-112.501258
 20
-19.626423
 40
2.0
 50
180.0
 51
270.0
  0
LINE
  8
ゴム等
  6
CONTINUOUS
 10
-112.501263
 20
-21.62645
 11
-104.501263
 21
-21.62645
  0
ARC
  8
ゴム等
  6
CONTINUOUS
 10
-104.501258
 20
-19.626423
 40
2.0
 50
270.0
 51
360.0
  0
LINE
  8
ゴム等
  6
CONTINUOUS
 10
-102.501288
 20
-19.626425
 11
-102.501288
 21
-17.626825
  0
LINE
  8
ゴム等
  6
CONTINUOUS
 10
-104.501263
 20
-15.626825
 11
-106.501713
 21
-15.626825
  0
ARC
  8
ゴム等
  6
CONTINUOUS
 10
-104.501258
 20
-17.626813
 40
2.0
 50
0.0
 51
90.0
  0
ARC
  8
ゴム等
  6
CONTINUOUS
 10
-112.50126
 20
-17.626421
 40
1.0
 50
90.0
 51
180.0
  0
LINE
  8
ゴム等
  6
CONTINUOUS
 10
-113.501263
 20
-19.62645
 11
-113.501263
 21
-17.626425
  0
ARC
  8
ゴム等
  6
CONTINUOUS
 10
-112.50126
 20
-19.626426
 40
1.0
 50
180.0
 51
270.0
  0
LINE
  8
ゴム等
  6
CONTINUOUS
 10
-104.501263
 20
-20.626425
 11
-112.501288
 21
-20.626425
  0
ARC
  8
ゴム等
  6
CONTINUOUS
 10
-104.501255
 20
-19.626426
 40
1.0
 50
270.0
 51
360.0
  0
LINE
  8
ゴム等
  6
CONTINUOUS
 10
-103.501263
 20
-17.626425
 11
-103.501263
 21
-19.62645
  0
LINE
  8
ゴム等
  6
CONTINUOUS
 10
-104.501263
 20
-16.626425
 11
-112.501288
 21
-16.626425
  0
ARC
  8
ゴム等
  6
CONTINUOUS
 10
-104.501255
 20
-17.626421
 40
1.0
 50
0.0
 51
90.0
  0
ENDBLK
  0
BLOCK
  2
*GRP_0010
 70
    65
 10
0.0
 20
0.0
  0
LINE
  8
ゴム等
  6
DOT
 10
-50.305707
 20
77.472895
 11
-46.805847
 21
77.472918
  0
LINE
  8
ゴム等
  6
DOT
 10
-42.805722
 20
82.97323
 11
-46.805818
 21
82.973222
  0
LINE
  8
ゴム等
  6
DOT
 10
-46.805847
 20
77.472918
 11
-46.805818
 21
82.973222
  0
LINE
  8
ゴム等
  6
DOT
 10
-42.80582
 20
82.973252
 11
-42.805812
 21
53.473037
  0
LINE
  8
ゴム等
  6
DOT
 10
-46.30571
 20
53.47303
 11
-50.3057
 21
57.47302
  0
LINE
  8
ゴム等
  6
DOT
 10
-42.805722
 20
82.97323
 11
-49.494898
 21
56.662218
  0
LINE
  8
ゴム等
  6
DOT
 10
-50.305707
 20
77.472895
 11
-50.3057
 21
57.47302
  0
LINE
  8
ゴム等
  6
DOT
 10
-42.805812
 20
53.473037
 11
-46.30571
 21
53.47303
  0
ENDBLK
  0
BLOCK
  2
*GRP_0011
 70
    65
 10
0.0
 20
0.0
  0
LINE
  8
ボルト／ビス
  6
CONTINUOUS
 62
    64
 10
-64.71021
 20
-93.827005
 11
-60.71021
 21
-93.827005
  0
LINE
  8
ボルト／ビス
  6
CONTINUOUS
 62
    64
 10
-65.71021
 20
-95.627005
 11
-64.71021
 21
-93.827005
  0
LINE
  8
ボルト／ビス
  6
CONTINUOUS
 62
    64
 10
-65.71021
 20
-95.627005
 11
-59.71021
 21
-95.627005
  0
LINE
  8
ボルト／ビス
  6
CONTINUOUS
 62
    64
 10
-59.71021
 20
-95.627005
 11
-60.71021
 21
-93.827005
  0
LINE
  8
ボルト／ビス
  6
CONTINUOUS
 62
    64
 10
-62.71021
 20
-97.110538
 11
-62.71021
 21
-86.747977
  0
LINE
  8
ボルト／ビス
  6
CONTINUOUS
 62
    64
 10
-64.71021
 20
-88.127005
 11
-64.21021
 21
-87.627005
  0
LINE
  8
ボルト／ビス
  6
CONTINUOUS
 62
    64
 10
-60.71021
 20
-88.127005
 11
-61.21021
 21
-87.627005
  0
LINE
  8
ボルト／ビス
  6
CONTINUOUS
 62
    64
 10
-64.21021
 20
-87.627005
 11
-61.21021
 21
-87.627005
  0
LINE
  8
ボルト／ビス
  6
CONTINUOUS
 62
    64
 10
-64.71021
 20
-88.127005
 11
-60.71021
 21
-88.127005
  0
LINE
  8
ボルト／ビス
  6
CONTINUOUS
 62
    64
 10
-64.21021
 20
-93.827005
 11
-64.21021
 21
-87.627005
  0
LINE
  8
ボルト／ビス
  6
CONTINUOUS
 62
    64
 10
-61.21021
 20
-93.827005
 11
-61.21021
 21
-87.627005
  0
LINE
  8
ボルト／ビス
  6
CONTINUOUS
 62
    64
 10
-60.71021
 20
-93.827005
 11
-60.71021
 21
-88.127005
  0
LINE
  8
ボルト／ビス
  6
CONTINUOUS
 62
    64
 10
-64.71021
 20
-93.827005
 11
-64.71021
 21
-88.127005
  0
ENDBLK
  0
BLOCK
  2
*GRP_0012
 70
    65
 10
0.0
 20
0.0
  0
LINE
  8
ボルト／ビス
  6
CONTINUOUS
 62
    64
 10
-72.205897
 20
48.67216
 11
-73.254062
 21
48.763865
  0
ARC
  8
ボルト／ビス
  6
CONTINUOUS
 62
    64
 10
-73.105895
 20
50.457397
 40
1.7
 50
180.0
 51
265.000011
  0
LINE
  8
ボルト／ビス
  6
CONTINUOUS
 62
    64
 10
-74.805897
 20
50.457395
 11
-74.805897
 21
52.17216
  0
LINE
  8
ボルト／ビス
  6
CONTINUOUS
 62
    64
 10
-72.205897
 20
55.67216
 11
-73.254062
 21
55.58046
  0
ARC
  8
ボルト／ビス
  6
CONTINUOUS
 62
    64
 10
-73.105895
 20
53.88693
 40
1.7
 50
94.999989
 51
180.0
  0
LINE
  8
ボルト／ビス
  6
CONTINUOUS
 62
    64
 10
-74.805897
 20
53.88693
 11
-74.805897
 21
52.17216
  0
LINE
  8
ボルト／ビス
  6
CONTINUOUS
 62
    64
 10
-74.420993
 20
49.77552
 11
-74.663152
 21
49.77552
  0
LINE
  8
ボルト／ビス
  6
CONTINUOUS
 62
    64
 10
-73.770907
 20
51.47216
 11
-73.770907
 21
52.17216
  0
LINE
  8
ボルト／ビス
  6
CONTINUOUS
 62
    64
 10
-74.420993
 20
51.07216
 11
-74.420993
 21
49.77552
  0
LINE
  8
ボルト／ビス
  6
CONTINUOUS
 62
    64
 10
-73.770907
 20
51.47216
 11
-74.020993
 21
51.47216
  0
ARC
  8
ボルト／ビス
  6
CONTINUOUS
 62
    64
 10
-74.02099
 20
51.072163
 40
0.4
 50
90.0
 51
180.0
  0
LINE
  8
ボルト／ビス
  6
CONTINUOUS
 62
    64
 10
-74.420993
 20
54.5688
 11
-74.663152
 21
54.5688
  0
LINE
  8
ボルト／ビス
  6
CONTINUOUS
 62
    64
 10
-73.770907
 20
52.87216
 11
-73.770907
 21
52.17216
  0
LINE
  8
ボルト／ビス
  6
CONTINUOUS
 62
    64
 10
-74.420993
 20
53.27216
 11
-74.420993
 21
54.5688
  0
LINE
  8
ボルト／ビス
  6
CONTINUOUS
 62
    64
 10
-73.770907
 20
52.87216
 11
-74.020993
 21
52.87216
  0
ARC
  8
ボルト／ビス
  6
CONTINUOUS
 62
    64
 10
-74.02099
 20
53.272163
 40
0.4
 50
180.0
 51
270.0
  0
LINE
  8
ボルト／ビス
  6
CONTINUOUS
 62
    64
 10
-72.205897
 20
48.67216
 11
-72.205897
 21
55.67216
  0
LINE
  8
ボルト／ビス
  6
CONTINUOUS
 62
    64
 10
-62.705897
 20
50.17216
 11
-62.205897
 21
50.67216
  0
LINE
  8
ボルト／ビス
  6
CONTINUOUS
 62
    64
 10
-62.705897
 20
54.17216
 11
-62.205897
 21
53.67216
  0
LINE
  8
ボルト／ビス
  6
CONTINUOUS
 62
    64
 10
-62.705897
 20
50.17216
 11
-62.705897
 21
54.17216
  0
LINE
  8
ボルト／ビス
  6
CONTINUOUS
 62
    64
 10
-62.205897
 20
50.67216
 11
-62.205897
 21
53.67216
  0
LINE
  8
ボルト／ビス
  6
CONTINUOUS
 62
    64
 10
-76.777282
 20
52.17216
 11
-60.631023
 21
52.17216
  0
LINE
  8
ボルト／ビス
  6
CONTINUOUS
 62
    64
 10
-72.205897
 20
50.17216
 11
-62.705897
 21
50.17216
  0
LINE
  8
ボルト／ビス
  6
CONTINUOUS
 62
    64
 10
-72.205897
 20
54.17216
 11
-62.705897
 21
54.17216
  0
LINE
  8
ボルト／ビス
  6
CONTINUOUS
 62
    64
 10
-72.205897
 20
53.67216
 11
-62.205897
 21
53.67216
  0
LINE
  8
ボルト／ビス
  6
CONTINUOUS
 62
    64
 10
-72.205897
 20
50.67216
 11
-62.205897
 21
50.67216
  0
ENDBLK
  0
BLOCK
  2
*GRP_0013
 70
    65
 10
0.0
 20
0.0
  0
LINE
  8
ボルト／ビス
  6
CONTINUOUS
 62
    64
 10
-133.30997
 20
-93.82713
 11
-129.30997
 21
-93.82713
  0
LINE
  8
ボルト／ビス
  6
CONTINUOUS
 62
    64
 10
-134.30997
 20
-95.62713
 11
-133.30997
 21
-93.82713
  0
LINE
  8
ボルト／ビス
  6
CONTINUOUS
 62
    64
 10
-134.30997
 20
-95.62713
 11
-128.30997
 21
-95.62713
  0
LINE
  8
ボルト／ビス
  6
CONTINUOUS
 62
    64
 10
-128.30997
 20
-95.62713
 11
-129.30997
 21
-93.82713
  0
LINE
  8
ボルト／ビス
  6
CONTINUOUS
 62
    64
 10
-131.30997
 20
-97.110663
 11
-131.30997
 21
-86.748103
  0
LINE
  8
ボルト／ビス
  6
CONTINUOUS
 62
    64
 10
-133.30997
 20
-88.12713
 11
-132.80997
 21
-87.62713
  0
LINE
  8
ボルト／ビス
  6
CONTINUOUS
 62
    64
 10
-129.30997
 20
-88.12713
 11
-129.80997
 21
-87.62713
  0
LINE
  8
ボルト／ビス
  6
CONTINUOUS
 62
    64
 10
-132.80997
 20
-87.62713
 11
-129.80997
 21
-87.62713
  0
LINE
  8
ボルト／ビス
  6
CONTINUOUS
 62
    64
 10
-133.30997
 20
-88.12713
 11
-129.30997
 21
-88.12713
  0
LINE
  8
ボルト／ビス
  6
CONTINUOUS
 62
    64
 10
-132.80997
 20
-93.82713
 11
-132.80997
 21
-87.62713
  0
LINE
  8
ボルト／ビス
  6
CONTINUOUS
 62
    64
 10
-129.80997
 20
-93.82713
 11
-129.80997
 21
-87.62713
  0
LINE
  8
ボルト／ビス
  6
CONTINUOUS
 62
    64
 10
-129.30997
 20
-93.82713
 11
-129.30997
 21
-88.12713
  0
LINE
  8
ボルト／ビス
  6
CONTINUOUS
 62
    64
 10
-133.30997
 20
-93.82713
 11
-133.30997
 21
-88.12713
  0
ENDBLK
  0
BLOCK
  2
*DIM_0014
 70
    65
 10
0.0
 20
0.0
  0
LINE
  8
寸法
  6
BYBLOCK
 62
     0
 10
-119.50999
 20
-10.627605
 11
-162.98485
 21
-10.627605
  0
LINE
  8
寸法
  6
BYBLOCK
 62
     0
 10
-162.98485
 20
-8.62739
 11
-162.98485
 21
-10.627605
  0
POINT
  8
寸法
 62
     0
 10
-162.98485
 20
-10.627605
  0
TEXT
  7
TextStyle03
  8
寸法
  6
CONTINUOUS
 62
     0
 10
-163.325
 20
-10.375
  1
2
 40
3.0
 50
90.0
 72
     5
 11
-163.325
 21
-8.875
  0
ENDBLK
  0
BLOCK
  2
*DIM_0015
 70
    65
 10
0.0
 20
0.0
  0
LINE
  8
寸法
  6
BYBLOCK
 62
     0
 10
-119.50996
 20
-23.6267
 11
-162.98485
 21
-23.6267
  0
LINE
  8
寸法
  6
BYBLOCK
 62
     0
 10
-162.98485
 20
-10.627605
 11
-162.98485
 21
-23.6267
  0
POINT
  8
寸法
 62
     0
 10
-162.98485
 20
-23.6267
  0
TEXT
  7
TextStyle03
  8
寸法
  6
CONTINUOUS
 62
     0
 10
-163.325
 20
-18.71875
  1
13
 40
3.0
 50
90.0
 72
     5
 11
-163.325
 21
-15.53125
  0
ENDBLK
  0
BLOCK
  2
*DIM_0016
 70
    65
 10
0.0
 20
0.0
  0
LINE
  8
寸法
  6
BYBLOCK
 62
     0
 10
-75.309968
 20
-75.62695
 11
-162.98485
 21
-75.62695
  0
LINE
  8
寸法
  6
BYBLOCK
 62
     0
 10
-162.98485
 20
-23.6267
 11
-162.98485
 21
-75.62695
  0
POINT
  8
寸法
 62
     0
 10
-162.98485
 20
-75.62695
  0
TEXT
  7
TextStyle03
  8
寸法
  6
CONTINUOUS
 62
     0
 10
-163.325
 20
-51.21875
  1
52
 40
3.0
 50
90.0
 72
     5
 11
-163.325
 21
-48.03125
  0
ENDBLK
  0
BLOCK
  2
*DIM_0017
 70
    65
 10
0.0
 20
0.0
  0
LINE
  8
寸法
  6
BYBLOCK
 62
     0
 10
-141.30997
 20
-80.62695
 11
-162.98485
 21
-80.62695
  0
LINE
  8
寸法
  6
BYBLOCK
 62
     0
 10
-162.98485
 20
-75.62695
 11
-162.98485
 21
-80.62695
  0
POINT
  8
寸法
 62
     0
 10
-162.98485
 20
-80.62695
  0
TEXT
  7
TextStyle03
  8
寸法
  6
CONTINUOUS
 62
     0
 10
-163.325
 20
-78.875
  1
5
 40
3.0
 50
90.0
 72
     5
 11
-163.325
 21
-77.375
  0
ENDBLK
  0
BLOCK
  2
*DIM_0018
 70
    65
 10
0.0
 20
0.0
  0
LINE
  8
寸法
  6
BYBLOCK
 62
     0
 10
-141.30997
 20
-95.627005
 11
-162.98485
 21
-95.627005
  0
LINE
  8
寸法
  6
BYBLOCK
 62
     0
 10
-162.98485
 20
-80.62695
 11
-162.98485
 21
-95.627005
  0
POINT
  8
寸法
 62
     0
 10
-162.98485
 20
-95.627005
  0
TEXT
  7
TextStyle03
  8
寸法
  6
CONTINUOUS
 62
     0
 10
-163.325
 20
-89.71875
  1
15
 40
3.0
 50
90.0
 72
     5
 11
-163.325
 21
-86.53125
  0
ENDBLK
  0
BLOCK
  2
*DIM_0019
 70
    65
 10
0.0
 20
0.0
  0
LINE
  8
寸法
  6
BYBLOCK
 62
     0
 10
-153.956053
 20
-10.627605
 11
-154.851623
 21
-10.627605
  0
LINE
  8
寸法
  6
BYBLOCK
 62
     0
 10
-119.209998
 20
-15.62642
 11
-154.851623
 21
-15.62642
  0
LINE
  8
寸法
  6
BYBLOCK
 62
     0
 10
-154.851623
 20
-10.627605
 11
-154.851623
 21
-15.62642
  0
POINT
  8
寸法
 62
     0
 10
-154.851623
 20
-10.627605
  0
POINT
  8
寸法
 62
     0
 10
-154.851623
 20
-15.62642
  0
TEXT
  7
TextStyle03
  8
寸法
  6
CONTINUOUS
 62
     0
 10
-155.2
 20
-13.875
  1
5
 40
3.0
 50
90.0
 72
     5
 11
-155.2
 21
-12.375
  0
ENDBLK
  0
BLOCK
  2
*DIM_0020
 70
    65
 10
0.0
 20
0.0
  0
LINE
  8
寸法
  6
BYBLOCK
 62
     0
 10
-119.20996
 20
-19.627207
 11
-154.851623
 21
-19.627207
  0
LINE
  8
寸法
  6
BYBLOCK
 62
     0
 10
-154.851623
 20
-15.62642
 11
-154.851623
 21
-19.627207
  0
POINT
  8
寸法
 62
     0
 10
-154.851623
 20
-19.627207
  0
TEXT
  7
TextStyle03
  8
寸法
  6
CONTINUOUS
 62
     0
 10
-155.2
 20
-18.375
  1
4
 40
3.0
 50
90.0
 72
     5
 11
-155.2
 21
-16.875
  0
ENDBLK
  0
BLOCK
  2
*DIM_0021
 70
    65
 10
0.0
 20
0.0
  0
LINE
  8
寸法
  6
BYBLOCK
 62
     0
 10
-120.50996
 20
-23.6267
 11
-154.851623
 21
-23.6267
  0
LINE
  8
寸法
  6
BYBLOCK
 62
     0
 10
-154.851623
 20
-19.627207
 11
-154.851623
 21
-23.6267
  0
POINT
  8
寸法
 62
     0
 10
-154.851623
 20
-23.6267
  0
TEXT
  7
TextStyle03
  8
寸法
  6
CONTINUOUS
 62
     0
 10
-155.2
 20
-22.375
  1
4
 40
3.0
 50
90.0
 72
     5
 11
-155.2
 21
-20.875
  0
ENDBLK
  0
BLOCK
  2
*DIM_0022
 70
    65
 10
0.0
 20
0.0
  0
LINE
  8
寸法
  6
BYBLOCK
 62
     0
 10
-140.30997
 20
-79.62695
 11
-140.30997
 21
118.407907
  0
LINE
  8
寸法
  6
BYBLOCK
 62
     0
 10
-40.30572
 20
118.407907
 11
-140.30997
 21
118.407907
  0
POINT
  8
寸法
 62
     0
 10
-40.30572
 20
118.407907
  0
POINT
  8
寸法
 62
     0
 10
-140.30997
 20
118.407907
  0
TEXT
  7
TextStyle03
  8
寸法
  6
CONTINUOUS
 62
     0
 10
-92.7125
 20
118.75
  1
100
 40
3.0
 72
     5
 11
-87.8375
 21
118.75
  0
ENDBLK
  0
BLOCK
  2
*DIM_0023
 70
    65
 10
0.0
 20
0.0
  0
LINE
  8
寸法
  6
BYBLOCK
 62
     0
 10
-140.30997
 20
112.121515
 11
-140.30997
 21
111.90067
  0
LINE
  8
寸法
  6
BYBLOCK
 62
     0
 10
-25.30572
 20
-68.62695
 11
-25.30572
 21
111.90067
  0
LINE
  8
寸法
  6
BYBLOCK
 62
     0
 10
-140.30997
 20
111.90067
 11
-25.30572
 21
111.90067
  0
POINT
  8
寸法
 62
     0
 10
-140.30997
 20
111.90067
  0
POINT
  8
寸法
 62
     0
 10
-25.30572
 20
111.90067
  0
TEXT
  7
TextStyle03
  8
寸法
  6
CONTINUOUS
 62
     0
 10
-85.2125
 20
112.25
  1
115
 40
3.0
 72
     5
 11
-80.3375
 21
112.25
  0
ENDBLK
  0
BLOCK
  2
*DIM_0024
 70
    65
 10
0.0
 20
0.0
  0
LINE
  8
寸法
  6
BYBLOCK
 62
     0
 10
-49.60572
 20
-19.6272
 11
34.609453
 21
-19.6272
  0
LINE
  8
寸法
  6
BYBLOCK
 62
     0
 10
34.609453
 20
-15.62645
 11
34.609453
 21
-19.6272
  0
POINT
  8
寸法
 62
     0
 10
34.609453
 20
-19.6272
  0
TEXT
  7
TextStyle03
  8
寸法
  6
CONTINUOUS
 62
     0
 10
34.275
 20
-18.4
  1
4
 40
3.0
 50
90.0
 72
     5
 11
34.275
 21
-16.9
  0
ENDBLK
  0
BLOCK
  2
*DIM_0025
 70
    65
 10
0.0
 20
0.0
  0
LINE
  8
寸法
  6
BYBLOCK
 62
     0
 10
-24.30572
 20
-77.62695
 11
34.609453
 21
-77.62695
  0
LINE
  8
寸法
  6
BYBLOCK
 62
     0
 10
34.609453
 20
-19.6272
 11
34.609453
 21
-77.62695
  0
POINT
  8
寸法
 62
     0
 10
34.609453
 20
-77.62695
  0
TEXT
  7
TextStyle03
  8
寸法
  6
CONTINUOUS
 62
     0
 10
34.275
 20
-50.24375
  1
58
 40
3.0
 50
90.0
 72
     5
 11
34.275
 21
-47.05625
  0
ENDBLK
  0
BLOCK
  2
*DIM_0026
 70
    65
 10
0.0
 20
0.0
  0
LINE
  8
寸法
  6
BYBLOCK
 62
     0
 10
-81.30572
 20
-8.62739
 11
-162.98485
 21
-8.62739
  0
LINE
  8
寸法
  6
BYBLOCK
 62
     0
 10
-81.30572
 20
44.373175
 11
-162.98485
 21
44.373175
  0
LINE
  8
寸法
  6
BYBLOCK
 62
     0
 10
-162.98485
 20
-8.62739
 11
-162.98485
 21
44.373175
  0
POINT
  8
寸法
 62
     0
 10
-162.98485
 20
-8.62739
  0
POINT
  8
寸法
 62
     0
 10
-162.98485
 20
44.373175
  0
TEXT
  7
TextStyle03
  8
寸法
  6
CONTINUOUS
 62
     0
 10
-163.35
 20
16.28125
  1
53
 40
3.0
 50
90.0
 72
     5
 11
-163.35
 21
19.46875
  0
ENDBLK
  0
BLOCK
  2
*DIM_0027
 70
    65
 10
0.0
 20
0.0
  0
LINE
  8
寸法
  6
BYBLOCK
 62
     0
 10
-39.30572
 20
35.373175
 11
34.609453
 21
35.373175
  0
LINE
  8
寸法
  6
BYBLOCK
 62
     0
 10
34.609453
 20
45.373175
 11
34.609453
 21
35.373175
  0
POINT
  8
寸法
 62
     0
 10
34.609453
 20
35.373175
  0
TEXT
  7
TextStyle03
  8
寸法
  6
CONTINUOUS
 62
     0
 10
34.25
 20
38.78125
  1
10
 40
3.0
 50
90.0
 72
     5
 11
34.25
 21
41.96875
  0
ENDBLK
  0
BLOCK
  2
*DIM_0028
 70
    65
 10
0.0
 20
0.0
  0
LINE
  8
寸法
  6
BYBLOCK
 62
     0
 10
-49.60572
 20
-15.62645
 11
34.609453
 21
-15.62645
  0
LINE
  8
寸法
  6
BYBLOCK
 62
     0
 10
34.609453
 20
35.373175
 11
34.609453
 21
-15.62645
  0
POINT
  8
寸法
 62
     0
 10
34.609453
 20
-15.62645
  0
TEXT
  7
TextStyle03
  8
寸法
  6
CONTINUOUS
 62
     0
 10
34.25
 20
8.28125
  1
51
 40
3.0
 50
90.0
 72
     5
 11
34.25
 21
11.46875
  0
ENDBLK
  0
BLOCK
  2
*GRP_0029
 70
    65
 10
0.0
 20
0.0
  0
POLYLINE
  8
寸法
  6
BYBLOCK
 62
     0
 66
     1
  0
VERTEX
  8
寸法
 10
-83.155077
 20
-78.552585
  0
VERTEX
  8
寸法
 10
-81.492137
 20
-81.049507
  0
VERTEX
  8
寸法
 10
-81.683825
 20
-78.05564
  0
SEQEND
  0
POLYLINE
  8
寸法
  6
BYBLOCK
 62
     0
 66
     1
  0
VERTEX
  8
寸法
 10
-81.492137
 20
-81.049507
  0
VERTEX
  8
寸法
 10
-89.07151
 20
-58.610085
  0
VERTEX
  8
寸法
 10
-92.247627
 20
-58.610085
  0
SEQEND
  0
ENDBLK
  0
BLOCK
  2
*GRP_0030
 70
    65
 10
0.0
 20
0.0
  0
POLYLINE
  8
寸法
  6
BYBLOCK
 62
     0
 66
     1
  0
VERTEX
  8
寸法
 10
-91.529817
 20
-78.024988
  0
VERTEX
  8
寸法
 10
-89.91737
 20
-80.554813
  0
VERTEX
  8
寸法
 10
-90.04888
 20
-77.557695
  0
SEQEND
  0
POLYLINE
  8
寸法
  6
BYBLOCK
 62
     0
 66
     1
  0
VERTEX
  8
寸法
 10
-89.91737
 20
-80.554813
  0
VERTEX
  8
寸法
 10
-93.917035
 20
-67.87911
  0
VERTEX
  8
寸法
 10
-97.594643
 20
-67.87911
  0
SEQEND
  0
ENDBLK
  0
BLOCK
  2
*GRP_0031
 70
    65
 10
0.0
 20
0.0
  0
POLYLINE
  8
寸法
  6
BYBLOCK
 62
     0
 66
     1
  0
VERTEX
  8
寸法
 10
-73.407645
 20
16.022758
  0
VERTEX
  8
寸法
 10
-76.00572
 20
17.522758
  0
VERTEX
  8
寸法
 10
-74.50572
 20
14.924683
  0
SEQEND
  0
POLYLINE
  8
寸法
  6
BYBLOCK
 62
     0
 66
     1
  0
VERTEX
  8
寸法
 10
-76.00572
 20
17.522758
  0
VERTEX
  8
寸法
 10
-71.41249
 20
12.929528
  0
VERTEX
  8
寸法
 10
-20.514815
 20
12.929528
  0
SEQEND
  0
ENDBLK
  0
BLOCK
  2
*GRP_0032
 70
    65
 10
0.0
 20
0.0
  0
POLYLINE
  8
寸法
  6
BYBLOCK
 62
     0
 66
     1
  0
VERTEX
  8
寸法
 10
-67.411892
 20
-31.800007
  0
VERTEX
  8
寸法
 10
-70.009968
 20
-30.300007
  0
VERTEX
  8
寸法
 10
-68.509968
 20
-32.898085
  0
SEQEND
  0
POLYLINE
  8
寸法
  6
BYBLOCK
 62
     0
 66
     1
  0
VERTEX
  8
寸法
 10
-70.009968
 20
-30.300007
  0
VERTEX
  8
寸法
 10
-65.49279
 20
-34.817185
  0
VERTEX
  8
寸法
 10
-19.184595
 20
-34.817185
  0
SEQEND
  0
ENDBLK
  0
BLOCK
  2
*DIM_0033
 70
    65
 10
0.0
 20
0.0
  0
LINE
  8
寸法
  6
BYBLOCK
 62
     0
 10
24.059825
 20
-77.62695
 11
24.725497
 21
-77.62695
  0
LINE
  8
寸法
  6
BYBLOCK
 62
     0
 10
-24.305717
 20
-67.626958
 11
24.725497
 21
-67.626958
  0
LINE
  8
寸法
  6
BYBLOCK
 62
     0
 10
24.725497
 20
-77.62695
 11
24.725497
 21
-67.626958
  0
POINT
  8
寸法
 62
     0
 10
24.725497
 20
-77.62695
  0
POINT
  8
寸法
 62
     0
 10
24.725497
 20
-67.626958
  0
TEXT
  7
TextStyle03
  8
寸法
  6
CONTINUOUS
 62
     0
 10
24.35
 20
-74.24375
  1
10
 40
3.0
 50
90.0
 72
     5
 11
24.35
 21
-71.05625
  0
ENDBLK
  0
BLOCK
  2
*DIM_0034
 70
    65
 10
0.0
 20
0.0
  0
LINE
  8
寸法
  6
BYBLOCK
 62
     0
 10
-24.30572
 20
-19.6272
 11
24.725497
 21
-19.6272
  0
LINE
  8
寸法
  6
BYBLOCK
 62
     0
 10
24.725497
 20
-67.626958
 11
24.725497
 21
-19.6272
  0
POINT
  8
寸法
 62
     0
 10
24.725497
 20
-19.6272
  0
TEXT
  7
TextStyle03
  8
寸法
  6
CONTINUOUS
 62
     0
 10
24.35
 20
-45.24375
  1
48
 40
3.0
 50
90.0
 72
     5
 11
24.35
 21
-42.05625
  0
ENDBLK
  0
BLOCK
  2
*DIM_0035
 70
    65
 10
0.0
 20
0.0
  0
LINE
  8
寸法
  6
BYBLOCK
 62
     0
 10
-51.309962
 20
-95.626887
 11
34.609453
 21
-95.626887
  0
LINE
  8
寸法
  6
BYBLOCK
 62
     0
 10
34.609453
 20
-77.62695
 11
34.609453
 21
-95.626887
  0
POINT
  8
寸法
 62
     0
 10
34.609453
 20
-77.62695
  0
POINT
  8
寸法
 62
     0
 10
34.609453
 20
-95.626887
  0
TEXT
  7
TextStyle03
  8
寸法
  6
CONTINUOUS
 62
     0
 10
34.225
 20
-88.24375
  1
18
 40
3.0
 50
90.0
 72
     5
 11
34.225
 21
-85.05625
  0
ENDBLK
  0
BLOCK
  2
*DIM_0036
 70
    65
 10
0.0
 20
0.0
  0
LINE
  8
寸法
  6
BYBLOCK
 62
     0
 10
-122.810215
 20
-105.62699
 11
34.609453
 21
-105.62699
  0
LINE
  8
寸法
  6
BYBLOCK
 62
     0
 10
34.609453
 20
-95.626887
 11
34.609453
 21
-105.62699
  0
POINT
  8
寸法
 62
     0
 10
34.609453
 20
-105.62699
  0
TEXT
  7
TextStyle03
  8
寸法
  6
CONTINUOUS
 62
     0
 10
34.225
 20
-102.24375
  1
10
 40
3.0
 50
90.0
 72
     5
 11
34.225
 21
-99.05625
  0
ENDBLK
  0
BLOCK
  2
*DIM_0037
 70
    65
 10
0.0
 20
0.0
  0
LINE
  8
寸法
  6
BYBLOCK
 62
     0
 10
-126.310215
 20
-105.62699
 11
-172.548458
 21
-105.62699
  0
LINE
  8
寸法
  6
BYBLOCK
 62
     0
 10
-172.548458
 20
-95.627005
 11
-172.548458
 21
-105.62699
  0
POINT
  8
寸法
 62
     0
 10
-172.548458
 20
-95.627005
  0
POINT
  8
寸法
 62
     0
 10
-172.548458
 20
-105.62699
  0
TEXT
  7
TextStyle03
  8
寸法
  6
CONTINUOUS
 62
     0
 10
-172.925
 20
-102.24375
  1
10
 40
3.0
 50
90.0
 72
     5
 11
-172.925
 21
-99.05625
  0
ENDBLK
  0
BLOCK
  2
*DIM_0038
 70
    65
 10
0.0
 20
0.0
  0
LINE
  8
寸法
  6
BYBLOCK
 62
     0
 10
-140.309968
 20
-96.627008
 11
-140.309968
 21
-118.141643
  0
LINE
  8
寸法
  6
BYBLOCK
 62
     0
 10
-125.310215
 20
-106.62699
 11
-125.310215
 21
-118.141643
  0
LINE
  8
寸法
  6
BYBLOCK
 62
     0
 10
-140.309968
 20
-118.141643
 11
-125.310215
 21
-118.141643
  0
POINT
  8
寸法
 62
     0
 10
-140.309968
 20
-118.141643
  0
POINT
  8
寸法
 62
     0
 10
-125.310215
 20
-118.141643
  0
TEXT
  7
TextStyle03
  8
寸法
  6
CONTINUOUS
 62
     0
 10
-134.39375
 20
-117.775
  1
15
 40
3.0
 72
     5
 11
-131.20625
 21
-117.775
  0
ENDBLK
  0
BLOCK
  2
*DIM_0039
 70
    65
 10
0.0
 20
0.0
  0
LINE
  8
寸法
  6
BYBLOCK
 62
     0
 10
-52.309962
 20
-96.626887
 11
-52.309962
 21
-118.141643
  0
LINE
  8
寸法
  6
BYBLOCK
 62
     0
 10
-125.310215
 20
-118.141643
 11
-52.309962
 21
-118.141643
  0
POINT
  8
寸法
 62
     0
 10
-125.310215
 20
-118.141643
  0
POINT
  8
寸法
 62
     0
 10
-52.309962
 20
-118.141643
  0
TEXT
  7
TextStyle03
  8
寸法
  6
CONTINUOUS
 62
     0
 10
-90.39375
 20
-117.775
  1
73
 40
3.0
 72
     5
 11
-87.20625
 21
-117.775
  0
ENDBLK
  0
BLOCK
  2
*DIM_0040
 70
    65
 10
0.0
 20
0.0
  0
LINE
  8
寸法
  6
BYBLOCK
 62
     0
 10
-25.305717
 20
-78.626955
 11
-25.305717
 21
-118.141643
  0
LINE
  8
寸法
  6
BYBLOCK
 62
     0
 10
-52.309962
 20
-118.141643
 11
-25.305717
 21
-118.141643
  0
POINT
  8
寸法
 62
     0
 10
-25.305717
 20
-118.141643
  0
TEXT
  7
TextStyle03
  8
寸法
  6
CONTINUOUS
 62
     0
 10
-40.39375
 20
-117.775
  1
27
 40
3.0
 72
     5
 11
-37.20625
 21
-117.775
  0
ENDBLK
  0
BLOCK
  2
*GRP_0041
 70
    65
 10
0.0
 20
0.0
  0
POLYLINE
  8
寸法
  6
BYBLOCK
 62
     0
 66
     1
  0
VERTEX
  8
寸法
 10
-96.360205
 20
-100.64342
  0
VERTEX
  8
寸法
 10
-72.804145
 20
-124.199482
  0
VERTEX
  8
寸法
 10
-68.136243
 20
-124.199482
  0
SEQEND
  0
ENDBLK
  0
BLOCK
  2
*GRP_0042
 70
    65
 10
0.0
 20
0.0
  0
POLYLINE
  8
寸法
  6
BYBLOCK
 62
     0
 66
     1
  0
VERTEX
  8
寸法
 10
-92.613307
 20
-26.62672
  0
VERTEX
  8
寸法
 10
-104.643412
 20
-38.656825
  0
VERTEX
  8
寸法
 10
-112.439297
 20
-38.656825
  0
SEQEND
  0
ENDBLK
  0
BLOCK
  2
*DIM_0043
 70
    65
 10
0.0
 20
0.0
  0
LINE
  8
寸法
  6
BYBLOCK
 62
     0
 10
-34.705722
 20
45.373187
 11
34.609453
 21
45.373187
  0
LINE
  8
寸法
  6
BYBLOCK
 62
     0
 10
-26.805837
 20
58.473085
 11
34.609453
 21
58.473085
  0
LINE
  8
寸法
  6
BYBLOCK
 62
     0
 10
34.609453
 20
45.373187
 11
34.609453
 21
58.473085
  0
POINT
  8
寸法
 62
     0
 10
34.609453
 20
45.373187
  0
POINT
  8
寸法
 62
     0
 10
34.609453
 20
58.473085
  0
TEXT
  7
TextStyle03
  8
寸法
  6
CONTINUOUS
 62
     0
 10
34.225
 20
48.61875
  1
13.1
 40
3.0
 50
90.0
 72
     5
 11
34.225
 21
55.18125
  0
ENDBLK
  0
BLOCK
  2
*GRP_0044
 70
    65
 10
0.0
 20
0.0
  0
POLYLINE
  8
寸法
  6
BYBLOCK
 62
     0
 66
     1
  0
VERTEX
  8
寸法
 10
-33.755788
 20
51.523135
  0
VERTEX
  8
寸法
 10
-21.716932
 20
39.48428
  0
VERTEX
  8
寸法
 10
-17.609617
 20
39.48428
  0
SEQEND
  0
ENDBLK
  0
BLOCK
  2
*GRP_0045
 70
    65
 10
0.0
 20
0.0
  0
LINE
  8
別途部材
  6
CONTINUOUS
 62
    96
 10
-104.54016
 20
-6.358755
 11
-104.74605
 21
-4.8932
  0
ARC
  8
別途部材
  6
CONTINUOUS
 62
    96
 10
-106.726597
 20
-5.171437
 40
2.0
 50
7.996999
 51
92.996996
  0
LINE
  8
別途部材
  6
CONTINUOUS
 62
    96
 10
-113.527848
 20
-6.829305
 11
-113.476125
 21
-5.350265
  0
ARC
  8
別途部材
  6
CONTINUOUS
 62
    96
 10
-111.47734
 20
-5.420163
 40
2.0
 50
92.996996
 51
177.996993
  0
LINE
  8
別途部材
  6
CONTINUOUS
 62
    96
 10
-104.54016
 20
-6.358755
 11
-113.527848
 21
-6.829305
  0
LINE
  8
別途部材
  6
CONTINUOUS
 62
    96
 10
-106.831167
 20
-3.17418
 11
-111.581915
 21
-3.422905
  0
LINE
  8
別途部材
  6
CONTINUOUS
 62
    96
 10
-106.040727
 20
-15.95033
 11
-106.513903
 21
-16.475785
  0
LINE
  8
別途部材
  6
CONTINUOUS
 62
    96
 10
-111.033888
 20
-16.211745
 11
-110.508435
 21
-16.68492
  0
LINE
  8
別途部材
  6
CONTINUOUS
 62
    96
 10
-111.031268
 20
-6.698595
 11
-110.508435
 21
-16.68492
  0
LINE
  8
別途部材
  6
CONTINUOUS
 62
    96
 10
-111.530583
 20
-6.72474
 11
-111.033888
 21
-16.211745
  0
LINE
  8
別途部材
  6
CONTINUOUS
 62
    96
 10
-106.537422
 20
-6.46332
 11
-106.040727
 21
-15.95033
  0
LINE
  8
別途部材
  6
CONTINUOUS
 62
    96
 10
-111.033888
 20
-16.211745
 11
-106.040727
 21
-15.95033
  0
LINE
  8
別途部材
  6
CONTINUOUS
 62
    96
 10
-107.03674
 20
-6.489465
 11
-106.513903
 21
-16.475785
  0
LINE
  8
別途部材
  6
CONTINUOUS
 62
    96
 10
-110.508435
 20
-16.68492
 11
-106.513903
 21
-16.475785
  0
LINE
  8
別途部材
  6
CONTINUOUS
 62
    96
 10
-109.448298
 20
1.319135
 11
-108.51117
 21
-16.580355
  0
LINE
  8
別途部材
  6
CONTINUOUS
 62
    96
 10
-77.309975
 20
-71.12671
 11
-74.309968
 21
-71.12671
  0
LINE
  8
別途部材
  6
CONTINUOUS
 62
    96
 10
-80.309983
 20
-8.094295
 11
-120.234093
 21
-10.18453
  0
LINE
  8
別途部材
  6
CONTINUOUS
 62
    96
 10
-63.309977
 20
-42.62725
 11
-77.309975
 21
-42.62725
  0
LINE
  8
別途部材
  6
CONTINUOUS
 62
    96
 10
-80.309983
 20
23.172635
 11
-83.309998
 21
23.172635
  0
LINE
  8
別途部材
  6
CONTINUOUS
 62
    96
 10
-80.309983
 20
3.905705
 11
-83.309998
 21
3.905705
  0
LINE
  8
別途部材
  6
CONTINUOUS
 62
    96
 10
-80.309983
 20
3.905705
 11
-83.309998
 21
3.905705
  0
LINE
  8
別途部材
  6
CONTINUOUS
 62
    96
 10
-120.509945
 20
-26.62672
 11
-128.509977
 21
-23.12671
  0
LINE
  8
別途部材
  6
CONTINUOUS
 62
    96
 10
-119.882435
 20
-23.6267
 11
-124.512463
 21
-21.601085
  0
LINE
  8
別途部材
  6
CONTINUOUS
 62
    96
 10
-121.017587
 20
-7.22143
 11
-128.82368
 21
-11.134925
  0
LINE
  8
別途部材
  6
CONTINUOUS
 62
    96
 10
-120.234105
 20
-10.18453
 11
-128.14248
 21
-14.14931
  0
LINE
  8
別途部材
  6
CONTINUOUS
 62
    96
 10
-126.19602
 20
-15.217345
 11
-123.88209
 21
-13.30798
  0
LINE
  8
別途部材
  6
DASHDOTX2
 62
    96
 10
-128.509977
 20
-17.12672
 11
-128.509977
 21
-7.72214
  0
LINE
  8
別途部材
  6
DASHDOTX2
 62
    96
 10
-128.509977
 20
-17.12672
 11
-128.509977
 21
-27.040495
  0
LINE
  8
別途部材
  6
DASHDOTX2
 62
    96
 10
-128.509977
 20
-17.12672
 11
-120.605808
 21
-17.12672
  0
LINE
  8
別途部材
  6
DASHDOTX2
 62
    96
 10
-128.509977
 20
-17.12672
 11
-136.85924
 21
-17.12672
  0
LINE
  8
別途部材
  6
CONTINUOUS
 62
    96
 10
-74.309968
 20
-23.6267
 11
-119.882435
 21
-23.6267
  0
LINE
  8
別途部材
  6
CONTINUOUS
 62
    96
 10
-77.309975
 20
-26.62672
 11
-120.509945
 21
-26.62672
  0
LINE
  8
別途部材
  6
CONTINUOUS
 62
    96
 10
-83.309998
 20
28.90571
 11
-83.309998
 21
-5.247245
  0
LINE
  8
別途部材
  6
CONTINUOUS
 62
    96
 10
-80.309983
 20
28.90571
 11
-83.309998
 21
28.90571
  0
LINE
  8
別途部材
  6
CONTINUOUS
 62
    96
 10
-80.309983
 20
28.90571
 11
-80.309983
 21
-8.094295
  0
CIRCLE
  8
別途部材
  6
CONTINUOUS
 62
    96
 10
-128.509977
 20
-17.12672
 40
3.0
  0
ARC
  8
別途部材
  6
CONTINUOUS
 62
    96
 10
-128.509978
 20
-17.126708
 40
6.0
 50
92.998444
 51
411.219394
  0
LINE
  8
別途部材
  6
CONTINUOUS
 62
    96
 10
-74.309968
 20
-23.6267
 11
-74.309968
 21
-71.12671
  0
LINE
  8
別途部材
  6
CONTINUOUS
 62
    96
 10
-77.309975
 20
-26.62672
 11
-77.309975
 21
-71.12671
  0
LINE
  8
別途部材
  6
CONTINUOUS
 62
    96
 10
-61.309968
 20
-42.627245
 11
-63.309977
 21
-44.627245
  0
LINE
  8
別途部材
  6
CONTINUOUS
 62
    96
 10
-61.309968
 20
-42.627245
 11
-63.309977
 21
-40.62725
  0
LINE
  8
別途部材
  6
CONTINUOUS
 62
    96
 10
-65.923065
 20
-40.62725
 11
-65.923065
 21
-44.627245
  0
LINE
  8
別途部材
  6
CONTINUOUS
 62
    96
 10
-61.309968
 20
-42.627245
 11
-61.663763
 21
-42.479
  0
LINE
  8
別途部材
  6
CONTINUOUS
 62
    96
 10
-61.663763
 20
-42.479
 11
-62.012897
 21
-42.339335
  0
LINE
  8
別途部材
  6
CONTINUOUS
 62
    96
 10
-62.012897
 20
-42.339335
 11
-62.362035
 21
-42.339335
  0
LINE
  8
別途部材
  6
CONTINUOUS
 62
    96
 10
-62.362035
 20
-42.339335
 11
-62.641298
 21
-42.06005
  0
LINE
  8
別途部材
  6
CONTINUOUS
 62
    96
 10
-62.641298
 20
-42.06005
 11
-62.780952
 21
-41.78075
  0
LINE
  8
別途部材
  6
CONTINUOUS
 62
    96
 10
-62.780952
 20
-41.78075
 11
-62.920603
 21
-41.501455
  0
LINE
  8
別途部材
  6
CONTINUOUS
 62
    96
 10
-62.920603
 20
-41.501455
 11
-63.060257
 21
-41.222155
  0
LINE
  8
別途部材
  6
CONTINUOUS
 62
    96
 10
-63.060257
 20
-41.222155
 11
-63.130085
 21
-40.942855
  0
LINE
  8
別途部材
  6
CONTINUOUS
 62
    96
 10
-63.130085
 20
-40.942855
 11
-63.199917
 21
-40.663555
  0
LINE
  8
別途部材
  6
CONTINUOUS
 62
    96
 10
-63.199917
 20
-40.663555
 11
-63.309977
 21
-40.62725
  0
LINE
  8
別途部材
  6
CONTINUOUS
 62
    96
 10
-63.309977
 20
-44.627245
 11
-64.363648
 21
-43.666015
  0
LINE
  8
別途部材
  6
CONTINUOUS
 62
    96
 10
-64.363648
 20
-43.666015
 11
-64.642933
 21
-43.293625
  0
LINE
  8
別途部材
  6
CONTINUOUS
 62
    96
 10
-64.642933
 20
-43.293625
 11
-64.922247
 21
-42.921215
  0
LINE
  8
別途部材
  6
CONTINUOUS
 62
    96
 10
-64.922247
 20
-42.921215
 11
-64.456737
 21
-42.921215
  0
LINE
  8
別途部材
  6
CONTINUOUS
 62
    96
 10
-64.456737
 20
-42.921215
 11
-63.991248
 21
-42.921215
  0
LINE
  8
別途部材
  6
CONTINUOUS
 62
    96
 10
-63.991248
 20
-42.921215
 11
-63.52575
 21
-42.921215
  0
LINE
  8
別途部材
  6
CONTINUOUS
 62
    96
 10
-63.52575
 20
-42.921215
 11
-63.060257
 21
-42.921215
  0
LINE
  8
別途部材
  6
CONTINUOUS
 62
    96
 10
-63.060257
 20
-42.921215
 11
-62.594783
 21
-42.921215
  0
LINE
  8
別途部材
  6
CONTINUOUS
 62
    96
 10
-62.594783
 20
-42.921215
 11
-62.129267
 21
-42.921215
  0
LINE
  8
別途部材
  6
CONTINUOUS
 62
    96
 10
-62.129267
 20
-42.921215
 11
-61.309968
 21
-42.627245
  0
LINE
  8
別途部材
  6
CONTINUOUS
 62
    96
 10
-63.309977
 20
-44.627245
 11
-77.309975
 21
-44.627245
  0
LINE
  8
別途部材
  6
CONTINUOUS
 62
    96
 10
-65.923065
 20
-43.92014
 11
-77.309975
 21
-43.92014
  0
LINE
  8
別途部材
  6
CONTINUOUS
 62
    96
 10
-65.923065
 20
-41.33434
 11
-77.309975
 21
-41.33434
  0
LINE
  8
別途部材
  6
CONTINUOUS
 62
    96
 10
-63.309977
 20
-40.62725
 11
-77.309975
 21
-40.62725
  0
LINE
  8
別途部材
  6
CONTINUOUS
 62
    96
 10
-77.309975
 20
-39.12724
 11
-77.309975
 21
-46.12724
  0
LINE
  8
別途部材
  6
CONTINUOUS
 62
    96
 10
-78.309977
 20
-46.62724
 11
-77.809977
 21
-46.62724
  0
LINE
  8
別途部材
  6
CONTINUOUS
 62
    96
 10
-78.309977
 20
-38.62724
 11
-77.809977
 21
-38.62724
  0
LINE
  8
別途部材
  6
CONTINUOUS
 62
    96
 10
-80.309983
 20
-40.62725
 11
-80.309983
 21
-44.627245
  0
LINE
  8
別途部材
  6
CONTINUOUS
 62
    96
 10
-79.51521
 20
-42.827245
 11
-79.51521
 21
-42.427235
  0
LINE
  8
別途部材
  6
CONTINUOUS
 62
    96
 10
-79.971935
 20
-42.12724
 11
-79.815203
 21
-42.12724
  0
LINE
  8
別途部材
  6
CONTINUOUS
 62
    96
 10
-79.971935
 20
-43.127245
 11
-79.815203
 21
-43.127245
  0
LINE
  8
別途部材
  6
CONTINUOUS
 62
    96
 10
-80.271928
 20
-41.389535
 11
-80.309983
 21
-41.389535
  0
LINE
  8
別途部材
  6
CONTINUOUS
 62
    96
 10
-80.171937
 20
-41.48954
 11
-80.171937
 21
-41.92724
  0
LINE
  8
別途部材
  6
CONTINUOUS
 62
    96
 10
-80.271928
 20
-43.864945
 11
-80.309983
 21
-43.864945
  0
LINE
  8
別途部材
  6
CONTINUOUS
 62
    96
 10
-80.171937
 20
-43.76495
 11
-80.171937
 21
-43.32725
  0
ARC
  8
別途部材
  6
CONTINUOUS
 62
    96
 10
-77.809973
 20
-46.127232
 40
0.5
 50
270.00412
 51
360.005493
  0
ARC
  8
別途部材
  6
CONTINUOUS
 62
    96
 10
-77.809973
 20
-39.127233
 40
0.5
 50
0.005493
 51
90.001373
  0
ARC
  8
別途部材
  6
CONTINUOUS
 62
    96
 10
-78.309975
 20
-44.627239
 40
2.0
 50
180.002747
 51
270.00412
  0
ARC
  8
別途部材
  6
CONTINUOUS
 62
    96
 10
-78.309975
 20
-40.627238
 40
2.0
 50
90.001373
 51
180.002747
  0
ARC
  8
別途部材
  6
CONTINUOUS
 62
    96
 10
-79.815201
 20
-42.427227
 40
0.3
 50
0.005493
 51
90.001373
  0
ARC
  8
別途部材
  6
CONTINUOUS
 62
    96
 10
-79.815201
 20
-42.827238
 40
0.3
 50
270.00412
 51
360.005493
  0
ARC
  8
別途部材
  6
CONTINUOUS
 62
    96
 10
-79.971929
 20
-41.927225
 40
0.2
 50
180.002747
 51
270.00412
  0
ARC
  8
別途部材
  6
CONTINUOUS
 62
    96
 10
-79.971929
 20
-43.32724
 40
0.2
 50
90.001373
 51
180.002747
  0
ARC
  8
別途部材
  6
CONTINUOUS
 62
    96
 10
-80.271925
 20
-41.489529
 40
0.1
 50
0.005493
 51
90.001373
  0
ARC
  8
別途部材
  6
CONTINUOUS
 62
    96
 10
-80.271925
 20
-43.764936
 40
0.1
 50
270.00412
 51
360.005493
  0
LINE
  8
別途部材
  6
DASHDOTX2
 62
    96
 10
-81.657318
 20
-56.627465
 11
-58.603178
 21
-56.627465
  0
LINE
  8
別途部材
  6
CONTINUOUS
 62
    96
 10
-61.309968
 20
-56.627465
 11
-63.309977
 21
-58.627465
  0
LINE
  8
別途部材
  6
CONTINUOUS
 62
    96
 10
-61.309968
 20
-56.627465
 11
-63.309977
 21
-54.62744
  0
LINE
  8
別途部材
  6
CONTINUOUS
 62
    96
 10
-65.923065
 20
-54.62744
 11
-65.923065
 21
-58.627465
  0
LINE
  8
別途部材
  6
CONTINUOUS
 62
    96
 10
-61.309968
 20
-56.627465
 11
-61.663763
 21
-56.47922
  0
LINE
  8
別途部材
  6
CONTINUOUS
 62
    96
 10
-61.663763
 20
-56.47922
 11
-62.012897
 21
-56.33954
  0
LINE
  8
別途部材
  6
CONTINUOUS
 62
    96
 10
-62.012897
 20
-56.33954
 11
-62.362035
 21
-56.33954
  0
LINE
  8
別途部材
  6
CONTINUOUS
 62
    96
 10
-62.362035
 20
-56.33954
 11
-62.641298
 21
-56.06027
  0
LINE
  8
別途部材
  6
CONTINUOUS
 62
    96
 10
-62.641298
 20
-56.06027
 11
-62.780952
 21
-55.780955
  0
LINE
  8
別途部材
  6
CONTINUOUS
 62
    96
 10
-62.780952
 20
-55.780955
 11
-62.920603
 21
-55.50167
  0
LINE
  8
別途部材
  6
CONTINUOUS
 62
    96
 10
-62.920603
 20
-55.50167
 11
-63.060257
 21
-55.22236
  0
LINE
  8
別途部材
  6
CONTINUOUS
 62
    96
 10
-63.060257
 20
-55.22236
 11
-63.130085
 21
-54.943075
  0
LINE
  8
別途部材
  6
CONTINUOUS
 62
    96
 10
-63.130085
 20
-54.943075
 11
-63.199917
 21
-54.66377
  0
LINE
  8
別途部材
  6
CONTINUOUS
 62
    96
 10
-63.199917
 20
-54.66377
 11
-63.309977
 21
-54.62744
  0
LINE
  8
別途部材
  6
CONTINUOUS
 62
    96
 10
-63.309977
 20
-58.627465
 11
-64.363648
 21
-57.66623
  0
LINE
  8
別途部材
  6
CONTINUOUS
 62
    96
 10
-64.363648
 20
-57.66623
 11
-64.642933
 21
-57.29384
  0
LINE
  8
別途部材
  6
CONTINUOUS
 62
    96
 10
-64.642933
 20
-57.29384
 11
-64.922247
 21
-56.92142
  0
LINE
  8
別途部材
  6
CONTINUOUS
 62
    96
 10
-64.922247
 20
-56.92142
 11
-64.456737
 21
-56.92142
  0
LINE
  8
別途部材
  6
CONTINUOUS
 62
    96
 10
-64.456737
 20
-56.92142
 11
-63.991248
 21
-56.92142
  0
LINE
  8
別途部材
  6
CONTINUOUS
 62
    96
 10
-63.991248
 20
-56.92142
 11
-63.52575
 21
-56.92142
  0
LINE
  8
別途部材
  6
CONTINUOUS
 62
    96
 10
-63.52575
 20
-56.92142
 11
-63.060257
 21
-56.92142
  0
LINE
  8
別途部材
  6
CONTINUOUS
 62
    96
 10
-63.060257
 20
-56.92142
 11
-62.594783
 21
-56.92142
  0
LINE
  8
別途部材
  6
CONTINUOUS
 62
    96
 10
-62.594783
 20
-56.92142
 11
-62.129267
 21
-56.92142
  0
LINE
  8
別途部材
  6
CONTINUOUS
 62
    96
 10
-62.129267
 20
-56.92142
 11
-61.309968
 21
-56.627465
  0
LINE
  8
別途部材
  6
CONTINUOUS
 62
    96
 10
-63.309977
 20
-58.627465
 11
-77.309975
 21
-58.627465
  0
LINE
  8
別途部材
  6
CONTINUOUS
 62
    96
 10
-65.923065
 20
-57.92036
 11
-77.309975
 21
-57.92036
  0
LINE
  8
別途部材
  6
CONTINUOUS
 62
    96
 10
-65.923065
 20
-55.334555
 11
-77.309975
 21
-55.334555
  0
LINE
  8
別途部材
  6
CONTINUOUS
 62
    96
 10
-63.309977
 20
-54.62744
 11
-77.309975
 21
-54.62744
  0
LINE
  8
別途部材
  6
CONTINUOUS
 62
    96
 10
-77.309975
 20
-53.12746
 11
-77.309975
 21
-60.12745
  0
LINE
  8
別途部材
  6
CONTINUOUS
 62
    96
 10
-78.309977
 20
-60.627445
 11
-77.809977
 21
-60.627445
  0
LINE
  8
別途部材
  6
CONTINUOUS
 62
    96
 10
-78.309977
 20
-52.62746
 11
-77.809977
 21
-52.62746
  0
LINE
  8
別途部材
  6
CONTINUOUS
 62
    96
 10
-80.309983
 20
-54.62744
 11
-80.309983
 21
-58.627465
  0
LINE
  8
別途部材
  6
CONTINUOUS
 62
    96
 10
-79.51521
 20
-56.82745
 11
-79.51521
 21
-56.427455
  0
LINE
  8
別途部材
  6
CONTINUOUS
 62
    96
 10
-79.971935
 20
-56.127445
 11
-79.815203
 21
-56.127445
  0
LINE
  8
別途部材
  6
CONTINUOUS
 62
    96
 10
-79.971935
 20
-57.127465
 11
-79.815203
 21
-57.127465
  0
LINE
  8
別途部材
  6
CONTINUOUS
 62
    96
 10
-80.271928
 20
-55.389755
 11
-80.309983
 21
-55.389755
  0
LINE
  8
別途部材
  6
CONTINUOUS
 62
    96
 10
-80.171937
 20
-55.489745
 11
-80.171937
 21
-55.927445
  0
LINE
  8
別途部材
  6
CONTINUOUS
 62
    96
 10
-80.271928
 20
-57.86516
 11
-80.309983
 21
-57.86516
  0
LINE
  8
別途部材
  6
CONTINUOUS
 62
    96
 10
-80.171937
 20
-57.765155
 11
-80.171937
 21
-57.32747
  0
ARC
  8
別途部材
  6
CONTINUOUS
 62
    96
 10
-77.809973
 20
-60.127438
 40
0.5
 50
270.00412
 51
360.005493
  0
ARC
  8
別途部材
  6
CONTINUOUS
 62
    96
 10
-77.809973
 20
-53.127452
 40
0.5
 50
0.005493
 51
90.001373
  0
ARC
  8
別途部材
  6
CONTINUOUS
 62
    96
 10
-78.309975
 20
-58.627458
 40
2.0
 50
180.002747
 51
270.00412
  0
ARC
  8
別途部材
  6
CONTINUOUS
 62
    96
 10
-78.309975
 20
-54.627432
 40
2.0
 50
90.001373
 51
180.002747
  0
ARC
  8
別途部材
  6
CONTINUOUS
 62
    96
 10
-79.815201
 20
-56.427446
 40
0.3
 50
0.005493
 51
90.001373
  0
ARC
  8
別途部材
  6
CONTINUOUS
 62
    96
 10
-79.815201
 20
-56.827445
 40
0.3
 50
270.00412
 51
360.005493
  0
ARC
  8
別途部材
  6
CONTINUOUS
 62
    96
 10
-79.971929
 20
-55.927432
 40
0.2
 50
180.002747
 51
270.00412
  0
ARC
  8
別途部材
  6
CONTINUOUS
 62
    96
 10
-79.971929
 20
-57.327459
 40
0.2
 50
90.001373
 51
180.002747
  0
ARC
  8
別途部材
  6
CONTINUOUS
 62
    96
 10
-80.271925
 20
-55.489736
 40
0.1
 50
0.005493
 51
90.001373
  0
ARC
  8
別途部材
  6
CONTINUOUS
 62
    96
 10
-80.271925
 20
-57.765143
 40
0.1
 50
270.00412
 51
360.005493
  0
LINE
  8
別途部材
  6
DASHDOT
 62
    96
 10
-78.309977
 20
23.172635
 11
-85.309998
 21
23.172635
  0
LINE
  8
別途部材
  6
DASHDOTX2
 62
    96
 10
-87.657333
 20
23.172635
 11
-64.6032
 21
23.172635
  0
LINE
  8
別途部材
  6
CONTINUOUS
 62
    96
 10
-67.309993
 20
23.172635
 11
-69.309993
 21
21.17263
  0
LINE
  8
別途部材
  6
CONTINUOUS
 62
    96
 10
-67.309993
 20
23.172635
 11
-69.309993
 21
25.172645
  0
LINE
  8
別途部材
  6
CONTINUOUS
 62
    96
 10
-71.923082
 20
25.172645
 11
-71.923082
 21
21.17263
  0
LINE
  8
別途部材
  6
CONTINUOUS
 62
    96
 10
-67.309993
 20
23.172635
 11
-67.663785
 21
23.32088
  0
LINE
  8
別途部材
  6
CONTINUOUS
 62
    96
 10
-67.663785
 20
23.32088
 11
-68.012913
 21
23.460545
  0
LINE
  8
別途部材
  6
CONTINUOUS
 62
    96
 10
-68.012913
 20
23.460545
 11
-68.362055
 21
23.460545
  0
LINE
  8
別途部材
  6
CONTINUOUS
 62
    96
 10
-68.362055
 20
23.460545
 11
-68.641317
 21
23.73983
  0
LINE
  8
別途部材
  6
CONTINUOUS
 62
    96
 10
-68.641317
 20
23.73983
 11
-68.780968
 21
24.01913
  0
LINE
  8
別途部材
  6
CONTINUOUS
 62
    96
 10
-68.780968
 20
24.01913
 11
-68.920625
 21
24.29842
  0
LINE
  8
別途部材
  6
CONTINUOUS
 62
    96
 10
-68.920625
 20
24.29842
 11
-69.060285
 21
24.57772
  0
LINE
  8
別途部材
  6
CONTINUOUS
 62
    96
 10
-69.060285
 20
24.57772
 11
-69.130108
 21
24.85702
  0
LINE
  8
別途部材
  6
CONTINUOUS
 62
    96
 10
-69.130108
 20
24.85702
 11
-69.199932
 21
25.13632
  0
LINE
  8
別途部材
  6
CONTINUOUS
 62
    96
 10
-69.199932
 20
25.13632
 11
-69.309993
 21
25.172645
  0
LINE
  8
別途部材
  6
CONTINUOUS
 62
    96
 10
-69.309993
 20
21.17263
 11
-70.36367
 21
22.13386
  0
LINE
  8
別途部材
  6
CONTINUOUS
 62
    96
 10
-70.36367
 20
22.13386
 11
-70.642952
 21
22.50626
  0
LINE
  8
別途部材
  6
CONTINUOUS
 62
    96
 10
-70.642952
 20
22.50626
 11
-70.922265
 21
22.878665
  0
LINE
  8
別途部材
  6
CONTINUOUS
 62
    96
 10
-70.922265
 20
22.878665
 11
-70.456762
 21
22.878665
  0
LINE
  8
別途部材
  6
CONTINUOUS
 62
    96
 10
-70.456762
 20
22.878665
 11
-69.991275
 21
22.878665
  0
LINE
  8
別途部材
  6
CONTINUOUS
 62
    96
 10
-69.991275
 20
22.878665
 11
-69.525765
 21
22.878665
  0
LINE
  8
別途部材
  6
CONTINUOUS
 62
    96
 10
-69.525765
 20
22.878665
 11
-69.060285
 21
22.878665
  0
LINE
  8
別途部材
  6
CONTINUOUS
 62
    96
 10
-69.060285
 20
22.878665
 11
-68.594793
 21
22.878665
  0
LINE
  8
別途部材
  6
CONTINUOUS
 62
    96
 10
-68.594793
 20
22.878665
 11
-68.129283
 21
22.878665
  0
LINE
  8
別途部材
  6
CONTINUOUS
 62
    96
 10
-68.129283
 20
22.878665
 11
-67.309993
 21
23.172635
  0
LINE
  8
別途部材
  6
CONTINUOUS
 62
    96
 10
-69.309993
 20
21.17263
 11
-83.309998
 21
21.17263
  0
LINE
  8
別途部材
  6
CONTINUOUS
 62
    96
 10
-71.923082
 20
21.87974
 11
-83.309998
 21
21.87974
  0
LINE
  8
別途部材
  6
CONTINUOUS
 62
    96
 10
-71.923082
 20
24.465535
 11
-83.309998
 21
24.465535
  0
LINE
  8
別途部材
  6
CONTINUOUS
 62
    96
 10
-69.309993
 20
25.172645
 11
-83.309998
 21
25.172645
  0
LINE
  8
別途部材
  6
CONTINUOUS
 62
    96
 10
-83.309998
 20
26.672635
 11
-83.309998
 21
19.67264
  0
LINE
  8
別途部材
  6
CONTINUOUS
 62
    96
 10
-84.309993
 20
19.172635
 11
-83.809993
 21
19.172635
  0
LINE
  8
別途部材
  6
CONTINUOUS
 62
    96
 10
-84.309993
 20
27.17264
 11
-83.809993
 21
27.17264
  0
LINE
  8
別途部材
  6
CONTINUOUS
 62
    96
 10
-86.310005
 20
25.172645
 11
-86.310005
 21
21.17263
  0
LINE
  8
別途部材
  6
CONTINUOUS
 62
    96
 10
-85.515228
 20
22.97263
 11
-85.515228
 21
23.372645
  0
LINE
  8
別途部材
  6
CONTINUOUS
 62
    96
 10
-85.97195
 20
23.672635
 11
-85.815225
 21
23.672635
  0
LINE
  8
別途部材
  6
CONTINUOUS
 62
    96
 10
-85.97195
 20
22.67263
 11
-85.815225
 21
22.67263
  0
LINE
  8
別途部材
  6
CONTINUOUS
 62
    96
 10
-86.27195
 20
24.410345
 11
-86.310005
 21
24.410345
  0
LINE
  8
別途部材
  6
CONTINUOUS
 62
    96
 10
-86.171958
 20
24.31034
 11
-86.171958
 21
23.872645
  0
LINE
  8
別途部材
  6
CONTINUOUS
 62
    96
 10
-86.27195
 20
21.93493
 11
-86.310005
 21
21.93493
  0
LINE
  8
別途部材
  6
CONTINUOUS
 62
    96
 10
-86.171958
 20
22.03493
 11
-86.171958
 21
22.47263
  0
ARC
  8
別途部材
  6
CONTINUOUS
 62
    96
 10
-83.809993
 20
19.672644
 40
0.5
 50
270.00412
 51
360.005493
  0
ARC
  8
別途部材
  6
CONTINUOUS
 62
    96
 10
-83.809993
 20
26.672642
 40
0.5
 50
0.005493
 51
90.001373
  0
ARC
  8
別途部材
  6
CONTINUOUS
 62
    96
 10
-84.309994
 20
21.172636
 40
2.0
 50
180.002747
 51
270.00412
  0
ARC
  8
別途部材
  6
CONTINUOUS
 62
    96
 10
-84.309994
 20
25.17265
 40
2.0
 50
90.001373
 51
180.002747
  0
ARC
  8
別途部材
  6
CONTINUOUS
 62
    96
 10
-85.81522
 20
23.372649
 40
0.3
 50
0.005493
 51
90.001373
  0
ARC
  8
別途部材
  6
CONTINUOUS
 62
    96
 10
-85.81522
 20
22.972637
 40
0.3
 50
270.00412
 51
360.005493
  0
ARC
  8
別途部材
  6
CONTINUOUS
 62
    96
 10
-85.971949
 20
23.87265
 40
0.2
 50
180.002747
 51
270.00412
  0
ARC
  8
別途部材
  6
CONTINUOUS
 62
    96
 10
-85.971949
 20
22.472636
 40
0.2
 50
90.001373
 51
180.002747
  0
ARC
  8
別途部材
  6
CONTINUOUS
 62
    96
 10
-86.271945
 20
24.310347
 40
0.1
 50
0.005493
 51
90.001373
  0
ARC
  8
別途部材
  6
CONTINUOUS
 62
    96
 10
-86.271945
 20
22.034939
 40
0.1
 50
270.00412
 51
360.005493
  0
LINE
  8
別途部材
  6
DASHDOT
 62
    96
 10
-78.309977
 20
3.905705
 11
-85.309998
 21
3.905705
  0
LINE
  8
別途部材
  6
DASHDOTX2
 62
    96
 10
-87.657333
 20
3.905705
 11
-64.6032
 21
3.905705
  0
LINE
  8
別途部材
  6
CONTINUOUS
 62
    96
 10
-67.309993
 20
3.905705
 11
-69.309993
 21
1.905695
  0
LINE
  8
別途部材
  6
CONTINUOUS
 62
    96
 10
-67.309993
 20
3.905705
 11
-69.309993
 21
5.905705
  0
LINE
  8
別途部材
  6
CONTINUOUS
 62
    96
 10
-71.923082
 20
5.905705
 11
-71.923082
 21
1.905695
  0
LINE
  8
別途部材
  6
CONTINUOUS
 62
    96
 10
-67.309993
 20
3.905705
 11
-67.663785
 21
4.05394
  0
LINE
  8
別途部材
  6
CONTINUOUS
 62
    96
 10
-67.663785
 20
4.05394
 11
-68.012913
 21
4.193605
  0
LINE
  8
別途部材
  6
CONTINUOUS
 62
    96
 10
-68.012913
 20
4.193605
 11
-68.362055
 21
4.193605
  0
LINE
  8
別途部材
  6
CONTINUOUS
 62
    96
 10
-68.362055
 20
4.193605
 11
-68.641317
 21
4.47289
  0
LINE
  8
別途部材
  6
CONTINUOUS
 62
    96
 10
-68.641317
 20
4.47289
 11
-68.780968
 21
4.75219
  0
LINE
  8
別途部材
  6
CONTINUOUS
 62
    96
 10
-68.780968
 20
4.75219
 11
-68.920625
 21
5.03149
  0
LINE
  8
別途部材
  6
CONTINUOUS
 62
    96
 10
-68.920625
 20
5.03149
 11
-69.060285
 21
5.31079
  0
LINE
  8
別途部材
  6
CONTINUOUS
 62
    96
 10
-69.060285
 20
5.31079
 11
-69.130108
 21
5.590085
  0
LINE
  8
別途部材
  6
CONTINUOUS
 62
    96
 10
-69.130108
 20
5.590085
 11
-69.199932
 21
5.869385
  0
LINE
  8
別途部材
  6
CONTINUOUS
 62
    96
 10
-69.199932
 20
5.869385
 11
-69.309993
 21
5.905705
  0
LINE
  8
別途部材
  6
CONTINUOUS
 62
    96
 10
-69.309993
 20
1.905695
 11
-70.36367
 21
2.866925
  0
LINE
  8
別途部材
  6
CONTINUOUS
 62
    96
 10
-70.36367
 20
2.866925
 11
-70.642952
 21
3.23932
  0
LINE
  8
別途部材
  6
CONTINUOUS
 62
    96
 10
-70.642952
 20
3.23932
 11
-70.922265
 21
3.611725
  0
LINE
  8
別途部材
  6
CONTINUOUS
 62
    96
 10
-70.922265
 20
3.611725
 11
-70.456762
 21
3.611725
  0
LINE
  8
別途部材
  6
CONTINUOUS
 62
    96
 10
-70.456762
 20
3.611725
 11
-69.991275
 21
3.611725
  0
LINE
  8
別途部材
  6
CONTINUOUS
 62
    96
 10
-69.991275
 20
3.611725
 11
-69.525765
 21
3.611725
  0
LINE
  8
別途部材
  6
CONTINUOUS
 62
    96
 10
-69.525765
 20
3.611725
 11
-69.060285
 21
3.611725
  0
LINE
  8
別途部材
  6
CONTINUOUS
 62
    96
 10
-69.060285
 20
3.611725
 11
-68.594793
 21
3.611725
  0
LINE
  8
別途部材
  6
CONTINUOUS
 62
    96
 10
-68.594793
 20
3.611725
 11
-68.129283
 21
3.611725
  0
LINE
  8
別途部材
  6
CONTINUOUS
 62
    96
 10
-68.129283
 20
3.611725
 11
-67.309993
 21
3.905705
  0
LINE
  8
別途部材
  6
CONTINUOUS
 62
    96
 10
-69.309993
 20
1.905695
 11
-83.309998
 21
1.905695
  0
LINE
  8
別途部材
  6
CONTINUOUS
 62
    96
 10
-71.923082
 20
2.6128
 11
-83.309998
 21
2.6128
  0
LINE
  8
別途部材
  6
CONTINUOUS
 62
    96
 10
-71.923082
 20
5.1986
 11
-83.309998
 21
5.1986
  0
LINE
  8
別途部材
  6
CONTINUOUS
 62
    96
 10
-69.309993
 20
5.905705
 11
-83.309998
 21
5.905705
  0
LINE
  8
別途部材
  6
CONTINUOUS
 62
    96
 10
-83.309998
 20
7.4057
 11
-83.309998
 21
0.4057
  0
LINE
  8
別途部材
  6
CONTINUOUS
 62
    96
 10
-84.309993
 20
-0.0943
 11
-83.809993
 21
-0.0943
  0
LINE
  8
別途部材
  6
CONTINUOUS
 62
    96
 10
-84.309993
 20
7.9057
 11
-83.809993
 21
7.9057
  0
LINE
  8
別途部材
  6
CONTINUOUS
 62
    96
 10
-86.310005
 20
5.905705
 11
-86.310005
 21
1.905695
  0
LINE
  8
別途部材
  6
CONTINUOUS
 62
    96
 10
-85.515228
 20
3.705695
 11
-85.515228
 21
4.105705
  0
LINE
  8
別途部材
  6
CONTINUOUS
 62
    96
 10
-85.97195
 20
4.4057
 11
-85.815225
 21
4.4057
  0
LINE
  8
別途部材
  6
CONTINUOUS
 62
    96
 10
-85.97195
 20
3.4057
 11
-85.815225
 21
3.4057
  0
LINE
  8
別途部材
  6
CONTINUOUS
 62
    96
 10
-86.27195
 20
5.143405
 11
-86.310005
 21
5.143405
  0
LINE
  8
別途部材
  6
CONTINUOUS
 62
    96
 10
-86.171958
 20
5.0434
 11
-86.171958
 21
4.60571
  0
LINE
  8
別途部材
  6
CONTINUOUS
 62
    96
 10
-86.27195
 20
2.667995
 11
-86.310005
 21
2.667995
  0
LINE
  8
別途部材
  6
CONTINUOUS
 62
    96
 10
-86.171958
 20
2.768
 11
-86.171958
 21
3.20569
  0
ARC
  8
別途部材
  6
CONTINUOUS
 62
    96
 10
-83.809993
 20
0.405709
 40
0.5
 50
270.00412
 51
360.005493
  0
ARC
  8
別途部材
  6
CONTINUOUS
 62
    96
 10
-83.809993
 20
7.405707
 40
0.5
 50
0.005493
 51
90.001373
  0
ARC
  8
別途部材
  6
CONTINUOUS
 62
    96
 10
-84.309994
 20
1.905701
 40
2.0
 50
180.002747
 51
270.00412
  0
ARC
  8
別途部材
  6
CONTINUOUS
 62
    96
 10
-84.309994
 20
5.905715
 40
2.0
 50
90.001373
 51
180.002747
  0
ARC
  8
別途部材
  6
CONTINUOUS
 62
    96
 10
-85.81522
 20
4.105714
 40
0.3
 50
0.005493
 51
90.001373
  0
ARC
  8
別途部材
  6
CONTINUOUS
 62
    96
 10
-85.81522
 20
3.705702
 40
0.3
 50
270.00412
 51
360.005493
  0
ARC
  8
別途部材
  6
CONTINUOUS
 62
    96
 10
-85.971949
 20
4.605715
 40
0.2
 50
180.002747
 51
270.00412
  0
ARC
  8
別途部材
  6
CONTINUOUS
 62
    96
 10
-85.971949
 20
3.205701
 40
0.2
 50
90.001373
 51
180.002747
  0
ARC
  8
別途部材
  6
CONTINUOUS
 62
    96
 10
-86.271945
 20
5.043412
 40
0.1
 50
0.005493
 51
90.001373
  0
ARC
  8
別途部材
  6
CONTINUOUS
 62
    96
 10
-86.271945
 20
2.768004
 40
0.1
 50
270.00412
 51
360.005493
  0
LINE
  8
別途部材
  6
CONTINUOUS
 62
    96
 10
-112.509975
 20
-21.62672
 11
-104.509968
 21
-21.62672
  0
LINE
  8
別途部材
  6
CONTINUOUS
 62
    96
 10
-111.00996
 20
-23.126725
 11
-106.009977
 21
-23.126725
  0
LINE
  8
別途部材
  6
CONTINUOUS
 62
    96
 10
-104.509968
 20
-21.62672
 11
-106.009977
 21
-23.126725
  0
LINE
  8
別途部材
  6
CONTINUOUS
 62
    96
 10
-112.509975
 20
-21.62672
 11
-111.00996
 21
-23.126725
  0
LINE
  8
別途部材
  6
DASHDOT
 62
    96
 10
-108.50996
 20
-20.093735
 11
-108.50996
 21
-33.386
  0
LINE
  8
別途部材
  6
CONTINUOUS
 62
    96
 10
-111.00996
 20
-26.9196
 11
-106.009977
 21
-26.9196
  0
LINE
  8
別途部材
  6
CONTINUOUS
 62
    96
 10
-106.009977
 20
-26.9196
 11
-106.717083
 21
-27.62672
  0
LINE
  8
別途部材
  6
CONTINUOUS
 62
    96
 10
-111.00996
 20
-26.9196
 11
-110.30286
 21
-27.62672
  0
LINE
  8
別途部材
  6
CONTINUOUS
 62
    96
 10
-110.30286
 20
-27.62672
 11
-106.717083
 21
-27.62672
  0
LINE
  8
別途部材
  6
CONTINUOUS
 62
    96
 10
-106.009977
 20
-23.126725
 11
-106.009977
 21
-26.9196
  0
LINE
  8
別途部材
  6
CONTINUOUS
 62
    96
 10
-111.00996
 20
-23.126725
 11
-111.00996
 21
-26.9196
  0
LINE
  8
別途部材
  6
CONTINUOUS
 62
    96
 10
-110.30286
 20
-23.126725
 11
-110.30286
 21
-27.62672
  0
LINE
  8
別途部材
  6
CONTINUOUS
 62
    96
 10
-106.717083
 20
-23.126725
 11
-106.717083
 21
-27.62672
  0
LINE
  8
別途部材
  6
CONTINUOUS
 62
    96
 10
-121.017587
 20
-7.22143
 11
-83.309998
 21
-5.247245
  0
ENDBLK
  0
BLOCK
  2
*GRP_0046
 70
    65
 10
0.0
 20
0.0
  0
ARC
  8
型材断面
  6
CONTINUOUS
 62
    47
 10
-106.177951
 20
-15.426444
 40
0.199974
 50
153.434949
 51
270.0
  0
ARC
  8
型材断面
  6
CONTINUOUS
 62
    47
 10
-110.824563
 20
-15.426444
 40
0.199974
 50
270.0
 51
386.565051
  0
LINE
  8
型材断面
  6
CONTINUOUS
 62
    47
 10
-113.20067
 20
-15.62645
 11
-110.824587
 21
-15.62645
  0
ARC
  8
型材断面
  6
CONTINUOUS
 62
    47
 10
-113.200648
 20
-15.326457
 40
0.299961
 50
180.0
 51
270.0
  0
LINE
  8
型材断面
  6
CONTINUOUS
 62
    47
 10
-103.50194
 20
-14.426825
 11
-101.501945
 21
-14.426825
  0
LINE
  8
型材断面
  6
CONTINUOUS
 62
    47
 10
-81.805722
 20
-15.126447
 11
-81.805722
 21
-14.426825
  0
ARC
  8
型材断面
  6
CONTINUOUS
 62
    47
 10
-81.305721
 20
-15.126445
 40
0.5
 50
180.0
 51
270.0
  0
LINE
  8
型材断面
  6
CONTINUOUS
 62
    47
 10
-78.805722
 20
-15.62645
 11
-81.30572
 21
-15.62645
  0
LINE
  8
型材断面
  6
CONTINUOUS
 62
    47
 10
-78.30572
 20
-12.626825
 11
-78.30572
 21
-15.126447
  0
ARC
  8
型材断面
  6
CONTINUOUS
 62
    47
 10
-78.805721
 20
-15.126445
 40
0.5
 50
270.0
 51
360.0
  0
LINE
  8
型材断面
  6
CONTINUOUS
 62
    47
 10
-106.177963
 20
-15.62645
 11
-102.00194
 21
-15.62645
  0
LINE
  8
型材断面
  6
CONTINUOUS
 62
    47
 10
-101.501945
 20
-15.126447
 11
-101.501945
 21
-14.426825
  0
ARC
  8
型材断面
  6
CONTINUOUS
 62
    47
 10
-102.001941
 20
-15.126445
 40
0.5
 50
270.0
 51
360.0
  0
LINE
  8
型材断面
  6
CONTINUOUS
 62
    47
 10
-101.501945
 20
-11.739883
 11
-101.501945
 21
-12.626825
  0
LINE
  8
型材断面
  6
CONTINUOUS
 62
    47
 10
-103.50194
 20
-12.626825
 11
-101.501945
 21
-12.626825
  0
LINE
  8
型材断面
  6
CONTINUOUS
 62
    47
 10
-81.805722
 20
-10.708662
 11
-81.805722
 21
-12.626825
  0
LINE
  8
型材断面
  6
CONTINUOUS
 62
    47
 10
-103.50194
 20
-14.426825
 11
-103.50194
 21
-12.626825
  0
LINE
  8
型材断面
  6
CONTINUOUS
 62
    47
 10
-92.653827
 20
-12.626825
 11
-90.653833
 21
-12.626825
  0
LINE
  8
型材断面
  6
CONTINUOUS
 62
    47
 10
-92.653827
 20
-12.626825
 11
-92.653827
 21
-11.27663
  0
LINE
  8
型材断面
  6
CONTINUOUS
 62
    47
 10
-90.653833
 20
-12.626825
 11
-90.653833
 21
-11.171915
  0
LINE
  8
型材断面
  6
CONTINUOUS
 62
    47
 10
-81.805722
 20
-10.708662
 11
-90.653833
 21
-11.171915
  0
LINE
  8
型材断面
  6
CONTINUOUS
 62
    47
 10
-113.50064
 20
-15.326472
 11
-113.50064
 21
-12.368083
  0
LINE
  8
型材断面
  6
CONTINUOUS
 62
    47
 10
-92.653827
 20
-11.27663
 11
-101.501945
 21
-11.739883
  0
LINE
  8
型材断面
  6
CONTINUOUS
 62
    47
 10
-112.018775
 20
-12.590907
 11
-104.794662
 21
-12.212683
  0
LINE
  8
型材断面
  6
CONTINUOUS
 62
    47
 10
-106.356837
 20
-15.337025
 11
-104.794662
 21
-12.212683
  0
LINE
  8
型材断面
  6
CONTINUOUS
 62
    47
 10
-110.645712
 20
-15.337025
 11
-112.018775
 21
-12.590907
  0
LINE
  8
型材断面
  6
CONTINUOUS
 62
    47
 10
-81.805722
 20
-12.626825
 11
-79.80572
 21
-12.626825
  0
LINE
  8
型材断面
  6
CONTINUOUS
 62
    47
 10
-79.80572
 20
-12.626825
 11
-79.80572
 21
-14.426825
  0
LINE
  8
型材断面
  6
CONTINUOUS
 62
    47
 10
-81.805722
 20
-14.426825
 11
-79.80572
 21
-14.426825
  0
LINE
  8
型材断面
  6
CONTINUOUS
 62
    47
 10
-108.797577
 20
-10.419515
 11
-108.513673
 21
-10.104238
  0
LINE
  8
型材断面
  6
CONTINUOUS
 62
    47
 10
-108.797577
 20
-10.419515
 11
-109.112848
 21
-10.13561
  0
LINE
  8
型材断面
  6
CONTINUOUS
 62
    47
 10
-80.305722
 20
-8.62739
 11
-108.513673
 21
-10.104238
  0
LINE
  8
型材断面
  6
CONTINUOUS
 62
    47
 10
-51.805722
 20
-15.32645
 11
-51.805722
 21
-12.626825
  0
ARC
  8
型材断面
  6
CONTINUOUS
 62
    47
 10
-51.505721
 20
-15.326445
 40
0.3
 50
180.0
 51
270.0
  0
LINE
  8
型材断面
  6
CONTINUOUS
 62
    47
 10
-50.605722
 20
-15.62645
 11
-51.505722
 21
-15.62645
  0
ARC
  8
型材断面
  6
CONTINUOUS
 62
    47
 10
-50.605721
 20
-15.326445
 40
0.3
 50
270.0
 51
360.0
  0
LINE
  8
型材断面
  6
CONTINUOUS
 62
    47
 10
-78.30572
 20
-12.626825
 11
-51.805722
 21
-12.626825
  0
LINE
  8
型材断面
  6
CONTINUOUS
 62
    47
 10
-80.005722
 20
23.172632
 11
-80.305722
 21
23.472632
  0
LINE
  8
型材断面
  6
CONTINUOUS
 62
    47
 10
-80.005722
 20
23.172632
 11
-80.305722
 21
22.872632
  0
LINE
  8
型材断面
  6
CONTINUOUS
 62
    47
 10
-80.005722
 20
3.905703
 11
-80.305722
 21
4.205703
  0
LINE
  8
型材断面
  6
CONTINUOUS
 62
    47
 10
-80.005722
 20
3.905703
 11
-80.305722
 21
3.605703
  0
LINE
  8
型材断面
  6
CONTINUOUS
 62
    47
 10
-80.305722
 20
-8.62739
 11
-80.305722
 21
3.605703
  0
LINE
  8
型材断面
  6
CONTINUOUS
 62
    47
 10
-80.305722
 20
4.205703
 11
-80.305722
 21
22.872632
  0
LINE
  8
型材断面
  6
CONTINUOUS
 62
    47
 10
-52.305725
 20
37.373178
 11
-42.30572
 21
37.373178
  0
LINE
  8
型材断面
  6
CONTINUOUS
 62
    47
 10
-50.305722
 20
35.373175
 11
-40.305725
 21
35.373175
  0
LINE
  8
型材断面
  6
CONTINUOUS
 62
    47
 10
-42.30572
 20
42.273175
 11
-42.30572
 21
37.373178
  0
LINE
  8
型材断面
  6
CONTINUOUS
 62
    47
 10
-78.30572
 20
42.273175
 11
-42.30572
 21
42.273175
  0
LINE
  8
型材断面
  6
CONTINUOUS
 62
    47
 10
-65.206025
 20
45.27265
 11
-65.206025
 21
44.273178
  0
LINE
  8
型材断面
  6
CONTINUOUS
 62
    47
 10
-60.305728
 20
75.069422
 11
-60.005728
 21
75.369422
  0
LINE
  8
型材断面
  6
CONTINUOUS
 62
    47
 10
-60.305728
 20
75.069422
 11
-60.605728
 21
75.369422
  0
LINE
  8
型材断面
  6
CONTINUOUS
 62
    47
 10
-60.00215
 20
75.372992
 11
-50.305722
 21
75.372992
  0
LINE
  8
型材断面
  6
CONTINUOUS
 62
    47
 10
-50.805725
 20
73.869392
 11
-50.305722
 21
74.369395
  0
LINE
  8
型材断面
  6
CONTINUOUS
 62
    47
 10
-55.80572
 20
72.372992
 11
-54.30932
 21
73.869392
  0
LINE
  8
型材断面
  6
CONTINUOUS
 62
    47
 10
-50.805725
 20
73.869392
 11
-54.30932
 21
73.869392
  0
LINE
  8
型材断面
  6
CONTINUOUS
 62
    47
 10
-50.305722
 20
75.372992
 11
-50.305722
 21
74.369395
  0
LINE
  8
型材断面
  6
CONTINUOUS
 62
    47
 10
-50.106073
 20
44.273178
 11
-41.305722
 21
44.273178
  0
LINE
  8
型材断面
  6
CONTINUOUS
 62
    47
 10
-49.206027
 20
44.273178
 11
-41.305722
 21
44.273178
  0
LINE
  8
型材断面
  6
CONTINUOUS
 62
    47
 10
-72.206023
 20
53.82187
 11
-72.206023
 21
73.872992
  0
LINE
  8
型材断面
  6
CONTINUOUS
 62
    47
 10
-66.706025
 20
44.273178
 11
-66.706025
 21
46.273172
  0
LINE
  8
型材断面
  6
CONTINUOUS
 62
    47
 10
-65.206025
 20
44.273178
 11
-65.206025
 21
46.273172
  0
LINE
  8
型材断面
  6
CONTINUOUS
 62
    47
 10
-66.706025
 20
46.273172
 11
-65.206025
 21
46.273172
  0
LINE
  8
型材断面
  6
CONTINUOUS
 62
    47
 10
-66.706025
 20
58.071138
 11
-65.206025
 21
58.071138
  0
LINE
  8
型材断面
  6
CONTINUOUS
 62
    47
 10
-70.206027
 20
44.273178
 11
-66.706025
 21
44.273178
  0
LINE
  8
型材断面
  6
CONTINUOUS
 62
    47
 10
-51.606073
 20
44.273178
 11
-65.206025
 21
44.273178
  0
LINE
  8
型材断面
  6
CONTINUOUS
 62
    47
 10
-55.80572
 20
72.372992
 11
-70.206027
 21
72.372992
  0
LINE
  8
型材断面
  6
CONTINUOUS
 62
    47
 10
-70.206027
 20
61.57114
 11
-70.206027
 21
72.372992
  0
LINE
  8
型材断面
  6
CONTINUOUS
 62
    47
 10
-71.906023
 20
52.172163
 11
-72.206023
 21
52.472163
  0
LINE
  8
型材断面
  6
CONTINUOUS
 62
    47
 10
-71.906023
 20
52.172163
 11
-72.206023
 21
51.872163
  0
LINE
  8
型材断面
  6
CONTINUOUS
 62
    47
 10
-72.206023
 20
54.772653
 11
-72.206023
 21
52.472163
  0
LINE
  8
型材断面
  6
CONTINUOUS
 62
    47
 10
-76.305725
 20
75.369415
 11
-76.305725
 21
73.872992
  0
LINE
  8
型材断面
  6
CONTINUOUS
 62
    47
 10
-72.206023
 20
73.872992
 11
-76.305725
 21
73.872992
  0
LINE
  8
型材断面
  6
CONTINUOUS
 62
    47
 10
-50.305722
 20
-15.32645
 11
-50.305722
 21
35.373175
  0
LINE
  8
型材断面
  6
CONTINUOUS
 62
    47
 10
-52.305725
 20
35.873178
 11
-52.305725
 21
-10.626822
  0
LINE
  8
型材断面
  6
CONTINUOUS
 62
    47
 10
-78.30572
 20
42.273175
 11
-78.30572
 21
-10.626822
  0
LINE
  8
型材断面
  6
CONTINUOUS
 62
    47
 10
-39.30572
 20
43.273172
 11
-40.305725
 21
43.273172
  0
LINE
  8
型材断面
  6
CONTINUOUS
 62
    47
 10
-40.305725
 20
35.373175
 11
-40.305725
 21
43.273172
  0
LINE
  8
型材断面
  6
CONTINUOUS
 62
    47
 10
-41.305722
 20
44.273178
 11
-40.305725
 21
44.273178
  0
LINE
  8
型材断面
  6
CONTINUOUS
 62
    47
 10
-72.206023
 20
51.872163
 11
-72.206023
 21
44.373175
  0
LINE
  8
型材断面
  6
CONTINUOUS
 62
    47
 10
-72.206023
 20
44.373175
 11
-80.305722
 21
44.373175
  0
LINE
  8
型材断面
  6
CONTINUOUS
 62
    47
 10
-80.305722
 20
23.472632
 11
-80.305722
 21
44.373175
  0
LINE
  8
型材断面
  6
CONTINUOUS
 62
    47
 10
-39.30572
 20
43.273172
 11
-39.30572
 21
45.373172
  0
LINE
  8
型材断面
  6
CONTINUOUS
 62
    47
 10
-39.30572
 20
45.373172
 11
-40.305725
 21
45.373172
  0
LINE
  8
型材断面
  6
CONTINUOUS
 62
    47
 10
-40.305725
 20
44.273178
 11
-40.305725
 21
45.373172
  0
ARC
  8
型材断面
  6
CONTINUOUS
 62
    47
 10
-118.010001
 20
-15.315987
 40
0.299961
 50
180.0
 51
270.0
  0
LINE
  8
型材断面
  6
CONTINUOUS
 62
    47
 10
-116.610215
 20
-15.61598
 11
-118.010015
 21
-15.61598
  0
ARC
  8
型材断面
  6
CONTINUOUS
 62
    47
 10
-116.610182
 20
-15.315987
 40
0.299961
 50
270.0
 51
360.0
  0
LINE
  8
型材断面
  6
CONTINUOUS
 62
    47
 10
-118.309993
 20
-15.316003
 11
-118.309993
 21
-10.617133
  0
LINE
  8
型材断面
  6
CONTINUOUS
 62
    47
 10
-116.310238
 20
-15.316003
 11
-116.310238
 21
-12.515187
  0
LINE
  8
型材断面
  6
CONTINUOUS
 62
    47
 10
-109.112848
 20
-10.13561
 11
-118.309993
 21
-10.617133
  0
LINE
  8
型材断面
  6
CONTINUOUS
 62
    47
 10
-113.50064
 20
-12.368083
 11
-116.310238
 21
-12.515187
  0
LINE
  8
型材断面
  6
CONTINUOUS
 62
    47
 10
-59.605235
 20
59.77114
 11
-65.206025
 21
59.77114
  0
LINE
  8
型材断面
  6
CONTINUOUS
 62
    47
 10
-70.206027
 20
59.77114
 11
-66.706025
 21
59.77114
  0
LINE
  8
型材断面
  6
CONTINUOUS
 62
    47
 10
-70.206027
 20
44.273178
 11
-70.206027
 21
59.77114
  0
LINE
  8
型材断面
  6
CONTINUOUS
 62
    47
 10
-66.706025
 20
58.071138
 11
-66.706025
 21
59.77114
  0
LINE
  8
型材断面
  6
CONTINUOUS
 62
    47
 10
-65.206025
 20
58.071138
 11
-65.206025
 21
59.77114
  0
ARC
  8
型材断面
  6
CONTINUOUS
 62
    47
 10
-56.905236
 20
60.171142
 40
0.1
 50
-90.0
 51
45.0
  0
LINE
  8
型材断面
  6
CONTINUOUS
 62
    47
 10
-58.105235
 20
60.07114
 11
-56.905235
 21
60.07114
  0
LINE
  8
型材断面
  6
CONTINUOUS
 62
    47
 10
-56.834525
 20
60.241848
 11
-58.16381
 21
61.57114
  0
LINE
  8
型材断面
  6
CONTINUOUS
 62
    47
 10
-58.105235
 20
60.07114
 11
-56.905235
 21
60.07114
  0
LINE
  8
型材断面
  6
CONTINUOUS
 62
    47
 10
-70.206027
 20
61.57114
 11
-58.16381
 21
61.57114
  0
LINE
  8
型材断面
  6
CONTINUOUS
 62
    47
 10
-59.605235
 20
59.77114
 11
-59.60519
 21
51.771138
  0
LINE
  8
型材断面
  6
CONTINUOUS
 62
    47
 10
-58.105235
 20
60.071148
 11
-58.10519
 21
51.771138
  0
LINE
  8
型材断面
  6
CONTINUOUS
 62
    47
 10
-58.10519
 20
51.771138
 11
-59.60519
 21
51.771138
  0
LINE
  8
型材断面
  6
CONTINUOUS
 62
    47
 10
-51.606073
 20
44.273178
 11
-51.606073
 21
46.573172
  0
ARC
  8
型材断面
  6
CONTINUOUS
 62
    47
 10
-53.006076
 20
46.673177
 40
0.1
 50
135.0
 51
270.0
  0
LINE
  8
型材断面
  6
CONTINUOUS
 62
    47
 10
-51.606073
 20
46.573172
 11
-53.006075
 21
46.573172
  0
LINE
  8
型材断面
  6
CONTINUOUS
 62
    47
 10
-53.076785
 20
46.743887
 11
-51.747493
 21
48.073172
  0
LINE
  8
型材断面
  6
CONTINUOUS
 62
    47
 10
-51.747493
 20
48.073172
 11
-50.106073
 21
48.073172
  0
LINE
  8
型材断面
  6
CONTINUOUS
 62
    47
 10
-50.106073
 20
44.273178
 11
-50.106073
 21
48.073172
  0
LINE
  8
型材断面
  6
CONTINUOUS
 62
    47
 10
-42.805722
 20
37.373178
 11
-58.305725
 21
37.373178
  0
LINE
  8
型材断面
  6
CONTINUOUS
 62
    47
 10
-58.305725
 20
37.373178
 11
-58.305725
 21
33.873175
  0
LINE
  8
型材断面
  6
CONTINUOUS
 62
    47
 10
-58.305725
 20
33.873175
 11
-56.805725
 21
33.873175
  0
LINE
  8
型材断面
  6
CONTINUOUS
 62
    47
 10
-56.805725
 20
33.873175
 11
-56.805725
 21
35.873178
  0
LINE
  8
型材断面
  6
CONTINUOUS
 62
    47
 10
-52.305725
 20
35.873178
 11
-56.805725
 21
35.873178
  0
LINE
  8
型材断面
  6
CONTINUOUS
 62
    47
 10
-58.305725
 20
-10.626822
 11
-58.305725
 21
-9.126822
  0
LINE
  8
型材断面
  6
CONTINUOUS
 62
    47
 10
-56.805725
 20
-10.626822
 11
-56.805725
 21
-9.126822
  0
LINE
  8
型材断面
  6
CONTINUOUS
 62
    47
 10
-78.30572
 20
-10.626822
 11
-58.305725
 21
-10.626822
  0
LINE
  8
型材断面
  6
CONTINUOUS
 62
    47
 10
-52.305725
 20
-10.626822
 11
-56.805725
 21
-10.626822
  0
LINE
  8
型材断面
  6
CONTINUOUS
 62
    47
 10
-76.305725
 20
75.369415
 11
-60.60572
 21
75.369415
  0
LINE
  8
寸法
  6
CONTINUOUS
 62
    47
 10
-58.305725
 20
-9.126822
 11
-56.805725
 21
-9.126822
  0
ENDBLK
  0
BLOCK
  2
*GRP_0047
 70
    65
 10
0.0
 20
0.0
  0
LINE
  8
型材断面
  6
CONTINUOUS
 62
    47
 10
-84.709303
 20
-21.626983
 11
-104.406755
 21
-21.626983
  0
LINE
  8
型材断面
  6
CONTINUOUS
 62
    47
 10
-84.709303
 20
-21.626983
 11
-104.406755
 21
-21.626983
  0
LINE
  8
型材断面
  6
CONTINUOUS
 62
    47
 10
-80.210345
 20
-21.626983
 11
-76.410567
 21
-21.626983
  0
ARC
  8
型材断面
  6
CONTINUOUS
 62
    47
 10
-73.709803
 20
-19.927142
 40
0.299961
 50
90.0
 51
180.0
  0
LINE
  8
型材断面
  6
CONTINUOUS
 62
    47
 10
-73.109915
 20
-19.627205
 11
-73.70984
 21
-19.627205
  0
ARC
  8
型材断面
  6
CONTINUOUS
 62
    47
 10
-73.10988
 20
-19.927142
 40
0.299961
 50
0.0
 51
90.0
  0
LINE
  8
型材断面
  6
CONTINUOUS
 62
    47
 10
-74.009795
 20
-19.927153
 11
-74.009795
 21
-21.626952
  0
LINE
  8
型材断面
  6
CONTINUOUS
 62
    47
 10
-72.809968
 20
-19.927153
 11
-72.809968
 21
-21.626952
  0
LINE
  8
型材断面
  6
CONTINUOUS
 62
    47
 10
-89.613695
 20
-21.626952
 11
-74.009795
 21
-21.626952
  0
LINE
  8
型材断面
  6
CONTINUOUS
 62
    47
 10
-76.109098
 20
-21.626952
 11
-74.009795
 21
-21.626952
  0
ARC
  8
型材断面
  6
CONTINUOUS
 62
    47
 10
-51.505716
 20
-19.927199
 40
0.3
 50
90.0
 51
180.0
  0
LINE
  8
型材断面
  6
CONTINUOUS
 62
    47
 10
-50.605715
 20
-19.627205
 11
-51.505715
 21
-19.627205
  0
ARC
  8
型材断面
  6
CONTINUOUS
 62
    47
 10
-50.605716
 20
-19.927199
 40
0.3
 50
0.0
 51
90.0
  0
LINE
  8
型材断面
  6
CONTINUOUS
 62
    47
 10
-51.805715
 20
-21.626952
 11
-51.805715
 21
-19.927205
  0
LINE
  8
型材断面
  6
CONTINUOUS
 62
    47
 10
-72.809968
 20
-21.626952
 11
-51.805715
 21
-21.626952
  0
LINE
  8
型材断面
  6
CONTINUOUS
 62
    47
 10
-74.009968
 20
-42.627253
 11
-74.309968
 21
-42.327253
  0
LINE
  8
型材断面
  6
CONTINUOUS
 62
    47
 10
-74.009968
 20
-42.627253
 11
-74.309968
 21
-42.927253
  0
LINE
  8
型材断面
  6
CONTINUOUS
 62
    47
 10
-74.009968
 20
-56.627473
 11
-74.309968
 21
-56.327473
  0
LINE
  8
型材断面
  6
CONTINUOUS
 62
    47
 10
-74.009968
 20
-56.627473
 11
-74.309968
 21
-56.927473
  0
LINE
  8
型材断面
  6
CONTINUOUS
 62
    47
 10
-74.309968
 20
-23.626707
 11
-74.309968
 21
-42.327253
  0
LINE
  8
型材断面
  6
CONTINUOUS
 62
    47
 10
-74.309968
 20
-42.927253
 11
-74.309968
 21
-56.327473
  0
LINE
  8
型材断面
  6
CONTINUOUS
 62
    47
 10
-108.50996
 20
-21.926983
 11
-108.20996
 21
-21.626983
  0
LINE
  8
型材断面
  6
CONTINUOUS
 62
    47
 10
-108.50996
 20
-21.926983
 11
-108.80996
 21
-21.626983
  0
LINE
  8
型材断面
  6
CONTINUOUS
 62
    47
 10
-97.60694
 20
-21.626983
 11
-108.20996
 21
-21.626983
  0
LINE
  8
型材断面
  6
CONTINUOUS
 62
    47
 10
-50.305715
 20
-75.626952
 11
-26.805717
 21
-75.626952
  0
LINE
  8
型材断面
  6
CONTINUOUS
 62
    47
 10
-125.310215
 20
-105.62699
 11
-123.810215
 21
-105.62699
  0
LINE
  8
型材断面
  6
CONTINUOUS
 62
    47
 10
-123.810215
 20
-105.62699
 11
-123.810215
 21
-95.626887
  0
LINE
  8
型材断面
  6
CONTINUOUS
 62
    47
 10
-140.309968
 20
-80.626955
 11
-140.309968
 21
-95.627008
  0
LINE
  8
型材断面
  6
CONTINUOUS
 62
    47
 10
-125.310215
 20
-105.62699
 11
-125.310215
 21
-95.627008
  0
ARC
  8
型材断面
  6
CONTINUOUS
 62
    47
 10
-66.205944
 20
-94.127006
 40
0.5
 50
90.0
 51
180.0
  0
LINE
  8
型材断面
  6
CONTINUOUS
 62
    47
 10
-66.705943
 20
-94.127008
 11
-66.705943
 21
-95.126885
  0
ARC
  8
型材断面
  6
CONTINUOUS
 62
    47
 10
-66.205944
 20
-95.126881
 40
0.5
 50
180.0
 51
270.0
  0
LINE
  8
型材断面
  6
CONTINUOUS
 62
    47
 10
-138.309965
 20
-93.627013
 11
-138.309965
 21
-82.481172
  0
LINE
  8
型材断面
  6
CONTINUOUS
 62
    47
 10
-54.309965
 20
-93.627013
 11
-54.309965
 21
-77.626955
  0
LINE
  8
型材断面
  6
CONTINUOUS
 62
    47
 10
-66.20594
 20
-93.627013
 11
-54.309965
 21
-93.627013
  0
LINE
  8
型材断面
  6
CONTINUOUS
 62
    47
 10
-140.309968
 20
-80.626955
 11
-74.309968
 21
-75.626952
  0
LINE
  8
型材断面
  6
CONTINUOUS
 62
    47
 10
-52.305717
 20
-75.626952
 11
-72.309965
 21
-75.626952
  0
ARC
  8
型材断面
  6
CONTINUOUS
 62
    47
 10
-114.205944
 20
-94.127006
 40
0.5
 50
0.0
 51
90.0
  0
LINE
  8
型材断面
  6
CONTINUOUS
 62
    47
 10
-113.705937
 20
-94.127008
 11
-113.705937
 21
-95.126885
  0
ARC
  8
型材断面
  6
CONTINUOUS
 62
    47
 10
-114.205944
 20
-95.126881
 40
0.5
 50
270.0
 51
360.0
  0
LINE
  8
型材断面
  6
CONTINUOUS
 62
    47
 10
-123.810215
 20
-95.626887
 11
-114.20594
 21
-95.626887
  0
LINE
  8
型材断面
  6
CONTINUOUS
 62
    47
 10
-138.309965
 20
-93.627013
 11
-114.20594
 21
-93.627013
  0
LINE
  8
型材断面
  6
CONTINUOUS
 62
    47
 10
-74.009968
 20
-72.626952
 11
-74.309968
 21
-72.326952
  0
LINE
  8
型材断面
  6
CONTINUOUS
 62
    47
 10
-74.009968
 20
-72.626952
 11
-74.309968
 21
-72.926952
  0
LINE
  8
型材断面
  6
CONTINUOUS
 62
    47
 10
-74.309968
 20
-75.626952
 11
-74.309968
 21
-72.926952
  0
LINE
  8
型材断面
  6
CONTINUOUS
 62
    47
 10
-138.309965
 20
-82.481172
 11
-74.234322
 21
-77.626955
  0
LINE
  8
型材断面
  6
CONTINUOUS
 62
    47
 10
-50.305715
 20
-19.927197
 11
-50.305715
 21
-75.626952
  0
LINE
  8
型材断面
  6
CONTINUOUS
 62
    47
 10
-74.309968
 20
-56.927473
 11
-74.309968
 21
-72.326952
  0
LINE
  8
型材断面
  6
CONTINUOUS
 62
    47
 10
-72.309965
 20
-23.626955
 11
-52.305717
 21
-23.626955
  0
LINE
  8
型材断面
  6
CONTINUOUS
 62
    47
 10
-72.309965
 20
-75.626952
 11
-72.309965
 21
-23.626955
  0
LINE
  8
型材断面
  6
CONTINUOUS
 62
    47
 10
-52.305717
 20
-75.626952
 11
-52.305717
 21
-23.626955
  0
LINE
  8
型材断面
  6
CONTINUOUS
 62
    47
 10
-74.234322
 20
-77.626955
 11
-54.309965
 21
-77.626955
  0
LINE
  8
型材断面
  6
CONTINUOUS
 62
    47
 10
-52.309962
 20
-77.626955
 11
-25.305717
 21
-77.626955
  0
LINE
  8
型材断面
  6
CONTINUOUS
 62
    47
 10
-52.309962
 20
-95.626887
 11
-52.309962
 21
-77.626955
  0
LINE
  8
型材断面
  6
CONTINUOUS
 62
    47
 10
-62.710205
 20
-95.326887
 11
-62.410205
 21
-95.626887
  0
LINE
  8
型材断面
  6
CONTINUOUS
 62
    47
 10
-62.710205
 20
-95.326887
 11
-63.010205
 21
-95.626887
  0
LINE
  8
型材断面
  6
CONTINUOUS
 62
    47
 10
-66.20594
 20
-95.626887
 11
-63.010205
 21
-95.626887
  0
LINE
  8
型材断面
  6
CONTINUOUS
 62
    47
 10
-52.309962
 20
-95.626887
 11
-62.410205
 21
-95.626887
  0
LINE
  8
型材断面
  6
CONTINUOUS
 62
    47
 10
-131.309968
 20
-95.327008
 11
-131.009968
 21
-95.627008
  0
LINE
  8
型材断面
  6
CONTINUOUS
 62
    47
 10
-131.309968
 20
-95.327008
 11
-131.609968
 21
-95.627008
  0
LINE
  8
型材断面
  6
CONTINUOUS
 62
    47
 10
-125.310215
 20
-95.627008
 11
-131.009968
 21
-95.627008
  0
LINE
  8
型材断面
  6
CONTINUOUS
 62
    47
 10
-140.309968
 20
-95.627008
 11
-131.609968
 21
-95.627008
  0
ARC
  8
型材断面
  6
CONTINUOUS
 62
    47
 10
-118.009959
 20
-19.927172
 40
0.299961
 50
90.0
 51
180.0
  0
LINE
  8
型材断面
  6
CONTINUOUS
 62
    47
 10
-117.410052
 20
-19.627235
 11
-118.009977
 21
-19.627235
  0
ARC
  8
型材断面
  6
CONTINUOUS
 62
    47
 10
-117.410036
 20
-19.927172
 40
0.299961
 50
0.0
 51
90.0
  0
LINE
  8
型材断面
  6
CONTINUOUS
 62
    47
 10
-117.110105
 20
-19.927182
 11
-117.110105
 21
-21.626983
  0
LINE
  8
型材断面
  6
CONTINUOUS
 62
    47
 10
-118.309955
 20
-19.927182
 11
-118.309955
 21
-23.626707
  0
LINE
  8
型材断面
  6
CONTINUOUS
 62
    47
 10
-74.309968
 20
-23.626707
 11
-118.309955
 21
-23.626707
  0
LINE
  8
型材断面
  6
CONTINUOUS
 62
    47
 10
-108.80996
 20
-21.626983
 11
-117.110105
 21
-21.626983
  0
LINE
  8
型材断面
  6
CONTINUOUS
 62
    47
 10
-26.805717
 20
-75.626952
 11
-26.805717
 21
-67.626958
  0
LINE
  8
型材断面
  6
CONTINUOUS
 62
    47
 10
-25.305717
 20
-77.626955
 11
-25.305717
 21
-67.626958
  0
LINE
  8
St
  6
DASHDOT
 62
    47
 10
-26.805717
 20
-67.626958
 11
-25.305717
 21
-67.626958
  0
ENDBLK
  0
BLOCK
  2
*DIM_0048
 70
    65
 10
0.0
 20
0.0
  0
LINE
  8
寸法
  6
CONTINUOUS
 10
-25.30572
 20
105.875
 11
-40.30572
 21
105.875
  0
POINT
  8
寸法
 10
-40.30572
 20
105.875
  0
TEXT
  7
TextStyle03
  8
寸法
  6
CONTINUOUS
 10
-34.95
 20
106.25
  1
15
 40
4.0
 72
     5
 11
-30.7
 21
106.25
  0
ENDBLK
  0
BLOCK
  2
*DIM_0049
 70
    65
 10
0.0
 20
0.0
  0
LINE
  8
寸法
  6
CONTINUOUS
 10
-140.30997
 20
-74.62695
 11
-140.30997
 21
105.875
  0
LINE
  8
寸法
  6
CONTINUOUS
 10
-118.309993
 20
105.875
 11
-140.30997
 21
105.875
  0
POINT
  8
寸法
 10
-140.30997
 20
105.875
  0
TEXT
  7
TextStyle03
  8
寸法
  6
CONTINUOUS
 10
-131.45
 20
106.25
  1
22
 40
4.0
 72
     5
 11
-127.2
 21
106.25
  0
ENDBLK
  0
BLOCK
  2
*GRP_0050
 70
    65
 10
0.0
 20
0.0
  0
LINE
  8
ゴム等
  6
CONTINUOUS
 10
-38.705847
 20
56.673048
 11
-38.705847
 21
58.473048
  0
LINE
  8
ゴム等
  6
CONTINUOUS
 10
-42.305847
 20
58.473048
 11
-38.705847
 21
58.473048
  0
LINE
  8
ゴム等
  6
CONTINUOUS
 10
-33.905847
 20
56.673048
 11
-33.905847
 21
58.473048
  0
LINE
  8
ゴム等
  6
CONTINUOUS
 10
-30.305847
 20
58.473048
 11
-33.905847
 21
58.473048
  0
LINE
  8
ゴム等
  6
CONTINUOUS
 10
-33.905847
 20
56.673048
 11
-32.90585
 21
56.673048
  0
LINE
  8
ゴム等
  6
CONTINUOUS
 10
-32.90585
 20
56.673048
 11
-32.90585
 21
56.173045
  0
LINE
  8
ゴム等
  6
CONTINUOUS
 10
-38.705847
 20
56.673048
 11
-39.705853
 21
56.673048
  0
LINE
  8
ゴム等
  6
CONTINUOUS
 10
-39.705853
 20
56.173045
 11
-39.705853
 21
56.673048
  0
ARC
  8
ゴム等
  6
CONTINUOUS
 10
-36.305851
 20
55.873048
 40
1.0
 50
-90.0
 51
0.0
  0
LINE
  8
ゴム等
  6
CONTINUOUS
 10
-36.305847
 20
54.873048
 11
-36.305847
 21
54.873048
  0
ARC
  8
ゴム等
  6
CONTINUOUS
 10
-36.305851
 20
55.873048
 40
1.0
 50
180.0
 51
270.0
  0
LINE
  8
ゴム等
  6
CONTINUOUS
 10
-37.305853
 20
57.47305
 11
-37.305853
 21
55.873045
  0
ARC
  8
ゴム等
  6
CONTINUOUS
 10
-36.305851
 20
57.473048
 40
1.0
 50
90.0
 51
180.0
  0
LINE
  8
ゴム等
  6
CONTINUOUS
 10
-36.305847
 20
58.473048
 11
-36.305847
 21
58.473048
  0
LINE
  8
ゴム等
  6
CONTINUOUS
 10
-35.30585
 20
57.47305
 11
-35.30585
 21
55.873045
  0
ARC
  8
ゴム等
  6
CONTINUOUS
 10
-36.305851
 20
57.473048
 40
1.0
 50
0.0
 51
90.0
  0
LINE
  8
ゴム等
  6
CONTINUOUS
 10
-42.134278
 20
58.473048
 11
-42.305847
 21
58.644625
  0
LINE
  8
ゴム等
  6
CONTINUOUS
 10
-33.26321
 20
56.673048
 11
-32.90585
 21
56.315688
  0
LINE
  8
ゴム等
  6
CONTINUOUS
 10
-42.305847
 20
60.058833
 11
-40.720063
 21
58.473048
  0
LINE
  8
ゴム等
  6
CONTINUOUS
 10
-38.920063
 20
56.673048
 11
-36.220063
 21
53.973048
  0
LINE
  8
ゴム等
  6
CONTINUOUS
 10
-42.305847
 20
61.473048
 11
-39.305847
 21
58.473048
  0
LINE
  8
ゴム等
  6
CONTINUOUS
 10
-38.705847
 20
57.873048
 11
-37.305853
 21
56.473045
  0
LINE
  8
ゴム等
  6
CONTINUOUS
 10
-32.30585
 20
62.473045
 11
-32.30585
 21
62.473045
  0
ARC
  8
ゴム等
  6
CONTINUOUS
 10
-32.805851
 20
63.473048
 40
0.5
 50
270.0
 51
360.0
  0
LINE
  8
ゴム等
  6
CONTINUOUS
 10
-39.80585
 20
62.973048
 11
-32.805853
 21
62.973048
  0
ARC
  8
ゴム等
  6
CONTINUOUS
 10
-39.805851
 20
63.473048
 40
0.5
 50
180.0
 51
270.0
  0
LINE
  8
ゴム等
  6
CONTINUOUS
 10
-40.305853
 20
63.47305
 11
-42.305847
 21
63.47305
  0
LINE
  8
ゴム等
  6
CONTINUOUS
 10
-42.305847
 20
58.473048
 11
-42.305847
 21
63.47305
  0
LINE
  8
ゴム等
  6
CONTINUOUS
 10
-37.242335
 20
57.82375
 11
-42.305847
 21
62.887262
  0
LINE
  8
ゴム等
  6
CONTINUOUS
 10
-36.464728
 20
58.46035
 11
-41.477427
 21
63.47305
  0
LINE
  8
ゴム等
  6
CONTINUOUS
 10
-33.905847
 20
57.315685
 11
-39.56321
 21
62.973048
  0
LINE
  8
ゴム等
  6
CONTINUOUS
 10
-33.648995
 20
58.473048
 11
-38.148995
 21
62.973048
  0
LINE
  8
ゴム等
  6
CONTINUOUS
 10
-32.23478
 20
58.473048
 11
-36.73478
 21
62.973048
  0
LINE
  8
ゴム等
  6
CONTINUOUS
 10
-30.820572
 20
58.473048
 11
-35.320572
 21
62.973048
  0
LINE
  8
ゴム等
  6
CONTINUOUS
 10
-30.305847
 20
59.372545
 11
-33.906358
 21
62.973048
  0
LINE
  8
ゴム等
  6
CONTINUOUS
 10
-30.305847
 20
60.78676
 11
-32.557932
 21
63.038838
  0
LINE
  8
ゴム等
  6
CONTINUOUS
 10
-30.305847
 20
62.200967
 11
-31.57793
 21
63.47305
  0
LINE
  8
ゴム等
  6
CONTINUOUS
 10
-30.305847
 20
58.473048
 11
-30.305847
 21
63.47305
  0
LINE
  8
ゴム等
  6
CONTINUOUS
 10
-32.30585
 20
63.47305
 11
-30.305847
 21
63.47305
  0
LINE
  8
ゴム等
  6
CONTINUOUS
 10
-32.90585
 20
56.173045
 11
-35.30585
 21
53.973048
  0
LINE
  8
ゴム等
  6
CONTINUOUS
 10
-39.705853
 20
56.173045
 11
-37.305853
 21
53.973048
  0
LINE
  8
ゴム等
  6
CONTINUOUS
 10
-35.30585
 20
53.973048
 11
-37.305853
 21
53.973048
  0
LINE
  8
ゴム等
  6
CONTINUOUS
 10
-35.30585
 20
55.887265
 11
-34.307128
 21
54.888543
  0
LINE
  8
ゴム等
  6
CONTINUOUS
 10
-35.827617
 20
54.994817
 11
-35.044978
 21
54.212177
  0
LINE
  8
ゴム等
  6
CONTINUOUS
 10
-35.30585
 20
57.301473
 11
-33.569278
 21
55.5649
  0
ENDBLK
  0
BLOCK
  2
*GRP_0051
 70
    65
 10
0.0
 20
0.0
  0
LINE
  8
ボルト／ビス
  6
CONTINUOUS
 62
    64
 10
-84.20603
 20
61.869422
 11
-85.254193
 21
61.77772
  0
ARC
  8
ボルト／ビス
  6
CONTINUOUS
 62
    64
 10
-85.106037
 20
60.084191
 40
1.7
 50
94.999989
 51
180.0
  0
LINE
  8
ボルト／ビス
  6
CONTINUOUS
 62
    64
 10
-86.806033
 20
60.08419
 11
-86.806033
 21
58.36942
  0
LINE
  8
ボルト／ビス
  6
CONTINUOUS
 62
    64
 10
-84.20603
 20
54.869425
 11
-85.254193
 21
54.961127
  0
ARC
  8
ボルト／ビス
  6
CONTINUOUS
 62
    64
 10
-85.106037
 20
56.654658
 40
1.7
 50
180.0
 51
265.000011
  0
LINE
  8
ボルト／ビス
  6
CONTINUOUS
 62
    64
 10
-86.806033
 20
56.654658
 11
-86.806033
 21
58.36942
  0
LINE
  8
ボルト／ビス
  6
CONTINUOUS
 62
    64
 10
-86.421125
 20
60.76606
 11
-86.663285
 21
60.76606
  0
LINE
  8
ボルト／ビス
  6
CONTINUOUS
 62
    64
 10
-85.77104
 20
59.069425
 11
-85.77104
 21
58.36942
  0
LINE
  8
ボルト／ビス
  6
CONTINUOUS
 62
    64
 10
-86.421125
 20
59.469422
 11
-86.421125
 21
60.76606
  0
LINE
  8
ボルト／ビス
  6
CONTINUOUS
 62
    64
 10
-85.77104
 20
59.069425
 11
-86.021127
 21
59.069425
  0
ARC
  8
ボルト／ビス
  6
CONTINUOUS
 62
    64
 10
-86.021132
 20
59.469425
 40
0.4
 50
180.0
 51
270.0
  0
LINE
  8
ボルト／ビス
  6
CONTINUOUS
 62
    64
 10
-86.421125
 20
55.97278
 11
-86.663285
 21
55.97278
  0
LINE
  8
ボルト／ビス
  6
CONTINUOUS
 62
    64
 10
-85.77104
 20
57.669422
 11
-85.77104
 21
58.36942
  0
LINE
  8
ボルト／ビス
  6
CONTINUOUS
 62
    64
 10
-86.421125
 20
57.269425
 11
-86.421125
 21
55.97278
  0
LINE
  8
ボルト／ビス
  6
CONTINUOUS
 62
    64
 10
-85.77104
 20
57.669422
 11
-86.021127
 21
57.669422
  0
ARC
  8
ボルト／ビス
  6
CONTINUOUS
 62
    64
 10
-86.021132
 20
57.269425
 40
0.4
 50
90.0
 51
180.0
  0
LINE
  8
ボルト／ビス
  6
CONTINUOUS
 62
    64
 10
-84.20603
 20
61.869422
 11
-84.20603
 21
54.869425
  0
LINE
  8
ボルト／ビス
  6
CONTINUOUS
 62
    64
 10
-88.777415
 20
58.36942
 11
-61.933152
 21
58.36942
  0
LINE
  8
ボルト／ビス
  6
CONTINUOUS
 62
    64
 10
-64.70603
 20
60.369422
 11
-64.206027
 21
59.86942
  0
LINE
  8
ボルト／ビス
  6
CONTINUOUS
 62
    64
 10
-64.70603
 20
56.369425
 11
-64.206027
 21
56.86942
  0
LINE
  8
ボルト／ビス
  6
CONTINUOUS
 62
    64
 10
-64.70603
 20
60.369422
 11
-64.70603
 21
56.369425
  0
LINE
  8
ボルト／ビス
  6
CONTINUOUS
 62
    64
 10
-64.206027
 20
59.86942
 11
-64.206027
 21
56.86942
  0
LINE
  8
ボルト／ビス
  6
CONTINUOUS
 62
    64
 10
-84.20603
 20
59.86942
 11
-64.206027
 21
59.86942
  0
LINE
  8
ボルト／ビス
  6
CONTINUOUS
 62
    64
 10
-84.20603
 20
56.86942
 11
-64.206027
 21
56.86942
  0
LINE
  8
ボルト／ビス
  6
CONTINUOUS
 62
    64
 10
-84.20603
 20
60.369422
 11
-64.70603
 21
60.369422
  0
LINE
  8
ボルト／ビス
  6
CONTINUOUS
 62
    64
 10
-84.20603
 20
56.369425
 11
-64.70603
 21
56.369425
  0
ENDBLK
  0
BLOCK
  2
*GRP_0052
 70
    65
 10
0.0
 20
0.0
  0
LINE
  8
曲げ物
  6
CONTINUOUS
 10
-77.206025
 20
56.86942
 11
-77.206025
 21
59.86942
  0
LINE
  8
曲げ物
  6
CONTINUOUS
 10
-78.706025
 20
58.36942
 11
-75.706025
 21
58.36942
  0
LINE
  8
曲げ物
  6
CONTINUOUS
 10
-82.20602
 20
63.369422
 11
-72.206023
 21
63.369422
  0
LINE
  8
曲げ物
  6
CONTINUOUS
 10
-81.206023
 20
62.369425
 11
-73.20602
 21
62.369425
  0
LINE
  8
曲げ物
  6
CONTINUOUS
 10
-73.20602
 20
62.369425
 11
-73.20602
 21
54.369422
  0
LINE
  8
曲げ物
  6
CONTINUOUS
 10
-72.206023
 20
63.369422
 11
-72.206023
 21
53.369425
  0
LINE
  8
曲げ物
  6
CONTINUOUS
 10
-81.206023
 20
62.369425
 11
-81.206023
 21
54.369422
  0
LINE
  8
曲げ物
  6
CONTINUOUS
 10
-73.20602
 20
54.369422
 11
-81.206023
 21
54.369422
  0
LINE
  8
曲げ物
  6
CONTINUOUS
 10
-82.20602
 20
63.369422
 11
-82.20602
 21
53.369425
  0
LINE
  8
曲げ物
  6
CONTINUOUS
 10
-72.206023
 20
53.369425
 11
-82.20602
 21
53.369425
  0
ENDBLK
  0
BLOCK
  2
*GRP_0053
 70
    65
 10
0.0
 20
0.0
  0
LINE
  8
曲げ物
  6
CONTINUOUS
 10
-54.706025
 20
85.36942
 11
-54.706025
 21
78.369422
  0
LINE
  8
曲げ物
  6
CONTINUOUS
 10
-54.706025
 20
78.369422
 11
-81.706025
 21
78.369422
  0
LINE
  8
曲げ物
  6
CONTINUOUS
 10
-81.706025
 20
78.369422
 11
-81.706025
 21
85.36942
  0
LINE
  8
曲げ物
  6
CONTINUOUS
 10
-54.706025
 20
85.36942
 11
-81.706025
 21
85.36942
  0
LINE
  8
曲げ物
  6
CONTINUOUS
 10
-83.206025
 20
86.86942
 11
-83.206025
 21
76.869422
  0
LINE
  8
曲げ物
  6
CONTINUOUS
 10
-83.206025
 20
76.869422
 11
-53.206025
 21
76.869422
  0
LINE
  8
曲げ物
  6
CONTINUOUS
 10
-53.206025
 20
76.869422
 11
-53.206025
 21
86.86942
  0
LINE
  8
曲げ物
  6
CONTINUOUS
 10
-83.206025
 20
86.86942
 11
-53.206025
 21
86.86942
  0
ENDBLK
  0
BLOCK
  2
*GRP_0054
 70
    65
 10
0.0
 20
0.0
  0
LINE
  8
別途部材
  6
CONTINUOUS
 10
-95.901673
 20
89.869442
 11
-94.401673
 21
89.869442
  0
LINE
  8
別途部材
  6
CONTINUOUS
 10
-95.901673
 20
91.869445
 11
-95.901673
 21
89.869442
  0
ARC
  8
別途部材
  6
CONTINUOUS
 10
-92.901671
 20
91.869453
 40
3.0
 50
90.0
 51
180.0
  0
LINE
  8
別途部材
  6
CONTINUOUS
 10
-94.401673
 20
91.869445
 11
-94.401673
 21
89.869442
  0
ARC
  8
別途部材
  6
CONTINUOUS
 10
-92.901671
 20
91.869453
 40
1.5
 50
90.0
 51
180.0
  0
LINE
  8
別途部材
  6
CONTINUOUS
 10
-92.901673
 20
93.369445
 11
-91.206027
 21
93.369445
  0
LINE
  8
別途部材
  6
CONTINUOUS
 10
-28.901675
 20
91.669442
 11
-28.901675
 21
92.869442
  0
LINE
  8
別途部材
  6
CONTINUOUS
 10
-20.901673
 20
93.869448
 11
-20.901673
 21
91.669442
  0
ARC
  8
別途部材
  6
CONTINUOUS
 10
-21.901671
 20
93.869453
 40
1.0
 50
0.0
 51
90.0
  0
LINE
  8
別途部材
  6
CONTINUOUS
 10
-20.901673
 20
91.669442
 11
-28.901675
 21
91.669442
  0
LINE
  8
別途部材
  6
CONTINUOUS
 10
-92.901673
 20
94.869445
 11
-21.90167
 21
94.869445
  0
LINE
  8
別途部材
  6
CONTINUOUS
 10
-48.706025
 20
92.869442
 11
-28.901675
 21
92.869442
  0
ARC
  8
別途部材
  6
CONTINUOUS
 10
-48.706028
 20
89.869443
 40
3.0
 50
90.0
 51
180.0
  0
LINE
  8
別途部材
  6
CONTINUOUS
 10
-52.006025
 20
81.869425
 11
-51.706025
 21
82.169425
  0
LINE
  8
別途部材
  6
CONTINUOUS
 10
-52.006025
 20
81.869425
 11
-51.706025
 21
81.569425
  0
LINE
  8
別途部材
  6
CONTINUOUS
 10
-51.706025
 20
89.869442
 11
-51.706025
 21
82.169425
  0
LINE
  8
別途部材
  6
CONTINUOUS
 10
-51.706025
 20
81.569425
 11
-51.706025
 21
75.369422
  0
LINE
  8
別途部材
  6
CONTINUOUS
 10
-90.906027
 20
58.36942
 11
-91.206027
 21
58.66942
  0
LINE
  8
別途部材
  6
CONTINUOUS
 10
-90.906027
 20
58.36942
 11
-91.206027
 21
58.06942
  0
LINE
  8
別途部材
  6
CONTINUOUS
 10
-91.206027
 20
93.369445
 11
-91.206027
 21
58.66942
  0
LINE
  8
別途部材
  6
CONTINUOUS
 10
-91.206027
 20
58.06942
 11
-91.206027
 21
44.869442
  0
LINE
  8
別途部材
  6
CONTINUOUS
 10
-82.70603
 20
70.36942
 11
-82.70603
 21
53.369418
  0
LINE
  8
別途部材
  6
CONTINUOUS
 10
-84.20603
 20
53.369418
 11
-82.70603
 21
53.369418
  0
LINE
  8
別途部材
  6
CONTINUOUS
 10
-91.206027
 20
44.869442
 11
-89.706027
 21
44.869442
  0
LINE
  8
別途部材
  6
CONTINUOUS
 10
-82.70603
 20
70.36942
 11
-89.706027
 21
70.36942
  0
LINE
  8
別途部材
  6
CONTINUOUS
 10
-84.20603
 20
68.86942
 11
-89.706027
 21
68.86942
  0
LINE
  8
別途部材
  6
CONTINUOUS
 10
-89.706027
 20
68.86942
 11
-89.706027
 21
44.869442
  0
LINE
  8
別途部材
  6
CONTINUOUS
 10
-89.706027
 20
75.369422
 11
-89.706027
 21
70.36942
  0
LINE
  8
別途部材
  6
CONTINUOUS
 10
-83.90603
 20
58.36942
 11
-84.20603
 21
58.66942
  0
LINE
  8
別途部材
  6
CONTINUOUS
 10
-83.90603
 20
58.36942
 11
-84.20603
 21
58.06942
  0
LINE
  8
別途部材
  6
CONTINUOUS
 10
-84.20603
 20
68.86942
 11
-84.20603
 21
58.66942
  0
LINE
  8
別途部材
  6
CONTINUOUS
 10
-84.20603
 20
58.06942
 11
-84.20603
 21
53.369418
  0
LINE
  8
別途部材
  6
DOT
 10
-91.206027
 20
63.369422
 11
-89.706027
 21
63.369422
  0
LINE
  8
別途部材
  6
DOT
 10
-91.206027
 20
53.369418
 11
-89.706027
 21
53.369418
  0
LINE
  8
別途部材
  6
CONTINUOUS
 10
-89.706027
 20
93.369445
 11
-53.206025
 21
93.369445
  0
LINE
  8
別途部材
  6
DOT
 10
-90.831027
 20
63.369422
 11
-90.831027
 21
53.369418
  0
LINE
  8
別途部材
  6
DOT
 10
-90.456027
 20
63.369422
 11
-90.456027
 21
53.369418
  0
LINE
  8
別途部材
  6
DOT
 10
-90.081027
 20
63.369422
 11
-90.081027
 21
53.369418
  0
LINE
  8
別途部材
  6
CONTINUOUS
 10
-89.706027
 20
93.369445
 11
-89.706027
 21
76.869422
  0
LINE
  8
別途部材
  6
CONTINUOUS
 10
-53.206025
 20
93.369445
 11
-53.206025
 21
76.869422
  0
LINE
  8
別途部材
  6
CONTINUOUS
 10
-53.206025
 20
76.869422
 11
-89.706027
 21
76.869422
  0
LINE
  8
別途部材
  6
CONTINUOUS
 10
-74.956033
 20
75.669422
 11
-74.656033
 21
75.369422
  0
LINE
  8
別途部材
  6
CONTINUOUS
 10
-74.956033
 20
75.669422
 11
-75.256033
 21
75.369422
  0
LINE
  8
別途部材
  6
CONTINUOUS
 10
-62.45603
 20
75.669422
 11
-62.15603
 21
75.369422
  0
LINE
  8
別途部材
  6
CONTINUOUS
 10
-62.45603
 20
75.669422
 11
-62.75603
 21
75.369422
  0
LINE
  8
別途部材
  6
CONTINUOUS
 10
-74.656033
 20
75.369422
 11
-62.75603
 21
75.369422
  0
LINE
  8
別途部材
  6
CONTINUOUS
 10
-51.706025
 20
75.369422
 11
-62.15603
 21
75.369422
  0
LINE
  8
別途部材
  6
CONTINUOUS
 10
-89.706027
 20
75.369422
 11
-75.256033
 21
75.369422
  0
ENDBLK
  0
BLOCK
  2
*DIM_0055
 70
    65
 10
0.0
 20
0.0
  0
LINE
  8
寸法
  6
CONTINUOUS
 10
-24.805837
 20
58.473085
 11
34.609453
 21
58.473085
  0
LINE
  8
寸法
  6
CONTINUOUS
 10
23.983323
 20
63.473083
 11
34.609453
 21
63.473083
  0
LINE
  8
寸法
  6
CONTINUOUS
 10
34.609453
 20
58.473085
 11
34.609453
 21
63.473083
  0
POINT
  8
寸法
 10
34.609453
 20
58.473085
  0
POINT
  8
寸法
 10
34.609453
 20
63.473083
  0
TEXT
  7
TextStyle03
  8
寸法
  6
CONTINUOUS
 10
34.225
 20
60.2
  1
5
 40
3.0
 50
90.0
 72
     5
 11
34.225
 21
61.7
  0
ENDBLK
  0
BLOCK
  2
*DIM_0056
 70
    65
 10
0.0
 20
0.0
  0
LINE
  8
寸法
  6
CONTINUOUS
 10
27.52678
 20
81.273087
 11
34.609453
 21
81.273087
  0
LINE
  8
寸法
  6
CONTINUOUS
 10
34.609453
 20
63.473083
 11
34.609453
 21
81.273087
  0
POINT
  8
寸法
 10
34.609453
 20
81.273087
  0
TEXT
  7
TextStyle03
  8
寸法
  6
CONTINUOUS
 10
34.225
 20
69.06875
  1
17.8
 40
3.0
 50
90.0
 72
     5
 11
34.225
 21
75.63125
  0
ENDBLK
  0
BLOCK
  2
*DIM_0057
 70
    65
 10
0.0
 20
0.0
  0
LINE
  8
寸法
  6
CONTINUOUS
 10
-15.901673
 20
91.669442
 11
34.609453
 21
91.669442
  0
LINE
  8
寸法
  6
CONTINUOUS
 10
34.609453
 20
81.273087
 11
34.609453
 21
91.669442
  0
POINT
  8
寸法
 10
34.609453
 20
91.669442
  0
TEXT
  7
TextStyle03
  8
寸法
  6
CONTINUOUS
 10
34.225
 20
83.16875
  1
10.4
 40
3.0
 50
90.0
 72
     5
 11
34.225
 21
89.73125
  0
ENDBLK
  0
BLOCK
  2
*DIM_0058
 70
    65
 10
0.0
 20
0.0
  0
LINE
  8
寸法
  6
CONTINUOUS
 10
-17.485355
 20
94.869445
 11
34.609453
 21
94.869445
  0
LINE
  8
寸法
  6
CONTINUOUS
 10
34.609453
 20
91.669442
 11
34.609453
 21
94.869445
  0
POINT
  8
寸法
 10
34.609453
 20
94.869445
  0
TEXT
  7
TextStyle03
  8
寸法
  6
CONTINUOUS
 10
39.0
 20
91.0625
  1
3.2
 40
3.0
 50
90.0
 72
     5
 11
39.0
 21
95.9375
  0
ENDBLK
  0
BLOCK
  2
*DIM_0059
 70
    65
 10
0.0
 20
0.0
  0
LINE
  8
寸法
  6
CONTINUOUS
 10
-85.305722
 20
44.373175
 11
-162.98485
 21
44.373175
  0
LINE
  8
寸法
  6
CONTINUOUS
 10
-97.475763
 20
94.869445
 11
-162.98485
 21
94.869445
  0
LINE
  8
寸法
  6
CONTINUOUS
 10
-162.98485
 20
44.373175
 11
-162.98485
 21
94.869445
  0
POINT
  8
寸法
 10
-162.98485
 20
44.373175
  0
POINT
  8
寸法
 10
-162.98485
 20
94.869445
  0
TEXT
  7
TextStyle03
  8
寸法
  6
CONTINUOUS
 10
-163.375
 20
66.31875
  1
50.5
 40
3.0
 50
90.0
 72
     5
 11
-163.375
 21
72.88125
  0
ENDBLK
  0
BLOCK
  2
*DIM_0060
 70
    65
 10
0.0
 20
0.0
  0
LINE
  8
寸法
  6
CONTINUOUS
 10
-145.309968
 20
-95.627008
 11
-172.548458
 21
-95.627008
  0
LINE
  8
寸法
  6
CONTINUOUS
 10
-96.693422
 20
94.869445
 11
-172.548458
 21
94.869445
  0
LINE
  8
寸法
  6
CONTINUOUS
 10
-172.548458
 20
-95.627008
 11
-172.548458
 21
94.869445
  0
POINT
  8
寸法
 10
-172.548458
 20
-95.627008
  0
POINT
  8
寸法
 10
-172.548458
 20
94.869445
  0
TEXT
  7
TextStyle03
  8
寸法
  6
CONTINUOUS
 10
-172.925
 20
-4.525
  1
190.5
 40
3.0
 50
90.0
 72
     5
 11
-172.925
 21
3.725
  0
ENDBLK
  0
BLOCK
  2
*DIM_0061
 70
    65
 10
0.0
 20
0.0
  0
LINE
  8
寸法
  6
CONTINUOUS
 10
-95.901673
 20
105.875
 11
-40.30572
 21
105.875
  0
POINT
  8
寸法
 10
-40.30572
 20
105.875
  0
TEXT
  7
TextStyle03
  8
寸法
  6
CONTINUOUS
 10
-71.40625
 20
106.25
  1
55.6
 40
3.0
 72
     5
 11
-64.84375
 21
106.25
  0
ENDBLK
  0
BLOCK
  2
*DIM_0062
 70
    65
 10
0.0
 20
0.0
  0
LINE
  8
寸法
  6
CONTINUOUS
 10
-118.309993
 20
-5.617133
 11
-118.309993
 21
105.875
  0
LINE
  8
寸法
  6
CONTINUOUS
 10
-95.901673
 20
95.869445
 11
-95.901673
 21
105.875
  0
LINE
  8
寸法
  6
CONTINUOUS
 10
-118.309993
 20
105.875
 11
-95.901673
 21
105.875
  0
POINT
  8
寸法
 10
-118.309993
 20
105.875
  0
POINT
  8
寸法
 10
-95.901673
 20
105.875
  0
TEXT
  7
TextStyle03
  8
寸法
  6
CONTINUOUS
 10
-110.40625
 20
106.25
  1
22.4
 40
3.0
 72
     5
 11
-103.84375
 21
106.25
  0
ENDBLK
  0
BLOCK
  2
*DIM_0063
 70
    65
 10
0.0
 20
0.0
  0
LINE
  8
寸法
  6
CONTINUOUS
 10
-20.901673
 20
98.325425
 11
-20.901673
 21
105.875
  0
LINE
  8
寸法
  6
CONTINUOUS
 10
-25.30572
 20
105.875
 11
-20.901673
 21
105.875
  0
POINT
  8
寸法
 10
-25.30572
 20
105.875
  0
POINT
  8
寸法
 10
-20.901673
 20
105.875
  0
TEXT
  7
TextStyle03
  8
寸法
  6
CONTINUOUS
 10
-25.5625
 20
106.25
  1
4.4
 40
3.0
 72
     5
 11
-20.6875
 21
106.25
  0
ENDBLK
  0
ENDSEC
  0
SECTION
  2
ENTITIES
  0
POLYLINE
  8
通り芯
  6
CONTINUOUS
 66
     1
 70
     1
  0
VERTEX
  8
通り芯
 10
-210.0
 20
-148.5
  0
VERTEX
  8
通り芯
 10
210.0
 20
-148.5
  0
VERTEX
  8
通り芯
 10
210.0
 20
148.5
  0
VERTEX
  8
通り芯
 10
-210.0
 20
148.5
  0
SEQEND
  0
INSERT
  2
*GRP_0001
  8
型材断面
  6
CONTINUOUS
 10
0.0
 20
0.0
  0
INSERT
  2
*GRP_0002
  8
型材断面
  6
CONTINUOUS
 62
    47
 10
0.0
 20
0.0
  0
LINE
  8
型材断面
  6
DASHDOT
 10
-40.30572
 20
81.37657
 11
-40.30572
 21
118.407907
  0
LINE
  8
型材断面
  6
DOT
 10
-72.309968
 20
-69.62695
 11
-74.309968
 21
-69.62695
  0
LINE
  8
型材断面
  6
DOT
 10
-72.309968
 20
-75.62695
 11
-74.309968
 21
-75.62695
  0
LINE
  8
型材断面
  6
DOT
 10
-73.809968
 20
-75.62695
 11
-73.809968
 21
-69.62695
  0
LINE
  8
型材断面
  6
DOT
 10
-73.309968
 20
-75.62695
 11
-73.309968
 21
-69.62695
  0
LINE
  8
型材断面
  6
DOT
 10
-72.809968
 20
-75.62695
 11
-72.809968
 21
-69.62695
  0
LINE
  8
型材断面
  6
DOT
 10
-50.30572
 20
-69.62695
 11
-52.30572
 21
-69.62695
  0
LINE
  8
型材断面
  6
DOT
 10
-50.30572
 20
-75.62695
 11
-52.30572
 21
-75.62695
  0
LINE
  8
型材断面
  6
DOT
 10
-51.80572
 20
-75.62695
 11
-51.80572
 21
-69.62695
  0
LINE
  8
型材断面
  6
DOT
 10
-51.30572
 20
-75.62695
 11
-51.30572
 21
-69.62695
  0
LINE
  8
型材断面
  6
DOT
 10
-50.80572
 20
-75.62695
 11
-50.80572
 21
-69.62695
  0
INSERT
  2
*GRP_0003
  8
型材断面
  6
CONTINUOUS
 62
    47
 10
0.0
 20
0.0
  0
INSERT
  2
*GRP_0004
  8
ガラス
  6
CONTINUOUS
 10
0.0
 20
0.0
  0
INSERT
  2
*GRP_0005
  8
ガラス
  6
CONTINUOUS
 10
0.0
 20
0.0
  0
INSERT
  2
*GRP_0006
  8
ガラス
  6
CONTINUOUS
 10
0.0
 20
0.0
  0
INSERT
  2
*GRP_0007
  8
ガラス
  6
CONTINUOUS
 10
0.0
 20
0.0
  0
LINE
  8
ガラス
  6
CONTINUOUS
 10
-42.805828
 20
81.273087
 11
-42.805828
 21
63.473083
  0
LINE
  8
ガラス
  6
CONTINUOUS
 10
-36.805828
 20
76.273085
 11
-36.805828
 21
70.273085
  0
LINE
  8
ガラス
  6
CONTINUOUS
 10
-42.805828
 20
70.273085
 11
-36.805828
 21
76.273085
  0
LINE
  8
ガラス
  6
CONTINUOUS
 10
-42.805828
 20
76.273085
 11
-36.805828
 21
70.273085
  0
LINE
  8
ガラス
  6
CONTINUOUS
 10
-42.805828
 20
63.973085
 11
34.609453
 21
63.973085
  0
LINE
  8
ガラス
  6
CONTINUOUS
 10
-42.805828
 20
63.473083
 11
34.609453
 21
63.473083
  0
LINE
  8
ガラス
  6
CONTINUOUS
 10
-42.805828
 20
70.273085
 11
34.609453
 21
70.273085
  0
LINE
  8
ガラス
  6
CONTINUOUS
 10
-42.805828
 20
69.77309
 11
34.609453
 21
69.77309
  0
LINE
  8
ガラス
  6
CONTINUOUS
 10
-42.805828
 20
76.773087
 11
34.609453
 21
76.773087
  0
LINE
  8
ガラス
  6
CONTINUOUS
 10
-42.805828
 20
76.273085
 11
34.609453
 21
76.273085
  0
LINE
  8
ガラス
  6
CONTINUOUS
 10
-42.805828
 20
80.773085
 11
34.609453
 21
80.773085
  0
LINE
  8
ガラス
  6
CONTINUOUS
 10
-42.805828
 20
81.273087
 11
34.609453
 21
81.273087
  0
LINE
  8
ガラス
  6
CONTINUOUS
 10
-42.805828
 20
81.273055
 11
-42.805828
 21
63.47305
  0
LINE
  8
ガラス
  6
CONTINUOUS
 10
-36.805828
 20
76.273053
 11
-36.805828
 21
70.273053
  0
LINE
  8
ガラス
  6
CONTINUOUS
 10
-42.805828
 20
70.273053
 11
-36.805828
 21
76.273053
  0
LINE
  8
ガラス
  6
CONTINUOUS
 10
-42.805828
 20
76.273053
 11
-36.805828
 21
70.273053
  0
INSERT
  2
*GRP_0008
  8
ゴム等
  6
CONTINUOUS
 10
0.0
 20
0.0
  0
INSERT
  2
*GRP_0009
  8
ゴム等
  6
CONTINUOUS
 10
0.0
 20
0.0
  0
INSERT
  2
*GRP_0010
  8
ゴム等
  6
DOT
 10
0.0
 20
0.0
  0
INSERT
  2
*GRP_0050
  8
ゴム等
  6
CONTINUOUS
 10
0.0
 20
0.0
  0
INSERT
  2
*GRP_0011
  8
ボルト／ビス
  6
CONTINUOUS
 62
    64
 10
0.0
 20
0.0
  0
INSERT
  2
*GRP_0012
  8
ボルト／ビス
  6
CONTINUOUS
 62
    64
 10
0.0
 20
0.0
  0
INSERT
  2
*GRP_0013
  8
ボルト／ビス
  6
CONTINUOUS
 62
    64
 10
0.0
 20
0.0
  0
INSERT
  2
*GRP_0051
  8
ボルト／ビス
  6
CONTINUOUS
 62
    64
 10
0.0
 20
0.0
  0
TEXT
  7
TextStyle03
  8
文字
  6
CONTINUOUS
 10
68.025
 20
69.4
  1
ＮＳコード：ＮＳＦＨＺ
 40
5.0
 72
     5
 11
129.275
 21
69.4
  0
TEXT
  7
TextStyle03
  8
文字
  6
CONTINUOUS
 10
18.15
 20
118.4
  1
呼称寸法
 40
3.0
 72
     5
 11
31.275
 21
118.4
  0
TEXT
  7
TextStyle03
  8
文字
  6
CONTINUOUS
 10
13.15
 20
111.9
  1
有効開口寸法
 40
3.0
 72
     5
 11
33.025
 21
111.9
  0
TEXT
  7
TextStyle03
  8
文字
  6
CONTINUOUS
 10
-17.525
 20
10.9
  1
丁番裏板
 40
4.0
 72
     5
 11
-0.025
 21
10.9
  0
TEXT
  7
TextStyle03
  8
文字
  6
CONTINUOUS
 10
-17.525
 20
6.4
  1
St-2.3t
 40
4.0
 72
     5
 11
-2.025
 21
6.4
  0
TEXT
  7
TextStyle03
  8
文字
  6
CONTINUOUS
 10
-16.325
 20
-36.525
  1
丁番裏板
 40
4.0
 72
     5
 11
1.175
 21
-36.525
  0
TEXT
  7
TextStyle03
  8
文字
  6
CONTINUOUS
 10
-16.325
 20
-41.025
  1
St-2.3t
 40
4.0
 72
     5
 11
-0.825
 21
-41.025
  0
TEXT
  7
TextStyle03
  8
文字
  6
CONTINUOUS
 10
-121.575
 20
-67.95
  1
コーナーシール
 40
3.0
 72
     5
 11
-98.325
 21
-67.95
  0
TEXT
  7
TextStyle03
  8
文字
  6
CONTINUOUS
 10
-121.575
 20
-71.325
  1
（工場）
 40
3.0
 72
     5
 11
-108.45
 21
-71.325
  0
TEXT
  7
TextStyle03
  8
文字
  6
CONTINUOUS
 10
-130.4
 20
-58.925
  1
コーナージョイント金物
 40
3.0
 72
     5
 11
-93.65
 21
-58.925
  0
TEXT
  7
TextStyle03
  8
文字
  6
CONTINUOUS
 10
-130.4
 20
-62.3
  1
St-1.6t
 40
3.0
 72
     5
 11
-118.775
 21
-62.3
  0
TEXT
  7
TextStyle03
  8
文字
  6
CONTINUOUS
 10
-66.9
 20
-126.425
  1
KA-50C　末栄金属
 40
4.0
 72
     5
 11
-31.4
 21
-126.425
  0
TEXT
  7
TextStyle03
  8
文字
  6
CONTINUOUS
 10
-124.925
 20
-39.8
  1
SUS丁番
 40
3.0
 72
     5
 11
-113.4875
 21
-39.8
  0
TEXT
  7
TextStyle03
  8
文字
  6
CONTINUOUS
 10
-16.55
 20
37.975
  1
TK-1161
 40
3.0
 72
     5
 11
-4.925
 21
37.975
  0
TEXT
  7
TextStyle03
  8
文字
  6
CONTINUOUS
 10
68.85
 20
95.675
  1
シリーズ：ＴＦ２ＦＨ
 40
5.0
 72
     5
 11
124.475
 21
95.675
  0
TEXT
  7
TextStyle03
  8
文字
  6
CONTINUOUS
 10
68.85
 20
90.05
  1
　　　　　（片側開閉）
 40
5.0
 72
     5
 11
130.1
 21
90.05
  0
TEXT
  7
TextStyle03
  8
文字
  6
CONTINUOUS
 10
68.85
 20
84.425
  1

 40
5.0
 41
1.125
  0
TEXT
  7
TextStyle03
  8
文字
  6
CONTINUOUS
 10
68.85
 20
78.8
  1
図面名　：下枠断面詳細図(丁番側)
 40
5.0
 72
     5
 11
158.5375
 21
78.8
  0
INSERT
  2
*DIM_0014
  8
寸法
  6
CONTINUOUS
 10
0.0
 20
0.0
  0
INSERT
  2
*DIM_0015
  8
寸法
  6
CONTINUOUS
 10
0.0
 20
0.0
  0
INSERT
  2
*DIM_0016
  8
寸法
  6
CONTINUOUS
 10
0.0
 20
0.0
  0
INSERT
  2
*DIM_0017
  8
寸法
  6
CONTINUOUS
 10
0.0
 20
0.0
  0
INSERT
  2
*DIM_0018
  8
寸法
  6
CONTINUOUS
 10
0.0
 20
0.0
  0
INSERT
  2
*DIM_0019
  8
寸法
  6
CONTINUOUS
 10
0.0
 20
0.0
  0
INSERT
  2
*DIM_0020
  8
寸法
  6
CONTINUOUS
 10
0.0
 20
0.0
  0
INSERT
  2
*DIM_0021
  8
寸法
  6
CONTINUOUS
 10
0.0
 20
0.0
  0
LINE
  8
寸法
  6
CONTINUOUS
 10
-40.30572
 20
118.407907
 11
58.565465
 21
118.407907
  0
POLYLINE
  8
寸法
  6
CONTINUOUS
 66
     1
  0
VERTEX
  8
寸法
 10
58.565465
 20
118.407907
  0
VERTEX
  8
寸法
 10
49.975332
 20
115.840145
  0
VERTEX
  8
寸法
 10
49.975332
 20
118.407907
  0
SEQEND
  0
POLYLINE
  8
寸法
  6
CONTINUOUS
 66
     1
  0
VERTEX
  8
寸法
 10
56.97336
 20
118.407907
  0
VERTEX
  8
寸法
 10
48.383228
 20
115.840145
  0
VERTEX
  8
寸法
 10
48.383228
 20
118.407907
  0
SEQEND
  0
POLYLINE
  8
寸法
  6
CONTINUOUS
 66
     1
  0
VERTEX
  8
寸法
 10
58.565465
 20
118.407907
  0
VERTEX
  8
寸法
 10
49.975332
 20
120.97567
  0
VERTEX
  8
寸法
 10
49.975332
 20
118.407907
  0
SEQEND
  0
POLYLINE
  8
寸法
  6
CONTINUOUS
 66
     1
  0
VERTEX
  8
寸法
 10
56.97336
 20
118.407907
  0
VERTEX
  8
寸法
 10
48.383228
 20
120.97567
  0
VERTEX
  8
寸法
 10
48.383228
 20
118.407907
  0
SEQEND
  0
POLYLINE
  8
寸法
  6
CONTINUOUS
 66
     1
  0
VERTEX
  8
寸法
 10
58.565465
 20
111.90067
  0
VERTEX
  8
寸法
 10
49.975332
 20
114.468433
  0
VERTEX
  8
寸法
 10
49.975332
 20
111.90067
  0
SEQEND
  0
POLYLINE
  8
寸法
  6
CONTINUOUS
 66
     1
  0
VERTEX
  8
寸法
 10
56.97336
 20
111.90067
  0
VERTEX
  8
寸法
 10
48.383228
 20
114.468433
  0
VERTEX
  8
寸法
 10
48.383228
 20
111.90067
  0
SEQEND
  0
INSERT
  2
*DIM_0022
  8
寸法
  6
CONTINUOUS
 10
0.0
 20
0.0
  0
INSERT
  2
*DIM_0023
  8
寸法
  6
CONTINUOUS
 10
0.0
 20
0.0
  0
LINE
  8
寸法
  6
CONTINUOUS
 10
58.565465
 20
111.90067
 11
-25.30572
 21
111.90067
  0
INSERT
  2
*DIM_0024
  8
寸法
  6
CONTINUOUS
 10
0.0
 20
0.0
  0
INSERT
  2
*DIM_0025
  8
寸法
  6
CONTINUOUS
 10
0.0
 20
0.0
  0
INSERT
  2
*DIM_0026
  8
寸法
  6
CONTINUOUS
 10
0.0
 20
0.0
  0
INSERT
  2
*DIM_0027
  8
寸法
  6
CONTINUOUS
 10
0.0
 20
0.0
  0
INSERT
  2
*DIM_0028
  8
寸法
  6
CONTINUOUS
 10
0.0
 20
0.0
  0
INSERT
  2
*GRP_0029
  8
寸法
  6
CONTINUOUS
 10
0.0
 20
0.0
  0
INSERT
  2
*GRP_0030
  8
寸法
  6
CONTINUOUS
 10
0.0
 20
0.0
  0
INSERT
  2
*GRP_0031
  8
寸法
  6
CONTINUOUS
 10
0.0
 20
0.0
  0
INSERT
  2
*GRP_0032
  8
寸法
  6
CONTINUOUS
 10
0.0
 20
0.0
  0
INSERT
  2
*DIM_0033
  8
寸法
  6
CONTINUOUS
 10
0.0
 20
0.0
  0
INSERT
  2
*DIM_0034
  8
寸法
  6
CONTINUOUS
 10
0.0
 20
0.0
  0
INSERT
  2
*DIM_0035
  8
寸法
  6
CONTINUOUS
 10
0.0
 20
0.0
  0
INSERT
  2
*DIM_0036
  8
寸法
  6
CONTINUOUS
 10
0.0
 20
0.0
  0
INSERT
  2
*DIM_0037
  8
寸法
  6
CONTINUOUS
 10
0.0
 20
0.0
  0
INSERT
  2
*DIM_0038
  8
寸法
  6
CONTINUOUS
 10
0.0
 20
0.0
  0
INSERT
  2
*DIM_0039
  8
寸法
  6
CONTINUOUS
 10
0.0
 20
0.0
  0
INSERT
  2
*DIM_0040
  8
寸法
  6
CONTINUOUS
 10
0.0
 20
0.0
  0
INSERT
  2
*GRP_0041
  8
寸法
  6
CONTINUOUS
 10
0.0
 20
0.0
  0
INSERT
  2
*GRP_0042
  8
寸法
  6
CONTINUOUS
 10
0.0
 20
0.0
  0
INSERT
  2
*DIM_0043
  8
寸法
  6
CONTINUOUS
 10
0.0
 20
0.0
  0
INSERT
  2
*GRP_0044
  8
寸法
  6
CONTINUOUS
 10
0.0
 20
0.0
  0
INSERT
  2
*DIM_0048
  8
寸法
  6
CONTINUOUS
 10
0.0
 20
0.0
  0
INSERT
  2
*DIM_0049
  8
寸法
  6
CONTINUOUS
 10
0.0
 20
0.0
  0
INSERT
  2
*DIM_0055
  8
寸法
  6
CONTINUOUS
 10
0.0
 20
0.0
  0
INSERT
  2
*DIM_0056
  8
寸法
  6
CONTINUOUS
 10
0.0
 20
0.0
  0
INSERT
  2
*DIM_0057
  8
寸法
  6
CONTINUOUS
 10
0.0
 20
0.0
  0
INSERT
  2
*DIM_0058
  8
寸法
  6
CONTINUOUS
 10
0.0
 20
0.0
  0
INSERT
  2
*DIM_0059
  8
寸法
  6
CONTINUOUS
 10
0.0
 20
0.0
  0
INSERT
  2
*DIM_0060
  8
寸法
  6
CONTINUOUS
 10
0.0
 20
0.0
  0
INSERT
  2
*DIM_0061
  8
寸法
  6
CONTINUOUS
 10
0.0
 20
0.0
  0
INSERT
  2
*DIM_0062
  8
寸法
  6
CONTINUOUS
 10
0.0
 20
0.0
  0
INSERT
  2
*DIM_0063
  8
寸法
  6
CONTINUOUS
 10
0.0
 20
0.0
  0
INSERT
  2
*HAT_0003
  8
ﾊｯﾁﾝｸﾞ
 10
0.0
 20
0.0
  0
INSERT
  2
*GRP_0045
  8
別途部材
  6
CONTINUOUS
 10
0.0
 20
0.0
  0
INSERT
  2
*GRP_0052
  8
別途部材
  6
CONTINUOUS
 10
0.0
 20
0.0
  0
INSERT
  2
*GRP_0053
  8
曲げ物
  6
CONTINUOUS
 10
0.0
 20
0.0
  0
LINE
  8
St
  6
CONTINUOUS
 10
-52.809968
 20
-24.62695
 11
-52.809968
 21
-26.92695
  0
LINE
  8
St
  6
CONTINUOUS
 10
-52.809968
 20
-73.329895
 11
-52.809968
 21
-75.629895
  0
ARC
  8
St
  6
CONTINUOUS
 10
-70.009969
 20
-26.926948
 40
2.3
 50
90.0
 51
180.0
  0
LINE
  8
St
  6
CONTINUOUS
 10
-70.009968
 20
-36.26027
 11
-72.309952
 21
-38.560255
  0
LINE
  8
St
  6
CONTINUOUS
 10
-70.009968
 20
-35.55317
 11
-72.309952
 21
-37.85315
  0
ARC
  8
St
  6
CONTINUOUS
 10
-70.009969
 20
-73.329893
 40
2.3
 50
180.0
 51
270.0
  0
LINE
  8
St
  6
CONTINUOUS
 10
-70.009968
 20
-64.08438
 11
-72.309952
 21
-66.384365
  0
LINE
  8
St
  6
CONTINUOUS
 10
-70.009968
 20
-63.37728
 11
-72.309952
 21
-65.67726
  0
LINE
  8
St
  6
CONTINUOUS
 10
-70.009968
 20
-26.92695
 11
-70.009968
 21
-73.329895
  0
LINE
  8
St
  6
CONTINUOUS
 10
-72.309968
 20
-26.92695
 11
-72.309968
 21
-73.329895
  0
LINE
  8
St
  6
CONTINUOUS
 10
-52.809968
 20
-26.92695
 11
-70.009968
 21
-26.92695
  0
LINE
  8
St
  6
CONTINUOUS
 10
-52.809968
 20
-24.62695
 11
-70.009968
 21
-24.62695
  0
LINE
  8
St
  6
CONTINUOUS
 10
-52.809968
 20
-73.329895
 11
-70.009968
 21
-73.329895
  0
LINE
  8
St
  6
CONTINUOUS
 10
-52.809968
 20
-75.629895
 11
-70.009968
 21
-75.629895
  0
LINE
  8
St
  6
CONTINUOUS
 10
-42.80572
 20
41.773175
 11
-42.80572
 21
39.473175
  0
LINE
  8
St
  6
CONTINUOUS
 10
-42.80572
 20
39.473175
 11
-76.00572
 21
39.473175
  0
LINE
  8
St
  6
CONTINUOUS
 10
-42.80572
 20
41.773175
 11
-76.00572
 21
41.773175
  0
ARC
  8
St
  6
CONTINUOUS
 10
-76.005718
 20
39.473176
 40
2.3
 50
90.0
 51
180.0
  0
LINE
  8
St
  6
CONTINUOUS
 10
-78.30572
 20
39.473175
 11
-78.30572
 21
-8.326825
  0
ARC
  8
St
  6
CONTINUOUS
 10
-76.005718
 20
-8.326824
 40
2.3
 50
180.0
 51
270.0
  0
LINE
  8
St
  6
CONTINUOUS
 10
-76.00572
 20
39.473175
 11
-76.00572
 21
-8.326825
  0
LINE
  8
St
  6
CONTINUOUS
 10
-65.207972
 20
41.773175
 11
-67.50797
 21
39.473175
  0
LINE
  8
St
  6
CONTINUOUS
 10
-66.800868
 20
39.473175
 11
-64.500867
 21
41.773175
  0
LINE
  8
St
  6
CONTINUOUS
 10
-70.206023
 20
59.57114
 11
-67.206023
 21
59.57114
  0
LINE
  8
St
  6
CONTINUOUS
 10
-67.206023
 20
44.273175
 11
-67.206023
 21
59.57114
  0
LINE
  8
St
  6
CONTINUOUS
 10
-69.60797
 20
-10.626825
 11
-67.30797
 21
-8.326825
  0
LINE
  8
St
  6
CONTINUOUS
 10
-68.900865
 20
-10.626825
 11
-66.600865
 21
-8.326825
  0
LINE
  8
St
  6
CONTINUOUS
 10
-78.30572
 20
-0.527405
 11
-76.00572
 21
1.772597
  0
LINE
  8
St
  6
CONTINUOUS
 10
-78.30572
 20
-1.23451
 11
-76.00572
 21
1.065493
  0
LINE
  8
St
  6
CONTINUOUS
 10
-78.30572
 20
28.675423
 11
-76.00572
 21
30.975425
  0
LINE
  8
St
  6
CONTINUOUS
 10
-78.30572
 20
27.968318
 11
-76.00572
 21
30.26832
  0
LINE
  8
St
  6
CONTINUOUS
 10
-59.471115
 20
-24.62695
 11
-61.771118
 21
-26.92695
  0
LINE
  8
St
  6
CONTINUOUS
 10
-60.17822
 20
-24.62695
 11
-62.478222
 21
-26.92695
  0
LINE
  8
St
  6
CONTINUOUS
 10
-66.081213
 20
-75.62695
 11
-63.784155
 21
-73.329895
  0
LINE
  8
St
  6
CONTINUOUS
 10
-65.37411
 20
-75.62695
 11
-63.07705
 21
-73.329895
  0
LINE
  8
St
  6
CONTINUOUS
 10
-133.70997
 20
-92.027005
 11
-75.71739
 21
-92.027005
  0
ARC
  8
St
  6
CONTINUOUS
 10
-75.708963
 20
-92.027003
 40
1.6
 50
-90.0
 51
0.0
  0
LINE
  8
St
  6
CONTINUOUS
 10
-135.30997
 20
-93.627005
 11
-54.30997
 21
-93.627005
  0
LINE
  8
St
  6
DOT
 10
-75.71739
 20
-92.027005
 11
-54.30997
 21
-92.027005
  0
LINE
  8
St
  6
CONTINUOUS
 10
-106.742562
 20
-93.627005
 11
-105.142558
 21
-92.027005
  0
LINE
  8
St
  6
CONTINUOUS
 10
-106.035458
 20
-93.627005
 11
-104.435452
 21
-92.027005
  0
LINE
  8
St
  6
CONTINUOUS
 10
-79.721285
 20
-93.627005
 11
-78.12128
 21
-92.027005
  0
LINE
  8
St
  6
CONTINUOUS
 10
-79.01418
 20
-93.627005
 11
-77.414175
 21
-92.027005
  0
LINE
  8
St
  6
CONTINUOUS
 10
-133.70997
 20
-93.627005
 11
-133.70997
 21
-86.610365
  0
LINE
  8
St
  6
CONTINUOUS
 10
-135.30997
 20
-93.627005
 11
-135.30997
 21
-86.610368
  0
ARC
  8
St
  6
CONTINUOUS
 10
-133.70997
 20
-86.610368
 40
1.6
 50
94.332724
 51
180.0
  0
LINE
  8
St
  6
CONTINUOUS
 10
-133.830847
 20
-85.01494
 11
-54.30997
 21
-78.990057
  0
LINE
  8
St
  6
CONTINUOUS
 10
-133.70997
 20
-86.610365
 11
-54.30997
 21
-80.594645
  0
LINE
  8
St
  6
CONTINUOUS
 10
-56.221855
 20
-79.13491
 11
-56.221855
 21
-80.739498
  0
LINE
  8
St
  6
CONTINUOUS
 10
-75.71739
 20
-92.027005
 11
-75.71739
 21
-82.216572
  0
LINE
  8
St
  6
CONTINUOUS
 10
-74.10896
 20
-93.627005
 11
-74.10896
 21
-82.09471
  0
LINE
  8
St
  6
CONTINUOUS
 10
-76.582165
 20
-80.677505
 11
-78.318293
 21
-82.41363
  0
LINE
  8
St
  6
CONTINUOUS
 10
-77.347235
 20
-80.73547
 11
-79.083365
 21
-82.471595
  0
LINE
  8
St
  6
CONTINUOUS
 10
-104.066777
 20
-82.759872
 11
-105.802908
 21
-84.495993
  0
LINE
  8
St
  6
CONTINUOUS
 10
-104.831852
 20
-82.817838
 11
-106.56798
 21
-84.55396
  0
LINE
  8
St
  6
CONTINUOUS
 10
-76.00572
 20
-8.326825
 11
-58.80572
 21
-8.326825
  0
LINE
  8
St
  6
CONTINUOUS
 10
-58.80572
 20
-8.326825
 11
-58.80572
 21
-10.626825
  0
LINE
  8
St
  6
CONTINUOUS
 10
-76.00572
 20
-10.626825
 11
-58.80572
 21
-10.626825
  0
INSERT
  2
*GRP_0046
  8
St
  6
DASHDOT
 62
    47
 10
0.0
 20
0.0
  0
INSERT
  2
*GRP_0047
  8
St
  6
DASHDOT
 62
    47
 10
0.0
 20
0.0
  0
INSERT
  2
*GRP_0054
  8
St
  6
CONTINUOUS
 10
0.0
 20
0.0
  0
INSERT
  2
*HAT_0004
  8
その他部品等
 10
0.0
 20
0.0
  0
INSERT
  2
*HAT_0005
  8
その他部品等
 10
0.0
 20
0.0
  0
LINE
  8
その他部品等
  6
CONTINUOUS
 10
-30.90167
 20
92.869442
 11
-30.90167
 21
81.273055
  0
LINE
  8
その他部品等
  6
CONTINUOUS
 10
-27.90167
 20
91.669442
 11
-27.90167
 21
81.273055
  0
LINE
  8
その他部品等
  6
CONTINUOUS
 10
-20.901673
 20
91.669442
 11
-20.901673
 21
81.273055
  0
LINE
  8
その他部品等
  6
CONTINUOUS
 10
-30.90167
 20
92.869442
 11
-27.90167
 21
81.273055
  0
ENDSEC
  0
EOF
