  0
SECTION
  2
HEADER
  9
$EXTMIN
 10
-210.0
 20
-148.5
  9
$EXTMAX
 10
210.0
 20
148.5
  9
$PDMODE
 70
    32
  9
$PDSIZE
 40
1.5
  9
$LTSCALE
 40
10.0
  0
ENDSEC
  0
SECTION
  2
TABLES
  0
TABLE
  2
LTYPE
 70
    15
  0
LTYPE
  2
CONTINUOUS
 70
    64
  3
実線
 72
    65
 73
     0
 40
0.0
  0
LTYPE
  2
DASHED
 70
    64
  3
破線A
 72
    65
 73
     2
 40
0.6
 49
0.4
 49
-0.2
  0
LTYPE
  2
DASHEDX2
 70
    64
  3
破線B
 72
    65
 73
     2
 40
1.3
 49
0.9
 49
-0.4
  0
LTYPE
  2
DASHDOT
 70
    64
  3
１点鎖線A
 72
    65
 73
     4
 40
0.5375
 49
0.375
 49
-0.05
 49
0.0625
 49
-0.05
  0
LTYPE
  2
DASHDOTX2
 70
    64
  3
１点鎖線B
 72
    65
 73
     4
 40
1.075
 49
0.75
 49
-0.1
 49
0.125
 49
-0.1
  0
LTYPE
  2
DIVIDE2
 70
    64
  3
２点鎖線A
 72
    65
 73
     6
 40
0.5125
 49
0.3
 49
-0.0375
 49
0.05
 49
-0.0375
 49
0.05
 49
-0.0375
  0
LTYPE
  2
DIVIDE
 70
    64
  3
２点鎖線B
 72
    65
 73
     6
 40
1.05
 49
0.55
 49
-0.1
 49
0.1
 49
-0.1
 49
0.1
 49
-0.1
  0
LTYPE
  2
DOT
 70
    64
  3
点線A
 72
    65
 73
     2
 40
0.1125
 49
0.0625
 49
-0.05
  0
LTYPE
  2
DOTX2
 70
    64
  3
点線B
 72
    65
 73
     2
 40
0.275
 49
0.15
 49
-0.125
  0
LTYPE
  2
CONTINUOUS
 70
    64
  3
実線
 72
    65
 73
     0
 40
0.0
  0
LTYPE
  2
CONTINUOUS
 70
    64
  3
実線
 72
    65
 73
     0
 40
0.0
  0
LTYPE
  2
CONTINUOUS
 70
    64
  3
実線
 72
    65
 73
     0
 40
0.0
  0
LTYPE
  2
CONTINUOUS
 70
    64
  3
実線
 72
    65
 73
     0
 40
0.0
  0
LTYPE
  2
CONTINUOUS
 70
    64
  3
実線
 72
    65
 73
     0
 40
0.0
  0
LTYPE
  2
CONTINUOUS
 70
    64
  3
実線
 72
    65
 73
     0
 40
0.0
  0
ENDTAB
  0
TABLE
  2
LAYER
 70
    34
  0
LAYER
  2
通り芯
 70
     0
 62
    15
  6
CONTINUOUS
  0
LAYER
  2
補助線
 70
     0
 62
    16
  6
DOT
  0
LAYER
  2
躯体
 70
     0
 62
    31
  6
CONTINUOUS
  0
LAYER
  2
型材
 70
     0
 62
    32
  6
CONTINUOUS
  0
LAYER
  2
型材断面
 70
     0
 62
    47
  6
CONTINUOUS
  0
LAYER
  2
ガラス
 70
     0
 62
    48
  6
CONTINUOUS
  0
LAYER
  2
ゴム等
 70
     0
 62
    63
  6
CONTINUOUS
  0
LAYER
  2
ボルト／ビス
 70
     0
 62
    64
  6
CONTINUOUS
  0
LAYER
  2
文字
 70
     0
 62
    79
  6
CONTINUOUS
  0
LAYER
  2
寸法
 70
     0
 62
    80
  6
CONTINUOUS
  0
LAYER
  2
ﾊｯﾁﾝｸﾞ
 70
     0
 62
    95
  6
CONTINUOUS
  0
LAYER
  2
別途部材
 70
     0
 62
    96
  6
CONTINUOUS
  0
LAYER
  2
曲げ物
 70
     0
 62
   111
  6
CONTINUOUS
  0
LAYER
  2
鉄骨等
 70
     0
 62
   112
  6
CONTINUOUS
  0
LAYER
  2
St
 70
     0
 62
   127
  6
CONTINUOUS
  0
LAYER
  2
その他部品等
 70
     0
 62
   128
  6
CONTINUOUS
  0
LAYER
  2
ｶﾞｽｹｯﾄ
 70
     0
 62
   143
  6
CONTINUOUS
  0
LAYER
  2
ｽｹｯﾁ
 70
     0
 62
    14
  6
CONTINUOUS
  0
LAYER
  2
0
 70
     0
 62
    17
  6
CONTINUOUS
  0
LAYER
  2
1
 70
     0
 62
    30
  6
CONTINUOUS
  0
LAYER
  2
4
 70
     0
 62
    33
  6
CONTINUOUS
  0
LAYER
  2
ﾚｲﾔ3
 70
     0
 62
    46
  6
CONTINUOUS
  0
LAYER
  2
外形線
 70
     0
 62
    49
  6
CONTINUOUS
  0
LAYER
  2
部品
 70
     0
 62
    14
  6
CONTINUOUS
  0
LAYER
  2
サッシ芯
 70
     0
 62
    17
  6
DASHDOTX2
  0
LAYER
  2
寸法線
 70
     0
 62
    62
  6
CONTINUOUS
  0
LAYER
  2
姿図外形線
 70
     0
 62
    65
  6
CONTINUOUS
  0
LAYER
  2
姿補助線
 70
     0
 62
    30
  6
CONTINUOUS
  0
LAYER
  2
透視線
 70
     0
 62
    78
  6
DOT
  0
LAYER
  2
用紙
 70
     0
 62
    81
  6
CONTINUOUS
  0
LAYER
  2
実線図枠
 70
     0
 62
    94
  6
CONTINUOUS
  0
LAYER
  2
補助図枠
 70
     0
 62
    97
  6
CONTINUOUS
  0
LAYER
  2
建具記号
 70
     0
 62
   110
  6
CONTINUOUS
  0
LAYER
  2
補助文字
 70
     0
 62
   113
  6
CONTINUOUS
  0
ENDTAB
  0
TABLE
  2
STYLE
 70
    10
  0
STYLE
  2
STANDARD
 70
     0
 40
1.0
 41
1.0
 42
1.0
 50
0.0
 71
     0
  3
TXT
  4
BIGFONT
  0
STYLE
  2
TATE
 70
     4
 40
1.0
 41
1.0
 42
1.0
 50
0.0
 71
     0
  3
TXT
  4
BIGFONT
  0
STYLE
  2
TextStyle03
 70
     0
 40
1.0
 41
1.0
 42
1.0
 50
0.0
 71
     0
  3
MONOTXT
  4
BIGFONT
  0
STYLE
  2
TextStyle04
 70
     0
 40
1.0
 41
1.0
 42
1.0
 50
0.0
 71
     0
  3
MONOTXT
  4
BIGFONT
  0
STYLE
  2
TextStyle05
 70
     0
 40
1.0
 41
1.0
 42
1.0
 50
0.0
 71
     0
  3
MONOTXT
  4
BIGFONT
  0
STYLE
  2
TextStyle06
 70
     0
 40
1.0
 41
1.0
 42
1.0
 50
0.0
 71
     0
  3
MONOTXT
  4
BIGFONT
  0
STYLE
  2
TextStyle07
 70
     0
 40
1.0
 41
1.0
 42
1.0
 50
0.0
 71
     0
  3
MONOTXT
  4
BIGFONT
  0
STYLE
  2
TextStyle08
 70
     0
 40
1.0
 41
1.0
 42
1.0
 50
0.0
 71
     0
  3
MONOTXT
  4
BIGFONT
  0
STYLE
  2
TextStyle09
 70
     0
 40
1.0
 41
1.0
 42
1.0
 50
0.0
 71
     0
  3
MONOTXT
  4
BIGFONT
  0
STYLE
  2
TextStyle10
 70
     0
 40
1.0
 41
1.0
 42
1.0
 50
0.0
 71
     0
  3
MONOTXT
  4
BIGFONT
  0
ENDTAB
  0
ENDSEC
  0
SECTION
  2
BLOCKS
  0
BLOCK
  2
*GRP_0001
 70
    65
 10
0.0
 20
0.0
  0
LINE
  8
型材断面
  6
CONTINUOUS
 10
195.0
 20
133.5
 11
195.0
 21
-133.5
  0
LINE
  8
型材断面
  6
CONTINUOUS
 10
195.0
 20
-133.5
 11
-185.0
 21
-133.5
  0
LINE
  8
型材断面
  6
CONTINUOUS
 10
-185.0
 20
-133.5
 11
-185.0
 21
133.5
  0
LINE
  8
型材断面
  6
CONTINUOUS
 10
195.0
 20
133.5
 11
-185.0
 21
133.5
  0
LINE
  8
型材断面
  6
CONTINUOUS
 10
145.0
 20
-133.5
 11
145.0
 21
-118.5
  0
LINE
  8
型材断面
  6
CONTINUOUS
 10
195.0
 20
-118.5
 11
145.0
 21
-118.5
  0
ENDBLK
  0
BLOCK
  2
*DIM_0002
 70
    65
 10
0.0
 20
0.0
  0
LINE
  8
寸法
  6
BYBLOCK
 62
     0
 10
-92.435405
 20
-16.126177
 11
-47.435405
 21
-16.126177
  0
POINT
  8
寸法
 62
     0
 10
-92.435405
 20
-16.126177
  0
POINT
  8
寸法
 62
     0
 10
-47.435405
 20
-16.126177
  0
TEXT
  7
TextStyle03
  8
寸法
  6
CONTINUOUS
 62
     0
 10
-80.85
 20
-15.775
  1
呼称寸法　900
 40
3.0
 72
     5
 11
-59.1
 21
-15.775
  0
ENDBLK
  0
BLOCK
  2
*DIM_0003
 70
    65
 10
0.0
 20
0.0
  0
LINE
  8
寸法
  6
BYBLOCK
 62
     0
 10
-84.935405
 20
57.66027
 11
-84.935405
 21
75.599285
  0
LINE
  8
寸法
  6
BYBLOCK
 62
     0
 10
-54.935405
 20
57.66027
 11
-54.935405
 21
75.599285
  0
LINE
  8
寸法
  6
BYBLOCK
 62
     0
 10
-84.935405
 20
75.599285
 11
-54.935405
 21
75.599285
  0
POINT
  8
寸法
 62
     0
 10
-84.935405
 20
75.599285
  0
POINT
  8
寸法
 62
     0
 10
-54.935405
 20
75.599285
  0
TEXT
  7
TextStyle03
  8
寸法
  6
CONTINUOUS
 62
     0
 10
-72.3875
 20
75.95
  1
600
 40
3.0
 72
     5
 11
-67.5125
 21
75.95
  0
ENDBLK
  0
BLOCK
  2
*DIM_0004
 70
    65
 10
0.0
 20
0.0
  0
LINE
  8
寸法
  6
BYBLOCK
 62
     0
 10
-93.435405
 20
56.66027
 11
-116.343648
 21
56.66027
  0
LINE
  8
寸法
  6
BYBLOCK
 62
     0
 10
-93.435405
 20
34.16027
 11
-116.343648
 21
34.16027
  0
LINE
  8
寸法
  6
BYBLOCK
 62
     0
 10
-116.343648
 20
56.66027
 11
-116.343648
 21
34.16027
  0
POINT
  8
寸法
 62
     0
 10
-116.343648
 20
56.66027
  0
POINT
  8
寸法
 62
     0
 10
-116.343648
 20
34.16027
  0
TEXT
  7
TextStyle03
  8
寸法
  6
CONTINUOUS
 62
     0
 10
-116.725
 20
42.9375
  1
450
 40
3.0
 50
90.0
 72
     5
 11
-116.725
 21
47.8125
  0
ENDBLK
  0
BLOCK
  2
*DIM_0005
 70
    65
 10
0.0
 20
0.0
  0
LINE
  8
寸法
  6
BYBLOCK
 62
     0
 10
-93.435405
 20
11.66027
 11
-116.343648
 21
11.66027
  0
LINE
  8
寸法
  6
BYBLOCK
 62
     0
 10
-116.343648
 20
34.16027
 11
-116.343648
 21
11.66027
  0
POINT
  8
寸法
 62
     0
 10
-116.343648
 20
11.66027
  0
TEXT
  7
TextStyle03
  8
寸法
  6
CONTINUOUS
 62
     0
 10
-116.725
 20
20.4375
  1
450
 40
3.0
 50
90.0
 72
     5
 11
-116.725
 21
25.3125
  0
ENDBLK
  0
BLOCK
  2
*DIM_0006
 70
    65
 10
0.0
 20
0.0
  0
LINE
  8
寸法
  6
BYBLOCK
 62
     0
 10
-46.435405
 20
56.66027
 11
-31.752115
 21
56.66027
  0
LINE
  8
寸法
  6
BYBLOCK
 62
     0
 10
-38.411528
 20
53.66027
 11
-31.752115
 21
53.66027
  0
LINE
  8
寸法
  6
BYBLOCK
 62
     0
 10
-31.752115
 20
56.66027
 11
-31.752115
 21
53.66027
  0
POINT
  8
寸法
 62
     0
 10
-31.752115
 20
56.66027
  0
POINT
  8
寸法
 62
     0
 10
-31.752115
 20
53.66027
  0
TEXT
  7
TextStyle03
  8
寸法
  6
CONTINUOUS
 62
     0
 10
-28.775
 20
53.53125
  1
60
 40
3.0
 50
90.0
 72
     5
 11
-28.775
 21
56.71875
  0
ENDBLK
  0
BLOCK
  2
*DIM_0007
 70
    65
 10
0.0
 20
0.0
  0
LINE
  8
寸法
  6
BYBLOCK
 62
     0
 10
-46.435405
 20
11.66027
 11
-31.752115
 21
11.66027
  0
LINE
  8
寸法
  6
BYBLOCK
 62
     0
 10
-38.411528
 20
14.66027
 11
-31.752115
 21
14.66027
  0
LINE
  8
寸法
  6
BYBLOCK
 62
     0
 10
-31.752115
 20
11.66027
 11
-31.752115
 21
14.66027
  0
POINT
  8
寸法
 62
     0
 10
-31.752115
 20
11.66027
  0
POINT
  8
寸法
 62
     0
 10
-31.752115
 20
14.66027
  0
TEXT
  7
TextStyle03
  8
寸法
  6
CONTINUOUS
 62
     0
 10
-28.775
 20
11.55625
  1
60
 40
3.0
 50
90.0
 72
     5
 11
-28.775
 21
14.74375
  0
ENDBLK
  0
BLOCK
  2
*GRP_0008
 70
    65
 10
0.0
 20
0.0
  0
LINE
  8
別途部材
  6
CONTINUOUS
 62
    96
 10
-94.28589
 20
-59.90515
 11
-94.13589
 21
-59.90515
  0
LINE
  8
別途部材
  6
CONTINUOUS
 62
    96
 10
-94.43589
 20
-56.75353
 11
-96.432097
 21
-56.85804
  0
LINE
  8
別途部材
  6
CONTINUOUS
 62
    96
 10
-96.44589
 20
-57.68015
 11
-96.84589
 21
-57.50515
  0
LINE
  8
別途部材
  6
CONTINUOUS
 62
    96
 10
-96.414515
 20
-57.53015
 11
-96.646015
 21
-57.42887
  0
LINE
  8
別途部材
  6
CONTINUOUS
 62
    96
 10
-96.471273
 20
-56.709885
 11
-96.861575
 21
-56.90556
  0
LINE
  8
別途部材
  6
CONTINUOUS
 62
    96
 10
-96.432097
 20
-56.85804
 11
-96.827515
 21
-57.05628
  0
LINE
  8
別途部材
  6
CONTINUOUS
 62
    96
 10
-96.730192
 20
-57.109682
 11
-96.614498
 21
-57.014213
  0
LINE
  8
別途部材
  6
DASHDOTX2
 62
    96
 10
-96.84589
 20
-57.20515
 11
-96.84589
 21
-56.734922
  0
LINE
  8
別途部材
  6
DASHDOTX2
 62
    96
 10
-96.84589
 20
-57.20515
 11
-96.84589
 21
-57.70084
  0
LINE
  8
別途部材
  6
DASHDOTX2
 62
    96
 10
-96.84589
 20
-57.20515
 11
-96.450683
 21
-57.20515
  0
LINE
  8
別途部材
  6
DASHDOTX2
 62
    96
 10
-96.84589
 20
-57.20515
 11
-97.263355
 21
-57.20515
  0
LINE
  8
別途部材
  6
CONTINUOUS
 62
    96
 10
-94.13589
 20
-57.53015
 11
-96.414515
 21
-57.53015
  0
LINE
  8
別途部材
  6
CONTINUOUS
 62
    96
 10
-94.28589
 20
-57.68015
 11
-96.44589
 21
-57.68015
  0
LINE
  8
別途部材
  6
CONTINUOUS
 62
    96
 10
-94.585893
 20
-54.90353
 11
-94.585893
 21
-56.611178
  0
LINE
  8
別途部材
  6
CONTINUOUS
 62
    96
 10
-94.43589
 20
-54.90353
 11
-94.585893
 21
-54.90353
  0
LINE
  8
別途部材
  6
CONTINUOUS
 62
    96
 10
-94.43589
 20
-54.90353
 11
-94.43589
 21
-56.75353
  0
CIRCLE
  8
別途部材
  6
CONTINUOUS
 62
    96
 10
-96.84589
 20
-57.20515
 40
0.15
  0
ARC
  8
別途部材
  6
CONTINUOUS
 62
    96
 10
-96.845891
 20
-57.205148
 40
0.3
 50
92.998444
 51
411.219394
  0
LINE
  8
別途部材
  6
CONTINUOUS
 62
    96
 10
-94.13589
 20
-57.53015
 11
-94.13589
 21
-59.90515
  0
LINE
  8
別途部材
  6
CONTINUOUS
 62
    96
 10
-94.28589
 20
-57.68015
 11
-94.28589
 21
-59.90515
  0
LINE
  8
別途部材
  6
CONTINUOUS
 62
    96
 10
-96.471273
 20
-56.709885
 11
-94.585893
 21
-56.611178
  0
ENDBLK
  0
BLOCK
  2
*DIM_0009
 70
    65
 10
0.0
 20
0.0
  0
LINE
  8
寸法
  6
BYBLOCK
 62
     0
 10
-97.435615
 20
-59.380163
 11
-97.435615
 21
-16.126177
  0
LINE
  8
寸法
  6
BYBLOCK
 62
     0
 10
-92.435405
 20
-16.126177
 11
-97.435615
 21
-16.126177
  0
POINT
  8
寸法
 62
     0
 10
-92.435405
 20
-16.126177
  0
POINT
  8
寸法
 62
     0
 10
-97.435615
 20
-16.126177
  0
TEXT
  7
TextStyle03
  8
寸法
  6
CONTINUOUS
 62
     0
 10
-102.4375
 20
-15.775
  1
100
 40
3.0
 72
     5
 11
-97.5625
 21
-15.775
  0
ENDBLK
  0
BLOCK
  2
*DIM_0010
 70
    65
 10
0.0
 20
0.0
  0
LINE
  8
寸法
  6
BYBLOCK
 62
     0
 10
-42.435195
 20
-59.380163
 11
-42.435195
 21
-16.126177
  0
LINE
  8
寸法
  6
BYBLOCK
 62
     0
 10
-47.435405
 20
-16.126177
 11
-42.435195
 21
-16.126177
  0
POINT
  8
寸法
 62
     0
 10
-47.435405
 20
-16.126177
  0
POINT
  8
寸法
 62
     0
 10
-42.435195
 20
-16.126177
  0
TEXT
  7
TextStyle03
  8
寸法
  6
CONTINUOUS
 62
     0
 10
-42.3375
 20
-15.775
  1
100
 40
3.0
 72
     5
 11
-37.4625
 21
-15.775
  0
ENDBLK
  0
BLOCK
  2
*DIM_0011
 70
    65
 10
0.0
 20
0.0
  0
LINE
  8
寸法
  6
BYBLOCK
 62
     0
 10
122.054785
 20
77.557477
 11
122.054785
 21
85.111325
  0
LINE
  8
寸法
  6
BYBLOCK
 62
     0
 10
167.304785
 20
77.557477
 11
167.304785
 21
85.111325
  0
LINE
  8
寸法
  6
BYBLOCK
 62
     0
 10
122.054785
 20
85.111325
 11
167.304785
 21
85.111325
  0
POINT
  8
寸法
 62
     0
 10
122.054785
 20
85.111325
  0
POINT
  8
寸法
 62
     0
 10
167.304785
 20
85.111325
  0
TEXT
  7
TextStyle03
  8
寸法
  6
CONTINUOUS
 62
     0
 10
142.2375
 20
85.475
  1
905
 40
3.0
 72
     5
 11
147.1125
 21
85.475
  0
ENDBLK
  0
BLOCK
  2
*DIM_0012
 70
    65
 10
0.0
 20
0.0
  0
LINE
  8
寸法
  6
BYBLOCK
 62
     0
 10
170.304785
 20
74.557477
 11
179.351995
 21
74.557477
  0
LINE
  8
寸法
  6
BYBLOCK
 62
     0
 10
170.304785
 20
29.307477
 11
179.351995
 21
29.307477
  0
LINE
  8
寸法
  6
BYBLOCK
 62
     0
 10
179.351995
 20
74.557477
 11
179.351995
 21
29.307477
  0
POINT
  8
寸法
 62
     0
 10
179.351995
 20
74.557477
  0
POINT
  8
寸法
 62
     0
 10
179.351995
 20
29.307477
  0
TEXT
  7
TextStyle03
  8
寸法
  6
CONTINUOUS
 62
     0
 10
178.975
 20
49.4875
  1
905
 40
3.0
 50
90.0
 72
     5
 11
178.975
 21
54.3625
  0
ENDBLK
  0
BLOCK
  2
*DIM_0013
 70
    65
 10
0.0
 20
0.0
  0
LINE
  8
寸法
  6
CONTINUOUS
 10
-37.435195
 20
-61.130165
 11
-26.48546
 21
-61.130165
  0
LINE
  8
寸法
  6
CONTINUOUS
 10
-39.905608
 20
-51.355343
 11
-26.48546
 21
-51.355343
  0
LINE
  8
寸法
  6
CONTINUOUS
 10
-26.48546
 20
-61.130165
 11
-26.48546
 21
-51.355343
  0
POINT
  8
寸法
 10
-26.48546
 20
-61.130165
  0
POINT
  8
寸法
 10
-26.48546
 20
-51.355343
  0
TEXT
  7
TextStyle03
  8
寸法
  6
CONTINUOUS
 10
-22.375
 20
-61.775
  1
195.5
 40
4.0
 50
90.0
 72
     5
 11
-22.375
 21
-50.775
  0
ENDBLK
  0
BLOCK
  2
*GRP_0014
 70
    65
 10
0.0
 20
0.0
  0
LINE
  8
別途部材
  6
CONTINUOUS
 62
    96
 10
35.357365
 20
-59.90515
 11
35.507365
 21
-59.90515
  0
LINE
  8
別途部材
  6
CONTINUOUS
 62
    96
 10
35.207365
 20
-56.75353
 11
33.211158
 21
-56.85804
  0
LINE
  8
別途部材
  6
CONTINUOUS
 62
    96
 10
33.197365
 20
-57.68015
 11
32.797365
 21
-57.50515
  0
LINE
  8
別途部材
  6
CONTINUOUS
 62
    96
 10
33.22874
 20
-57.53015
 11
32.99724
 21
-57.42887
  0
LINE
  8
別途部材
  6
CONTINUOUS
 62
    96
 10
33.171983
 20
-56.709885
 11
32.78168
 21
-56.90556
  0
LINE
  8
別途部材
  6
CONTINUOUS
 62
    96
 10
33.211158
 20
-56.85804
 11
32.81574
 21
-57.05628
  0
LINE
  8
別途部材
  6
CONTINUOUS
 62
    96
 10
32.913062
 20
-57.109682
 11
33.028758
 21
-57.014213
  0
LINE
  8
別途部材
  6
DASHDOTX2
 62
    96
 10
32.797365
 20
-57.20515
 11
32.797365
 21
-56.734922
  0
LINE
  8
別途部材
  6
DASHDOTX2
 62
    96
 10
32.797365
 20
-57.20515
 11
32.797365
 21
-57.70084
  0
LINE
  8
別途部材
  6
DASHDOTX2
 62
    96
 10
32.797365
 20
-57.20515
 11
33.192572
 21
-57.20515
  0
LINE
  8
別途部材
  6
DASHDOTX2
 62
    96
 10
32.797365
 20
-57.20515
 11
32.3799
 21
-57.20515
  0
LINE
  8
別途部材
  6
CONTINUOUS
 62
    96
 10
35.507365
 20
-57.53015
 11
33.22874
 21
-57.53015
  0
LINE
  8
別途部材
  6
CONTINUOUS
 62
    96
 10
35.357365
 20
-57.68015
 11
33.197365
 21
-57.68015
  0
LINE
  8
別途部材
  6
CONTINUOUS
 62
    96
 10
35.057363
 20
-54.90353
 11
35.057363
 21
-56.611178
  0
LINE
  8
別途部材
  6
CONTINUOUS
 62
    96
 10
35.207365
 20
-54.90353
 11
35.057363
 21
-54.90353
  0
LINE
  8
別途部材
  6
CONTINUOUS
 62
    96
 10
35.207365
 20
-54.90353
 11
35.207365
 21
-56.75353
  0
CIRCLE
  8
別途部材
  6
CONTINUOUS
 62
    96
 10
32.797365
 20
-57.20515
 40
0.15
  0
ARC
  8
別途部材
  6
CONTINUOUS
 62
    96
 10
32.797364
 20
-57.205148
 40
0.3
 50
92.998444
 51
411.219394
  0
LINE
  8
別途部材
  6
CONTINUOUS
 62
    96
 10
35.507365
 20
-57.53015
 11
35.507365
 21
-59.90515
  0
LINE
  8
別途部材
  6
CONTINUOUS
 62
    96
 10
35.357365
 20
-57.68015
 11
35.357365
 21
-59.90515
  0
LINE
  8
別途部材
  6
CONTINUOUS
 62
    96
 10
33.171983
 20
-56.709885
 11
35.057363
 21
-56.611178
  0
ENDBLK
  0
ENDSEC
  0
SECTION
  2
ENTITIES
  0
POLYLINE
  8
通り芯
  6
CONTINUOUS
 66
     1
 70
     1
  0
VERTEX
  8
通り芯
 10
-210.0
 20
-148.5
  0
VERTEX
  8
通り芯
 10
210.0
 20
-148.5
  0
VERTEX
  8
通り芯
 10
210.0
 20
148.5
  0
VERTEX
  8
通り芯
 10
-210.0
 20
148.5
  0
SEQEND
  0
INSERT
  2
*GRP_0001
  8
型材断面
  6
CONTINUOUS
 10
0.0
 20
0.0
  0
LINE
  8
型材断面
  6
DASHDOT
 10
-69.935405
 20
-67.794
 11
-69.935405
 21
56.66027
  0
LINE
  8
型材断面
  6
DASHDOT
 10
-92.435405
 20
-67.794
 11
-92.435405
 21
56.66027
  0
LINE
  8
型材断面
  6
DASHDOT
 10
-47.435405
 20
-67.794
 11
-47.435405
 21
56.66027
  0
LINE
  8
型材断面
  6
DASHDOT
 10
-92.435405
 20
34.16027
 11
-47.435405
 21
34.16027
  0
LINE
  8
型材断面
  6
CONTINUOUS
 10
-69.935405
 20
64.684145
 11
-72.17885
 21
68.569905
  0
LINE
  8
型材断面
  6
CONTINUOUS
 10
-69.935405
 20
64.684145
 11
-67.69196
 21
68.569905
  0
LINE
  8
型材断面
  6
CONTINUOUS
 10
-67.69196
 20
68.569905
 11
-72.17885
 21
68.569905
  0
LINE
  8
型材断面
  6
CONTINUOUS
 10
-69.935405
 20
3.636395
 11
-72.17885
 21
-0.249365
  0
LINE
  8
型材断面
  6
CONTINUOUS
 10
-69.935405
 20
3.636395
 11
-67.69196
 21
-0.249365
  0
LINE
  8
型材断面
  6
CONTINUOUS
 10
-67.69196
 20
-0.249365
 11
-72.17885
 21
-0.249365
  0
LINE
  8
型材断面
  6
CONTINUOUS
 10
-39.41153
 20
34.16027
 11
-35.52577
 21
36.403715
  0
LINE
  8
型材断面
  6
CONTINUOUS
 10
-39.41153
 20
34.16027
 11
-35.52577
 21
31.916825
  0
LINE
  8
型材断面
  6
CONTINUOUS
 10
-35.52577
 20
31.916825
 11
-35.52577
 21
36.403715
  0
LINE
  8
型材断面
  6
CONTINUOUS
 10
-100.45928
 20
34.16027
 11
-104.34504
 21
36.403715
  0
LINE
  8
型材断面
  6
CONTINUOUS
 10
-100.45928
 20
34.16027
 11
-104.34504
 21
31.916825
  0
LINE
  8
型材断面
  6
CONTINUOUS
 10
-104.34504
 20
31.916825
 11
-104.34504
 21
36.403715
  0
LINE
  8
型材断面
  6
CONTINUOUS
 10
-7.342083
 20
5.196457
 11
-9.585527
 21
1.310698
  0
LINE
  8
型材断面
  6
CONTINUOUS
 10
-7.342083
 20
5.196457
 11
-5.098638
 21
1.310698
  0
LINE
  8
型材断面
  6
CONTINUOUS
 10
-5.098638
 20
1.310698
 11
-9.585527
 21
1.310698
  0
LINE
  8
型材断面
  6
CONTINUOUS
 10
-7.342083
 20
-2.49309
 11
-6.447998
 21
-6.37885
  0
LINE
  8
型材断面
  6
CONTINUOUS
 10
-7.342083
 20
-2.49309
 11
-8.236168
 21
-6.37885
  0
LINE
  8
型材断面
  6
CONTINUOUS
 10
-8.236168
 20
-6.37885
 11
-6.447998
 21
-6.37885
  0
LINE
  8
型材断面
  6
CONTINUOUS
 10
-16.375962
 20
-0.097195
 11
36.280717
 21
-0.097195
  0
LINE
  8
型材断面
  6
CONTINUOUS
 10
-16.375962
 20
-11.297188
 11
36.280717
 21
-11.297188
  0
LINE
  8
型材断面
  6
CONTINUOUS
 10
-16.375962
 20
-18.137133
 11
36.280717
 21
-18.137133
  0
LINE
  8
型材断面
  6
CONTINUOUS
 10
-39.411528
 20
53.66027
 11
-35.525767
 21
52.766185
  0
LINE
  8
型材断面
  6
CONTINUOUS
 10
-39.411528
 20
53.66027
 11
-35.525767
 21
54.554355
  0
LINE
  8
型材断面
  6
CONTINUOUS
 10
-35.525767
 20
54.554355
 11
-35.525767
 21
52.766185
  0
LINE
  8
型材断面
  6
CONTINUOUS
 10
-39.411528
 20
14.66027
 11
-35.525767
 21
15.554355
  0
LINE
  8
型材断面
  6
CONTINUOUS
 10
-39.411528
 20
14.66027
 11
-35.525767
 21
13.766185
  0
LINE
  8
型材断面
  6
CONTINUOUS
 10
-35.525767
 20
13.766185
 11
-35.525767
 21
15.554355
  0
POLYLINE
  8
型材断面
  6
CONTINUOUS
 66
     1
 70
     1
  0
VERTEX
  8
型材断面
 10
-103.31
 20
-54.880725
  0
VERTEX
  8
型材断面
 10
-116.90601
 20
-54.880725
  0
VERTEX
  8
型材断面
 10
-116.90601
 20
-60.174252
  0
VERTEX
  8
型材断面
 10
-103.31
 20
-60.174252
  0
SEQEND
  0
LINE
  8
型材断面
  6
CONTINUOUS
 10
-42.435195
 20
6.66006
 11
-69.935405
 21
6.66006
  0
LINE
  8
型材断面
  6
CONTINUOUS
 10
-42.435195
 20
6.66006
 11
-42.435195
 21
34.16027
  0
LINE
  8
型材断面
  6
CONTINUOUS
 10
-97.435615
 20
6.66006
 11
-69.935405
 21
6.66006
  0
LINE
  8
型材断面
  6
CONTINUOUS
 10
-97.435615
 20
61.66048
 11
-69.935405
 21
61.66048
  0
LINE
  8
型材断面
  6
CONTINUOUS
 10
-42.435195
 20
61.66048
 11
-69.935405
 21
61.66048
  0
LINE
  8
型材断面
  6
CONTINUOUS
 10
-42.435195
 20
61.66048
 11
-42.435195
 21
34.16027
  0
LINE
  8
型材断面
  6
CONTINUOUS
 62
    47
 10
-94.420405
 20
-55.190182
 11
-94.435405
 21
-55.175183
  0
LINE
  8
型材断面
  6
CONTINUOUS
 62
    47
 10
-94.420405
 20
-55.190182
 11
-94.435405
 21
-55.205182
  0
LINE
  8
型材断面
  6
CONTINUOUS
 62
    47
 10
-94.420405
 20
-56.15353
 11
-94.435405
 21
-56.13853
  0
LINE
  8
型材断面
  6
CONTINUOUS
 62
    47
 10
-94.420405
 20
-56.15353
 11
-94.435405
 21
-56.16853
  0
LINE
  8
型材断面
  6
CONTINUOUS
 62
    47
 10
-94.435405
 20
-56.780182
 11
-94.435405
 21
-56.16853
  0
LINE
  8
型材断面
  6
CONTINUOUS
 62
    47
 10
-94.435405
 20
-56.13853
 11
-94.435405
 21
-55.205182
  0
LINE
  8
型材断面
  6
CONTINUOUS
 62
    47
 10
-94.435405
 20
-55.175183
 11
-94.435405
 21
-54.130155
  0
LINE
  8
型材断面
  6
CONTINUOUS
 62
    47
 10
-96.335617
 20
-56.87967
 11
-96.335617
 21
-57.129612
  0
LINE
  8
型材断面
  6
CONTINUOUS
 62
    47
 10
-94.120615
 20
-58.480177
 11
-94.135615
 21
-58.465178
  0
LINE
  8
型材断面
  6
CONTINUOUS
 62
    47
 10
-94.120615
 20
-58.480177
 11
-94.135615
 21
-58.495178
  0
LINE
  8
型材断面
  6
CONTINUOUS
 62
    47
 10
-94.120615
 20
-59.180188
 11
-94.135615
 21
-59.165187
  0
LINE
  8
型材断面
  6
CONTINUOUS
 62
    47
 10
-94.120615
 20
-59.180188
 11
-94.135615
 21
-59.195187
  0
LINE
  8
型材断面
  6
CONTINUOUS
 62
    47
 10
-94.135615
 20
-57.53015
 11
-94.135615
 21
-58.465178
  0
LINE
  8
型材断面
  6
CONTINUOUS
 62
    47
 10
-94.135615
 20
-58.495178
 11
-94.135615
 21
-59.165187
  0
LINE
  8
型材断面
  6
CONTINUOUS
 62
    47
 10
-97.435615
 20
-60.380163
 11
-97.435615
 21
-61.130165
  0
LINE
  8
型材断面
  6
CONTINUOUS
 62
    47
 10
-96.685628
 20
-61.630163
 11
-96.685628
 21
-61.130165
  0
LINE
  8
型材断面
  6
CONTINUOUS
 62
    47
 10
-97.435615
 20
-60.380163
 11
-94.135615
 21
-60.130163
  0
LINE
  8
型材断面
  6
CONTINUOUS
 62
    47
 10
-93.035402
 20
-60.130163
 11
-94.035615
 21
-60.130163
  0
LINE
  8
型材断面
  6
CONTINUOUS
 62
    47
 10
-94.120615
 20
-59.980163
 11
-94.135615
 21
-59.965163
  0
LINE
  8
型材断面
  6
CONTINUOUS
 62
    47
 10
-94.120615
 20
-59.980163
 11
-94.135615
 21
-59.995162
  0
LINE
  8
型材断面
  6
CONTINUOUS
 62
    47
 10
-94.135615
 20
-60.130163
 11
-94.135615
 21
-59.995162
  0
LINE
  8
型材断面
  6
CONTINUOUS
 62
    47
 10
-94.135615
 20
-59.195187
 11
-94.135615
 21
-59.965163
  0
LINE
  8
型材断面
  6
CONTINUOUS
 62
    47
 10
-96.335615
 20
-57.53015
 11
-96.335615
 21
-57.330175
  0
LINE
  8
型材断面
  6
CONTINUOUS
 62
    47
 10
-94.435405
 20
-56.780182
 11
-96.335617
 21
-56.87967
  0
LINE
  8
型材断面
  6
CONTINUOUS
 62
    47
 10
-94.435405
 20
-54.130155
 11
-69.935405
 21
-54.130155
  0
LINE
  8
型材断面
  6
CONTINUOUS
 62
    47
 10
-96.335615
 20
-57.330175
 11
-69.935405
 21
-57.330175
  0
LINE
  8
型材断面
  6
CONTINUOUS
 62
    47
 10
-96.335615
 20
-57.53015
 11
-69.935405
 21
-57.53015
  0
LINE
  8
型材断面
  6
CONTINUOUS
 62
    47
 10
-96.335617
 20
-57.129612
 11
-69.935405
 21
-57.129612
  0
LINE
  8
型材断面
  6
CONTINUOUS
 10
-94.435405
 20
-56.780182
 11
-69.935405
 21
-56.780182
  0
LINE
  8
型材断面
  6
CONTINUOUS
 10
-96.335617
 20
-56.87967
 11
-69.935405
 21
-56.87967
  0
LINE
  8
型材断面
  6
CONTINUOUS
 10
-94.135615
 20
-60.130163
 11
-69.935405
 21
-60.130163
  0
LINE
  8
型材断面
  6
CONTINUOUS
 10
-97.435615
 20
-60.380163
 11
-69.935405
 21
-60.380163
  0
LINE
  8
型材断面
  6
CONTINUOUS
 62
    47
 10
-97.435615
 20
-61.130165
 11
-69.935405
 21
-61.130165
  0
LINE
  8
型材断面
  6
CONTINUOUS
 62
    47
 10
-96.685628
 20
-61.630163
 11
-69.935405
 21
-61.630163
  0
LINE
  8
型材断面
  6
CONTINUOUS
 62
    47
 10
-45.450405
 20
-55.190182
 11
-45.435405
 21
-55.175183
  0
LINE
  8
型材断面
  6
CONTINUOUS
 62
    47
 10
-45.450405
 20
-55.190182
 11
-45.435405
 21
-55.205182
  0
LINE
  8
型材断面
  6
CONTINUOUS
 62
    47
 10
-45.450405
 20
-56.15353
 11
-45.435405
 21
-56.13853
  0
LINE
  8
型材断面
  6
CONTINUOUS
 62
    47
 10
-45.450405
 20
-56.15353
 11
-45.435405
 21
-56.16853
  0
LINE
  8
型材断面
  6
CONTINUOUS
 62
    47
 10
-45.435405
 20
-56.780182
 11
-45.435405
 21
-56.16853
  0
LINE
  8
型材断面
  6
CONTINUOUS
 62
    47
 10
-45.435405
 20
-56.13853
 11
-45.435405
 21
-55.205182
  0
LINE
  8
型材断面
  6
CONTINUOUS
 62
    47
 10
-45.435405
 20
-55.175183
 11
-45.435405
 21
-54.130155
  0
LINE
  8
型材断面
  6
CONTINUOUS
 62
    47
 10
-43.535192
 20
-56.87967
 11
-43.535192
 21
-57.129612
  0
LINE
  8
型材断面
  6
CONTINUOUS
 62
    47
 10
-45.750195
 20
-58.480177
 11
-45.735195
 21
-58.465178
  0
LINE
  8
型材断面
  6
CONTINUOUS
 62
    47
 10
-45.750195
 20
-58.480177
 11
-45.735195
 21
-58.495178
  0
LINE
  8
型材断面
  6
CONTINUOUS
 62
    47
 10
-45.750195
 20
-59.180188
 11
-45.735195
 21
-59.165187
  0
LINE
  8
型材断面
  6
CONTINUOUS
 62
    47
 10
-45.750195
 20
-59.180188
 11
-45.735195
 21
-59.195187
  0
LINE
  8
型材断面
  6
CONTINUOUS
 62
    47
 10
-45.735195
 20
-57.53015
 11
-45.735195
 21
-58.465178
  0
LINE
  8
型材断面
  6
CONTINUOUS
 62
    47
 10
-45.735195
 20
-58.495178
 11
-45.735195
 21
-59.165187
  0
LINE
  8
型材断面
  6
CONTINUOUS
 62
    47
 10
-42.435195
 20
-60.380163
 11
-42.435195
 21
-61.130165
  0
LINE
  8
型材断面
  6
CONTINUOUS
 62
    47
 10
-43.185182
 20
-61.630163
 11
-43.185182
 21
-61.130165
  0
LINE
  8
型材断面
  6
CONTINUOUS
 62
    47
 10
-42.435195
 20
-60.380163
 11
-45.735195
 21
-60.130163
  0
LINE
  8
型材断面
  6
CONTINUOUS
 62
    47
 10
-46.835408
 20
-60.130163
 11
-45.835195
 21
-60.130163
  0
LINE
  8
型材断面
  6
CONTINUOUS
 62
    47
 10
-45.750195
 20
-59.980163
 11
-45.735195
 21
-59.965163
  0
LINE
  8
型材断面
  6
CONTINUOUS
 62
    47
 10
-45.750195
 20
-59.980163
 11
-45.735195
 21
-59.995162
  0
LINE
  8
型材断面
  6
CONTINUOUS
 62
    47
 10
-45.735195
 20
-60.130163
 11
-45.735195
 21
-59.995162
  0
LINE
  8
型材断面
  6
CONTINUOUS
 62
    47
 10
-45.735195
 20
-59.195187
 11
-45.735195
 21
-59.965163
  0
LINE
  8
型材断面
  6
CONTINUOUS
 62
    47
 10
-43.535195
 20
-57.53015
 11
-43.535195
 21
-57.330175
  0
LINE
  8
型材断面
  6
CONTINUOUS
 62
    47
 10
-45.435405
 20
-56.780182
 11
-43.535192
 21
-56.87967
  0
LINE
  8
型材断面
  6
CONTINUOUS
 62
    47
 10
-45.435405
 20
-54.130155
 11
-69.935405
 21
-54.130155
  0
LINE
  8
型材断面
  6
CONTINUOUS
 62
    47
 10
-43.535195
 20
-57.330175
 11
-69.935405
 21
-57.330175
  0
LINE
  8
型材断面
  6
CONTINUOUS
 62
    47
 10
-43.535195
 20
-57.53015
 11
-69.935405
 21
-57.53015
  0
LINE
  8
型材断面
  6
CONTINUOUS
 62
    47
 10
-43.535192
 20
-57.129612
 11
-69.935405
 21
-57.129612
  0
LINE
  8
型材断面
  6
CONTINUOUS
 10
-45.435405
 20
-56.780182
 11
-69.935405
 21
-56.780182
  0
LINE
  8
型材断面
  6
CONTINUOUS
 10
-43.535192
 20
-56.87967
 11
-69.935405
 21
-56.87967
  0
LINE
  8
型材断面
  6
CONTINUOUS
 10
-45.735195
 20
-60.130163
 11
-69.935405
 21
-60.130163
  0
LINE
  8
型材断面
  6
CONTINUOUS
 10
-42.435195
 20
-60.380163
 11
-69.935405
 21
-60.380163
  0
LINE
  8
型材断面
  6
CONTINUOUS
 62
    47
 10
-42.435195
 20
-61.130165
 11
-69.935405
 21
-61.130165
  0
LINE
  8
型材断面
  6
CONTINUOUS
 62
    47
 10
-43.185182
 20
-61.630163
 11
-69.935405
 21
-61.630163
  0
ARC
  8
型材断面
  6
DASHDOT
 10
32.797365
 20
-57.20515
 40
53.310753
 50
360.081184
 51
405.0
  0
LINE
  8
型材断面
  6
CONTINUOUS
 10
-45.14039
 20
-51.605343
 11
-45.14039
 21
-53.855343
  0
LINE
  8
型材断面
  6
CONTINUOUS
 10
-44.905608
 20
-51.605343
 11
-44.905608
 21
-51.355343
  0
LINE
  8
型材断面
  6
CONTINUOUS
 62
    47
 10
-45.14039
 20
-53.855343
 11
-69.935405
 21
-53.855343
  0
LINE
  8
型材断面
  6
CONTINUOUS
 62
    47
 10
-44.905608
 20
-51.605343
 11
-69.935405
 21
-51.605343
  0
LINE
  8
型材断面
  6
CONTINUOUS
 62
    47
 10
-44.905608
 20
-51.355343
 11
-69.935405
 21
-51.355343
  0
LINE
  8
型材断面
  6
CONTINUOUS
 10
-94.73042
 20
-51.605343
 11
-94.73042
 21
-53.855343
  0
LINE
  8
型材断面
  6
CONTINUOUS
 10
-94.965203
 20
-51.605343
 11
-94.965203
 21
-51.355343
  0
LINE
  8
型材断面
  6
CONTINUOUS
 62
    47
 10
-94.73042
 20
-53.855343
 11
-69.935405
 21
-53.855343
  0
LINE
  8
型材断面
  6
CONTINUOUS
 62
    47
 10
-94.965203
 20
-51.605343
 11
-69.935405
 21
-51.605343
  0
LINE
  8
型材断面
  6
CONTINUOUS
 62
    47
 10
-94.965203
 20
-51.355343
 11
-69.935405
 21
-51.355343
  0
LINE
  8
型材断面
  6
CONTINUOUS
 62
    47
 10
35.22285
 20
-55.190182
 11
35.20785
 21
-55.175183
  0
LINE
  8
型材断面
  6
CONTINUOUS
 62
    47
 10
35.22285
 20
-55.190182
 11
35.20785
 21
-55.205182
  0
LINE
  8
型材断面
  6
CONTINUOUS
 62
    47
 10
35.22285
 20
-56.15353
 11
35.20785
 21
-56.13853
  0
LINE
  8
型材断面
  6
CONTINUOUS
 62
    47
 10
35.22285
 20
-56.15353
 11
35.20785
 21
-56.16853
  0
LINE
  8
型材断面
  6
CONTINUOUS
 62
    47
 10
35.20785
 20
-56.780182
 11
35.20785
 21
-56.16853
  0
LINE
  8
型材断面
  6
CONTINUOUS
 62
    47
 10
35.20785
 20
-56.13853
 11
35.20785
 21
-55.205182
  0
LINE
  8
型材断面
  6
CONTINUOUS
 62
    47
 10
35.20785
 20
-55.175183
 11
35.20785
 21
-54.130155
  0
LINE
  8
型材断面
  6
CONTINUOUS
 62
    47
 10
33.307638
 20
-56.87967
 11
33.307638
 21
-57.129612
  0
LINE
  8
型材断面
  6
CONTINUOUS
 62
    47
 10
35.52264
 20
-58.480177
 11
35.50764
 21
-58.465178
  0
LINE
  8
型材断面
  6
CONTINUOUS
 62
    47
 10
35.52264
 20
-58.480177
 11
35.50764
 21
-58.495178
  0
LINE
  8
型材断面
  6
CONTINUOUS
 62
    47
 10
35.52264
 20
-59.180188
 11
35.50764
 21
-59.165187
  0
LINE
  8
型材断面
  6
CONTINUOUS
 62
    47
 10
35.52264
 20
-59.180188
 11
35.50764
 21
-59.195187
  0
LINE
  8
型材断面
  6
CONTINUOUS
 62
    47
 10
35.50764
 20
-57.53015
 11
35.50764
 21
-58.465178
  0
LINE
  8
型材断面
  6
CONTINUOUS
 62
    47
 10
35.50764
 20
-58.495178
 11
35.50764
 21
-59.165187
  0
LINE
  8
型材断面
  6
CONTINUOUS
 62
    47
 10
32.20764
 20
-60.380163
 11
32.20764
 21
-61.130165
  0
LINE
  8
型材断面
  6
CONTINUOUS
 62
    47
 10
32.957627
 20
-61.630163
 11
32.957627
 21
-61.130165
  0
LINE
  8
型材断面
  6
CONTINUOUS
 62
    47
 10
32.20764
 20
-60.380163
 11
35.50764
 21
-60.130163
  0
LINE
  8
型材断面
  6
CONTINUOUS
 62
    47
 10
36.607853
 20
-60.130163
 11
35.60764
 21
-60.130163
  0
LINE
  8
型材断面
  6
CONTINUOUS
 62
    47
 10
35.52264
 20
-59.980163
 11
35.50764
 21
-59.965163
  0
LINE
  8
型材断面
  6
CONTINUOUS
 62
    47
 10
35.52264
 20
-59.980163
 11
35.50764
 21
-59.995162
  0
LINE
  8
型材断面
  6
CONTINUOUS
 62
    47
 10
35.50764
 20
-60.130163
 11
35.50764
 21
-59.995162
  0
LINE
  8
型材断面
  6
CONTINUOUS
 62
    47
 10
35.50764
 20
-59.195187
 11
35.50764
 21
-59.965163
  0
LINE
  8
型材断面
  6
CONTINUOUS
 62
    47
 10
33.30764
 20
-57.53015
 11
33.30764
 21
-57.330175
  0
LINE
  8
型材断面
  6
CONTINUOUS
 62
    47
 10
35.20785
 20
-56.780182
 11
33.307638
 21
-56.87967
  0
LINE
  8
型材断面
  6
CONTINUOUS
 62
    47
 10
35.20785
 20
-54.130155
 11
59.70785
 21
-54.130155
  0
LINE
  8
型材断面
  6
CONTINUOUS
 62
    47
 10
33.30764
 20
-57.330175
 11
59.70785
 21
-57.330175
  0
LINE
  8
型材断面
  6
CONTINUOUS
 62
    47
 10
33.30764
 20
-57.53015
 11
59.70785
 21
-57.53015
  0
LINE
  8
型材断面
  6
CONTINUOUS
 62
    47
 10
33.307638
 20
-57.129612
 11
59.70785
 21
-57.129612
  0
LINE
  8
型材断面
  6
CONTINUOUS
 10
35.20785
 20
-56.780182
 11
59.70785
 21
-56.780182
  0
LINE
  8
型材断面
  6
CONTINUOUS
 10
33.307638
 20
-56.87967
 11
59.70785
 21
-56.87967
  0
LINE
  8
型材断面
  6
CONTINUOUS
 10
35.50764
 20
-60.130163
 11
59.70785
 21
-60.130163
  0
LINE
  8
型材断面
  6
CONTINUOUS
 10
32.20764
 20
-60.380163
 11
59.70785
 21
-60.380163
  0
LINE
  8
型材断面
  6
CONTINUOUS
 62
    47
 10
32.20764
 20
-61.130165
 11
59.70785
 21
-61.130165
  0
LINE
  8
型材断面
  6
CONTINUOUS
 62
    47
 10
32.957627
 20
-61.630163
 11
59.70785
 21
-61.630163
  0
LINE
  8
型材断面
  6
CONTINUOUS
 62
    47
 10
84.19285
 20
-55.190182
 11
84.20785
 21
-55.175183
  0
LINE
  8
型材断面
  6
CONTINUOUS
 62
    47
 10
84.19285
 20
-55.190182
 11
84.20785
 21
-55.205182
  0
LINE
  8
型材断面
  6
CONTINUOUS
 62
    47
 10
84.19285
 20
-56.15353
 11
84.20785
 21
-56.13853
  0
LINE
  8
型材断面
  6
CONTINUOUS
 62
    47
 10
84.19285
 20
-56.15353
 11
84.20785
 21
-56.16853
  0
LINE
  8
型材断面
  6
CONTINUOUS
 62
    47
 10
84.20785
 20
-56.780182
 11
84.20785
 21
-56.16853
  0
LINE
  8
型材断面
  6
CONTINUOUS
 62
    47
 10
84.20785
 20
-56.13853
 11
84.20785
 21
-55.205182
  0
LINE
  8
型材断面
  6
CONTINUOUS
 62
    47
 10
84.20785
 20
-55.175183
 11
84.20785
 21
-54.130155
  0
LINE
  8
型材断面
  6
CONTINUOUS
 62
    47
 10
86.108063
 20
-56.87967
 11
86.108063
 21
-57.129612
  0
LINE
  8
型材断面
  6
CONTINUOUS
 62
    47
 10
83.89306
 20
-58.480177
 11
83.90806
 21
-58.465178
  0
LINE
  8
型材断面
  6
CONTINUOUS
 62
    47
 10
83.89306
 20
-58.480177
 11
83.90806
 21
-58.495178
  0
LINE
  8
型材断面
  6
CONTINUOUS
 62
    47
 10
83.89306
 20
-59.180188
 11
83.90806
 21
-59.165187
  0
LINE
  8
型材断面
  6
CONTINUOUS
 62
    47
 10
83.89306
 20
-59.180188
 11
83.90806
 21
-59.195187
  0
LINE
  8
型材断面
  6
CONTINUOUS
 62
    47
 10
83.90806
 20
-57.53015
 11
83.90806
 21
-58.465178
  0
LINE
  8
型材断面
  6
CONTINUOUS
 62
    47
 10
83.90806
 20
-58.495178
 11
83.90806
 21
-59.165187
  0
LINE
  8
型材断面
  6
CONTINUOUS
 62
    47
 10
87.20806
 20
-60.380163
 11
87.20806
 21
-61.130165
  0
LINE
  8
型材断面
  6
CONTINUOUS
 62
    47
 10
86.458072
 20
-61.630163
 11
86.458072
 21
-61.130165
  0
LINE
  8
型材断面
  6
CONTINUOUS
 62
    47
 10
87.20806
 20
-60.380163
 11
83.90806
 21
-60.130163
  0
LINE
  8
型材断面
  6
CONTINUOUS
 62
    47
 10
82.807848
 20
-60.130163
 11
83.80806
 21
-60.130163
  0
LINE
  8
型材断面
  6
CONTINUOUS
 62
    47
 10
83.89306
 20
-59.980163
 11
83.90806
 21
-59.965163
  0
LINE
  8
型材断面
  6
CONTINUOUS
 62
    47
 10
83.89306
 20
-59.980163
 11
83.90806
 21
-59.995162
  0
LINE
  8
型材断面
  6
CONTINUOUS
 62
    47
 10
83.90806
 20
-60.130163
 11
83.90806
 21
-59.995162
  0
LINE
  8
型材断面
  6
CONTINUOUS
 62
    47
 10
83.90806
 20
-59.195187
 11
83.90806
 21
-59.965163
  0
LINE
  8
型材断面
  6
CONTINUOUS
 62
    47
 10
86.10806
 20
-57.53015
 11
86.10806
 21
-57.330175
  0
LINE
  8
型材断面
  6
CONTINUOUS
 62
    47
 10
84.20785
 20
-56.780182
 11
86.108063
 21
-56.87967
  0
LINE
  8
型材断面
  6
CONTINUOUS
 62
    47
 10
84.20785
 20
-54.130155
 11
59.70785
 21
-54.130155
  0
LINE
  8
型材断面
  6
CONTINUOUS
 62
    47
 10
86.10806
 20
-57.330175
 11
59.70785
 21
-57.330175
  0
LINE
  8
型材断面
  6
CONTINUOUS
 62
    47
 10
86.10806
 20
-57.53015
 11
59.70785
 21
-57.53015
  0
LINE
  8
型材断面
  6
CONTINUOUS
 62
    47
 10
86.108063
 20
-57.129612
 11
59.70785
 21
-57.129612
  0
LINE
  8
型材断面
  6
CONTINUOUS
 10
84.20785
 20
-56.780182
 11
59.70785
 21
-56.780182
  0
LINE
  8
型材断面
  6
CONTINUOUS
 10
86.108063
 20
-56.87967
 11
59.70785
 21
-56.87967
  0
LINE
  8
型材断面
  6
CONTINUOUS
 10
83.90806
 20
-60.130163
 11
59.70785
 21
-60.130163
  0
LINE
  8
型材断面
  6
CONTINUOUS
 10
87.20806
 20
-60.380163
 11
59.70785
 21
-60.380163
  0
LINE
  8
型材断面
  6
CONTINUOUS
 62
    47
 10
87.20806
 20
-61.130165
 11
59.70785
 21
-61.130165
  0
LINE
  8
型材断面
  6
CONTINUOUS
 62
    47
 10
86.458072
 20
-61.630163
 11
59.70785
 21
-61.630163
  0
LINE
  8
型材断面
  6
CONTINUOUS
 10
84.502865
 20
-51.605343
 11
84.502865
 21
-53.855343
  0
LINE
  8
型材断面
  6
CONTINUOUS
 10
84.737647
 20
-51.605343
 11
84.737647
 21
-51.355343
  0
LINE
  8
型材断面
  6
CONTINUOUS
 62
    47
 10
84.502865
 20
-53.855343
 11
59.70785
 21
-53.855343
  0
LINE
  8
型材断面
  6
CONTINUOUS
 62
    47
 10
84.737647
 20
-51.605343
 11
59.70785
 21
-51.605343
  0
LINE
  8
型材断面
  6
CONTINUOUS
 62
    47
 10
84.737647
 20
-51.355343
 11
59.70785
 21
-51.355343
  0
LINE
  8
型材断面
  6
CONTINUOUS
 10
34.912835
 20
-51.605343
 11
34.912835
 21
-53.855343
  0
LINE
  8
型材断面
  6
CONTINUOUS
 10
34.678053
 20
-51.605343
 11
34.678053
 21
-51.355343
  0
LINE
  8
型材断面
  6
CONTINUOUS
 62
    47
 10
34.912835
 20
-53.855343
 11
59.70785
 21
-53.855343
  0
LINE
  8
型材断面
  6
CONTINUOUS
 62
    47
 10
34.678053
 20
-51.605343
 11
59.70785
 21
-51.605343
  0
LINE
  8
型材断面
  6
CONTINUOUS
 62
    47
 10
34.678053
 20
-51.355343
 11
59.70785
 21
-51.355343
  0
LINE
  8
型材断面
  6
DOT
 62
    47
 10
33.087645
 20
-54.065275
 11
33.066432
 21
-54.065275
  0
LINE
  8
型材断面
  6
DOT
 62
    47
 10
33.087645
 20
-54.065275
 11
33.087645
 21
-54.08649
  0
LINE
  8
型材断面
  6
DOT
 62
    47
 10
33.768835
 20
-54.746465
 11
33.74762
 21
-54.746465
  0
LINE
  8
型材断面
  6
DOT
 62
    47
 10
33.768835
 20
-54.746465
 11
33.768835
 21
-54.767677
  0
LINE
  8
型材断面
  6
DOT
 62
    47
 10
34.201338
 20
-55.200183
 11
33.768835
 21
-54.767677
  0
LINE
  8
型材断面
  6
DOT
 62
    47
 10
33.74762
 20
-54.746465
 11
33.087645
 21
-54.08649
  0
LINE
  8
型材断面
  6
DOT
 62
    47
 10
33.066432
 20
-54.065275
 11
32.327485
 21
-53.32633
  0
LINE
  8
型材断面
  6
DOT
 62
    47
 10
32.928032
 20
-56.614182
 11
33.10477
 21
-56.79092
  0
LINE
  8
型材断面
  6
DOT
 62
    47
 10
34.201338
 20
-55.200183
 11
32.928032
 21
-56.614182
  0
LINE
  8
型材断面
  6
DOT
 62
    47
 10
32.613853
 20
-53.039963
 11
32.366245
 21
-52.792355
  0
LINE
  8
型材断面
  6
DOT
 62
    47
 10
32.327485
 20
-53.32633
 11
49.651603
 21
-36.002215
  0
LINE
  8
型材断面
  6
DOT
 62
    47
 10
33.10477
 20
-56.79092
 11
51.772537
 21
-38.12315
  0
LINE
  8
型材断面
  6
DOT
 10
34.201338
 20
-55.200183
 11
51.525455
 21
-37.876065
  0
LINE
  8
型材断面
  6
DOT
 10
32.928032
 20
-56.614182
 11
51.595802
 21
-37.946415
  0
LINE
  8
型材断面
  6
DOT
 62
    47
 10
67.714665
 20
-19.438257
 11
67.714665
 21
-19.417043
  0
LINE
  8
型材断面
  6
DOT
 62
    47
 10
67.714665
 20
-19.438257
 11
67.735878
 21
-19.438257
  0
LINE
  8
型材断面
  6
DOT
 62
    47
 10
68.395853
 20
-20.119448
 11
68.395853
 21
-20.098232
  0
LINE
  8
型材断面
  6
DOT
 62
    47
 10
68.395853
 20
-20.119448
 11
68.417067
 21
-20.119448
  0
LINE
  8
型材断面
  6
DOT
 62
    47
 10
68.84957
 20
-20.55195
 11
68.417067
 21
-20.119448
  0
LINE
  8
型材断面
  6
DOT
 62
    47
 10
68.395853
 20
-20.098232
 11
67.735878
 21
-19.438257
  0
LINE
  8
型材断面
  6
DOT
 62
    47
 10
67.714665
 20
-19.417043
 11
66.975718
 21
-18.678097
  0
LINE
  8
型材断面
  6
DOT
 62
    47
 10
70.263573
 20
-19.278645
 11
70.440308
 21
-19.45538
  0
LINE
  8
型材断面
  6
DOT
 62
    47
 10
68.84957
 20
-20.55195
 11
70.263573
 21
-19.278645
  0
LINE
  8
型材断面
  6
DOT
 62
    47
 10
66.68935
 20
-18.964465
 11
66.441742
 21
-18.716857
  0
LINE
  8
型材断面
  6
DOT
 62
    47
 10
66.975718
 20
-18.678097
 11
49.651603
 21
-36.002215
  0
LINE
  8
型材断面
  6
DOT
 62
    47
 10
70.440308
 20
-19.45538
 11
51.772537
 21
-38.12315
  0
LINE
  8
型材断面
  6
DOT
 10
68.84957
 20
-20.55195
 11
51.525455
 21
-37.876065
  0
LINE
  8
型材断面
  6
DOT
 10
70.263573
 20
-19.278645
 11
51.595802
 21
-37.946415
  0
LINE
  8
型材断面
  6
DOT
 10
65.399013
 20
-16.684177
 11
66.990003
 21
-18.275168
  0
LINE
  8
型材断面
  6
DOT
 10
65.56503
 20
-16.518163
 11
65.388253
 21
-16.341385
  0
LINE
  8
型材断面
  6
DOT
 62
    47
 10
66.990003
 20
-18.275168
 11
49.45728
 21
-35.807892
  0
LINE
  8
型材断面
  6
DOT
 62
    47
 10
65.56503
 20
-16.518163
 11
47.86629
 21
-34.216903
  0
LINE
  8
型材断面
  6
DOT
 62
    47
 10
65.388253
 20
-16.341385
 11
47.689512
 21
-34.040125
  0
LINE
  8
型材断面
  6
DOT
 10
30.333568
 20
-51.749625
 11
31.924558
 21
-53.340615
  0
LINE
  8
型材断面
  6
DOT
 10
30.16755
 20
-51.915643
 11
29.990772
 21
-51.738865
  0
LINE
  8
型材断面
  6
DOT
 62
    47
 10
31.924558
 20
-53.340615
 11
49.45728
 21
-35.807892
  0
LINE
  8
型材断面
  6
DOT
 62
    47
 10
30.16755
 20
-51.915643
 11
47.86629
 21
-34.216903
  0
LINE
  8
型材断面
  6
DOT
 62
    47
 10
29.990772
 20
-51.738865
 11
47.689512
 21
-34.040125
  0
LINE
  8
型材断面
  6
DASHDOT
 10
-92.435405
 20
56.66027
 11
-47.435405
 21
56.66027
  0
LINE
  8
型材断面
  6
DASHDOT
 10
-92.435405
 20
11.66027
 11
-47.435405
 21
11.66027
  0
LINE
  8
型材断面
  6
CONTINUOUS
 10
-43.535195
 20
60.560483
 11
-43.535195
 21
34.16027
  0
LINE
  8
型材断面
  6
CONTINUOUS
 10
-43.535192
 20
60.56048
 11
-69.935405
 21
60.56049
  0
LINE
  8
型材断面
  6
CONTINUOUS
 10
-94.965203
 20
59.190065
 11
-69.935405
 21
59.190075
  0
LINE
  8
型材断面
  6
CONTINUOUS
 10
-96.335617
 20
60.56048
 11
-69.935405
 21
60.56049
  0
LINE
  8
型材断面
  6
CONTINUOUS
 10
-94.965203
 20
9.130475
 11
-69.935405
 21
9.130465
  0
LINE
  8
型材断面
  6
CONTINUOUS
 10
-96.335617
 20
7.76006
 11
-69.935405
 21
7.76005
  0
LINE
  8
型材断面
  6
CONTINUOUS
 10
-43.535195
 20
7.760058
 11
-43.535195
 21
34.16027
  0
LINE
  8
型材断面
  6
CONTINUOUS
 10
-43.535192
 20
7.76006
 11
-69.935405
 21
7.76005
  0
LINE
  8
型材断面
  6
CONTINUOUS
 62
    47
 10
-45.84039
 20
-54.130155
 11
-45.84039
 21
-53.855343
  0
LINE
  8
型材断面
  6
CONTINUOUS
 62
    47
 10
-94.03042
 20
-54.130155
 11
-94.03042
 21
-53.855343
  0
LINE
  8
型材断面
  6
CONTINUOUS
 62
    47
 10
35.612835
 20
-54.130155
 11
35.612835
 21
-53.855343
  0
LINE
  8
型材断面
  6
CONTINUOUS
 62
    47
 10
83.802865
 20
-54.130155
 11
83.802865
 21
-53.855343
  0
LINE
  8
型材断面
  6
CONTINUOUS
 10
-45.259155
 20
9.130463
 11
-44.90561
 21
9.484025
  0
LINE
  8
型材断面
  6
CONTINUOUS
 10
-42.435195
 20
6.66006
 11
-45.08238
 21
9.307245
  0
LINE
  8
型材断面
  6
CONTINUOUS
 10
-49.009165
 20
12.880463
 11
-45.259165
 21
9.130472
  0
LINE
  8
型材断面
  6
CONTINUOUS
 10
-48.65561
 20
13.234017
 11
-44.905608
 21
9.484022
  0
LINE
  8
型材断面
  6
CONTINUOUS
 10
-49.009155
 20
12.880472
 11
-48.65561
 21
13.234017
  0
LINE
  8
型材断面
  6
CONTINUOUS
 10
-69.935405
 20
9.130465
 11
-45.259142
 21
9.130475
  0
LINE
  8
型材断面
  6
CONTINUOUS
 10
-44.90561
 20
34.16027
 11
-44.90561
 21
9.484025
  0
LINE
  8
型材断面
  6
CONTINUOUS
 10
-44.90561
 20
33.53527
 11
-48.65561
 21
33.53527
  0
LINE
  8
型材断面
  6
CONTINUOUS
 10
-44.90561
 20
34.78527
 11
-48.65561
 21
34.78527
  0
LINE
  8
型材断面
  6
CONTINUOUS
 10
-48.65561
 20
33.53527
 11
-48.65561
 21
13.234017
  0
LINE
  8
型材断面
  6
CONTINUOUS
 10
-45.259155
 20
59.190078
 11
-44.90561
 21
58.836515
  0
LINE
  8
型材断面
  6
CONTINUOUS
 10
-42.435195
 20
61.66048
 11
-45.08238
 21
59.013295
  0
LINE
  8
型材断面
  6
CONTINUOUS
 10
-49.009165
 20
55.440078
 11
-45.259165
 21
59.190068
  0
LINE
  8
型材断面
  6
CONTINUOUS
 10
-48.65561
 20
55.086522
 11
-44.905608
 21
58.836518
  0
LINE
  8
型材断面
  6
CONTINUOUS
 10
-48.65561
 20
34.78527
 11
-48.65561
 21
55.086522
  0
LINE
  8
型材断面
  6
CONTINUOUS
 10
-48.65561
 20
55.086522
 11
-49.009155
 21
55.440068
  0
LINE
  8
型材断面
  6
CONTINUOUS
 10
-69.935405
 20
59.190075
 11
-45.259167
 21
59.190065
  0
LINE
  8
型材断面
  6
CONTINUOUS
 10
-44.90561
 20
34.16027
 11
-44.90561
 21
58.836515
  0
LINE
  8
型材断面
  6
CONTINUOUS
 10
-97.435615
 20
6.66006
 11
-97.435615
 21
34.16027
  0
LINE
  8
型材断面
  6
CONTINUOUS
 10
-97.435615
 20
61.66048
 11
-97.435615
 21
34.16027
  0
LINE
  8
型材断面
  6
CONTINUOUS
 10
-96.335615
 20
60.560483
 11
-96.335615
 21
34.16027
  0
LINE
  8
型材断面
  6
CONTINUOUS
 10
-96.335615
 20
7.760058
 11
-96.335615
 21
34.16027
  0
LINE
  8
型材断面
  6
CONTINUOUS
 10
-94.611655
 20
9.130463
 11
-94.9652
 21
9.484025
  0
LINE
  8
型材断面
  6
CONTINUOUS
 10
-97.435615
 20
6.66006
 11
-94.78843
 21
9.307245
  0
LINE
  8
型材断面
  6
CONTINUOUS
 10
-90.861645
 20
12.880463
 11
-94.611645
 21
9.130472
  0
LINE
  8
型材断面
  6
CONTINUOUS
 10
-91.2152
 20
13.234017
 11
-94.965203
 21
9.484022
  0
LINE
  8
型材断面
  6
CONTINUOUS
 10
-90.861655
 20
12.880472
 11
-91.2152
 21
13.234017
  0
LINE
  8
型材断面
  6
CONTINUOUS
 10
-94.9652
 20
34.16027
 11
-94.9652
 21
9.484025
  0
LINE
  8
型材断面
  6
CONTINUOUS
 10
-94.9652
 20
33.53527
 11
-91.2152
 21
33.53527
  0
LINE
  8
型材断面
  6
CONTINUOUS
 10
-94.9652
 20
34.78527
 11
-91.2152
 21
34.78527
  0
LINE
  8
型材断面
  6
CONTINUOUS
 10
-91.2152
 20
33.53527
 11
-91.2152
 21
13.234017
  0
LINE
  8
型材断面
  6
CONTINUOUS
 10
-94.611655
 20
59.190078
 11
-94.9652
 21
58.836515
  0
LINE
  8
型材断面
  6
CONTINUOUS
 10
-97.435615
 20
61.66048
 11
-94.78843
 21
59.013295
  0
LINE
  8
型材断面
  6
CONTINUOUS
 10
-90.861645
 20
55.440078
 11
-94.611645
 21
59.190068
  0
LINE
  8
型材断面
  6
CONTINUOUS
 10
-91.2152
 20
55.086522
 11
-94.965203
 21
58.836518
  0
LINE
  8
型材断面
  6
CONTINUOUS
 10
-91.2152
 20
34.78527
 11
-91.2152
 21
55.086522
  0
LINE
  8
型材断面
  6
CONTINUOUS
 10
-91.2152
 20
55.086522
 11
-90.861655
 21
55.440068
  0
LINE
  8
型材断面
  6
CONTINUOUS
 10
-94.9652
 20
34.16027
 11
-94.9652
 21
58.836515
  0
LINE
  8
型材断面
  6
CONTINUOUS
 10
-70.560405
 20
9.130475
 11
-70.560405
 21
12.880475
  0
LINE
  8
型材断面
  6
CONTINUOUS
 10
-69.310405
 20
9.130475
 11
-69.310405
 21
12.880475
  0
LINE
  8
型材断面
  6
CONTINUOUS
 10
-70.560405
 20
59.190065
 11
-70.560405
 21
55.440065
  0
LINE
  8
型材断面
  6
CONTINUOUS
 10
-69.310405
 20
59.190065
 11
-69.310405
 21
55.440065
  0
LINE
  8
型材断面
  6
CONTINUOUS
 10
-91.2152
 20
55.440068
 11
-70.560405
 21
55.440075
  0
LINE
  8
型材断面
  6
CONTINUOUS
 10
-69.310405
 20
55.440075
 11
-49.009155
 21
55.440068
  0
LINE
  8
型材断面
  6
CONTINUOUS
 10
-69.310405
 20
12.880465
 11
-49.009155
 21
12.880472
  0
LINE
  8
型材断面
  6
CONTINUOUS
 10
-91.2152
 20
12.880472
 11
-70.560405
 21
12.880465
  0
POLYLINE
  8
型材断面
  6
DASHDOT
 66
     1
  0
VERTEX
  8
型材断面
 10
-47.435405
 20
11.66027
  0
VERTEX
  8
型材断面
 10
-92.435405
 20
34.16027
  0
VERTEX
  8
型材断面
 10
-47.435405
 20
56.66027
  0
SEQEND
  0
LINE
  8
ガラス
  6
CONTINUOUS
 10
-67.885473
 20
36.258963
 11
-71.83192
 21
32.312517
  0
LINE
  8
ガラス
  6
CONTINUOUS
 10
-68.869733
 20
33.296775
 11
-70.847657
 21
35.27471
  0
LINE
  8
ガラス
  6
CONTINUOUS
 10
-70.1493
 20
33.342453
 11
-68.624525
 21
34.867228
  0
LINE
  8
ガラス
  6
CONTINUOUS
 10
-69.568092
 20
35.229032
 11
-71.092862
 21
33.70426
  0
LINE
  8
ガラス
  6
CONTINUOUS
 10
167.304785
 20
74.557477
 11
122.054785
 21
74.557477
  0
LINE
  8
ガラス
  6
CONTINUOUS
 10
122.054785
 20
74.557477
 11
122.054785
 21
29.307477
  0
LINE
  8
ガラス
  6
CONTINUOUS
 10
122.054785
 20
29.307477
 11
167.304785
 21
29.307477
  0
LINE
  8
ガラス
  6
CONTINUOUS
 10
167.304785
 20
74.557477
 11
167.304785
 21
29.307477
  0
TEXT
  7
TextStyle03
  8
文字
  6
CONTINUOUS
 10
-3.075
 20
1.625
  1
は排水穴位置を示す
 40
3.0
 72
     5
 11
26.925
 21
1.625
  0
TEXT
  7
TextStyle03
  8
文字
  6
CONTINUOUS
 10
-8.675
 20
-16.75
  1
アンカー数量　６ヶ所
 40
3.0
 72
     5
 11
24.7
 21
-16.75
  0
TEXT
  7
TextStyle03
  8
文字
  6
CONTINUOUS
 10
-3.075
 20
-6.225
  1
はケーシング位置を示す
 40
3.0
 72
     5
 11
33.675
 21
-6.225
  0
TEXT
  7
TextStyle03
  8
文字
  6
CONTINUOUS
 10
-3.075
 20
-9.6
  1
２ヶ所中1ヶ所に設定
 40
3.0
 72
     5
 11
28.6125
 21
-9.6
  0
TEXT
  7
TextStyle03
  8
文字
  6
CONTINUOUS
 10
-98.825
 20
79.85
  1
アンカーピッチ
 40
3.0
 72
     5
 11
-75.575
 21
79.85
  0
TEXT
  7
TextStyle03
  8
文字
  6
CONTINUOUS
 10
-122.475
 20
1.75
  1
アンカーピッチ
 40
3.0
 50
90.0
 72
     5
 11
-122.475
 21
25.0
  0
TEXT
  7
TextStyle03
  8
文字
  6
CONTINUOUS
 10
-115.275
 20
-58.9
  1
丁番側
 40
3.0
 72
     5
 11
-105.525
 21
-58.9
  0
TEXT
  7
TextStyle03
  8
文字
  6
CONTINUOUS
 10
70.1
 20
96.9
  1
ＮＳコード：ＮＳＦＨＺ
 40
5.0
 72
     5
 11
131.35
 21
96.9
  0
TEXT
  7
TextStyle03
  8
文字
  6
CONTINUOUS
 10
147.675
 20
37.075
  1
網入り6.8t
 40
3.0
 72
     5
 11
164.3625
 21
37.075
  0
TEXT
  7
TextStyle03
  8
文字
  6
CONTINUOUS
 10
154.3
 20
31.825
  1
×１枚
 40
3.0
 72
     5
 11
164.05
 21
31.825
  0
TEXT
  7
TextStyle03
  8
文字
  6
CONTINUOUS
 10
84.725
 20
-39.4
  1
45°
 40
3.0
 72
     5
 11
91.1
 21
-39.4
  0
TEXT
  7
TextStyle03
  8
文字
  6
CONTINUOUS
 10
70.15
 20
124.375
  1
シリーズ：ＴＦ２ＦＨ
 40
5.0
 72
     5
 11
125.775
 21
124.375
  0
TEXT
  7
TextStyle03
  8
文字
  6
CONTINUOUS
 10
70.15
 20
118.75
  1
　　　　　（片側開閉）900×900タイプ
 40
5.0
 72
     5
 11
170.775
 21
118.75
  0
TEXT
  7
TextStyle03
  8
文字
  6
CONTINUOUS
 10
70.15
 20
113.125
  1

 40
5.0
 41
1.125
  0
TEXT
  7
TextStyle03
  8
文字
  6
CONTINUOUS
 10
70.15
 20
107.5
  1
図面名　：外観姿図
 40
5.0
 72
     5
 11
120.15
 21
107.5
  0
INSERT
  2
*DIM_0002
  8
寸法
  6
CONTINUOUS
 10
0.0
 20
0.0
  0
INSERT
  2
*DIM_0003
  8
寸法
  6
CONTINUOUS
 10
0.0
 20
0.0
  0
INSERT
  2
*DIM_0004
  8
寸法
  6
CONTINUOUS
 10
0.0
 20
0.0
  0
INSERT
  2
*DIM_0005
  8
寸法
  6
CONTINUOUS
 10
0.0
 20
0.0
  0
INSERT
  2
*DIM_0006
  8
寸法
  6
CONTINUOUS
 10
0.0
 20
0.0
  0
INSERT
  2
*DIM_0007
  8
寸法
  6
CONTINUOUS
 10
0.0
 20
0.0
  0
INSERT
  2
*DIM_0009
  8
寸法
  6
CONTINUOUS
 10
0.0
 20
0.0
  0
INSERT
  2
*DIM_0010
  8
寸法
  6
CONTINUOUS
 10
0.0
 20
0.0
  0
CIRCLE
  8
寸法
  6
CONTINUOUS
 10
-111.453763
 20
34.16027
 40
1.73792
  0
INSERT
  2
*DIM_0011
  8
寸法
  6
CONTINUOUS
 10
0.0
 20
0.0
  0
INSERT
  2
*DIM_0012
  8
寸法
  6
CONTINUOUS
 10
0.0
 20
0.0
  0
INSERT
  2
*DIM_0013
  8
寸法
  6
CONTINUOUS
 10
0.0
 20
0.0
  0
INSERT
  2
*GRP_0008
  8
別途部材
  6
CONTINUOUS
 10
0.0
 20
0.0
  0
INSERT
  2
*GRP_0014
  8
別途部材
  6
CONTINUOUS
 10
0.0
 20
0.0
  0
ENDSEC
  0
EOF
