  0
SECTION
  2
HEADER
  9
$EXTMIN
 10
-210.0
 20
-148.5
  9
$EXTMAX
 10
210.0
 20
148.5
  9
$PDMODE
 70
    32
  9
$PDSIZE
 40
1.5
  9
$LTSCALE
 40
10.0
  0
ENDSEC
  0
SECTION
  2
TABLES
  0
TABLE
  2
LTYPE
 70
    15
  0
LTYPE
  2
CONTINUOUS
 70
    64
  3
実線
 72
    65
 73
     0
 40
0.0
  0
LTYPE
  2
DASHED
 70
    64
  3
破線A
 72
    65
 73
     2
 40
0.6
 49
0.4
 49
-0.2
  0
LTYPE
  2
DASHEDX2
 70
    64
  3
破線B
 72
    65
 73
     2
 40
1.3
 49
0.9
 49
-0.4
  0
LTYPE
  2
DASHDOT
 70
    64
  3
１点鎖線A
 72
    65
 73
     4
 40
0.5375
 49
0.375
 49
-0.05
 49
0.0625
 49
-0.05
  0
LTYPE
  2
DASHDOTX2
 70
    64
  3
１点鎖線B
 72
    65
 73
     4
 40
1.075
 49
0.75
 49
-0.1
 49
0.125
 49
-0.1
  0
LTYPE
  2
DIVIDE2
 70
    64
  3
２点鎖線A
 72
    65
 73
     6
 40
0.5125
 49
0.3
 49
-0.0375
 49
0.05
 49
-0.0375
 49
0.05
 49
-0.0375
  0
LTYPE
  2
DIVIDE
 70
    64
  3
２点鎖線B
 72
    65
 73
     6
 40
1.05
 49
0.55
 49
-0.1
 49
0.1
 49
-0.1
 49
0.1
 49
-0.1
  0
LTYPE
  2
DOT
 70
    64
  3
点線A
 72
    65
 73
     2
 40
0.1125
 49
0.0625
 49
-0.05
  0
LTYPE
  2
DOTX2
 70
    64
  3
点線B
 72
    65
 73
     2
 40
0.275
 49
0.15
 49
-0.125
  0
LTYPE
  2
CONTINUOUS
 70
    64
  3
実線
 72
    65
 73
     0
 40
0.0
  0
LTYPE
  2
CONTINUOUS
 70
    64
  3
実線
 72
    65
 73
     0
 40
0.0
  0
LTYPE
  2
CONTINUOUS
 70
    64
  3
実線
 72
    65
 73
     0
 40
0.0
  0
LTYPE
  2
CONTINUOUS
 70
    64
  3
実線
 72
    65
 73
     0
 40
0.0
  0
LTYPE
  2
CONTINUOUS
 70
    64
  3
実線
 72
    65
 73
     0
 40
0.0
  0
LTYPE
  2
CONTINUOUS
 70
    64
  3
実線
 72
    65
 73
     0
 40
0.0
  0
ENDTAB
  0
TABLE
  2
LAYER
 70
    34
  0
LAYER
  2
通り芯
 70
     0
 62
    15
  6
CONTINUOUS
  0
LAYER
  2
補助線
 70
     0
 62
    16
  6
DOT
  0
LAYER
  2
躯体
 70
     0
 62
    31
  6
CONTINUOUS
  0
LAYER
  2
型材
 70
     0
 62
    32
  6
CONTINUOUS
  0
LAYER
  2
型材断面
 70
     0
 62
    47
  6
CONTINUOUS
  0
LAYER
  2
ガラス
 70
     0
 62
    48
  6
CONTINUOUS
  0
LAYER
  2
ゴム等
 70
     0
 62
    63
  6
CONTINUOUS
  0
LAYER
  2
ボルト／ビス
 70
     0
 62
    64
  6
CONTINUOUS
  0
LAYER
  2
文字
 70
     0
 62
    79
  6
CONTINUOUS
  0
LAYER
  2
寸法
 70
     0
 62
    80
  6
CONTINUOUS
  0
LAYER
  2
ﾊｯﾁﾝｸﾞ
 70
     0
 62
    95
  6
CONTINUOUS
  0
LAYER
  2
別途部材
 70
     0
 62
    96
  6
CONTINUOUS
  0
LAYER
  2
曲げ物
 70
     0
 62
   111
  6
CONTINUOUS
  0
LAYER
  2
鉄骨等
 70
     0
 62
   112
  6
CONTINUOUS
  0
LAYER
  2
St
 70
     0
 62
   127
  6
CONTINUOUS
  0
LAYER
  2
その他部品等
 70
     0
 62
   128
  6
CONTINUOUS
  0
LAYER
  2
ｶﾞｽｹｯﾄ
 70
     0
 62
   143
  6
CONTINUOUS
  0
LAYER
  2
ｽｹｯﾁ
 70
     0
 62
    14
  6
CONTINUOUS
  0
LAYER
  2
0
 70
     0
 62
    17
  6
CONTINUOUS
  0
LAYER
  2
1
 70
     0
 62
    30
  6
CONTINUOUS
  0
LAYER
  2
4
 70
     0
 62
    33
  6
CONTINUOUS
  0
LAYER
  2
ﾚｲﾔ3
 70
     0
 62
    46
  6
CONTINUOUS
  0
LAYER
  2
外形線
 70
     0
 62
    49
  6
CONTINUOUS
  0
LAYER
  2
部品
 70
     0
 62
    14
  6
CONTINUOUS
  0
LAYER
  2
サッシ芯
 70
     0
 62
    17
  6
DASHDOTX2
  0
LAYER
  2
寸法線
 70
     0
 62
    62
  6
CONTINUOUS
  0
LAYER
  2
姿図外形線
 70
     0
 62
    65
  6
CONTINUOUS
  0
LAYER
  2
姿補助線
 70
     0
 62
    30
  6
CONTINUOUS
  0
LAYER
  2
透視線
 70
     0
 62
    78
  6
DOT
  0
LAYER
  2
用紙
 70
     0
 62
    81
  6
CONTINUOUS
  0
LAYER
  2
実線図枠
 70
     0
 62
    94
  6
CONTINUOUS
  0
LAYER
  2
補助図枠
 70
     0
 62
    97
  6
CONTINUOUS
  0
LAYER
  2
建具記号
 70
     0
 62
   110
  6
CONTINUOUS
  0
LAYER
  2
補助文字
 70
     0
 62
   113
  6
CONTINUOUS
  0
ENDTAB
  0
TABLE
  2
STYLE
 70
    10
  0
STYLE
  2
STANDARD
 70
     0
 40
1.0
 41
1.0
 42
1.0
 50
0.0
 71
     0
  3
TXT
  4
BIGFONT
  0
STYLE
  2
TATE
 70
     4
 40
1.0
 41
1.0
 42
1.0
 50
0.0
 71
     0
  3
TXT
  4
BIGFONT
  0
STYLE
  2
TextStyle03
 70
     0
 40
1.0
 41
1.0
 42
1.0
 50
0.0
 71
     0
  3
MONOTXT
  4
BIGFONT
  0
STYLE
  2
TextStyle04
 70
     0
 40
1.0
 41
1.0
 42
1.0
 50
0.0
 71
     0
  3
MONOTXT
  4
BIGFONT
  0
STYLE
  2
TextStyle05
 70
     0
 40
1.0
 41
1.0
 42
1.0
 50
0.0
 71
     0
  3
MONOTXT
  4
BIGFONT
  0
STYLE
  2
TextStyle06
 70
     0
 40
1.0
 41
1.0
 42
1.0
 50
0.0
 71
     0
  3
MONOTXT
  4
BIGFONT
  0
STYLE
  2
TextStyle07
 70
     0
 40
1.0
 41
1.0
 42
1.0
 50
0.0
 71
     0
  3
MONOTXT
  4
BIGFONT
  0
STYLE
  2
TextStyle08
 70
     0
 40
1.0
 41
1.0
 42
1.0
 50
0.0
 71
     0
  3
MONOTXT
  4
BIGFONT
  0
STYLE
  2
TextStyle09
 70
     0
 40
1.0
 41
1.0
 42
1.0
 50
0.0
 71
     0
  3
MONOTXT
  4
BIGFONT
  0
STYLE
  2
TextStyle10
 70
     0
 40
1.0
 41
1.0
 42
1.0
 50
0.0
 71
     0
  3
MONOTXT
  4
BIGFONT
  0
ENDTAB
  0
ENDSEC
  0
SECTION
  2
BLOCKS
  0
BLOCK
  2
*GRP_0001
 70
    65
 10
0.0
 20
0.0
  0
LINE
  8
型材断面
  6
CONTINUOUS
 10
195.0
 20
133.5
 11
195.0
 21
-133.5
  0
LINE
  8
型材断面
  6
CONTINUOUS
 10
195.0
 20
-133.5
 11
-185.0
 21
-133.5
  0
LINE
  8
型材断面
  6
CONTINUOUS
 10
-185.0
 20
-133.5
 11
-185.0
 21
133.5
  0
LINE
  8
型材断面
  6
CONTINUOUS
 10
195.0
 20
133.5
 11
-185.0
 21
133.5
  0
LINE
  8
型材断面
  6
CONTINUOUS
 10
145.0
 20
-133.5
 11
145.0
 21
-118.5
  0
LINE
  8
型材断面
  6
CONTINUOUS
 10
195.0
 20
-118.5
 11
145.0
 21
-118.5
  0
ENDBLK
  0
BLOCK
  2
*DIM_0002
 70
    65
 10
0.0
 20
0.0
  0
LINE
  8
寸法
  6
BYBLOCK
 62
     0
 10
-95.755937
 20
-35.080245
 11
-95.755937
 21
-33.416065
  0
LINE
  8
寸法
  6
BYBLOCK
 62
     0
 10
-30.755937
 20
-35.080245
 11
-30.755937
 21
-33.416065
  0
LINE
  8
寸法
  6
BYBLOCK
 62
     0
 10
-95.755937
 20
-33.416065
 11
-30.755937
 21
-33.416065
  0
POINT
  8
寸法
 62
     0
 10
-95.755937
 20
-33.416065
  0
POINT
  8
寸法
 62
     0
 10
-30.755937
 20
-33.416065
  0
TEXT
  7
TextStyle03
  8
寸法
  6
CONTINUOUS
 62
     0
 10
-74.99375
 20
-33.05
  1
呼称寸法　1300
 40
3.0
 72
     5
 11
-51.55625
 21
-33.05
  0
ENDBLK
  0
BLOCK
  2
*DIM_0003
 70
    65
 10
0.0
 20
0.0
  0
LINE
  8
寸法
  6
BYBLOCK
 62
     0
 10
-29.755937
 20
59.370383
 11
-15.072648
 21
59.370383
  0
LINE
  8
寸法
  6
BYBLOCK
 62
     0
 10
-21.73206
 20
56.370383
 11
-15.072648
 21
56.370383
  0
LINE
  8
寸法
  6
BYBLOCK
 62
     0
 10
-15.072648
 20
59.370383
 11
-15.072648
 21
56.370383
  0
POINT
  8
寸法
 62
     0
 10
-15.072648
 20
59.370383
  0
POINT
  8
寸法
 62
     0
 10
-15.072648
 20
56.370383
  0
TEXT
  7
TextStyle03
  8
寸法
  6
CONTINUOUS
 62
     0
 10
-12.1
 20
56.23125
  1
60
 40
3.0
 50
90.0
 72
     5
 11
-12.1
 21
59.41875
  0
ENDBLK
  0
BLOCK
  2
*DIM_0004
 70
    65
 10
0.0
 20
0.0
  0
LINE
  8
寸法
  6
BYBLOCK
 62
     0
 10
-29.755937
 20
-5.629618
 11
-15.072648
 21
-5.629618
  0
LINE
  8
寸法
  6
BYBLOCK
 62
     0
 10
-21.73206
 20
-2.629618
 11
-15.072648
 21
-2.629618
  0
LINE
  8
寸法
  6
BYBLOCK
 62
     0
 10
-15.072648
 20
-5.629618
 11
-15.072648
 21
-2.629618
  0
POINT
  8
寸法
 62
     0
 10
-15.072648
 20
-5.629618
  0
POINT
  8
寸法
 62
     0
 10
-15.072648
 20
-2.629618
  0
TEXT
  7
TextStyle03
  8
寸法
  6
CONTINUOUS
 62
     0
 10
-12.075
 20
-5.74375
  1
60
 40
3.0
 50
90.0
 72
     5
 11
-12.075
 21
-2.55625
  0
ENDBLK
  0
BLOCK
  2
*GRP_0005
 70
    65
 10
0.0
 20
0.0
  0
LINE
  8
別途部材
  6
CONTINUOUS
 62
    96
 10
-97.606423
 20
-77.195038
 11
-97.456423
 21
-77.195038
  0
LINE
  8
別途部材
  6
CONTINUOUS
 62
    96
 10
-97.756423
 20
-74.043418
 11
-99.75263
 21
-74.147927
  0
LINE
  8
別途部材
  6
CONTINUOUS
 62
    96
 10
-99.766423
 20
-74.970038
 11
-100.166423
 21
-74.795038
  0
LINE
  8
別途部材
  6
CONTINUOUS
 62
    96
 10
-99.735048
 20
-74.820038
 11
-99.966547
 21
-74.718757
  0
LINE
  8
別途部材
  6
CONTINUOUS
 62
    96
 10
-99.791805
 20
-73.999773
 11
-100.182107
 21
-74.195447
  0
LINE
  8
別途部材
  6
CONTINUOUS
 62
    96
 10
-99.75263
 20
-74.147927
 11
-100.148048
 21
-74.346167
  0
LINE
  8
別途部材
  6
CONTINUOUS
 62
    96
 10
-100.050725
 20
-74.39957
 11
-99.93503
 21
-74.3041
  0
LINE
  8
別途部材
  6
DASHDOTX2
 62
    96
 10
-100.166423
 20
-74.495038
 11
-100.166423
 21
-74.02481
  0
LINE
  8
別途部材
  6
DASHDOTX2
 62
    96
 10
-100.166423
 20
-74.495038
 11
-100.166423
 21
-74.990727
  0
LINE
  8
別途部材
  6
DASHDOTX2
 62
    96
 10
-100.166423
 20
-74.495038
 11
-99.771215
 21
-74.495038
  0
LINE
  8
別途部材
  6
DASHDOTX2
 62
    96
 10
-100.166423
 20
-74.495038
 11
-100.583888
 21
-74.495038
  0
LINE
  8
別途部材
  6
CONTINUOUS
 62
    96
 10
-97.456423
 20
-74.820038
 11
-99.735048
 21
-74.820038
  0
LINE
  8
別途部材
  6
CONTINUOUS
 62
    96
 10
-97.606423
 20
-74.970038
 11
-99.766423
 21
-74.970038
  0
LINE
  8
別途部材
  6
CONTINUOUS
 62
    96
 10
-97.906425
 20
-72.193418
 11
-97.906425
 21
-73.901065
  0
LINE
  8
別途部材
  6
CONTINUOUS
 62
    96
 10
-97.756423
 20
-72.193418
 11
-97.906425
 21
-72.193418
  0
LINE
  8
別途部材
  6
CONTINUOUS
 62
    96
 10
-97.756423
 20
-72.193418
 11
-97.756423
 21
-74.043418
  0
CIRCLE
  8
別途部材
  6
CONTINUOUS
 62
    96
 10
-100.166423
 20
-74.495038
 40
0.15
  0
ARC
  8
別途部材
  6
CONTINUOUS
 62
    96
 10
-100.166424
 20
-74.495036
 40
0.3
 50
92.998444
 51
411.219394
  0
LINE
  8
別途部材
  6
CONTINUOUS
 62
    96
 10
-97.456423
 20
-74.820038
 11
-97.456423
 21
-77.195038
  0
LINE
  8
別途部材
  6
CONTINUOUS
 62
    96
 10
-97.606423
 20
-74.970038
 11
-97.606423
 21
-77.195038
  0
LINE
  8
別途部材
  6
CONTINUOUS
 62
    96
 10
-99.791805
 20
-73.999773
 11
-97.906425
 21
-73.901065
  0
ENDBLK
  0
BLOCK
  2
*DIM_0006
 70
    65
 10
0.0
 20
0.0
  0
LINE
  8
寸法
  6
BYBLOCK
 62
     0
 10
-100.756148
 20
-76.67005
 11
-100.756148
 21
-33.416065
  0
LINE
  8
寸法
  6
BYBLOCK
 62
     0
 10
-95.755937
 20
-33.416065
 11
-100.756148
 21
-33.416065
  0
POINT
  8
寸法
 62
     0
 10
-95.755937
 20
-33.416065
  0
POINT
  8
寸法
 62
     0
 10
-100.756148
 20
-33.416065
  0
TEXT
  7
TextStyle03
  8
寸法
  6
CONTINUOUS
 62
     0
 10
-105.7625
 20
-33.05
  1
100
 40
3.0
 72
     5
 11
-100.8875
 21
-33.05
  0
ENDBLK
  0
BLOCK
  2
*DIM_0007
 70
    65
 10
0.0
 20
0.0
  0
LINE
  8
寸法
  6
BYBLOCK
 62
     0
 10
-25.755728
 20
-76.67005
 11
-25.755728
 21
-33.416065
  0
LINE
  8
寸法
  6
BYBLOCK
 62
     0
 10
-30.755937
 20
-33.416065
 11
-25.755728
 21
-33.416065
  0
POINT
  8
寸法
 62
     0
 10
-30.755937
 20
-33.416065
  0
POINT
  8
寸法
 62
     0
 10
-25.755728
 20
-33.416065
  0
TEXT
  7
TextStyle03
  8
寸法
  6
CONTINUOUS
 62
     0
 10
-25.6625
 20
-33.05
  1
100
 40
3.0
 72
     5
 11
-20.7875
 21
-33.05
  0
ENDBLK
  0
BLOCK
  2
*DIM_0008
 70
    65
 10
0.0
 20
0.0
  0
LINE
  8
寸法
  6
BYBLOCK
 62
     0
 10
-80.755937
 20
82.238818
 11
-80.755937
 21
92.594355
  0
LINE
  8
寸法
  6
BYBLOCK
 62
     0
 10
-45.755937
 20
82.238818
 11
-45.755937
 21
92.594355
  0
LINE
  8
寸法
  6
BYBLOCK
 62
     0
 10
-80.755937
 20
92.594355
 11
-45.755937
 21
92.594355
  0
POINT
  8
寸法
 62
     0
 10
-80.755937
 20
92.594355
  0
POINT
  8
寸法
 62
     0
 10
-45.755937
 20
92.594355
  0
TEXT
  7
TextStyle03
  8
寸法
  6
CONTINUOUS
 62
     0
 10
-65.7125
 20
92.975
  1
700
 40
3.0
 72
     5
 11
-60.8375
 21
92.975
  0
ENDBLK
  0
BLOCK
  2
*DIM_0009
 70
    65
 10
0.0
 20
0.0
  0
LINE
  8
寸法
  6
BYBLOCK
 62
     0
 10
-123.904373
 20
44.370385
 11
-134.25991
 21
44.370385
  0
LINE
  8
寸法
  6
BYBLOCK
 62
     0
 10
-123.904375
 20
9.370385
 11
-134.259912
 21
9.370385
  0
LINE
  8
寸法
  6
BYBLOCK
 62
     0
 10
-134.25991
 20
44.370385
 11
-134.259912
 21
9.370385
  0
POINT
  8
寸法
 62
     0
 10
-134.25991
 20
44.370385
  0
POINT
  8
寸法
 62
     0
 10
-134.259912
 20
9.370385
  0
TEXT
  7
TextStyle03
  8
寸法
  6
CONTINUOUS
 62
     0
 10
-134.65
 20
24.4375
  1
700
 40
3.0
 50
90.0
 72
     5
 11
-134.65
 21
29.3125
  0
ENDBLK
  0
BLOCK
  2
*DIM_0010
 70
    65
 10
0.0
 20
0.0
  0
LINE
  8
寸法
  6
BYBLOCK
 62
     0
 10
100.417285
 20
78.807477
 11
100.417285
 21
85.30483
  0
LINE
  8
寸法
  6
BYBLOCK
 62
     0
 10
165.667285
 20
78.807477
 11
165.667285
 21
85.30483
  0
LINE
  8
寸法
  6
BYBLOCK
 62
     0
 10
100.417285
 20
85.30483
 11
165.667285
 21
85.30483
  0
POINT
  8
寸法
 62
     0
 10
100.417285
 20
85.30483
  0
POINT
  8
寸法
 62
     0
 10
165.667285
 20
85.30483
  0
TEXT
  7
TextStyle03
  8
寸法
  6
CONTINUOUS
 62
     0
 10
129.74375
 20
85.675
  1
1305
 40
3.0
 72
     5
 11
136.30625
 21
85.675
  0
ENDBLK
  0
BLOCK
  2
*DIM_0011
 70
    65
 10
0.0
 20
0.0
  0
LINE
  8
寸法
  6
BYBLOCK
 62
     0
 10
168.667285
 20
75.807477
 11
178.145085
 21
75.807477
  0
LINE
  8
寸法
  6
BYBLOCK
 62
     0
 10
168.667285
 20
10.557477
 11
178.145085
 21
10.557477
  0
LINE
  8
寸法
  6
BYBLOCK
 62
     0
 10
178.145085
 20
75.807477
 11
178.145085
 21
10.557477
  0
POINT
  8
寸法
 62
     0
 10
178.145085
 20
75.807477
  0
POINT
  8
寸法
 62
     0
 10
178.145085
 20
10.557477
  0
TEXT
  7
TextStyle03
  8
寸法
  6
CONTINUOUS
 62
     0
 10
177.75
 20
39.89375
  1
1305
 40
3.0
 50
90.0
 72
     5
 11
177.75
 21
46.45625
  0
ENDBLK
  0
BLOCK
  2
*DIM_0012
 70
    65
 10
0.0
 20
0.0
  0
LINE
  8
寸法
  6
CONTINUOUS
 10
-20.755728
 20
-78.420053
 11
-9.805992
 21
-78.420053
  0
LINE
  8
寸法
  6
CONTINUOUS
 10
-23.22614
 20
-68.64523
 11
-9.805992
 21
-68.64523
  0
LINE
  8
寸法
  6
CONTINUOUS
 10
-9.805992
 20
-78.420053
 11
-9.805992
 21
-68.64523
  0
POINT
  8
寸法
 10
-9.805992
 20
-78.420053
  0
POINT
  8
寸法
 10
-9.805992
 20
-68.64523
  0
TEXT
  7
TextStyle03
  8
寸法
  6
CONTINUOUS
 10
-5.7
 20
-79.05
  1
195.5
 40
4.0
 50
90.0
 72
     5
 11
-5.7
 21
-68.05
  0
ENDBLK
  0
BLOCK
  2
*GRP_0013
 70
    65
 10
0.0
 20
0.0
  0
LINE
  8
別途部材
  6
CONTINUOUS
 62
    96
 10
55.320705
 20
-77.195038
 11
55.470705
 21
-77.195038
  0
LINE
  8
別途部材
  6
CONTINUOUS
 62
    96
 10
55.170705
 20
-74.043418
 11
53.174497
 21
-74.147927
  0
LINE
  8
別途部材
  6
CONTINUOUS
 62
    96
 10
53.160705
 20
-74.970038
 11
52.760705
 21
-74.795038
  0
LINE
  8
別途部材
  6
CONTINUOUS
 62
    96
 10
53.19208
 20
-74.820038
 11
52.96058
 21
-74.718757
  0
LINE
  8
別途部材
  6
CONTINUOUS
 62
    96
 10
53.135323
 20
-73.999773
 11
52.74502
 21
-74.195447
  0
LINE
  8
別途部材
  6
CONTINUOUS
 62
    96
 10
53.174497
 20
-74.147927
 11
52.77908
 21
-74.346167
  0
LINE
  8
別途部材
  6
CONTINUOUS
 62
    96
 10
52.876403
 20
-74.39957
 11
52.992098
 21
-74.3041
  0
LINE
  8
別途部材
  6
DASHDOTX2
 62
    96
 10
52.760705
 20
-74.495038
 11
52.760705
 21
-74.02481
  0
LINE
  8
別途部材
  6
DASHDOTX2
 62
    96
 10
52.760705
 20
-74.495038
 11
52.760705
 21
-74.990727
  0
LINE
  8
別途部材
  6
DASHDOTX2
 62
    96
 10
52.760705
 20
-74.495038
 11
53.155912
 21
-74.495038
  0
LINE
  8
別途部材
  6
DASHDOTX2
 62
    96
 10
52.760705
 20
-74.495038
 11
52.34324
 21
-74.495038
  0
LINE
  8
別途部材
  6
CONTINUOUS
 62
    96
 10
55.470705
 20
-74.820038
 11
53.19208
 21
-74.820038
  0
LINE
  8
別途部材
  6
CONTINUOUS
 62
    96
 10
55.320705
 20
-74.970038
 11
53.160705
 21
-74.970038
  0
LINE
  8
別途部材
  6
CONTINUOUS
 62
    96
 10
55.020702
 20
-72.193418
 11
55.020702
 21
-73.901065
  0
LINE
  8
別途部材
  6
CONTINUOUS
 62
    96
 10
55.170705
 20
-72.193418
 11
55.020702
 21
-72.193418
  0
LINE
  8
別途部材
  6
CONTINUOUS
 62
    96
 10
55.170705
 20
-72.193418
 11
55.170705
 21
-74.043418
  0
CIRCLE
  8
別途部材
  6
CONTINUOUS
 62
    96
 10
52.760705
 20
-74.495038
 40
0.15
  0
ARC
  8
別途部材
  6
CONTINUOUS
 62
    96
 10
52.760704
 20
-74.495036
 40
0.3
 50
92.998444
 51
411.219394
  0
LINE
  8
別途部材
  6
CONTINUOUS
 62
    96
 10
55.470705
 20
-74.820038
 11
55.470705
 21
-77.195038
  0
LINE
  8
別途部材
  6
CONTINUOUS
 62
    96
 10
55.320705
 20
-74.970038
 11
55.320705
 21
-77.195038
  0
LINE
  8
別途部材
  6
CONTINUOUS
 62
    96
 10
53.135323
 20
-73.999773
 11
55.020702
 21
-73.901065
  0
ENDBLK
  0
ENDSEC
  0
SECTION
  2
ENTITIES
  0
POLYLINE
  8
通り芯
  6
CONTINUOUS
 66
     1
 70
     1
  0
VERTEX
  8
通り芯
 10
-210.0
 20
-148.5
  0
VERTEX
  8
通り芯
 10
210.0
 20
-148.5
  0
VERTEX
  8
通り芯
 10
210.0
 20
148.5
  0
VERTEX
  8
通り芯
 10
-210.0
 20
148.5
  0
SEQEND
  0
INSERT
  2
*GRP_0001
  8
型材断面
  6
CONTINUOUS
 10
0.0
 20
0.0
  0
LINE
  8
型材断面
  6
DASHDOT
 10
-30.755937
 20
-85.083888
 11
-30.755937
 21
59.370383
  0
LINE
  8
型材断面
  6
DASHDOT
 10
-95.755937
 20
-85.083888
 11
-95.755937
 21
59.370383
  0
LINE
  8
型材断面
  6
CONTINUOUS
 10
-22.732063
 20
26.870383
 11
-18.846303
 21
24.626937
  0
LINE
  8
型材断面
  6
CONTINUOUS
 10
-22.732063
 20
26.870383
 11
-18.846303
 21
29.113827
  0
LINE
  8
型材断面
  6
CONTINUOUS
 10
-18.846303
 20
29.113827
 11
-18.846303
 21
24.626937
  0
LINE
  8
型材断面
  6
CONTINUOUS
 10
-63.255937
 20
67.394257
 11
-65.499382
 21
71.280018
  0
LINE
  8
型材断面
  6
CONTINUOUS
 10
-63.255937
 20
67.394257
 11
-61.012493
 21
71.280018
  0
LINE
  8
型材断面
  6
CONTINUOUS
 10
-61.012493
 20
71.280018
 11
-65.499382
 21
71.280018
  0
LINE
  8
型材断面
  6
CONTINUOUS
 10
-63.255937
 20
-13.653492
 11
-65.499382
 21
-17.539253
  0
LINE
  8
型材断面
  6
CONTINUOUS
 10
-63.255937
 20
-13.653492
 11
-61.012493
 21
-17.539253
  0
LINE
  8
型材断面
  6
CONTINUOUS
 10
-61.012493
 20
-17.539253
 11
-65.499382
 21
-17.539253
  0
LINE
  8
型材断面
  6
CONTINUOUS
 10
-103.779813
 20
26.870383
 11
-107.665572
 21
24.626937
  0
LINE
  8
型材断面
  6
CONTINUOUS
 10
-103.779813
 20
26.870383
 11
-107.665572
 21
29.113827
  0
LINE
  8
型材断面
  6
CONTINUOUS
 10
-107.665572
 20
29.113827
 11
-107.665572
 21
24.626937
  0
LINE
  8
型材断面
  6
CONTINUOUS
 10
4.930422
 20
-11.415415
 11
2.686977
 21
-15.301175
  0
LINE
  8
型材断面
  6
CONTINUOUS
 10
4.930422
 20
-11.415415
 11
7.173868
 21
-15.301175
  0
LINE
  8
型材断面
  6
CONTINUOUS
 10
7.173868
 20
-15.301175
 11
2.686977
 21
-15.301175
  0
LINE
  8
型材断面
  6
CONTINUOUS
 10
4.930422
 20
-19.104962
 11
5.824508
 21
-22.990722
  0
LINE
  8
型材断面
  6
CONTINUOUS
 10
4.930422
 20
-19.104962
 11
4.036338
 21
-22.990722
  0
LINE
  8
型材断面
  6
CONTINUOUS
 10
4.036338
 20
-22.990722
 11
5.824508
 21
-22.990722
  0
LINE
  8
型材断面
  6
CONTINUOUS
 10
-4.103457
 20
-16.709068
 11
48.553223
 21
-16.709068
  0
LINE
  8
型材断面
  6
CONTINUOUS
 10
-4.103457
 20
-27.90906
 11
48.553223
 21
-27.90906
  0
LINE
  8
型材断面
  6
CONTINUOUS
 10
-4.103457
 20
-34.749005
 11
48.553223
 21
-34.749005
  0
LINE
  8
型材断面
  6
DASHDOT
 10
-63.255937
 20
-85.083888
 11
-63.255937
 21
59.370383
  0
LINE
  8
型材断面
  6
DASHDOT
 10
-95.755937
 20
26.870383
 11
-30.755937
 21
26.870383
  0
LINE
  8
型材断面
  6
DASHDOT
 10
-95.755937
 20
59.370383
 11
-30.755937
 21
59.370383
  0
LINE
  8
型材断面
  6
DASHDOT
 10
-95.755937
 20
-5.629618
 11
-30.755937
 21
-5.629618
  0
LINE
  8
型材断面
  6
CONTINUOUS
 10
-22.73206
 20
56.370383
 11
-18.8463
 21
55.476297
  0
LINE
  8
型材断面
  6
CONTINUOUS
 10
-22.73206
 20
56.370383
 11
-18.8463
 21
57.264467
  0
LINE
  8
型材断面
  6
CONTINUOUS
 10
-18.8463
 20
57.264467
 11
-18.8463
 21
55.476297
  0
LINE
  8
型材断面
  6
CONTINUOUS
 10
-22.73206
 20
-2.629618
 11
-18.8463
 21
-1.735533
  0
LINE
  8
型材断面
  6
CONTINUOUS
 10
-22.73206
 20
-2.629618
 11
-18.8463
 21
-3.523703
  0
LINE
  8
型材断面
  6
CONTINUOUS
 10
-18.8463
 20
-3.523703
 11
-18.8463
 21
-1.735533
  0
POLYLINE
  8
型材断面
  6
CONTINUOUS
 66
     1
 70
     1
  0
VERTEX
  8
型材断面
 10
-105.594575
 20
-72.018157
  0
VERTEX
  8
型材断面
 10
-119.190585
 20
-72.018157
  0
VERTEX
  8
型材断面
 10
-119.190585
 20
-77.311685
  0
VERTEX
  8
型材断面
 10
-105.594575
 20
-77.311685
  0
SEQEND
  0
LINE
  8
型材断面
  6
CONTINUOUS
 62
    47
 10
-97.740938
 20
-72.48007
 11
-97.755937
 21
-72.46507
  0
LINE
  8
型材断面
  6
CONTINUOUS
 62
    47
 10
-97.740938
 20
-72.48007
 11
-97.755937
 21
-72.49507
  0
LINE
  8
型材断面
  6
CONTINUOUS
 62
    47
 10
-97.740938
 20
-73.443418
 11
-97.755937
 21
-73.428417
  0
LINE
  8
型材断面
  6
CONTINUOUS
 62
    47
 10
-97.740938
 20
-73.443418
 11
-97.755937
 21
-73.458417
  0
LINE
  8
型材断面
  6
CONTINUOUS
 62
    47
 10
-97.755937
 20
-74.07007
 11
-97.755937
 21
-73.458417
  0
LINE
  8
型材断面
  6
CONTINUOUS
 62
    47
 10
-97.755937
 20
-73.428417
 11
-97.755937
 21
-72.49507
  0
LINE
  8
型材断面
  6
CONTINUOUS
 62
    47
 10
-97.755937
 20
-72.46507
 11
-97.755937
 21
-71.420042
  0
LINE
  8
型材断面
  6
CONTINUOUS
 62
    47
 10
-99.65615
 20
-74.169557
 11
-99.65615
 21
-74.4195
  0
LINE
  8
型材断面
  6
CONTINUOUS
 62
    47
 10
-97.441147
 20
-75.770065
 11
-97.456148
 21
-75.755065
  0
LINE
  8
型材断面
  6
CONTINUOUS
 62
    47
 10
-97.441147
 20
-75.770065
 11
-97.456148
 21
-75.785065
  0
LINE
  8
型材断面
  6
CONTINUOUS
 62
    47
 10
-97.441147
 20
-76.470075
 11
-97.456148
 21
-76.455075
  0
LINE
  8
型材断面
  6
CONTINUOUS
 62
    47
 10
-97.441147
 20
-76.470075
 11
-97.456148
 21
-76.485075
  0
LINE
  8
型材断面
  6
CONTINUOUS
 62
    47
 10
-97.456148
 20
-74.820038
 11
-97.456148
 21
-75.755065
  0
LINE
  8
型材断面
  6
CONTINUOUS
 62
    47
 10
-97.456148
 20
-75.785065
 11
-97.456148
 21
-76.455075
  0
LINE
  8
型材断面
  6
CONTINUOUS
 62
    47
 10
-100.756148
 20
-77.67005
 11
-100.756148
 21
-78.420053
  0
LINE
  8
型材断面
  6
CONTINUOUS
 62
    47
 10
-100.00616
 20
-78.92005
 11
-100.00616
 21
-78.420053
  0
LINE
  8
型材断面
  6
CONTINUOUS
 62
    47
 10
-100.756148
 20
-77.67005
 11
-97.456148
 21
-77.42005
  0
LINE
  8
型材断面
  6
CONTINUOUS
 62
    47
 10
-96.355935
 20
-77.42005
 11
-97.356148
 21
-77.42005
  0
LINE
  8
型材断面
  6
CONTINUOUS
 62
    47
 10
-97.441147
 20
-77.27005
 11
-97.456148
 21
-77.25505
  0
LINE
  8
型材断面
  6
CONTINUOUS
 62
    47
 10
-97.441147
 20
-77.27005
 11
-97.456148
 21
-77.28505
  0
LINE
  8
型材断面
  6
CONTINUOUS
 62
    47
 10
-97.456148
 20
-77.42005
 11
-97.456148
 21
-77.28505
  0
LINE
  8
型材断面
  6
CONTINUOUS
 62
    47
 10
-97.456148
 20
-76.485075
 11
-97.456148
 21
-77.25505
  0
LINE
  8
型材断面
  6
CONTINUOUS
 62
    47
 10
-99.656148
 20
-74.820038
 11
-99.656148
 21
-74.620063
  0
LINE
  8
型材断面
  6
CONTINUOUS
 62
    47
 10
-97.755937
 20
-74.07007
 11
-99.65615
 21
-74.169557
  0
LINE
  8
型材断面
  6
CONTINUOUS
 62
    47
 10
-97.755937
 20
-71.420042
 11
-63.255937
 21
-71.420042
  0
LINE
  8
型材断面
  6
CONTINUOUS
 10
-97.755937
 20
-74.07007
 11
-63.255937
 21
-74.07007
  0
LINE
  8
型材断面
  6
CONTINUOUS
 10
-99.65615
 20
-74.169557
 11
-63.255937
 21
-74.169557
  0
LINE
  8
型材断面
  6
CONTINUOUS
 62
    47
 10
-99.656148
 20
-74.620063
 11
-63.255937
 21
-74.620063
  0
LINE
  8
型材断面
  6
CONTINUOUS
 62
    47
 10
-99.656148
 20
-74.820038
 11
-63.255937
 21
-74.820038
  0
LINE
  8
型材断面
  6
CONTINUOUS
 62
    47
 10
-99.65615
 20
-74.4195
 11
-63.255937
 21
-74.4195
  0
LINE
  8
型材断面
  6
CONTINUOUS
 10
-97.456148
 20
-77.42005
 11
-63.255937
 21
-77.42005
  0
LINE
  8
型材断面
  6
CONTINUOUS
 10
-100.756148
 20
-77.67005
 11
-63.255937
 21
-77.67005
  0
LINE
  8
型材断面
  6
CONTINUOUS
 62
    47
 10
-100.756148
 20
-78.420053
 11
-63.255937
 21
-78.420053
  0
LINE
  8
型材断面
  6
CONTINUOUS
 62
    47
 10
-100.00616
 20
-78.92005
 11
-63.255937
 21
-78.92005
  0
LINE
  8
型材断面
  6
CONTINUOUS
 62
    47
 10
-28.770938
 20
-72.48007
 11
-28.755937
 21
-72.46507
  0
LINE
  8
型材断面
  6
CONTINUOUS
 62
    47
 10
-28.770938
 20
-72.48007
 11
-28.755937
 21
-72.49507
  0
LINE
  8
型材断面
  6
CONTINUOUS
 62
    47
 10
-28.770938
 20
-73.443418
 11
-28.755937
 21
-73.428417
  0
LINE
  8
型材断面
  6
CONTINUOUS
 62
    47
 10
-28.770938
 20
-73.443418
 11
-28.755937
 21
-73.458417
  0
LINE
  8
型材断面
  6
CONTINUOUS
 62
    47
 10
-28.755937
 20
-74.07007
 11
-28.755937
 21
-73.458417
  0
LINE
  8
型材断面
  6
CONTINUOUS
 62
    47
 10
-28.755937
 20
-73.428417
 11
-28.755937
 21
-72.49507
  0
LINE
  8
型材断面
  6
CONTINUOUS
 62
    47
 10
-28.755937
 20
-72.46507
 11
-28.755937
 21
-71.420042
  0
LINE
  8
型材断面
  6
CONTINUOUS
 62
    47
 10
-26.855725
 20
-74.169557
 11
-26.855725
 21
-74.4195
  0
LINE
  8
型材断面
  6
CONTINUOUS
 62
    47
 10
-29.070727
 20
-75.770065
 11
-29.055728
 21
-75.755065
  0
LINE
  8
型材断面
  6
CONTINUOUS
 62
    47
 10
-29.070727
 20
-75.770065
 11
-29.055728
 21
-75.785065
  0
LINE
  8
型材断面
  6
CONTINUOUS
 62
    47
 10
-29.070727
 20
-76.470075
 11
-29.055728
 21
-76.455075
  0
LINE
  8
型材断面
  6
CONTINUOUS
 62
    47
 10
-29.070727
 20
-76.470075
 11
-29.055728
 21
-76.485075
  0
LINE
  8
型材断面
  6
CONTINUOUS
 62
    47
 10
-29.055728
 20
-74.820038
 11
-29.055728
 21
-75.755065
  0
LINE
  8
型材断面
  6
CONTINUOUS
 62
    47
 10
-29.055728
 20
-75.785065
 11
-29.055728
 21
-76.455075
  0
LINE
  8
型材断面
  6
CONTINUOUS
 62
    47
 10
-25.755728
 20
-77.67005
 11
-25.755728
 21
-78.420053
  0
LINE
  8
型材断面
  6
CONTINUOUS
 62
    47
 10
-26.505715
 20
-78.92005
 11
-26.505715
 21
-78.420053
  0
LINE
  8
型材断面
  6
CONTINUOUS
 62
    47
 10
-25.755728
 20
-77.67005
 11
-29.055728
 21
-77.42005
  0
LINE
  8
型材断面
  6
CONTINUOUS
 62
    47
 10
-30.15594
 20
-77.42005
 11
-29.155728
 21
-77.42005
  0
LINE
  8
型材断面
  6
CONTINUOUS
 62
    47
 10
-29.070727
 20
-77.27005
 11
-29.055728
 21
-77.25505
  0
LINE
  8
型材断面
  6
CONTINUOUS
 62
    47
 10
-29.070727
 20
-77.27005
 11
-29.055728
 21
-77.28505
  0
LINE
  8
型材断面
  6
CONTINUOUS
 62
    47
 10
-29.055728
 20
-77.42005
 11
-29.055728
 21
-77.28505
  0
LINE
  8
型材断面
  6
CONTINUOUS
 62
    47
 10
-29.055728
 20
-76.485075
 11
-29.055728
 21
-77.25505
  0
LINE
  8
型材断面
  6
CONTINUOUS
 62
    47
 10
-26.855728
 20
-74.820038
 11
-26.855728
 21
-74.620063
  0
LINE
  8
型材断面
  6
CONTINUOUS
 62
    47
 10
-28.755937
 20
-74.07007
 11
-26.855725
 21
-74.169557
  0
LINE
  8
型材断面
  6
CONTINUOUS
 62
    47
 10
-28.755937
 20
-71.420042
 11
-63.255937
 21
-71.420042
  0
LINE
  8
型材断面
  6
CONTINUOUS
 10
-28.755937
 20
-74.07007
 11
-63.255937
 21
-74.07007
  0
LINE
  8
型材断面
  6
CONTINUOUS
 10
-26.855725
 20
-74.169557
 11
-63.255937
 21
-74.169557
  0
LINE
  8
型材断面
  6
CONTINUOUS
 62
    47
 10
-26.855728
 20
-74.620063
 11
-63.255937
 21
-74.620063
  0
LINE
  8
型材断面
  6
CONTINUOUS
 62
    47
 10
-26.855728
 20
-74.820038
 11
-63.255937
 21
-74.820038
  0
LINE
  8
型材断面
  6
CONTINUOUS
 62
    47
 10
-26.855725
 20
-74.4195
 11
-63.255937
 21
-74.4195
  0
LINE
  8
型材断面
  6
CONTINUOUS
 10
-29.055728
 20
-77.42005
 11
-63.255937
 21
-77.42005
  0
LINE
  8
型材断面
  6
CONTINUOUS
 10
-25.755728
 20
-77.67005
 11
-63.255937
 21
-77.67005
  0
LINE
  8
型材断面
  6
CONTINUOUS
 62
    47
 10
-25.755728
 20
-78.420053
 11
-63.255937
 21
-78.420053
  0
LINE
  8
型材断面
  6
CONTINUOUS
 62
    47
 10
-26.505715
 20
-78.92005
 11
-63.255937
 21
-78.92005
  0
LINE
  8
型材断面
  6
CONTINUOUS
 10
-25.755728
 20
-10.629828
 11
-25.755728
 21
26.870383
  0
LINE
  8
型材断面
  6
CONTINUOUS
 10
-25.755728
 20
-10.629828
 11
-63.255937
 21
-10.629828
  0
LINE
  8
型材断面
  6
CONTINUOUS
 10
-25.755728
 20
64.370593
 11
-25.755728
 21
26.870383
  0
LINE
  8
型材断面
  6
CONTINUOUS
 10
-25.755728
 20
64.370593
 11
-63.255937
 21
64.370593
  0
LINE
  8
型材断面
  6
CONTINUOUS
 10
-100.756148
 20
64.370593
 11
-63.255937
 21
64.370593
  0
LINE
  8
型材断面
  6
CONTINUOUS
 10
-100.756148
 20
-10.629828
 11
-63.255937
 21
-10.629828
  0
ARC
  8
型材断面
  6
DASHDOT
 10
52.760705
 20
-74.495038
 40
73.310738
 50
360.059036
 51
405.059037
  0
LINE
  8
型材断面
  6
DASHDOT
 10
-95.755937
 20
26.870383
 11
-30.755937
 21
59.370383
  0
LINE
  8
型材断面
  6
DASHDOT
 10
-95.755937
 20
26.870383
 11
-30.755937
 21
-5.629618
  0
LINE
  8
型材断面
  6
CONTINUOUS
 10
-28.460923
 20
-68.89523
 11
-28.460923
 21
-71.14523
  0
LINE
  8
型材断面
  6
CONTINUOUS
 10
-28.22614
 20
-68.89523
 11
-28.22614
 21
-68.64523
  0
LINE
  8
型材断面
  6
CONTINUOUS
 62
    47
 10
-28.460923
 20
-71.14523
 11
-63.255937
 21
-71.14523
  0
LINE
  8
型材断面
  6
CONTINUOUS
 62
    47
 10
-28.22614
 20
-68.64523
 11
-63.255937
 21
-68.64523
  0
LINE
  8
型材断面
  6
CONTINUOUS
 62
    47
 10
-28.22614
 20
-68.89523
 11
-63.255937
 21
-68.89523
  0
LINE
  8
型材断面
  6
CONTINUOUS
 10
-98.050953
 20
-68.89523
 11
-98.050953
 21
-71.14523
  0
LINE
  8
型材断面
  6
CONTINUOUS
 10
-98.285735
 20
-68.89523
 11
-98.285735
 21
-68.64523
  0
LINE
  8
型材断面
  6
CONTINUOUS
 62
    47
 10
-98.050953
 20
-71.14523
 11
-63.255937
 21
-71.14523
  0
LINE
  8
型材断面
  6
CONTINUOUS
 62
    47
 10
-98.285735
 20
-68.64523
 11
-63.255937
 21
-68.64523
  0
LINE
  8
型材断面
  6
CONTINUOUS
 62
    47
 10
-98.285735
 20
-68.89523
 11
-63.255937
 21
-68.89523
  0
LINE
  8
型材断面
  6
CONTINUOUS
 62
    47
 10
55.18619
 20
-72.48007
 11
55.17119
 21
-72.46507
  0
LINE
  8
型材断面
  6
CONTINUOUS
 62
    47
 10
55.18619
 20
-72.48007
 11
55.17119
 21
-72.49507
  0
LINE
  8
型材断面
  6
CONTINUOUS
 62
    47
 10
55.18619
 20
-73.443418
 11
55.17119
 21
-73.428417
  0
LINE
  8
型材断面
  6
CONTINUOUS
 62
    47
 10
55.18619
 20
-73.443418
 11
55.17119
 21
-73.458417
  0
LINE
  8
型材断面
  6
CONTINUOUS
 62
    47
 10
55.17119
 20
-74.07007
 11
55.17119
 21
-73.458417
  0
LINE
  8
型材断面
  6
CONTINUOUS
 62
    47
 10
55.17119
 20
-73.428417
 11
55.17119
 21
-72.49507
  0
LINE
  8
型材断面
  6
CONTINUOUS
 62
    47
 10
55.17119
 20
-72.46507
 11
55.17119
 21
-71.420042
  0
LINE
  8
型材断面
  6
CONTINUOUS
 62
    47
 10
53.270977
 20
-74.169557
 11
53.270977
 21
-74.4195
  0
LINE
  8
型材断面
  6
CONTINUOUS
 62
    47
 10
55.48598
 20
-75.770065
 11
55.47098
 21
-75.755065
  0
LINE
  8
型材断面
  6
CONTINUOUS
 62
    47
 10
55.48598
 20
-75.770065
 11
55.47098
 21
-75.785065
  0
LINE
  8
型材断面
  6
CONTINUOUS
 62
    47
 10
55.48598
 20
-76.470075
 11
55.47098
 21
-76.455075
  0
LINE
  8
型材断面
  6
CONTINUOUS
 62
    47
 10
55.48598
 20
-76.470075
 11
55.47098
 21
-76.485075
  0
LINE
  8
型材断面
  6
CONTINUOUS
 62
    47
 10
55.47098
 20
-74.820038
 11
55.47098
 21
-75.755065
  0
LINE
  8
型材断面
  6
CONTINUOUS
 62
    47
 10
55.47098
 20
-75.785065
 11
55.47098
 21
-76.455075
  0
LINE
  8
型材断面
  6
CONTINUOUS
 62
    47
 10
52.17098
 20
-77.67005
 11
52.17098
 21
-78.420053
  0
LINE
  8
型材断面
  6
CONTINUOUS
 62
    47
 10
52.920968
 20
-78.92005
 11
52.920968
 21
-78.420053
  0
LINE
  8
型材断面
  6
CONTINUOUS
 62
    47
 10
52.17098
 20
-77.67005
 11
55.47098
 21
-77.42005
  0
LINE
  8
型材断面
  6
CONTINUOUS
 62
    47
 10
56.571192
 20
-77.42005
 11
55.57098
 21
-77.42005
  0
LINE
  8
型材断面
  6
CONTINUOUS
 62
    47
 10
55.48598
 20
-77.27005
 11
55.47098
 21
-77.25505
  0
LINE
  8
型材断面
  6
CONTINUOUS
 62
    47
 10
55.48598
 20
-77.27005
 11
55.47098
 21
-77.28505
  0
LINE
  8
型材断面
  6
CONTINUOUS
 62
    47
 10
55.47098
 20
-77.42005
 11
55.47098
 21
-77.28505
  0
LINE
  8
型材断面
  6
CONTINUOUS
 62
    47
 10
55.47098
 20
-76.485075
 11
55.47098
 21
-77.25505
  0
LINE
  8
型材断面
  6
CONTINUOUS
 62
    47
 10
53.27098
 20
-74.820038
 11
53.27098
 21
-74.620063
  0
LINE
  8
型材断面
  6
CONTINUOUS
 62
    47
 10
55.17119
 20
-74.07007
 11
53.270977
 21
-74.169557
  0
LINE
  8
型材断面
  6
CONTINUOUS
 62
    47
 10
55.17119
 20
-71.420042
 11
89.67119
 21
-71.420042
  0
LINE
  8
型材断面
  6
CONTINUOUS
 10
55.17119
 20
-74.07007
 11
89.67119
 21
-74.07007
  0
LINE
  8
型材断面
  6
CONTINUOUS
 10
53.270977
 20
-74.169557
 11
89.67119
 21
-74.169557
  0
LINE
  8
型材断面
  6
CONTINUOUS
 62
    47
 10
53.27098
 20
-74.620063
 11
89.67119
 21
-74.620063
  0
LINE
  8
型材断面
  6
CONTINUOUS
 62
    47
 10
53.27098
 20
-74.820038
 11
89.67119
 21
-74.820038
  0
LINE
  8
型材断面
  6
CONTINUOUS
 62
    47
 10
53.270977
 20
-74.4195
 11
89.67119
 21
-74.4195
  0
LINE
  8
型材断面
  6
CONTINUOUS
 10
55.47098
 20
-77.42005
 11
89.67119
 21
-77.42005
  0
LINE
  8
型材断面
  6
CONTINUOUS
 10
52.17098
 20
-77.67005
 11
89.67119
 21
-77.67005
  0
LINE
  8
型材断面
  6
CONTINUOUS
 62
    47
 10
52.17098
 20
-78.420053
 11
89.67119
 21
-78.420053
  0
LINE
  8
型材断面
  6
CONTINUOUS
 62
    47
 10
52.920968
 20
-78.92005
 11
89.67119
 21
-78.92005
  0
LINE
  8
型材断面
  6
CONTINUOUS
 62
    47
 10
124.15619
 20
-72.48007
 11
124.17119
 21
-72.46507
  0
LINE
  8
型材断面
  6
CONTINUOUS
 62
    47
 10
124.15619
 20
-72.48007
 11
124.17119
 21
-72.49507
  0
LINE
  8
型材断面
  6
CONTINUOUS
 62
    47
 10
124.15619
 20
-73.443418
 11
124.17119
 21
-73.428417
  0
LINE
  8
型材断面
  6
CONTINUOUS
 62
    47
 10
124.15619
 20
-73.443418
 11
124.17119
 21
-73.458417
  0
LINE
  8
型材断面
  6
CONTINUOUS
 62
    47
 10
124.17119
 20
-74.07007
 11
124.17119
 21
-73.458417
  0
LINE
  8
型材断面
  6
CONTINUOUS
 62
    47
 10
124.17119
 20
-73.428417
 11
124.17119
 21
-72.49507
  0
LINE
  8
型材断面
  6
CONTINUOUS
 62
    47
 10
124.17119
 20
-72.46507
 11
124.17119
 21
-71.420042
  0
LINE
  8
型材断面
  6
CONTINUOUS
 62
    47
 10
126.071402
 20
-74.169557
 11
126.071402
 21
-74.4195
  0
LINE
  8
型材断面
  6
CONTINUOUS
 62
    47
 10
123.8564
 20
-75.770065
 11
123.8714
 21
-75.755065
  0
LINE
  8
型材断面
  6
CONTINUOUS
 62
    47
 10
123.8564
 20
-75.770065
 11
123.8714
 21
-75.785065
  0
LINE
  8
型材断面
  6
CONTINUOUS
 62
    47
 10
123.8564
 20
-76.470075
 11
123.8714
 21
-76.455075
  0
LINE
  8
型材断面
  6
CONTINUOUS
 62
    47
 10
123.8564
 20
-76.470075
 11
123.8714
 21
-76.485075
  0
LINE
  8
型材断面
  6
CONTINUOUS
 62
    47
 10
123.8714
 20
-74.820038
 11
123.8714
 21
-75.755065
  0
LINE
  8
型材断面
  6
CONTINUOUS
 62
    47
 10
123.8714
 20
-75.785065
 11
123.8714
 21
-76.455075
  0
LINE
  8
型材断面
  6
CONTINUOUS
 62
    47
 10
127.1714
 20
-77.67005
 11
127.1714
 21
-78.420053
  0
LINE
  8
型材断面
  6
CONTINUOUS
 62
    47
 10
126.421413
 20
-78.92005
 11
126.421413
 21
-78.420053
  0
LINE
  8
型材断面
  6
CONTINUOUS
 62
    47
 10
127.1714
 20
-77.67005
 11
123.8714
 21
-77.42005
  0
LINE
  8
型材断面
  6
CONTINUOUS
 62
    47
 10
122.771188
 20
-77.42005
 11
123.7714
 21
-77.42005
  0
LINE
  8
型材断面
  6
CONTINUOUS
 62
    47
 10
123.8564
 20
-77.27005
 11
123.8714
 21
-77.25505
  0
LINE
  8
型材断面
  6
CONTINUOUS
 62
    47
 10
123.8564
 20
-77.27005
 11
123.8714
 21
-77.28505
  0
LINE
  8
型材断面
  6
CONTINUOUS
 62
    47
 10
123.8714
 20
-77.42005
 11
123.8714
 21
-77.28505
  0
LINE
  8
型材断面
  6
CONTINUOUS
 62
    47
 10
123.8714
 20
-76.485075
 11
123.8714
 21
-77.25505
  0
LINE
  8
型材断面
  6
CONTINUOUS
 62
    47
 10
126.0714
 20
-74.820038
 11
126.0714
 21
-74.620063
  0
LINE
  8
型材断面
  6
CONTINUOUS
 62
    47
 10
124.17119
 20
-74.07007
 11
126.071402
 21
-74.169557
  0
LINE
  8
型材断面
  6
CONTINUOUS
 62
    47
 10
124.17119
 20
-71.420042
 11
89.67119
 21
-71.420042
  0
LINE
  8
型材断面
  6
CONTINUOUS
 10
124.17119
 20
-74.07007
 11
89.67119
 21
-74.07007
  0
LINE
  8
型材断面
  6
CONTINUOUS
 10
126.071402
 20
-74.169557
 11
89.67119
 21
-74.169557
  0
LINE
  8
型材断面
  6
CONTINUOUS
 62
    47
 10
126.0714
 20
-74.620063
 11
89.67119
 21
-74.620063
  0
LINE
  8
型材断面
  6
CONTINUOUS
 62
    47
 10
126.0714
 20
-74.820038
 11
89.67119
 21
-74.820038
  0
LINE
  8
型材断面
  6
CONTINUOUS
 62
    47
 10
126.071402
 20
-74.4195
 11
89.67119
 21
-74.4195
  0
LINE
  8
型材断面
  6
CONTINUOUS
 10
123.8714
 20
-77.42005
 11
89.67119
 21
-77.42005
  0
LINE
  8
型材断面
  6
CONTINUOUS
 10
127.1714
 20
-77.67005
 11
89.67119
 21
-77.67005
  0
LINE
  8
型材断面
  6
CONTINUOUS
 62
    47
 10
127.1714
 20
-78.420053
 11
89.67119
 21
-78.420053
  0
LINE
  8
型材断面
  6
CONTINUOUS
 62
    47
 10
126.421413
 20
-78.92005
 11
89.67119
 21
-78.92005
  0
LINE
  8
型材断面
  6
CONTINUOUS
 10
124.466205
 20
-68.89523
 11
124.466205
 21
-71.14523
  0
LINE
  8
型材断面
  6
CONTINUOUS
 10
124.700987
 20
-68.89523
 11
124.700987
 21
-68.64523
  0
LINE
  8
型材断面
  6
CONTINUOUS
 62
    47
 10
124.466205
 20
-71.14523
 11
89.67119
 21
-71.14523
  0
LINE
  8
型材断面
  6
CONTINUOUS
 62
    47
 10
124.700987
 20
-68.64523
 11
89.67119
 21
-68.64523
  0
LINE
  8
型材断面
  6
CONTINUOUS
 62
    47
 10
124.700987
 20
-68.89523
 11
89.67119
 21
-68.89523
  0
LINE
  8
型材断面
  6
CONTINUOUS
 10
54.876175
 20
-68.89523
 11
54.876175
 21
-71.14523
  0
LINE
  8
型材断面
  6
CONTINUOUS
 10
54.641393
 20
-68.89523
 11
54.641393
 21
-68.64523
  0
LINE
  8
型材断面
  6
CONTINUOUS
 62
    47
 10
54.876175
 20
-71.14523
 11
89.67119
 21
-71.14523
  0
LINE
  8
型材断面
  6
CONTINUOUS
 62
    47
 10
54.641393
 20
-68.64523
 11
89.67119
 21
-68.64523
  0
LINE
  8
型材断面
  6
CONTINUOUS
 62
    47
 10
54.641393
 20
-68.89523
 11
89.67119
 21
-68.89523
  0
LINE
  8
型材断面
  6
DOT
 62
    47
 10
53.050985
 20
-71.355163
 11
53.029773
 21
-71.355163
  0
LINE
  8
型材断面
  6
DOT
 62
    47
 10
53.050985
 20
-71.355163
 11
53.050985
 21
-71.376378
  0
LINE
  8
型材断面
  6
DOT
 62
    47
 10
53.732175
 20
-72.036352
 11
53.71096
 21
-72.036352
  0
LINE
  8
型材断面
  6
DOT
 62
    47
 10
53.732175
 20
-72.036352
 11
53.732175
 21
-72.057565
  0
LINE
  8
型材断面
  6
DOT
 62
    47
 10
54.164677
 20
-72.49007
 11
53.732175
 21
-72.057565
  0
LINE
  8
型材断面
  6
DOT
 62
    47
 10
53.71096
 20
-72.036352
 11
53.050985
 21
-71.376378
  0
LINE
  8
型材断面
  6
DOT
 62
    47
 10
53.029773
 20
-71.355163
 11
52.290825
 21
-70.616218
  0
LINE
  8
型材断面
  6
DOT
 62
    47
 10
52.891373
 20
-73.90407
 11
53.06811
 21
-74.080807
  0
LINE
  8
型材断面
  6
DOT
 62
    47
 10
54.164677
 20
-72.49007
 11
52.891373
 21
-73.90407
  0
LINE
  8
型材断面
  6
DOT
 62
    47
 10
52.290825
 20
-70.616218
 11
76.68601
 21
-46.221033
  0
LINE
  8
型材断面
  6
DOT
 10
54.164677
 20
-72.49007
 11
78.559863
 21
-48.094885
  0
LINE
  8
型材断面
  6
DOT
 10
52.891373
 20
-73.90407
 11
78.63021
 21
-48.165235
  0
LINE
  8
型材断面
  6
DOT
 62
    47
 10
53.06811
 20
-74.080807
 11
78.806945
 21
-48.34197
  0
LINE
  8
型材断面
  6
DOT
 62
    47
 10
101.82014
 20
-22.586007
 11
101.82014
 21
-22.564795
  0
LINE
  8
型材断面
  6
DOT
 62
    47
 10
101.82014
 20
-22.586007
 11
101.841353
 21
-22.586007
  0
LINE
  8
型材断面
  6
DOT
 62
    47
 10
102.50133
 20
-23.267198
 11
102.50133
 21
-23.245985
  0
LINE
  8
型材断面
  6
DOT
 62
    47
 10
102.50133
 20
-23.267198
 11
102.522543
 21
-23.267198
  0
LINE
  8
型材断面
  6
DOT
 62
    47
 10
102.955045
 20
-23.699702
 11
102.522543
 21
-23.267198
  0
LINE
  8
型材断面
  6
DOT
 62
    47
 10
102.50133
 20
-23.245985
 11
101.841353
 21
-22.586007
  0
LINE
  8
型材断面
  6
DOT
 62
    47
 10
101.82014
 20
-22.564795
 11
101.081193
 21
-21.82585
  0
LINE
  8
型材断面
  6
DOT
 62
    47
 10
104.369047
 20
-22.426397
 11
104.545782
 21
-22.603132
  0
LINE
  8
型材断面
  6
DOT
 62
    47
 10
102.955045
 20
-23.699702
 11
104.369047
 21
-22.426397
  0
LINE
  8
型材断面
  6
DOT
 62
    47
 10
100.794825
 20
-22.112218
 11
100.547218
 21
-21.86461
  0
LINE
  8
型材断面
  6
DOT
 62
    47
 10
101.081193
 20
-21.82585
 11
76.68601
 21
-46.221033
  0
LINE
  8
型材断面
  6
DOT
 10
102.955045
 20
-23.699702
 11
78.559863
 21
-48.094885
  0
LINE
  8
型材断面
  6
DOT
 10
104.369047
 20
-22.426397
 11
78.63021
 21
-48.165235
  0
LINE
  8
型材断面
  6
DOT
 62
    47
 10
104.545782
 20
-22.603132
 11
78.806945
 21
-48.34197
  0
LINE
  8
型材断面
  6
DOT
 62
    47
 10
52.577192
 20
-70.32985
 11
52.170743
 21
-69.9234
  0
LINE
  8
型材断面
  6
DOT
 10
99.504487
 20
-19.83193
 11
101.095478
 21
-21.42292
  0
LINE
  8
型材断面
  6
DOT
 10
99.670505
 20
-19.665915
 11
99.493728
 21
-19.489138
  0
LINE
  8
型材断面
  6
DOT
 62
    47
 10
101.095478
 20
-21.42292
 11
76.491688
 21
-46.026713
  0
LINE
  8
型材断面
  6
DOT
 62
    47
 10
99.493728
 20
-19.489138
 11
74.72392
 21
-44.258945
  0
LINE
  8
型材断面
  6
DOT
 62
    47
 10
99.670505
 20
-19.665915
 11
74.900698
 21
-44.435722
  0
LINE
  8
型材断面
  6
DOT
 10
50.296908
 20
-69.039513
 11
51.887897
 21
-70.630502
  0
LINE
  8
型材断面
  6
DOT
 10
50.13089
 20
-69.20553
 11
49.954112
 21
-69.028752
  0
LINE
  8
型材断面
  6
DOT
 62
    47
 10
51.887897
 20
-70.630502
 11
76.491688
 21
-46.026713
  0
LINE
  8
型材断面
  6
DOT
 62
    47
 10
49.954112
 20
-69.028752
 11
74.72392
 21
-44.258945
  0
LINE
  8
型材断面
  6
DOT
 62
    47
 10
50.13089
 20
-69.20553
 11
74.900698
 21
-44.435722
  0
LINE
  8
型材断面
  6
CONTINUOUS
 10
-26.855725
 20
-9.529828
 11
-63.255937
 21
-9.529842
  0
LINE
  8
型材断面
  6
CONTINUOUS
 10
-26.855728
 20
-9.52983
 11
-26.855728
 21
26.870383
  0
LINE
  8
型材断面
  6
CONTINUOUS
 10
-26.855725
 20
63.270593
 11
-63.255937
 21
63.270608
  0
LINE
  8
型材断面
  6
CONTINUOUS
 10
-26.855728
 20
63.270595
 11
-26.855728
 21
26.870383
  0
LINE
  8
型材断面
  6
CONTINUOUS
 10
-99.65615
 20
63.270593
 11
-63.255937
 21
63.270608
  0
LINE
  8
型材断面
  6
CONTINUOUS
 10
-99.65615
 20
-9.529828
 11
-63.255937
 21
-9.529842
  0
LINE
  8
型材断面
  6
CONTINUOUS
 62
    47
 10
-97.350953
 20
-71.420042
 11
-97.350953
 21
-71.14523
  0
LINE
  8
型材断面
  6
CONTINUOUS
 62
    47
 10
-29.160923
 20
-71.420042
 11
-29.160923
 21
-71.14523
  0
LINE
  8
型材断面
  6
CONTINUOUS
 62
    47
 10
55.576175
 20
-71.420042
 11
55.576175
 21
-71.14523
  0
LINE
  8
型材断面
  6
CONTINUOUS
 62
    47
 10
123.766205
 20
-71.420042
 11
123.766205
 21
-71.14523
  0
LINE
  8
型材断面
  6
CONTINUOUS
 10
-28.579687
 20
-8.159425
 11
-28.226142
 21
-7.805862
  0
LINE
  8
型材断面
  6
CONTINUOUS
 10
-25.755728
 20
-10.629828
 11
-28.402913
 21
-7.982643
  0
LINE
  8
型材断面
  6
CONTINUOUS
 10
-32.329698
 20
-4.409425
 11
-28.5797
 21
-8.159412
  0
LINE
  8
型材断面
  6
CONTINUOUS
 10
-63.255937
 20
-8.159428
 11
-28.5797
 21
-8.159412
  0
LINE
  8
型材断面
  6
CONTINUOUS
 10
-31.976142
 20
-4.05587
 11
-28.226142
 21
-7.805862
  0
LINE
  8
型材断面
  6
CONTINUOUS
 10
-28.226142
 20
26.870383
 11
-28.226142
 21
-7.805862
  0
LINE
  8
型材断面
  6
CONTINUOUS
 10
-32.329687
 20
-4.409415
 11
-31.976142
 21
-4.05587
  0
LINE
  8
型材断面
  6
CONTINUOUS
 10
-28.579687
 20
61.90019
 11
-28.226142
 21
61.546628
  0
LINE
  8
型材断面
  6
CONTINUOUS
 10
-31.976142
 20
57.796635
 11
-32.329687
 21
58.15018
  0
LINE
  8
型材断面
  6
CONTINUOUS
 10
-31.976142
 20
57.796635
 11
-28.226142
 21
61.546628
  0
LINE
  8
型材断面
  6
CONTINUOUS
 10
-28.226142
 20
26.870383
 11
-28.226142
 21
61.546628
  0
LINE
  8
型材断面
  6
CONTINUOUS
 10
-32.329698
 20
58.15019
 11
-28.5797
 21
61.900178
  0
LINE
  8
型材断面
  6
CONTINUOUS
 10
-63.255937
 20
61.900193
 11
-28.5797
 21
61.900178
  0
LINE
  8
型材断面
  6
CONTINUOUS
 10
-25.755728
 20
64.370593
 11
-28.402913
 21
61.723408
  0
LINE
  8
型材断面
  6
CONTINUOUS
 10
-62.630937
 20
-4.409425
 11
-62.630937
 21
-8.159428
  0
LINE
  8
型材断面
  6
CONTINUOUS
 10
-63.880937
 20
-4.409425
 11
-63.880937
 21
-8.159428
  0
LINE
  8
型材断面
  6
CONTINUOUS
 10
-31.97613
 20
26.245383
 11
-28.226127
 21
26.245383
  0
LINE
  8
型材断面
  6
CONTINUOUS
 10
-31.97613
 20
27.495383
 11
-28.226127
 21
27.495383
  0
LINE
  8
型材断面
  6
CONTINUOUS
 10
-63.880937
 20
58.15019
 11
-63.880937
 21
61.900193
  0
LINE
  8
型材断面
  6
CONTINUOUS
 10
-62.630937
 20
58.15019
 11
-62.630937
 21
61.900193
  0
LINE
  8
型材断面
  6
CONTINUOUS
 10
-31.976142
 20
27.495383
 11
-31.976142
 21
57.796635
  0
LINE
  8
型材断面
  6
CONTINUOUS
 10
-62.630937
 20
58.15019
 11
-32.329687
 21
58.15018
  0
LINE
  8
型材断面
  6
CONTINUOUS
 10
-62.630937
 20
-4.409425
 11
-32.329687
 21
-4.409415
  0
LINE
  8
型材断面
  6
CONTINUOUS
 10
-31.976142
 20
-4.05587
 11
-31.976142
 21
26.245383
  0
LINE
  8
型材断面
  6
CONTINUOUS
 10
-100.756148
 20
-10.629828
 11
-100.756148
 21
26.870383
  0
LINE
  8
型材断面
  6
CONTINUOUS
 10
-100.756148
 20
64.370593
 11
-100.756148
 21
26.870383
  0
LINE
  8
型材断面
  6
CONTINUOUS
 10
-99.656148
 20
-9.52983
 11
-99.656148
 21
26.870383
  0
LINE
  8
型材断面
  6
CONTINUOUS
 10
-99.656148
 20
63.270595
 11
-99.656148
 21
26.870383
  0
LINE
  8
型材断面
  6
CONTINUOUS
 10
-97.932187
 20
-8.159425
 11
-98.285732
 21
-7.805862
  0
LINE
  8
型材断面
  6
CONTINUOUS
 10
-100.756148
 20
-10.629828
 11
-98.108962
 21
-7.982643
  0
LINE
  8
型材断面
  6
CONTINUOUS
 10
-94.182178
 20
-4.409425
 11
-97.932175
 21
-8.159412
  0
LINE
  8
型材断面
  6
CONTINUOUS
 10
-94.535732
 20
-4.05587
 11
-98.285732
 21
-7.805862
  0
LINE
  8
型材断面
  6
CONTINUOUS
 10
-98.285732
 20
26.870383
 11
-98.285732
 21
-7.805862
  0
LINE
  8
型材断面
  6
CONTINUOUS
 10
-94.182187
 20
-4.409415
 11
-94.535732
 21
-4.05587
  0
LINE
  8
型材断面
  6
CONTINUOUS
 10
-97.932187
 20
61.90019
 11
-98.285732
 21
61.546628
  0
LINE
  8
型材断面
  6
CONTINUOUS
 10
-94.535732
 20
57.796635
 11
-94.182187
 21
58.15018
  0
LINE
  8
型材断面
  6
CONTINUOUS
 10
-94.535732
 20
57.796635
 11
-98.285732
 21
61.546628
  0
LINE
  8
型材断面
  6
CONTINUOUS
 10
-98.285732
 20
26.870383
 11
-98.285732
 21
61.546628
  0
LINE
  8
型材断面
  6
CONTINUOUS
 10
-94.182178
 20
58.15019
 11
-97.932175
 21
61.900178
  0
LINE
  8
型材断面
  6
CONTINUOUS
 10
-100.756148
 20
64.370593
 11
-98.108962
 21
61.723408
  0
LINE
  8
型材断面
  6
CONTINUOUS
 10
-94.535745
 20
26.245383
 11
-98.285747
 21
26.245383
  0
LINE
  8
型材断面
  6
CONTINUOUS
 10
-94.535745
 20
27.495383
 11
-98.285747
 21
27.495383
  0
LINE
  8
型材断面
  6
CONTINUOUS
 10
-94.535732
 20
27.495383
 11
-94.535732
 21
57.796635
  0
LINE
  8
型材断面
  6
CONTINUOUS
 10
-94.535732
 20
-4.05587
 11
-94.535732
 21
26.245383
  0
LINE
  8
型材断面
  6
CONTINUOUS
 10
-63.255937
 20
61.900193
 11
-97.932175
 21
61.900178
  0
LINE
  8
型材断面
  6
CONTINUOUS
 10
-63.880937
 20
58.15019
 11
-94.182168
 21
58.15018
  0
LINE
  8
型材断面
  6
CONTINUOUS
 10
-63.880937
 20
-4.409425
 11
-94.182168
 21
-4.409415
  0
LINE
  8
型材断面
  6
CONTINUOUS
 10
-63.255937
 20
-8.159428
 11
-97.932175
 21
-8.159412
  0
LINE
  8
ガラス
  6
CONTINUOUS
 10
-60.987105
 20
28.753778
 11
-64.933553
 21
24.807332
  0
LINE
  8
ガラス
  6
CONTINUOUS
 10
-61.971365
 20
25.79159
 11
-63.94929
 21
27.769525
  0
LINE
  8
ガラス
  6
CONTINUOUS
 10
-63.250932
 20
25.837268
 11
-61.726158
 21
27.362042
  0
LINE
  8
ガラス
  6
CONTINUOUS
 10
-62.669725
 20
27.723848
 11
-64.194495
 21
26.199075
  0
LINE
  8
ガラス
  6
CONTINUOUS
 10
100.417285
 20
75.807477
 11
165.667285
 21
75.807477
  0
LINE
  8
ガラス
  6
CONTINUOUS
 10
165.667285
 20
10.557477
 11
165.667285
 21
75.807477
  0
LINE
  8
ガラス
  6
CONTINUOUS
 10
100.417285
 20
75.807477
 11
100.417285
 21
10.557477
  0
LINE
  8
ガラス
  6
CONTINUOUS
 10
165.667285
 20
10.557477
 11
100.417285
 21
10.557477
  0
TEXT
  7
TextStyle03
  8
文字
  6
CONTINUOUS
 10
9.175
 20
-14.975
  1
は排水穴位置を示す
 40
3.0
 72
     5
 11
39.175
 21
-14.975
  0
TEXT
  7
TextStyle03
  8
文字
  6
CONTINUOUS
 10
9.175
 20
-22.825
  1
はケーシング位置を示す
 40
3.0
 72
     5
 11
45.925
 21
-22.825
  0
TEXT
  7
TextStyle03
  8
文字
  6
CONTINUOUS
 10
9.175
 20
-26.2
  1
２ヶ所中1ヶ所に設定
 40
3.0
 72
     5
 11
40.8625
 21
-26.2
  0
TEXT
  7
TextStyle03
  8
文字
  6
CONTINUOUS
 10
-117.55
 20
-76.025
  1
丁番側
 40
3.0
 72
     5
 11
-107.8
 21
-76.025
  0
TEXT
  7
TextStyle03
  8
文字
  6
CONTINUOUS
 10
125.65
 20
-51.0
  1
45°
 40
3.0
 72
     5
 11
132.025
 21
-51.0
  0
TEXT
  7
TextStyle03
  8
文字
  6
CONTINUOUS
 10
3.575
 20
-33.35
  1
アンカー数量　８ヶ所
 40
3.0
 72
     5
 11
36.95
 21
-33.35
  0
TEXT
  7
TextStyle03
  8
文字
  6
CONTINUOUS
 10
-110.25
 20
86.3
  1
アンカーピッチ
 40
3.0
 72
     5
 11
-87.0
 21
86.3
  0
TEXT
  7
TextStyle03
  8
文字
  6
CONTINUOUS
 10
-127.25
 20
-16.5
  1
アンカーピッチ
 40
3.0
 50
90.0
 72
     5
 11
-127.25
 21
6.75
  0
TEXT
  7
TextStyle03
  8
文字
  6
CONTINUOUS
 10
68.875
 20
96.6
  1
ＮＳコード：ＮＳＦＨＺ
 40
5.0
 72
     5
 11
130.125
 21
96.6
  0
TEXT
  7
TextStyle03
  8
文字
  6
CONTINUOUS
 10
144.475
 20
18.8
  1
網入り6.8t
 40
3.0
 72
     5
 11
161.1625
 21
18.8
  0
TEXT
  7
TextStyle03
  8
文字
  6
CONTINUOUS
 10
151.1
 20
13.55
  1
×１枚
 40
3.0
 72
     5
 11
160.85
 21
13.55
  0
TEXT
  7
TextStyle03
  8
文字
  6
CONTINUOUS
 10
68.9
 20
124.125
  1
シリーズ：ＴＦ２ＦＨ
 40
5.0
 72
     5
 11
124.525
 21
124.125
  0
TEXT
  7
TextStyle03
  8
文字
  6
CONTINUOUS
 10
68.9
 20
118.5
  1
　　　　　（片側開閉）1300×1300タイプ
 40
5.0
 72
     5
 11
175.15
 21
118.5
  0
TEXT
  7
TextStyle03
  8
文字
  6
CONTINUOUS
 10
68.9
 20
112.875
  1

 40
5.0
 41
1.125
  0
TEXT
  7
TextStyle03
  8
文字
  6
CONTINUOUS
 10
68.9
 20
107.25
  1
図面名　：外観姿図
 40
5.0
 72
     5
 11
118.9
 21
107.25
  0
INSERT
  2
*DIM_0002
  8
寸法
  6
CONTINUOUS
 10
0.0
 20
0.0
  0
INSERT
  2
*DIM_0003
  8
寸法
  6
CONTINUOUS
 10
0.0
 20
0.0
  0
INSERT
  2
*DIM_0004
  8
寸法
  6
CONTINUOUS
 10
0.0
 20
0.0
  0
INSERT
  2
*DIM_0006
  8
寸法
  6
CONTINUOUS
 10
0.0
 20
0.0
  0
INSERT
  2
*DIM_0007
  8
寸法
  6
CONTINUOUS
 10
0.0
 20
0.0
  0
INSERT
  2
*DIM_0008
  8
寸法
  6
CONTINUOUS
 10
0.0
 20
0.0
  0
INSERT
  2
*DIM_0009
  8
寸法
  6
CONTINUOUS
 10
0.0
 20
0.0
  0
INSERT
  2
*DIM_0010
  8
寸法
  6
CONTINUOUS
 10
0.0
 20
0.0
  0
INSERT
  2
*DIM_0011
  8
寸法
  6
CONTINUOUS
 10
0.0
 20
0.0
  0
INSERT
  2
*DIM_0012
  8
寸法
  6
CONTINUOUS
 10
0.0
 20
0.0
  0
INSERT
  2
*GRP_0005
  8
別途部材
  6
CONTINUOUS
 10
0.0
 20
0.0
  0
INSERT
  2
*GRP_0013
  8
別途部材
  6
CONTINUOUS
 10
0.0
 20
0.0
  0
ENDSEC
  0
EOF
