  0
SECTION
  2
HEADER
  9
$EXTMIN
 10
-210.0
 20
-148.5
  9
$EXTMAX
 10
210.0
 20
148.5
  9
$PDMODE
 70
    32
  9
$PDSIZE
 40
1.5
  9
$LTSCALE
 40
10.0
  0
ENDSEC
  0
SECTION
  2
TABLES
  0
TABLE
  2
LTYPE
 70
    15
  0
LTYPE
  2
CONTINUOUS
 70
    64
  3
実線
 72
    65
 73
     0
 40
0.0
  0
LTYPE
  2
DASHED
 70
    64
  3
破線A
 72
    65
 73
     2
 40
0.6
 49
0.4
 49
-0.2
  0
LTYPE
  2
DASHEDX2
 70
    64
  3
破線B
 72
    65
 73
     2
 40
1.3
 49
0.9
 49
-0.4
  0
LTYPE
  2
DASHDOT
 70
    64
  3
１点鎖線A
 72
    65
 73
     4
 40
0.5375
 49
0.375
 49
-0.05
 49
0.0625
 49
-0.05
  0
LTYPE
  2
DASHDOTX2
 70
    64
  3
１点鎖線B
 72
    65
 73
     4
 40
1.075
 49
0.75
 49
-0.1
 49
0.125
 49
-0.1
  0
LTYPE
  2
DIVIDE2
 70
    64
  3
２点鎖線A
 72
    65
 73
     6
 40
0.5125
 49
0.3
 49
-0.0375
 49
0.05
 49
-0.0375
 49
0.05
 49
-0.0375
  0
LTYPE
  2
DIVIDE
 70
    64
  3
２点鎖線B
 72
    65
 73
     6
 40
1.05
 49
0.55
 49
-0.1
 49
0.1
 49
-0.1
 49
0.1
 49
-0.1
  0
LTYPE
  2
DOT
 70
    64
  3
点線A
 72
    65
 73
     2
 40
0.1125
 49
0.0625
 49
-0.05
  0
LTYPE
  2
DOTX2
 70
    64
  3
点線B
 72
    65
 73
     2
 40
0.275
 49
0.15
 49
-0.125
  0
LTYPE
  2
CONTINUOUS
 70
    64
  3
実線
 72
    65
 73
     0
 40
0.0
  0
LTYPE
  2
CONTINUOUS
 70
    64
  3
実線
 72
    65
 73
     0
 40
0.0
  0
LTYPE
  2
CONTINUOUS
 70
    64
  3
実線
 72
    65
 73
     0
 40
0.0
  0
LTYPE
  2
CONTINUOUS
 70
    64
  3
実線
 72
    65
 73
     0
 40
0.0
  0
LTYPE
  2
CONTINUOUS
 70
    64
  3
実線
 72
    65
 73
     0
 40
0.0
  0
LTYPE
  2
CONTINUOUS
 70
    64
  3
実線
 72
    65
 73
     0
 40
0.0
  0
ENDTAB
  0
TABLE
  2
LAYER
 70
    34
  0
LAYER
  2
通り芯
 70
     0
 62
    15
  6
CONTINUOUS
  0
LAYER
  2
補助線
 70
     0
 62
    16
  6
DOT
  0
LAYER
  2
躯体
 70
     0
 62
    31
  6
CONTINUOUS
  0
LAYER
  2
型材
 70
     0
 62
    32
  6
CONTINUOUS
  0
LAYER
  2
型材断面
 70
     0
 62
    47
  6
CONTINUOUS
  0
LAYER
  2
ガラス
 70
     0
 62
    48
  6
CONTINUOUS
  0
LAYER
  2
ゴム等
 70
     0
 62
    63
  6
CONTINUOUS
  0
LAYER
  2
ボルト／ビス
 70
     0
 62
    64
  6
CONTINUOUS
  0
LAYER
  2
文字
 70
     0
 62
    79
  6
CONTINUOUS
  0
LAYER
  2
寸法
 70
     0
 62
    80
  6
CONTINUOUS
  0
LAYER
  2
ﾊｯﾁﾝｸﾞ
 70
     0
 62
    95
  6
CONTINUOUS
  0
LAYER
  2
別途部材
 70
     0
 62
    96
  6
CONTINUOUS
  0
LAYER
  2
曲げ物
 70
     0
 62
   111
  6
CONTINUOUS
  0
LAYER
  2
鉄骨等
 70
     0
 62
   112
  6
CONTINUOUS
  0
LAYER
  2
St
 70
     0
 62
   127
  6
CONTINUOUS
  0
LAYER
  2
その他部品等
 70
     0
 62
   128
  6
CONTINUOUS
  0
LAYER
  2
ｶﾞｽｹｯﾄ
 70
     0
 62
   143
  6
CONTINUOUS
  0
LAYER
  2
ｽｹｯﾁ
 70
     0
 62
    14
  6
CONTINUOUS
  0
LAYER
  2
0
 70
     0
 62
    17
  6
CONTINUOUS
  0
LAYER
  2
1
 70
     0
 62
    30
  6
CONTINUOUS
  0
LAYER
  2
4
 70
     0
 62
    33
  6
CONTINUOUS
  0
LAYER
  2
ﾚｲﾔ3
 70
     0
 62
    46
  6
CONTINUOUS
  0
LAYER
  2
外形線
 70
     0
 62
    49
  6
CONTINUOUS
  0
LAYER
  2
部品
 70
     0
 62
    14
  6
CONTINUOUS
  0
LAYER
  2
サッシ芯
 70
     0
 62
    17
  6
DASHDOTX2
  0
LAYER
  2
寸法線
 70
     0
 62
    62
  6
CONTINUOUS
  0
LAYER
  2
姿図外形線
 70
     0
 62
    65
  6
CONTINUOUS
  0
LAYER
  2
姿補助線
 70
     0
 62
    30
  6
CONTINUOUS
  0
LAYER
  2
透視線
 70
     0
 62
    78
  6
DOT
  0
LAYER
  2
用紙
 70
     0
 62
    81
  6
CONTINUOUS
  0
LAYER
  2
実線図枠
 70
     0
 62
    94
  6
CONTINUOUS
  0
LAYER
  2
補助図枠
 70
     0
 62
    97
  6
CONTINUOUS
  0
LAYER
  2
建具記号
 70
     0
 62
   110
  6
CONTINUOUS
  0
LAYER
  2
補助文字
 70
     0
 62
   113
  6
CONTINUOUS
  0
ENDTAB
  0
TABLE
  2
STYLE
 70
    10
  0
STYLE
  2
STANDARD
 70
     0
 40
1.0
 41
1.0
 42
1.0
 50
0.0
 71
     0
  3
TXT
  4
BIGFONT
  0
STYLE
  2
TATE
 70
     4
 40
1.0
 41
1.0
 42
1.0
 50
0.0
 71
     0
  3
TXT
  4
BIGFONT
  0
STYLE
  2
TextStyle03
 70
     0
 40
1.0
 41
1.0
 42
1.0
 50
0.0
 71
     0
  3
MONOTXT
  4
BIGFONT
  0
STYLE
  2
TextStyle04
 70
     0
 40
1.0
 41
1.0
 42
1.0
 50
0.0
 71
     0
  3
MONOTXT
  4
BIGFONT
  0
STYLE
  2
TextStyle05
 70
     0
 40
1.0
 41
1.0
 42
1.0
 50
0.0
 71
     0
  3
MONOTXT
  4
BIGFONT
  0
STYLE
  2
TextStyle06
 70
     0
 40
1.0
 41
1.0
 42
1.0
 50
0.0
 71
     0
  3
MONOTXT
  4
BIGFONT
  0
STYLE
  2
TextStyle07
 70
     0
 40
1.0
 41
1.0
 42
1.0
 50
0.0
 71
     0
  3
MONOTXT
  4
BIGFONT
  0
STYLE
  2
TextStyle08
 70
     0
 40
1.0
 41
1.0
 42
1.0
 50
0.0
 71
     0
  3
MONOTXT
  4
BIGFONT
  0
STYLE
  2
TextStyle09
 70
     0
 40
1.0
 41
1.0
 42
1.0
 50
0.0
 71
     0
  3
MONOTXT
  4
BIGFONT
  0
STYLE
  2
TextStyle10
 70
     0
 40
1.0
 41
1.0
 42
1.0
 50
0.0
 71
     0
  3
MONOTXT
  4
BIGFONT
  0
ENDTAB
  0
ENDSEC
  0
SECTION
  2
BLOCKS
  0
BLOCK
  2
*GRP_0001
 70
    65
 10
0.0
 20
0.0
  0
LINE
  8
型材断面
  6
CONTINUOUS
 10
195.0
 20
133.5
 11
195.0
 21
-133.5
  0
LINE
  8
型材断面
  6
CONTINUOUS
 10
195.0
 20
-133.5
 11
-185.0
 21
-133.5
  0
LINE
  8
型材断面
  6
CONTINUOUS
 10
-185.0
 20
-133.5
 11
-185.0
 21
133.5
  0
LINE
  8
型材断面
  6
CONTINUOUS
 10
195.0
 20
133.5
 11
-185.0
 21
133.5
  0
LINE
  8
型材断面
  6
CONTINUOUS
 10
145.0
 20
-133.5
 11
145.0
 21
-118.5
  0
LINE
  8
型材断面
  6
CONTINUOUS
 10
195.0
 20
-118.5
 11
145.0
 21
-118.5
  0
ENDBLK
  0
BLOCK
  2
*DIM_0002
 70
    65
 10
0.0
 20
0.0
  0
LINE
  8
寸法
  6
BYBLOCK
 62
     0
 10
-78.596933
 20
-13.511205
 11
-78.596933
 21
-13.121378
  0
LINE
  8
寸法
  6
BYBLOCK
 62
     0
 10
21.403067
 20
-13.121378
 11
-78.596933
 21
-13.121378
  0
POINT
  8
寸法
 62
     0
 10
21.403067
 20
-13.121378
  0
POINT
  8
寸法
 62
     0
 10
-78.596933
 20
-13.121378
  0
TEXT
  7
TextStyle03
  8
寸法
  6
CONTINUOUS
 62
     0
 10
-40.31875
 20
-12.75
  1
呼称寸法　3000
 40
3.0
 72
     5
 11
-16.88125
 21
-12.75
  0
ENDBLK
  0
BLOCK
  2
*DIM_0003
 70
    65
 10
0.0
 20
0.0
  0
LINE
  8
寸法
  6
BYBLOCK
 62
     0
 10
-61.930265
 20
19.183902
 11
-61.930265
 21
14.10329
  0
LINE
  8
寸法
  6
BYBLOCK
 62
     0
 10
4.7364
 20
19.183902
 11
4.7364
 21
14.10329
  0
LINE
  8
寸法
  6
BYBLOCK
 62
     0
 10
-61.930265
 20
14.10329
 11
4.7364
 21
14.10329
  0
POINT
  8
寸法
 62
     0
 10
-61.930265
 20
14.10329
  0
POINT
  8
寸法
 62
     0
 10
4.7364
 20
14.10329
  0
TEXT
  7
TextStyle03
  8
寸法
  6
CONTINUOUS
 62
     0
 10
-31.88125
 20
14.475
  1
2000
 40
3.0
 72
     5
 11
-25.31875
 21
14.475
  0
ENDBLK
  0
BLOCK
  2
*GRP_0004
 70
    65
 10
0.0
 20
0.0
  0
LINE
  8
別途部材
  6
CONTINUOUS
 62
    96
 10
-80.263598
 20
-70.209613
 11
-80.663598
 21
-71.209613
  0
ARC
  8
別途部材
  6
CONTINUOUS
 10
-63.596932
 20
-79.542947
 40
17.666667
 50
90.0
 51
148.109204
  0
LINE
  8
別途部材
  6
CONTINUOUS
 62
    96
 10
-80.263598
 20
-70.209613
 11
-28.596933
 21
-70.209613
  0
LINE
  8
別途部材
  6
CONTINUOUS
 10
-80.663598
 20
-71.209613
 11
-28.596933
 21
-71.209613
  0
LINE
  8
別途部材
  6
CONTINUOUS
 10
-29.096933
 20
-60.87628
 11
-30.096933
 21
-61.87628
  0
LINE
  8
別途部材
  6
CONTINUOUS
 10
-31.096933
 20
-61.87628
 11
-32.096933
 21
-60.87628
  0
LINE
  8
別途部材
  6
CONTINUOUS
 10
-33.096933
 20
-60.87628
 11
-34.096933
 21
-61.87628
  0
LINE
  8
別途部材
  6
CONTINUOUS
 10
-32.096933
 20
-60.87628
 11
-33.096933
 21
-60.87628
  0
LINE
  8
別途部材
  6
CONTINUOUS
 10
-29.096933
 20
-60.87628
 11
-28.596933
 21
-60.87628
  0
LINE
  8
別途部材
  6
CONTINUOUS
 10
-35.096933
 20
-61.87628
 11
-36.096933
 21
-60.87628
  0
LINE
  8
別途部材
  6
CONTINUOUS
 10
-37.096933
 20
-60.87628
 11
-38.096933
 21
-61.87628
  0
LINE
  8
別途部材
  6
CONTINUOUS
 10
-36.096933
 20
-60.87628
 11
-37.096933
 21
-60.87628
  0
LINE
  8
別途部材
  6
CONTINUOUS
 10
-39.096933
 20
-61.87628
 11
-40.096933
 21
-60.87628
  0
LINE
  8
別途部材
  6
CONTINUOUS
 10
-41.096933
 20
-60.87628
 11
-42.096933
 21
-61.87628
  0
LINE
  8
別途部材
  6
CONTINUOUS
 10
-40.096933
 20
-60.87628
 11
-41.096933
 21
-60.87628
  0
LINE
  8
別途部材
  6
CONTINUOUS
 10
-43.096933
 20
-61.87628
 11
-44.096933
 21
-60.87628
  0
LINE
  8
別途部材
  6
CONTINUOUS
 10
-45.096933
 20
-60.87628
 11
-46.096933
 21
-61.87628
  0
LINE
  8
別途部材
  6
CONTINUOUS
 10
-44.096933
 20
-60.87628
 11
-45.096933
 21
-60.87628
  0
LINE
  8
別途部材
  6
CONTINUOUS
 10
-47.096933
 20
-61.87628
 11
-48.096933
 21
-60.87628
  0
LINE
  8
別途部材
  6
CONTINUOUS
 10
-49.096933
 20
-60.87628
 11
-50.096933
 21
-61.87628
  0
LINE
  8
別途部材
  6
CONTINUOUS
 10
-48.096933
 20
-60.87628
 11
-49.096933
 21
-60.87628
  0
LINE
  8
別途部材
  6
CONTINUOUS
 10
-51.096933
 20
-61.87628
 11
-52.096933
 21
-60.87628
  0
LINE
  8
別途部材
  6
CONTINUOUS
 10
-53.096933
 20
-60.87628
 11
-54.096933
 21
-61.87628
  0
LINE
  8
別途部材
  6
CONTINUOUS
 10
-52.096933
 20
-60.87628
 11
-53.096933
 21
-60.87628
  0
LINE
  8
別途部材
  6
CONTINUOUS
 10
-55.096933
 20
-61.87628
 11
-56.096933
 21
-60.87628
  0
LINE
  8
別途部材
  6
CONTINUOUS
 10
-57.096933
 20
-60.87628
 11
-58.096933
 21
-61.87628
  0
LINE
  8
別途部材
  6
CONTINUOUS
 10
-56.096933
 20
-60.87628
 11
-57.096933
 21
-60.87628
  0
LINE
  8
別途部材
  6
CONTINUOUS
 10
-59.096933
 20
-61.87628
 11
-60.096933
 21
-60.87628
  0
LINE
  8
別途部材
  6
CONTINUOUS
 10
-61.096933
 20
-60.87628
 11
-62.096933
 21
-61.87628
  0
LINE
  8
別途部材
  6
CONTINUOUS
 10
-60.096933
 20
-60.87628
 11
-61.096933
 21
-60.87628
  0
LINE
  8
別途部材
  6
CONTINUOUS
 10
-58.096933
 20
-61.87628
 11
-59.096933
 21
-61.87628
  0
LINE
  8
別途部材
  6
CONTINUOUS
 10
-54.096933
 20
-61.87628
 11
-55.096933
 21
-61.87628
  0
LINE
  8
別途部材
  6
CONTINUOUS
 10
-50.096933
 20
-61.87628
 11
-51.096933
 21
-61.87628
  0
LINE
  8
別途部材
  6
CONTINUOUS
 10
-46.096933
 20
-61.87628
 11
-47.096933
 21
-61.87628
  0
LINE
  8
別途部材
  6
CONTINUOUS
 10
-42.096933
 20
-61.87628
 11
-43.096933
 21
-61.87628
  0
LINE
  8
別途部材
  6
CONTINUOUS
 10
-38.096933
 20
-61.87628
 11
-39.096933
 21
-61.87628
  0
LINE
  8
別途部材
  6
CONTINUOUS
 10
-34.096933
 20
-61.87628
 11
-35.096933
 21
-61.87628
  0
LINE
  8
別途部材
  6
CONTINUOUS
 10
-31.096933
 20
-61.87628
 11
-30.096933
 21
-61.87628
  0
LINE
  8
別途部材
  6
CONTINUOUS
 10
-62.096933
 20
-61.87628
 11
-62.096933
 21
-70.209613
  0
LINE
  8
別途部材
  6
CONTINUOUS
 10
-61.096933
 20
-60.87628
 11
-61.096933
 21
-70.209613
  0
LINE
  8
別途部材
  6
CONTINUOUS
 10
-59.096933
 20
-61.87628
 11
-59.096933
 21
-70.209613
  0
LINE
  8
別途部材
  6
CONTINUOUS
 10
-60.096933
 20
-60.87628
 11
-60.096933
 21
-70.209613
  0
LINE
  8
別途部材
  6
CONTINUOUS
 10
-57.096933
 20
-60.87628
 11
-57.096933
 21
-70.209613
  0
LINE
  8
別途部材
  6
CONTINUOUS
 10
-58.096933
 20
-61.87628
 11
-58.096933
 21
-70.209613
  0
LINE
  8
別途部材
  6
CONTINUOUS
 10
-54.096933
 20
-61.87628
 11
-54.096933
 21
-70.209613
  0
LINE
  8
別途部材
  6
CONTINUOUS
 10
-53.096933
 20
-60.87628
 11
-53.096933
 21
-70.209613
  0
LINE
  8
別途部材
  6
CONTINUOUS
 10
-52.096933
 20
-60.87628
 11
-52.096933
 21
-70.209613
  0
LINE
  8
別途部材
  6
CONTINUOUS
 10
-55.096933
 20
-61.87628
 11
-55.096933
 21
-70.209613
  0
LINE
  8
別途部材
  6
CONTINUOUS
 10
-56.096933
 20
-60.87628
 11
-56.096933
 21
-70.209613
  0
LINE
  8
別途部材
  6
CONTINUOUS
 10
-48.096933
 20
-60.87628
 11
-48.096933
 21
-70.209613
  0
LINE
  8
別途部材
  6
CONTINUOUS
 10
-50.096933
 20
-61.87628
 11
-50.096933
 21
-70.209613
  0
LINE
  8
別途部材
  6
CONTINUOUS
 10
-51.096933
 20
-61.87628
 11
-51.096933
 21
-70.209613
  0
LINE
  8
別途部材
  6
CONTINUOUS
 10
-49.096933
 20
-60.87628
 11
-49.096933
 21
-70.209613
  0
LINE
  8
別途部材
  6
CONTINUOUS
 10
-47.096933
 20
-61.87628
 11
-47.096933
 21
-70.209613
  0
LINE
  8
別途部材
  6
CONTINUOUS
 10
-45.096933
 20
-60.87628
 11
-45.096933
 21
-70.209613
  0
LINE
  8
別途部材
  6
CONTINUOUS
 10
-44.096933
 20
-60.87628
 11
-44.096933
 21
-70.209613
  0
LINE
  8
別途部材
  6
CONTINUOUS
 10
-42.096933
 20
-61.87628
 11
-42.096933
 21
-70.209613
  0
LINE
  8
別途部材
  6
CONTINUOUS
 10
-43.096933
 20
-61.87628
 11
-43.096933
 21
-70.209613
  0
LINE
  8
別途部材
  6
CONTINUOUS
 10
-46.096933
 20
-61.87628
 11
-46.096933
 21
-70.209613
  0
LINE
  8
別途部材
  6
CONTINUOUS
 10
-41.096933
 20
-60.87628
 11
-41.096933
 21
-70.209613
  0
LINE
  8
別途部材
  6
CONTINUOUS
 10
-39.096933
 20
-61.87628
 11
-39.096933
 21
-70.209613
  0
LINE
  8
別途部材
  6
CONTINUOUS
 10
-40.096933
 20
-60.87628
 11
-40.096933
 21
-70.209613
  0
LINE
  8
別途部材
  6
CONTINUOUS
 10
-38.096933
 20
-61.87628
 11
-38.096933
 21
-70.209613
  0
LINE
  8
別途部材
  6
CONTINUOUS
 10
-37.096933
 20
-60.87628
 11
-37.096933
 21
-70.209613
  0
LINE
  8
別途部材
  6
CONTINUOUS
 10
-35.096933
 20
-61.87628
 11
-35.096933
 21
-70.209613
  0
LINE
  8
別途部材
  6
CONTINUOUS
 10
-36.096933
 20
-60.87628
 11
-36.096933
 21
-70.209613
  0
LINE
  8
別途部材
  6
CONTINUOUS
 10
-34.096933
 20
-61.87628
 11
-34.096933
 21
-70.209613
  0
LINE
  8
別途部材
  6
CONTINUOUS
 10
-33.096933
 20
-60.87628
 11
-33.096933
 21
-70.209613
  0
LINE
  8
別途部材
  6
CONTINUOUS
 10
-31.096933
 20
-61.87628
 11
-31.096933
 21
-70.209613
  0
LINE
  8
別途部材
  6
CONTINUOUS
 10
-32.096933
 20
-60.87628
 11
-32.096933
 21
-70.209613
  0
LINE
  8
別途部材
  6
CONTINUOUS
 10
-30.096933
 20
-61.87628
 11
-30.096933
 21
-70.209613
  0
LINE
  8
別途部材
  6
CONTINUOUS
 10
-29.096933
 20
-60.87628
 11
-29.096933
 21
-70.209613
  0
LINE
  8
別途部材
  6
CONTINUOUS
 10
-62.096933
 20
-61.87628
 11
-63.596933
 21
-61.87628
  0
LINE
  8
別途部材
  6
CONTINUOUS
 62
    96
 10
23.069735
 20
-70.209613
 11
23.469735
 21
-71.209613
  0
ARC
  8
別途部材
  6
CONTINUOUS
 10
6.403068
 20
-79.542947
 40
17.666667
 50
31.890796
 51
90.0
  0
LINE
  8
別途部材
  6
CONTINUOUS
 62
    96
 10
23.069735
 20
-70.209613
 11
-28.596933
 21
-70.209613
  0
LINE
  8
別途部材
  6
CONTINUOUS
 10
23.469735
 20
-71.209613
 11
-28.596933
 21
-71.209613
  0
LINE
  8
別途部材
  6
CONTINUOUS
 10
-28.096933
 20
-60.87628
 11
-27.096933
 21
-61.87628
  0
LINE
  8
別途部材
  6
CONTINUOUS
 10
-26.096933
 20
-61.87628
 11
-25.096933
 21
-60.87628
  0
LINE
  8
別途部材
  6
CONTINUOUS
 10
-24.096933
 20
-60.87628
 11
-23.096933
 21
-61.87628
  0
LINE
  8
別途部材
  6
CONTINUOUS
 10
-25.096933
 20
-60.87628
 11
-24.096933
 21
-60.87628
  0
LINE
  8
別途部材
  6
CONTINUOUS
 10
-28.096933
 20
-60.87628
 11
-28.596933
 21
-60.87628
  0
LINE
  8
別途部材
  6
CONTINUOUS
 10
-22.096933
 20
-61.87628
 11
-21.096933
 21
-60.87628
  0
LINE
  8
別途部材
  6
CONTINUOUS
 10
-20.096933
 20
-60.87628
 11
-19.096933
 21
-61.87628
  0
LINE
  8
別途部材
  6
CONTINUOUS
 10
-21.096933
 20
-60.87628
 11
-20.096933
 21
-60.87628
  0
LINE
  8
別途部材
  6
CONTINUOUS
 10
-18.096933
 20
-61.87628
 11
-17.096933
 21
-60.87628
  0
LINE
  8
別途部材
  6
CONTINUOUS
 10
-16.096933
 20
-60.87628
 11
-15.096933
 21
-61.87628
  0
LINE
  8
別途部材
  6
CONTINUOUS
 10
-17.096933
 20
-60.87628
 11
-16.096933
 21
-60.87628
  0
LINE
  8
別途部材
  6
CONTINUOUS
 10
-14.096933
 20
-61.87628
 11
-13.096933
 21
-60.87628
  0
LINE
  8
別途部材
  6
CONTINUOUS
 10
-12.096933
 20
-60.87628
 11
-11.096933
 21
-61.87628
  0
LINE
  8
別途部材
  6
CONTINUOUS
 10
-13.096933
 20
-60.87628
 11
-12.096933
 21
-60.87628
  0
LINE
  8
別途部材
  6
CONTINUOUS
 10
-10.096933
 20
-61.87628
 11
-9.096933
 21
-60.87628
  0
LINE
  8
別途部材
  6
CONTINUOUS
 10
-8.096933
 20
-60.87628
 11
-7.096933
 21
-61.87628
  0
LINE
  8
別途部材
  6
CONTINUOUS
 10
-9.096933
 20
-60.87628
 11
-8.096933
 21
-60.87628
  0
LINE
  8
別途部材
  6
CONTINUOUS
 10
-6.096933
 20
-61.87628
 11
-5.096933
 21
-60.87628
  0
LINE
  8
別途部材
  6
CONTINUOUS
 10
-4.096933
 20
-60.87628
 11
-3.096933
 21
-61.87628
  0
LINE
  8
別途部材
  6
CONTINUOUS
 10
-5.096933
 20
-60.87628
 11
-4.096933
 21
-60.87628
  0
LINE
  8
別途部材
  6
CONTINUOUS
 10
-2.096933
 20
-61.87628
 11
-1.096933
 21
-60.87628
  0
LINE
  8
別途部材
  6
CONTINUOUS
 10
-0.096933
 20
-60.87628
 11
0.903067
 21
-61.87628
  0
LINE
  8
別途部材
  6
CONTINUOUS
 10
-1.096933
 20
-60.87628
 11
-0.096933
 21
-60.87628
  0
LINE
  8
別途部材
  6
CONTINUOUS
 10
1.903067
 20
-61.87628
 11
2.903067
 21
-60.87628
  0
LINE
  8
別途部材
  6
CONTINUOUS
 10
3.903067
 20
-60.87628
 11
4.903067
 21
-61.87628
  0
LINE
  8
別途部材
  6
CONTINUOUS
 10
2.903067
 20
-60.87628
 11
3.903067
 21
-60.87628
  0
LINE
  8
別途部材
  6
CONTINUOUS
 10
0.903067
 20
-61.87628
 11
1.903067
 21
-61.87628
  0
LINE
  8
別途部材
  6
CONTINUOUS
 10
-3.096933
 20
-61.87628
 11
-2.096933
 21
-61.87628
  0
LINE
  8
別途部材
  6
CONTINUOUS
 10
-7.096933
 20
-61.87628
 11
-6.096933
 21
-61.87628
  0
LINE
  8
別途部材
  6
CONTINUOUS
 10
-11.096933
 20
-61.87628
 11
-10.096933
 21
-61.87628
  0
LINE
  8
別途部材
  6
CONTINUOUS
 10
-15.096933
 20
-61.87628
 11
-14.096933
 21
-61.87628
  0
LINE
  8
別途部材
  6
CONTINUOUS
 10
-19.096933
 20
-61.87628
 11
-18.096933
 21
-61.87628
  0
LINE
  8
別途部材
  6
CONTINUOUS
 10
-23.096933
 20
-61.87628
 11
-22.096933
 21
-61.87628
  0
LINE
  8
別途部材
  6
CONTINUOUS
 10
-26.096933
 20
-61.87628
 11
-27.096933
 21
-61.87628
  0
LINE
  8
別途部材
  6
CONTINUOUS
 10
4.903067
 20
-61.87628
 11
4.903067
 21
-70.209613
  0
LINE
  8
別途部材
  6
CONTINUOUS
 10
3.903067
 20
-60.87628
 11
3.903067
 21
-70.209613
  0
LINE
  8
別途部材
  6
CONTINUOUS
 10
1.903067
 20
-61.87628
 11
1.903067
 21
-70.209613
  0
LINE
  8
別途部材
  6
CONTINUOUS
 10
2.903067
 20
-60.87628
 11
2.903067
 21
-70.209613
  0
LINE
  8
別途部材
  6
CONTINUOUS
 10
-0.096933
 20
-60.87628
 11
-0.096933
 21
-70.209613
  0
LINE
  8
別途部材
  6
CONTINUOUS
 10
0.903067
 20
-61.87628
 11
0.903067
 21
-70.209613
  0
LINE
  8
別途部材
  6
CONTINUOUS
 10
-3.096933
 20
-61.87628
 11
-3.096933
 21
-70.209613
  0
LINE
  8
別途部材
  6
CONTINUOUS
 10
-4.096933
 20
-60.87628
 11
-4.096933
 21
-70.209613
  0
LINE
  8
別途部材
  6
CONTINUOUS
 10
-5.096933
 20
-60.87628
 11
-5.096933
 21
-70.209613
  0
LINE
  8
別途部材
  6
CONTINUOUS
 10
-2.096933
 20
-61.87628
 11
-2.096933
 21
-70.209613
  0
LINE
  8
別途部材
  6
CONTINUOUS
 10
-1.096933
 20
-60.87628
 11
-1.096933
 21
-70.209613
  0
LINE
  8
別途部材
  6
CONTINUOUS
 10
-9.096933
 20
-60.87628
 11
-9.096933
 21
-70.209613
  0
LINE
  8
別途部材
  6
CONTINUOUS
 10
-7.096933
 20
-61.87628
 11
-7.096933
 21
-70.209613
  0
LINE
  8
別途部材
  6
CONTINUOUS
 10
-6.096933
 20
-61.87628
 11
-6.096933
 21
-70.209613
  0
LINE
  8
別途部材
  6
CONTINUOUS
 10
-8.096933
 20
-60.87628
 11
-8.096933
 21
-70.209613
  0
LINE
  8
別途部材
  6
CONTINUOUS
 10
-10.096933
 20
-61.87628
 11
-10.096933
 21
-70.209613
  0
LINE
  8
別途部材
  6
CONTINUOUS
 10
-12.096933
 20
-60.87628
 11
-12.096933
 21
-70.209613
  0
LINE
  8
別途部材
  6
CONTINUOUS
 10
-13.096933
 20
-60.87628
 11
-13.096933
 21
-70.209613
  0
LINE
  8
別途部材
  6
CONTINUOUS
 10
-15.096933
 20
-61.87628
 11
-15.096933
 21
-70.209613
  0
LINE
  8
別途部材
  6
CONTINUOUS
 10
-14.096933
 20
-61.87628
 11
-14.096933
 21
-70.209613
  0
LINE
  8
別途部材
  6
CONTINUOUS
 10
-11.096933
 20
-61.87628
 11
-11.096933
 21
-70.209613
  0
LINE
  8
別途部材
  6
CONTINUOUS
 10
-16.096933
 20
-60.87628
 11
-16.096933
 21
-70.209613
  0
LINE
  8
別途部材
  6
CONTINUOUS
 10
-18.096933
 20
-61.87628
 11
-18.096933
 21
-70.209613
  0
LINE
  8
別途部材
  6
CONTINUOUS
 10
-17.096933
 20
-60.87628
 11
-17.096933
 21
-70.209613
  0
LINE
  8
別途部材
  6
CONTINUOUS
 10
-19.096933
 20
-61.87628
 11
-19.096933
 21
-70.209613
  0
LINE
  8
別途部材
  6
CONTINUOUS
 10
-20.096933
 20
-60.87628
 11
-20.096933
 21
-70.209613
  0
LINE
  8
別途部材
  6
CONTINUOUS
 10
-22.096933
 20
-61.87628
 11
-22.096933
 21
-70.209613
  0
LINE
  8
別途部材
  6
CONTINUOUS
 10
-21.096933
 20
-60.87628
 11
-21.096933
 21
-70.209613
  0
LINE
  8
別途部材
  6
CONTINUOUS
 10
-23.096933
 20
-61.87628
 11
-23.096933
 21
-70.209613
  0
LINE
  8
別途部材
  6
CONTINUOUS
 10
-24.096933
 20
-60.87628
 11
-24.096933
 21
-70.209613
  0
LINE
  8
別途部材
  6
CONTINUOUS
 10
-26.096933
 20
-61.87628
 11
-26.096933
 21
-70.209613
  0
LINE
  8
別途部材
  6
CONTINUOUS
 10
-25.096933
 20
-60.87628
 11
-25.096933
 21
-70.209613
  0
LINE
  8
別途部材
  6
CONTINUOUS
 10
-27.096933
 20
-61.87628
 11
-27.096933
 21
-70.209613
  0
LINE
  8
別途部材
  6
CONTINUOUS
 10
-28.096933
 20
-60.87628
 11
-28.096933
 21
-70.209613
  0
LINE
  8
別途部材
  6
CONTINUOUS
 10
4.903067
 20
-61.87628
 11
6.403067
 21
-61.87628
  0
ENDBLK
  0
BLOCK
  2
*DIM_0005
 70
    65
 10
0.0
 20
0.0
  0
LINE
  8
寸法
  6
BYBLOCK
 62
     0
 10
19.403067
 20
17.20722
 11
19.403067
 21
14.182178
  0
LINE
  8
寸法
  6
BYBLOCK
 62
     0
 10
21.403067
 20
14.182178
 11
19.403067
 21
14.182178
  0
POINT
  8
寸法
 62
     0
 10
21.403067
 20
14.182178
  0
POINT
  8
寸法
 62
     0
 10
19.403067
 20
14.182178
  0
TEXT
  7
TextStyle03
  8
寸法
  6
CONTINUOUS
 62
     0
 10
17.53125
 20
10.4
  1
60
 40
3.0
 72
     5
 11
20.71875
 21
10.4
  0
ENDBLK
  0
BLOCK
  2
*DIM_0006
 70
    65
 10
0.0
 20
0.0
  0
LINE
  8
寸法
  6
BYBLOCK
 62
     0
 10
-76.596933
 20
17.20722
 11
-76.596933
 21
14.182178
  0
LINE
  8
寸法
  6
BYBLOCK
 62
     0
 10
-78.596933
 20
14.182178
 11
-76.596933
 21
14.182178
  0
POINT
  8
寸法
 62
     0
 10
-78.596933
 20
14.182178
  0
POINT
  8
寸法
 62
     0
 10
-76.596933
 20
14.182178
  0
TEXT
  7
TextStyle03
  8
寸法
  6
CONTINUOUS
 62
     0
 10
-77.89375
 20
10.4
  1
60
 40
3.0
 72
     5
 11
-74.70625
 21
10.4
  0
ENDBLK
  0
BLOCK
  2
*DIM_0007
 70
    65
 10
0.0
 20
0.0
  0
LINE
  8
寸法
  6
BYBLOCK
 62
     0
 10
56.879652
 20
22.814033
 11
56.879652
 21
52.814033
  0
POINT
  8
寸法
 62
     0
 10
56.879652
 20
22.814033
  0
POINT
  8
寸法
 62
     0
 10
56.879652
 20
52.814033
  0
TEXT
  7
TextStyle03
  8
寸法
  6
CONTINUOUS
 62
     0
 10
56.55
 20
26.9
  1
呼称寸法　900
 40
3.0
 50
90.0
 72
     5
 11
56.55
 21
48.65
  0
ENDBLK
  0
BLOCK
  2
*GRP_0008
 70
    65
 10
0.0
 20
0.0
  0
LINE
  8
別途部材
  6
CONTINUOUS
 62
    96
 10
115.972233
 20
54.04769
 11
115.972233
 21
53.94769
  0
LINE
  8
別途部材
  6
CONTINUOUS
 62
    96
 10
113.871153
 20
54.14769
 11
113.940825
 21
55.478495
  0
LINE
  8
別途部材
  6
CONTINUOUS
 62
    96
 10
114.4889
 20
55.48769
 11
114.372233
 21
55.754357
  0
LINE
  8
別途部材
  6
CONTINUOUS
 62
    96
 10
114.3889
 20
55.466772
 11
114.32138
 21
55.621107
  0
LINE
  8
別途部材
  6
CONTINUOUS
 62
    96
 10
113.842055
 20
55.504613
 11
113.972505
 21
55.764812
  0
LINE
  8
別途部材
  6
CONTINUOUS
 62
    96
 10
113.940825
 20
55.478495
 11
114.072985
 21
55.742108
  0
LINE
  8
別途部材
  6
CONTINUOUS
 62
    96
 10
114.108588
 20
55.677225
 11
114.04494
 21
55.600095
  0
LINE
  8
別途部材
  6
DASHDOTX2
 62
    96
 10
114.172233
 20
55.754357
 11
113.858748
 21
55.754357
  0
LINE
  8
別途部材
  6
DASHDOTX2
 62
    96
 10
114.172233
 20
55.754357
 11
114.502693
 21
55.754357
  0
LINE
  8
別途部材
  6
DASHDOTX2
 62
    96
 10
114.172233
 20
55.754357
 11
114.172233
 21
55.490885
  0
LINE
  8
別途部材
  6
DASHDOTX2
 62
    96
 10
114.172233
 20
55.754357
 11
114.172233
 21
56.032668
  0
LINE
  8
別途部材
  6
CONTINUOUS
 62
    96
 10
114.3889
 20
53.94769
 11
114.3889
 21
55.466772
  0
LINE
  8
別途部材
  6
CONTINUOUS
 62
    96
 10
114.4889
 20
54.04769
 11
114.4889
 21
55.48769
  0
LINE
  8
別途部材
  6
CONTINUOUS
 62
    96
 10
112.63782
 20
54.247693
 11
113.77625
 21
54.247693
  0
LINE
  8
別途部材
  6
CONTINUOUS
 62
    96
 10
112.63782
 20
54.14769
 11
112.63782
 21
54.247693
  0
LINE
  8
別途部材
  6
CONTINUOUS
 62
    96
 10
112.63782
 20
54.14769
 11
113.871153
 21
54.14769
  0
CIRCLE
  8
別途部材
  6
CONTINUOUS
 62
    96
 10
114.172233
 20
55.754357
 40
0.1
  0
ARC
  8
別途部材
  6
CONTINUOUS
 62
    96
 10
114.172232
 20
55.754357
 40
0.2
 50
218.780606
 51
537.001556
  0
LINE
  8
別途部材
  6
CONTINUOUS
 62
    96
 10
114.3889
 20
53.94769
 11
115.972233
 21
53.94769
  0
LINE
  8
別途部材
  6
CONTINUOUS
 62
    96
 10
114.4889
 20
54.04769
 11
115.972233
 21
54.04769
  0
LINE
  8
別途部材
  6
CONTINUOUS
 62
    96
 10
113.842055
 20
55.504613
 11
113.77625
 21
54.247693
  0
ENDBLK
  0
BLOCK
  2
*DIM_0009
 70
    65
 10
0.0
 20
0.0
  0
LINE
  8
寸法
  6
BYBLOCK
 62
     0
 10
102.555458
 20
40.814033
 11
102.555458
 21
64.521242
  0
LINE
  8
寸法
  6
BYBLOCK
 62
     0
 10
110.88879
 20
57.4807
 11
110.88879
 21
64.521242
  0
LINE
  8
寸法
  6
BYBLOCK
 62
     0
 10
102.555458
 20
64.521242
 11
110.88879
 21
64.521242
  0
POINT
  8
寸法
 62
     0
 10
102.555458
 20
64.521242
  0
POINT
  8
寸法
 62
     0
 10
110.88879
 20
64.521242
  0
TEXT
  7
TextStyle03
  8
寸法
  6
CONTINUOUS
 62
     0
 10
104.2625
 20
64.875
  1
250
 40
3.0
 72
     5
 11
109.1375
 21
64.875
  0
ENDBLK
  0
BLOCK
  2
*DIM_0010
 70
    65
 10
0.0
 20
0.0
  0
LINE
  8
寸法
  6
BYBLOCK
 62
     0
 10
116.78891
 20
59.147508
 11
116.78891
 21
64.521242
  0
LINE
  8
寸法
  6
BYBLOCK
 62
     0
 10
110.88879
 20
64.521242
 11
116.78891
 21
64.521242
  0
POINT
  8
寸法
 62
     0
 10
116.78891
 20
64.521242
  0
TEXT
  7
TextStyle03
  8
寸法
  6
CONTINUOUS
 62
     0
 10
111.3875
 20
64.875
  1
177
 40
3.0
 72
     5
 11
116.2625
 21
64.875
  0
ENDBLK
  0
BLOCK
  2
*DIM_0011
 70
    65
 10
0.0
 20
0.0
  0
LINE
  8
寸法
  6
BYBLOCK
 62
     0
 10
113.288907
 20
56.147508
 11
56.879652
 21
56.147508
  0
LINE
  8
寸法
  6
BYBLOCK
 62
     0
 10
56.879652
 20
52.814033
 11
56.879652
 21
56.147508
  0
POINT
  8
寸法
 62
     0
 10
56.879652
 20
52.814033
  0
POINT
  8
寸法
 62
     0
 10
56.879652
 20
56.147508
  0
TEXT
  7
TextStyle03
  8
寸法
  6
CONTINUOUS
 62
     0
 10
59.85
 20
57.2375
  1
100
 40
3.0
 50
90.0
 72
     5
 11
59.85
 21
62.1125
  0
ENDBLK
  0
BLOCK
  2
*DIM_0012
 70
    65
 10
0.0
 20
0.0
  0
LINE
  8
寸法
  6
BYBLOCK
 62
     0
 10
113.288907
 20
19.480558
 11
56.879652
 21
19.480558
  0
LINE
  8
寸法
  6
BYBLOCK
 62
     0
 10
56.879652
 20
22.814033
 11
56.879652
 21
19.480558
  0
POINT
  8
寸法
 62
     0
 10
56.879652
 20
22.814033
  0
POINT
  8
寸法
 62
     0
 10
56.879652
 20
19.480558
  0
TEXT
  7
TextStyle03
  8
寸法
  6
CONTINUOUS
 62
     0
 10
59.85
 20
13.5125
  1
100
 40
3.0
 50
90.0
 72
     5
 11
59.85
 21
18.3875
  0
ENDBLK
  0
BLOCK
  2
*DIM_0013
 70
    65
 10
0.0
 20
0.0
  0
LINE
  8
寸法
  6
BYBLOCK
 62
     0
 10
26.069735
 20
-70.209613
 11
36.471865
 21
-70.209613
  0
LINE
  8
寸法
  6
BYBLOCK
 62
     0
 10
27.736542
 20
-76.109732
 11
36.471865
 21
-76.109732
  0
LINE
  8
寸法
  6
BYBLOCK
 62
     0
 10
36.471865
 20
-70.209613
 11
36.471865
 21
-76.109732
  0
POINT
  8
寸法
 62
     0
 10
36.471865
 20
-70.209613
  0
POINT
  8
寸法
 62
     0
 10
36.471865
 20
-76.109732
  0
TEXT
  7
TextStyle03
  8
寸法
  6
CONTINUOUS
 62
     0
 10
36.075
 20
-75.6125
  1
177
 40
3.0
 50
90.0
 72
     5
 11
36.075
 21
-70.7375
  0
ENDBLK
  0
BLOCK
  2
*DIM_0014
 70
    65
 10
0.0
 20
0.0
  0
LINE
  8
寸法
  6
BYBLOCK
 62
     0
 10
8.569735
 20
-61.87628
 11
36.471865
 21
-61.87628
  0
LINE
  8
寸法
  6
BYBLOCK
 62
     0
 10
36.471865
 20
-70.209613
 11
36.471865
 21
-61.87628
  0
POINT
  8
寸法
 62
     0
 10
36.471865
 20
-70.209613
  0
POINT
  8
寸法
 62
     0
 10
36.471865
 20
-61.87628
  0
TEXT
  7
TextStyle03
  8
寸法
  6
CONTINUOUS
 62
     0
 10
36.075
 20
-68.4875
  1
250
 40
3.0
 50
90.0
 72
     5
 11
36.075
 21
-63.6125
  0
ENDBLK
  0
BLOCK
  2
*DIM_0015
 70
    65
 10
0.0
 20
0.0
  0
LINE
  8
寸法
  6
BYBLOCK
 62
     0
 10
24.736542
 20
-72.60973
 11
24.736542
 21
-13.121378
  0
LINE
  8
寸法
  6
BYBLOCK
 62
     0
 10
21.403067
 20
-13.121378
 11
24.736542
 21
-13.121378
  0
POINT
  8
寸法
 62
     0
 10
21.403067
 20
-13.121378
  0
POINT
  8
寸法
 62
     0
 10
24.736542
 20
-13.121378
  0
TEXT
  7
TextStyle03
  8
寸法
  6
CONTINUOUS
 62
     0
 10
25.7375
 20
-16.025
  1
100
 40
3.0
 72
     5
 11
30.6125
 21
-16.025
  0
ENDBLK
  0
BLOCK
  2
*DIM_0016
 70
    65
 10
0.0
 20
0.0
  0
LINE
  8
寸法
  6
BYBLOCK
 62
     0
 10
-81.930408
 20
-72.60973
 11
-81.930408
 21
-13.121378
  0
LINE
  8
寸法
  6
BYBLOCK
 62
     0
 10
-78.596933
 20
-13.121378
 11
-81.930408
 21
-13.121378
  0
POINT
  8
寸法
 62
     0
 10
-78.596933
 20
-13.121378
  0
POINT
  8
寸法
 62
     0
 10
-81.930408
 20
-13.121378
  0
TEXT
  7
TextStyle03
  8
寸法
  6
CONTINUOUS
 62
     0
 10
-87.8125
 20
-16.025
  1
100
 40
3.0
 72
     5
 11
-82.9375
 21
-16.025
  0
ENDBLK
  0
BLOCK
  2
*DIM_0017
 70
    65
 10
0.0
 20
0.0
  0
LINE
  8
寸法
  6
BYBLOCK
 62
     0
 10
118.196463
 20
-73.957318
 11
124.350898
 21
-73.957318
  0
LINE
  8
寸法
  6
BYBLOCK
 62
     0
 10
118.196463
 20
-43.423982
 11
124.350898
 21
-43.423982
  0
LINE
  8
寸法
  6
BYBLOCK
 62
     0
 10
124.350898
 20
-73.957318
 11
124.350898
 21
-43.423982
  0
POINT
  8
寸法
 62
     0
 10
124.350898
 20
-73.957318
  0
POINT
  8
寸法
 62
     0
 10
124.350898
 20
-43.423982
  0
TEXT
  7
TextStyle03
  8
寸法
  6
CONTINUOUS
 62
     0
 10
123.975
 20
-61.1375
  1
916
 40
3.0
 50
90.0
 72
     5
 11
123.975
 21
-56.2625
  0
ENDBLK
  0
BLOCK
  2
*DIM_0018
 70
    65
 10
0.0
 20
0.0
  0
LINE
  8
寸法
  6
BYBLOCK
 62
     0
 10
82.26313
 20
-40.423982
 11
82.26313
 21
-32.695655
  0
LINE
  8
寸法
  6
BYBLOCK
 62
     0
 10
115.196463
 20
-40.423982
 11
115.196463
 21
-32.695655
  0
LINE
  8
寸法
  6
BYBLOCK
 62
     0
 10
82.26313
 20
-32.695655
 11
115.196463
 21
-32.695655
  0
POINT
  8
寸法
 62
     0
 10
82.26313
 20
-32.695655
  0
POINT
  8
寸法
 62
     0
 10
115.196463
 20
-32.695655
  0
TEXT
  7
TextStyle03
  8
寸法
  6
CONTINUOUS
 62
     0
 10
96.2875
 20
-32.325
  1
988
 40
3.0
 72
     5
 11
101.1625
 21
-32.325
  0
ENDBLK
  0
BLOCK
  2
*DIM_0019
 70
    65
 10
0.0
 20
0.0
  0
LINE
  8
寸法
  6
BYBLOCK
 62
     0
 10
-81.596933
 20
47.814033
 11
-94.88977
 21
47.814033
  0
LINE
  8
寸法
  6
BYBLOCK
 62
     0
 10
-81.596933
 20
27.814033
 11
-94.88977
 21
27.814033
  0
LINE
  8
寸法
  6
BYBLOCK
 62
     0
 10
-94.88977
 20
47.814033
 11
-94.88977
 21
27.814033
  0
POINT
  8
寸法
 62
     0
 10
-94.88977
 20
47.814033
  0
POINT
  8
寸法
 62
     0
 10
-94.88977
 20
27.814033
  0
TEXT
  7
TextStyle03
  8
寸法
  6
CONTINUOUS
 62
     0
 10
-95.225
 20
35.3625
  1
600
 40
3.0
 50
90.0
 72
     5
 11
-95.225
 21
40.2375
  0
ENDBLK
  0
BLOCK
  2
*DIM_0020
 70
    65
 10
0.0
 20
0.0
  0
LINE
  8
寸法
  6
BYBLOCK
 62
     0
 10
-68.596933
 20
55.814033
 11
-68.596933
 21
84.922105
  0
LINE
  8
寸法
  6
BYBLOCK
 62
     0
 10
-41.930265
 20
55.814033
 11
-41.930265
 21
84.922105
  0
LINE
  8
寸法
  6
BYBLOCK
 62
     0
 10
-68.596933
 20
84.922105
 11
-41.930265
 21
84.922105
  0
POINT
  8
寸法
 62
     0
 10
-68.596933
 20
84.922105
  0
POINT
  8
寸法
 62
     0
 10
-41.930265
 20
84.922105
  0
TEXT
  7
TextStyle03
  8
寸法
  6
CONTINUOUS
 62
     0
 10
-57.7375
 20
85.275
  1
800
 40
3.0
 72
     5
 11
-52.8625
 21
85.275
  0
ENDBLK
  0
BLOCK
  2
*DIM_0021
 70
    65
 10
0.0
 20
0.0
  0
LINE
  8
寸法
  6
BYBLOCK
 62
     0
 10
-15.2636
 20
55.814033
 11
-15.2636
 21
84.922105
  0
LINE
  8
寸法
  6
BYBLOCK
 62
     0
 10
-41.930265
 20
84.922105
 11
-15.2636
 21
84.922105
  0
POINT
  8
寸法
 62
     0
 10
-15.2636
 20
84.922105
  0
TEXT
  7
TextStyle03
  8
寸法
  6
CONTINUOUS
 62
     0
 10
-31.0625
 20
85.275
  1
800
 40
3.0
 72
     5
 11
-26.1875
 21
85.275
  0
ENDBLK
  0
BLOCK
  2
*DIM_0022
 70
    65
 10
0.0
 20
0.0
  0
LINE
  8
寸法
  6
BYBLOCK
 62
     0
 10
11.403067
 20
55.814033
 11
11.403067
 21
84.922105
  0
LINE
  8
寸法
  6
BYBLOCK
 62
     0
 10
-15.2636
 20
84.922105
 11
11.403067
 21
84.922105
  0
POINT
  8
寸法
 62
     0
 10
11.403067
 20
84.922105
  0
TEXT
  7
TextStyle03
  8
寸法
  6
CONTINUOUS
 62
     0
 10
-4.3875
 20
85.275
  1
800
 40
3.0
 72
     5
 11
0.4875
 21
85.275
  0
ENDBLK
  0
BLOCK
  2
*GRP_0023
 70
    65
 10
0.0
 20
0.0
  0
LINE
  8
ボルト／ビス
  6
CONTINUOUS
 10
-79.2636
 20
-70.209613
 11
-79.2636
 21
-69.742945
  0
LINE
  8
ボルト／ビス
  6
CONTINUOUS
 10
-78.896933
 20
-70.209613
 11
-78.896933
 21
-70.142945
  0
LINE
  8
ボルト／ビス
  6
CONTINUOUS
 10
-78.896933
 20
-70.142945
 11
-79.630267
 21
-70.142945
  0
LINE
  8
ボルト／ビス
  6
CONTINUOUS
 10
-79.630267
 20
-70.142945
 11
-79.630267
 21
-70.209613
  0
LINE
  8
ボルト／ビス
  6
CONTINUOUS
 10
-78.896933
 20
-70.209613
 11
-79.630267
 21
-70.209613
  0
LINE
  8
ボルト／ビス
  6
CONTINUOUS
 10
-78.9636
 20
-70.109612
 11
-78.9636
 21
-70.142945
  0
LINE
  8
ボルト／ビス
  6
CONTINUOUS
 10
-78.9636
 20
-70.109612
 11
-79.5636
 21
-70.109612
  0
LINE
  8
ボルト／ビス
  6
CONTINUOUS
 10
-79.5636
 20
-70.109612
 11
-79.5636
 21
-70.142945
  0
LINE
  8
ボルト／ビス
  6
CONTINUOUS
 62
    64
 10
-79.103225
 20
-69.909613
 11
-79.07115
 21
-69.921288
  0
ARC
  8
ボルト／ビス
  6
CONTINUOUS
 62
    64
 10
-79.119262
 20
-70.014593
 40
0.104978
 50
90.0
 51
117.278033
  0
ARC
  8
ボルト／ビス
  6
CONTINUOUS
 62
    64
 10
-79.2636
 20
-70.312017
 40
0.402402
 50
76.165015
 51
103.834998
  0
LINE
  8
ボルト／ビス
  6
CONTINUOUS
 62
    64
 10
-79.423975
 20
-69.909613
 11
-79.45605
 21
-69.921288
  0
ARC
  8
ボルト／ビス
  6
CONTINUOUS
 62
    64
 10
-79.407938
 20
-70.014593
 40
0.104978
 50
62.721967
 51
90.0
  0
LINE
  8
ボルト／ビス
  6
CONTINUOUS
 62
    64
 10
-79.103225
 20
-69.909613
 11
-79.423975
 21
-69.909613
  0
LINE
  8
ボルト／ビス
  6
CONTINUOUS
 62
    64
 10
-79.45605
 20
-69.921288
 11
-79.45605
 21
-70.042945
  0
LINE
  8
ボルト／ビス
  6
CONTINUOUS
 62
    64
 10
-79.359825
 20
-69.921288
 11
-79.359825
 21
-70.042945
  0
LINE
  8
ボルト／ビス
  6
CONTINUOUS
 62
    64
 10
-79.07115
 20
-69.921288
 11
-79.07115
 21
-70.042945
  0
LINE
  8
ボルト／ビス
  6
CONTINUOUS
 62
    64
 10
-79.167375
 20
-69.921288
 11
-79.167375
 21
-70.042945
  0
LINE
  8
ボルト／ビス
  6
CONTINUOUS
 10
-79.07115
 20
-70.042945
 11
-79.45605
 21
-70.042945
  0
LINE
  8
ボルト／ビス
  6
CONTINUOUS
 10
-79.0636
 20
-70.042945
 11
-79.0636
 21
-70.109612
  0
LINE
  8
ボルト／ビス
  6
CONTINUOUS
 10
-79.0636
 20
-70.042945
 11
-79.4636
 21
-70.042945
  0
LINE
  8
ボルト／ビス
  6
CONTINUOUS
 10
-79.4636
 20
-70.042945
 11
-79.4636
 21
-70.109612
  0
ENDBLK
  0
BLOCK
  2
*GRP_0024
 70
    65
 10
0.0
 20
0.0
  0
LINE
  8
ボルト／ビス
  6
CONTINUOUS
 10
22.069735
 20
-70.209613
 11
22.069735
 21
-69.742945
  0
LINE
  8
ボルト／ビス
  6
CONTINUOUS
 10
22.436403
 20
-70.209613
 11
22.436403
 21
-70.142945
  0
LINE
  8
ボルト／ビス
  6
CONTINUOUS
 10
22.436403
 20
-70.142945
 11
21.703067
 21
-70.142945
  0
LINE
  8
ボルト／ビス
  6
CONTINUOUS
 10
21.703067
 20
-70.142945
 11
21.703067
 21
-70.209613
  0
LINE
  8
ボルト／ビス
  6
CONTINUOUS
 10
22.436403
 20
-70.209613
 11
21.703067
 21
-70.209613
  0
LINE
  8
ボルト／ビス
  6
CONTINUOUS
 10
22.369735
 20
-70.109612
 11
22.369735
 21
-70.142945
  0
LINE
  8
ボルト／ビス
  6
CONTINUOUS
 10
22.369735
 20
-70.109612
 11
21.769735
 21
-70.109612
  0
LINE
  8
ボルト／ビス
  6
CONTINUOUS
 10
21.769735
 20
-70.109612
 11
21.769735
 21
-70.142945
  0
LINE
  8
ボルト／ビス
  6
CONTINUOUS
 62
    64
 10
22.23011
 20
-69.909613
 11
22.262185
 21
-69.921288
  0
ARC
  8
ボルト／ビス
  6
CONTINUOUS
 62
    64
 10
22.214073
 20
-70.014593
 40
0.104978
 50
90.0
 51
117.278033
  0
ARC
  8
ボルト／ビス
  6
CONTINUOUS
 62
    64
 10
22.069735
 20
-70.312017
 40
0.402402
 50
76.165015
 51
103.834998
  0
LINE
  8
ボルト／ビス
  6
CONTINUOUS
 62
    64
 10
21.90936
 20
-69.909613
 11
21.877285
 21
-69.921288
  0
ARC
  8
ボルト／ビス
  6
CONTINUOUS
 62
    64
 10
21.925397
 20
-70.014593
 40
0.104978
 50
62.721967
 51
90.0
  0
LINE
  8
ボルト／ビス
  6
CONTINUOUS
 62
    64
 10
22.23011
 20
-69.909613
 11
21.90936
 21
-69.909613
  0
LINE
  8
ボルト／ビス
  6
CONTINUOUS
 62
    64
 10
21.877285
 20
-69.921288
 11
21.877285
 21
-70.042945
  0
LINE
  8
ボルト／ビス
  6
CONTINUOUS
 62
    64
 10
21.97351
 20
-69.921288
 11
21.97351
 21
-70.042945
  0
LINE
  8
ボルト／ビス
  6
CONTINUOUS
 62
    64
 10
22.262185
 20
-69.921288
 11
22.262185
 21
-70.042945
  0
LINE
  8
ボルト／ビス
  6
CONTINUOUS
 62
    64
 10
22.16596
 20
-69.921288
 11
22.16596
 21
-70.042945
  0
LINE
  8
ボルト／ビス
  6
CONTINUOUS
 10
22.262185
 20
-70.042945
 11
21.877285
 21
-70.042945
  0
LINE
  8
ボルト／ビス
  6
CONTINUOUS
 10
22.269735
 20
-70.042945
 11
22.269735
 21
-70.109612
  0
LINE
  8
ボルト／ビス
  6
CONTINUOUS
 10
22.269735
 20
-70.042945
 11
21.869735
 21
-70.042945
  0
LINE
  8
ボルト／ビス
  6
CONTINUOUS
 10
21.869735
 20
-70.042945
 11
21.869735
 21
-70.109612
  0
ENDBLK
  0
BLOCK
  2
*GRP_0025
 70
    65
 10
0.0
 20
0.0
  0
LINE
  8
ボルト／ビス
  6
CONTINUOUS
 10
110.88879
 20
22.147367
 11
110.422122
 21
22.147367
  0
LINE
  8
ボルト／ビス
  6
CONTINUOUS
 10
110.88879
 20
22.514035
 11
110.822122
 21
22.514035
  0
LINE
  8
ボルト／ビス
  6
CONTINUOUS
 10
110.822122
 20
22.514035
 11
110.822122
 21
21.7807
  0
LINE
  8
ボルト／ビス
  6
CONTINUOUS
 10
110.822122
 20
21.7807
 11
110.88879
 21
21.7807
  0
LINE
  8
ボルト／ビス
  6
CONTINUOUS
 10
110.88879
 20
22.514035
 11
110.88879
 21
21.7807
  0
LINE
  8
ボルト／ビス
  6
CONTINUOUS
 10
110.78879
 20
22.447367
 11
110.822122
 21
22.447367
  0
LINE
  8
ボルト／ビス
  6
CONTINUOUS
 10
110.78879
 20
22.447367
 11
110.78879
 21
21.847367
  0
LINE
  8
ボルト／ビス
  6
CONTINUOUS
 10
110.78879
 20
21.847367
 11
110.822122
 21
21.847367
  0
LINE
  8
ボルト／ビス
  6
CONTINUOUS
 62
    64
 10
110.58879
 20
22.307742
 11
110.600465
 21
22.339818
  0
ARC
  8
ボルト／ビス
  6
CONTINUOUS
 62
    64
 10
110.693769
 20
22.291705
 40
0.104978
 50
180.0
 51
207.278033
  0
ARC
  8
ボルト／ビス
  6
CONTINUOUS
 62
    64
 10
110.991193
 20
22.147367
 40
0.402402
 50
166.165015
 51
193.834998
  0
LINE
  8
ボルト／ビス
  6
CONTINUOUS
 62
    64
 10
110.58879
 20
21.986993
 11
110.600465
 21
21.954918
  0
ARC
  8
ボルト／ビス
  6
CONTINUOUS
 62
    64
 10
110.693769
 20
22.00303
 40
0.104978
 50
152.721967
 51
180.0
  0
LINE
  8
ボルト／ビス
  6
CONTINUOUS
 62
    64
 10
110.58879
 20
22.307742
 11
110.58879
 21
21.986993
  0
LINE
  8
ボルト／ビス
  6
CONTINUOUS
 62
    64
 10
110.600465
 20
21.954918
 11
110.722122
 21
21.954918
  0
LINE
  8
ボルト／ビス
  6
CONTINUOUS
 62
    64
 10
110.600465
 20
22.051143
 11
110.722122
 21
22.051143
  0
LINE
  8
ボルト／ビス
  6
CONTINUOUS
 62
    64
 10
110.600465
 20
22.339818
 11
110.722122
 21
22.339818
  0
LINE
  8
ボルト／ビス
  6
CONTINUOUS
 62
    64
 10
110.600465
 20
22.243592
 11
110.722122
 21
22.243592
  0
LINE
  8
ボルト／ビス
  6
CONTINUOUS
 10
110.722122
 20
22.339818
 11
110.722122
 21
21.954918
  0
LINE
  8
ボルト／ビス
  6
CONTINUOUS
 10
110.722122
 20
22.347367
 11
110.78879
 21
22.347367
  0
LINE
  8
ボルト／ビス
  6
CONTINUOUS
 10
110.722122
 20
22.347367
 11
110.722122
 21
21.947367
  0
LINE
  8
ボルト／ビス
  6
CONTINUOUS
 10
110.722122
 20
21.947367
 11
110.78879
 21
21.947367
  0
ENDBLK
  0
BLOCK
  2
*GRP_0026
 70
    65
 10
0.0
 20
0.0
  0
LINE
  8
ボルト／ビス
  6
CONTINUOUS
 10
110.88879
 20
53.4807
 11
110.422122
 21
53.4807
  0
LINE
  8
ボルト／ビス
  6
CONTINUOUS
 10
110.88879
 20
53.847367
 11
110.822122
 21
53.847367
  0
LINE
  8
ボルト／ビス
  6
CONTINUOUS
 10
110.822122
 20
53.847367
 11
110.822122
 21
53.114033
  0
LINE
  8
ボルト／ビス
  6
CONTINUOUS
 10
110.822122
 20
53.114033
 11
110.88879
 21
53.114033
  0
LINE
  8
ボルト／ビス
  6
CONTINUOUS
 10
110.88879
 20
53.847367
 11
110.88879
 21
53.114033
  0
LINE
  8
ボルト／ビス
  6
CONTINUOUS
 10
110.78879
 20
53.7807
 11
110.822122
 21
53.7807
  0
LINE
  8
ボルト／ビス
  6
CONTINUOUS
 10
110.78879
 20
53.7807
 11
110.78879
 21
53.1807
  0
LINE
  8
ボルト／ビス
  6
CONTINUOUS
 10
110.78879
 20
53.1807
 11
110.822122
 21
53.1807
  0
LINE
  8
ボルト／ビス
  6
CONTINUOUS
 62
    64
 10
110.58879
 20
53.641075
 11
110.600465
 21
53.67315
  0
ARC
  8
ボルト／ビス
  6
CONTINUOUS
 62
    64
 10
110.693769
 20
53.625037
 40
0.104978
 50
180.0
 51
207.278033
  0
ARC
  8
ボルト／ビス
  6
CONTINUOUS
 62
    64
 10
110.991193
 20
53.4807
 40
0.402402
 50
166.165015
 51
193.834998
  0
LINE
  8
ボルト／ビス
  6
CONTINUOUS
 62
    64
 10
110.58879
 20
53.320325
 11
110.600465
 21
53.28825
  0
ARC
  8
ボルト／ビス
  6
CONTINUOUS
 62
    64
 10
110.693769
 20
53.336362
 40
0.104978
 50
152.721967
 51
180.0
  0
LINE
  8
ボルト／ビス
  6
CONTINUOUS
 62
    64
 10
110.58879
 20
53.641075
 11
110.58879
 21
53.320325
  0
LINE
  8
ボルト／ビス
  6
CONTINUOUS
 62
    64
 10
110.600465
 20
53.28825
 11
110.722122
 21
53.28825
  0
LINE
  8
ボルト／ビス
  6
CONTINUOUS
 62
    64
 10
110.600465
 20
53.384475
 11
110.722122
 21
53.384475
  0
LINE
  8
ボルト／ビス
  6
CONTINUOUS
 62
    64
 10
110.600465
 20
53.67315
 11
110.722122
 21
53.67315
  0
LINE
  8
ボルト／ビス
  6
CONTINUOUS
 62
    64
 10
110.600465
 20
53.576925
 11
110.722122
 21
53.576925
  0
LINE
  8
ボルト／ビス
  6
CONTINUOUS
 10
110.722122
 20
53.67315
 11
110.722122
 21
53.28825
  0
LINE
  8
ボルト／ビス
  6
CONTINUOUS
 10
110.722122
 20
53.6807
 11
110.78879
 21
53.6807
  0
LINE
  8
ボルト／ビス
  6
CONTINUOUS
 10
110.722122
 20
53.6807
 11
110.722122
 21
53.2807
  0
LINE
  8
ボルト／ビス
  6
CONTINUOUS
 10
110.722122
 20
53.2807
 11
110.78879
 21
53.2807
  0
ENDBLK
  0
BLOCK
  2
*GRP_0027
 70
    65
 10
0.0
 20
0.0
  0
LINE
  8
ボルト／ビス
  6
DOT
 10
110.24277
 20
56.468383
 11
109.912788
 21
56.798367
  0
LINE
  8
ボルト／ビス
  6
DOT
 10
110.502045
 20
56.727655
 11
110.454903
 21
56.774798
  0
LINE
  8
ボルト／ビス
  6
DOT
 10
110.454903
 20
56.774798
 11
109.936357
 21
56.25625
  0
LINE
  8
ボルト／ビス
  6
DOT
 10
109.936357
 20
56.25625
 11
109.983497
 21
56.20911
  0
LINE
  8
ボルト／ビス
  6
DOT
 10
110.502045
 20
56.727655
 11
109.983497
 21
56.20911
  0
LINE
  8
ボルト／ビス
  6
DOT
 10
110.384193
 20
56.751225
 11
110.407762
 21
56.727655
  0
LINE
  8
ボルト／ビス
  6
DOT
 10
110.384193
 20
56.751225
 11
109.959928
 21
56.326963
  0
LINE
  8
ボルト／ビス
  6
DOT
 10
109.959928
 20
56.326963
 11
109.983497
 21
56.303392
  0
LINE
  8
ボルト／ビス
  6
DOT
 62
    64
 10
110.14404
 20
56.793917
 11
110.174978
 21
56.808343
  0
ARC
  8
ボルト／ビス
  6
DOT
 62
    64
 10
110.206931
 20
56.708345
 40
0.104978
 50
135.0
 51
162.278033
  0
ARC
  8
ボルト／ビス
  6
DOT
 62
    64
 10
110.315179
 20
56.395973
 40
0.402402
 50
121.165015
 51
148.834998
  0
LINE
  8
ボルト／ビス
  6
DOT
 62
    64
 10
109.917238
 20
56.567113
 11
109.902813
 21
56.536177
  0
ARC
  8
ボルト／ビス
  6
DOT
 62
    64
 10
110.002807
 20
56.504221
 40
0.104978
 50
107.721967
 51
135.0
  0
LINE
  8
ボルト／ビス
  6
DOT
 62
    64
 10
110.14404
 20
56.793917
 11
109.917238
 21
56.567113
  0
LINE
  8
ボルト／ビス
  6
DOT
 62
    64
 10
109.902813
 20
56.536177
 11
109.988838
 21
56.450152
  0
LINE
  8
ボルト／ビス
  6
DOT
 62
    64
 10
109.970853
 20
56.604218
 11
110.056877
 21
56.518193
  0
LINE
  8
ボルト／ビス
  6
DOT
 62
    64
 10
110.174978
 20
56.808343
 11
110.261002
 21
56.722317
  0
LINE
  8
ボルト／ビス
  6
DOT
 62
    64
 10
110.106935
 20
56.7403
 11
110.19296
 21
56.654275
  0
LINE
  8
ボルト／ビス
  6
DOT
 10
110.261002
 20
56.722317
 11
109.988838
 21
56.450152
  0
LINE
  8
ボルト／ビス
  6
DOT
 10
110.26634
 20
56.727655
 11
110.313482
 21
56.680515
  0
LINE
  8
ボルト／ビス
  6
DOT
 10
110.26634
 20
56.727655
 11
109.983497
 21
56.444813
  0
LINE
  8
ボルト／ビス
  6
DOT
 10
109.983497
 20
56.444813
 11
110.030638
 21
56.397673
  0
ENDBLK
  0
BLOCK
  2
*GRP_0028
 70
    65
 10
0.0
 20
0.0
  0
LINE
  8
ボルト／ビス
  6
DOT
 10
88.086758
 20
34.31237
 11
87.756775
 21
34.642355
  0
LINE
  8
ボルト／ビス
  6
DOT
 10
88.346033
 20
34.571643
 11
88.29889
 21
34.618785
  0
LINE
  8
ボルト／ビス
  6
DOT
 10
88.29889
 20
34.618785
 11
87.780345
 21
34.100238
  0
LINE
  8
ボルト／ビス
  6
DOT
 10
87.780345
 20
34.100238
 11
87.827485
 21
34.053097
  0
LINE
  8
ボルト／ビス
  6
DOT
 10
88.346033
 20
34.571643
 11
87.827485
 21
34.053097
  0
LINE
  8
ボルト／ビス
  6
DOT
 10
88.22818
 20
34.595212
 11
88.25175
 21
34.571643
  0
LINE
  8
ボルト／ビス
  6
DOT
 10
88.22818
 20
34.595212
 11
87.803915
 21
34.17095
  0
LINE
  8
ボルト／ビス
  6
DOT
 10
87.803915
 20
34.17095
 11
87.827485
 21
34.14738
  0
LINE
  8
ボルト／ビス
  6
DOT
 62
    64
 10
87.988027
 20
34.637905
 11
88.018965
 21
34.65233
  0
ARC
  8
ボルト／ビス
  6
DOT
 62
    64
 10
88.050919
 20
34.552333
 40
0.104978
 50
135.0
 51
162.278033
  0
ARC
  8
ボルト／ビス
  6
DOT
 62
    64
 10
88.159167
 20
34.23996
 40
0.402402
 50
121.165015
 51
148.834998
  0
LINE
  8
ボルト／ビス
  6
DOT
 62
    64
 10
87.761225
 20
34.4111
 11
87.7468
 21
34.380165
  0
ARC
  8
ボルト／ビス
  6
DOT
 62
    64
 10
87.846794
 20
34.348209
 40
0.104978
 50
107.721967
 51
135.0
  0
LINE
  8
ボルト／ビス
  6
DOT
 62
    64
 10
87.988027
 20
34.637905
 11
87.761225
 21
34.4111
  0
LINE
  8
ボルト／ビス
  6
DOT
 62
    64
 10
87.7468
 20
34.380165
 11
87.832825
 21
34.29414
  0
LINE
  8
ボルト／ビス
  6
DOT
 62
    64
 10
87.81484
 20
34.448205
 11
87.900865
 21
34.36218
  0
LINE
  8
ボルト／ビス
  6
DOT
 62
    64
 10
88.018965
 20
34.65233
 11
88.10499
 21
34.566305
  0
LINE
  8
ボルト／ビス
  6
DOT
 62
    64
 10
87.950922
 20
34.584288
 11
88.036947
 21
34.498263
  0
LINE
  8
ボルト／ビス
  6
DOT
 10
88.10499
 20
34.566305
 11
87.832825
 21
34.29414
  0
LINE
  8
ボルト／ビス
  6
DOT
 10
88.110327
 20
34.571643
 11
88.15747
 21
34.524503
  0
LINE
  8
ボルト／ビス
  6
DOT
 10
88.110327
 20
34.571643
 11
87.827485
 21
34.2888
  0
LINE
  8
ボルト／ビス
  6
DOT
 10
87.827485
 20
34.2888
 11
87.874625
 21
34.24166
  0
ENDBLK
  0
ENDSEC
  0
SECTION
  2
ENTITIES
  0
POLYLINE
  8
通り芯
  6
CONTINUOUS
 66
     1
 70
     1
  0
VERTEX
  8
通り芯
 10
-210.0
 20
-148.5
  0
VERTEX
  8
通り芯
 10
210.0
 20
-148.5
  0
VERTEX
  8
通り芯
 10
210.0
 20
148.5
  0
VERTEX
  8
通り芯
 10
-210.0
 20
148.5
  0
SEQEND
  0
INSERT
  2
*GRP_0001
  8
型材断面
  6
CONTINUOUS
 10
0.0
 20
0.0
  0
LINE
  8
型材断面
  6
DASHDOT
 10
21.403067
 20
-77.836442
 11
21.403067
 21
52.814033
  0
LINE
  8
型材断面
  6
DASHDOT
 10
-28.596933
 20
-77.836442
 11
-28.596933
 21
52.814033
  0
LINE
  8
型材断面
  6
DASHDOT
 10
-78.596933
 20
-77.836442
 11
-78.596933
 21
52.814033
  0
LINE
  8
型材断面
  6
DASHDOT
 10
119.07983
 20
52.814033
 11
-78.596933
 21
52.814033
  0
LINE
  8
型材断面
  6
DASHDOT
 10
119.07983
 20
37.814033
 11
-78.596933
 21
37.814033
  0
LINE
  8
型材断面
  6
DASHDOT
 10
119.07983
 20
22.814033
 11
-78.596933
 21
22.814033
  0
LINE
  8
型材断面
  6
CONTINUOUS
 10
-61.930265
 20
55.444162
 11
-63.425895
 21
58.03467
  0
LINE
  8
型材断面
  6
CONTINUOUS
 10
-61.930265
 20
55.444162
 11
-60.434635
 21
58.03467
  0
LINE
  8
型材断面
  6
CONTINUOUS
 10
-60.434635
 20
58.03467
 11
-63.425895
 21
58.03467
  0
LINE
  8
型材断面
  6
CONTINUOUS
 10
-81.227063
 20
37.814033
 11
-83.81757
 21
39.309663
  0
LINE
  8
型材断面
  6
CONTINUOUS
 10
-81.227063
 20
37.814033
 11
-83.81757
 21
36.318403
  0
LINE
  8
型材断面
  6
CONTINUOUS
 10
-83.81757
 20
36.318403
 11
-83.81757
 21
39.309663
  0
LINE
  8
型材断面
  6
CONTINUOUS
 10
-61.930265
 20
20.183902
 11
-63.425895
 21
17.593395
  0
LINE
  8
型材断面
  6
CONTINUOUS
 10
-61.930265
 20
20.183902
 11
-60.434635
 21
17.593395
  0
LINE
  8
型材断面
  6
CONTINUOUS
 10
-60.434635
 20
17.593395
 11
-63.425895
 21
17.593395
  0
LINE
  8
型材断面
  6
CONTINUOUS
 10
-132.475455
 20
90.791505
 11
-131.8794
 21
88.200998
  0
LINE
  8
型材断面
  6
CONTINUOUS
 10
-132.475455
 20
90.791505
 11
-133.071512
 21
88.200998
  0
LINE
  8
型材断面
  6
CONTINUOUS
 10
-133.071512
 20
88.200998
 11
-131.8794
 21
88.200998
  0
LINE
  8
型材断面
  6
CONTINUOUS
 10
-138.498042
 20
84.922105
 11
-92.256265
 21
84.922105
  0
LINE
  8
型材断面
  6
CONTINUOUS
 10
-132.475455
 20
97.32138
 11
-133.971085
 21
94.730873
  0
LINE
  8
型材断面
  6
CONTINUOUS
 10
-132.475455
 20
97.32138
 11
-130.979825
 21
94.730873
  0
LINE
  8
型材断面
  6
CONTINUOUS
 10
-130.979825
 20
94.730873
 11
-133.971085
 21
94.730873
  0
LINE
  8
型材断面
  6
CONTINUOUS
 10
-138.498042
 20
93.792277
 11
-92.256265
 21
93.792277
  0
LINE
  8
型材断面
  6
CONTINUOUS
 10
-138.498042
 20
79.134073
 11
-92.256265
 21
79.134073
  0
LINE
  8
型材断面
  6
CONTINUOUS
 10
4.7364
 20
55.444162
 11
6.23203
 21
58.03467
  0
LINE
  8
型材断面
  6
CONTINUOUS
 10
4.7364
 20
55.444162
 11
3.24077
 21
58.03467
  0
LINE
  8
型材断面
  6
CONTINUOUS
 10
3.24077
 20
58.03467
 11
6.23203
 21
58.03467
  0
LINE
  8
型材断面
  6
CONTINUOUS
 10
4.7364
 20
20.183902
 11
6.23203
 21
17.593395
  0
LINE
  8
型材断面
  6
CONTINUOUS
 10
4.7364
 20
20.183902
 11
3.24077
 21
17.593395
  0
LINE
  8
型材断面
  6
CONTINUOUS
 10
3.24077
 20
17.593395
 11
6.23203
 21
17.593395
  0
POLYLINE
  8
型材断面
  6
DASHDOT
 66
     1
  0
VERTEX
  8
型材断面
 10
-78.596933
 20
22.814033
  0
VERTEX
  8
型材断面
 10
-28.596933
 20
52.814033
  0
VERTEX
  8
型材断面
 10
21.403067
 20
22.814033
  0
SEQEND
  0
LINE
  8
型材断面
  6
CONTINUOUS
 10
19.403067
 20
20.20722
 11
18.80701
 21
17.616715
  0
LINE
  8
型材断面
  6
CONTINUOUS
 10
19.403067
 20
20.20722
 11
19.999125
 21
17.616715
  0
LINE
  8
型材断面
  6
CONTINUOUS
 10
19.999125
 20
17.616715
 11
18.80701
 21
17.616715
  0
LINE
  8
型材断面
  6
CONTINUOUS
 10
-76.596933
 20
20.20722
 11
-76.000875
 21
17.616715
  0
LINE
  8
型材断面
  6
CONTINUOUS
 10
-76.596933
 20
20.20722
 11
-77.19299
 21
17.616715
  0
LINE
  8
型材断面
  6
CONTINUOUS
 10
-77.19299
 20
17.616715
 11
-76.000875
 21
17.616715
  0
LINE
  8
型材断面
  6
CONTINUOUS
 62
    47
 10
112.82892
 20
54.137368
 11
112.81892
 21
54.147367
  0
LINE
  8
型材断面
  6
CONTINUOUS
 62
    47
 10
112.82892
 20
54.137368
 11
112.83892
 21
54.147367
  0
LINE
  8
型材断面
  6
CONTINUOUS
 62
    47
 10
113.471153
 20
54.137368
 11
113.461153
 21
54.147367
  0
LINE
  8
型材断面
  6
CONTINUOUS
 62
    47
 10
113.471153
 20
54.137368
 11
113.481152
 21
54.147367
  0
LINE
  8
型材断面
  6
CONTINUOUS
 62
    47
 10
113.88892
 20
54.147367
 11
113.481152
 21
54.147367
  0
LINE
  8
型材断面
  6
CONTINUOUS
 62
    47
 10
113.461153
 20
54.147367
 11
112.83892
 21
54.147367
  0
LINE
  8
型材断面
  6
CONTINUOUS
 62
    47
 10
112.81892
 20
54.147367
 11
112.122235
 21
54.147367
  0
LINE
  8
型材断面
  6
CONTINUOUS
 62
    47
 10
113.955245
 20
55.414175
 11
114.121875
 21
55.414175
  0
LINE
  8
型材断面
  6
CONTINUOUS
 62
    47
 10
115.02225
 20
53.937507
 11
115.01225
 21
53.947508
  0
LINE
  8
型材断面
  6
CONTINUOUS
 62
    47
 10
115.02225
 20
53.937507
 11
115.03225
 21
53.947508
  0
LINE
  8
型材断面
  6
CONTINUOUS
 62
    47
 10
115.488925
 20
53.937507
 11
115.478925
 21
53.947508
  0
LINE
  8
型材断面
  6
CONTINUOUS
 62
    47
 10
115.488925
 20
53.937507
 11
115.498925
 21
53.947508
  0
LINE
  8
型材断面
  6
CONTINUOUS
 62
    47
 10
114.3889
 20
53.947508
 11
115.01225
 21
53.947508
  0
LINE
  8
型材断面
  6
CONTINUOUS
 62
    47
 10
115.03225
 20
53.947508
 11
115.478925
 21
53.947508
  0
LINE
  8
型材断面
  6
CONTINUOUS
 62
    47
 10
116.288907
 20
56.147508
 11
116.78891
 21
56.147508
  0
LINE
  8
型材断面
  6
CONTINUOUS
 62
    47
 10
117.12224
 20
55.647515
 11
116.78891
 21
55.647515
  0
LINE
  8
型材断面
  6
CONTINUOUS
 62
    47
 10
116.288907
 20
56.147508
 11
116.12224
 21
53.947508
  0
LINE
  8
型材断面
  6
CONTINUOUS
 62
    47
 10
116.12224
 20
53.214033
 11
116.12224
 21
53.88084
  0
LINE
  8
型材断面
  6
CONTINUOUS
 62
    47
 10
116.02224
 20
53.937507
 11
116.01224
 21
53.947508
  0
LINE
  8
型材断面
  6
CONTINUOUS
 62
    47
 10
116.02224
 20
53.937507
 11
116.03224
 21
53.947508
  0
LINE
  8
型材断面
  6
CONTINUOUS
 62
    47
 10
116.12224
 20
53.947508
 11
116.03224
 21
53.947508
  0
LINE
  8
型材断面
  6
CONTINUOUS
 62
    47
 10
115.498925
 20
53.947508
 11
116.01224
 21
53.947508
  0
LINE
  8
型材断面
  6
CONTINUOUS
 62
    47
 10
114.3889
 20
55.414172
 11
114.255582
 21
55.414172
  0
LINE
  8
型材断面
  6
CONTINUOUS
 62
    47
 10
113.88892
 20
54.147367
 11
113.955245
 21
55.414175
  0
LINE
  8
型材断面
  6
CONTINUOUS
 62
    47
 10
112.122235
 20
53.877377
 11
111.88879
 21
53.877377
  0
LINE
  8
型材断面
  6
CONTINUOUS
 62
    47
 10
112.122235
 20
54.147367
 11
112.122235
 21
37.814033
  0
LINE
  8
型材断面
  6
CONTINUOUS
 62
    47
 10
114.255582
 20
55.414172
 11
114.255582
 21
37.814033
  0
LINE
  8
型材断面
  6
CONTINUOUS
 62
    47
 10
114.3889
 20
55.414172
 11
114.3889
 21
37.814033
  0
LINE
  8
型材断面
  6
CONTINUOUS
 62
    47
 10
114.121875
 20
55.414175
 11
114.121875
 21
37.814033
  0
LINE
  8
型材断面
  6
CONTINUOUS
 10
113.88892
 20
54.147367
 11
113.88892
 21
37.814033
  0
LINE
  8
型材断面
  6
CONTINUOUS
 10
113.955245
 20
55.414175
 11
113.955245
 21
37.814033
  0
LINE
  8
型材断面
  6
CONTINUOUS
 10
116.12224
 20
53.947508
 11
116.12224
 21
37.814033
  0
LINE
  8
型材断面
  6
CONTINUOUS
 10
116.288907
 20
56.147508
 11
116.288907
 21
37.814033
  0
LINE
  8
型材断面
  6
CONTINUOUS
 62
    47
 10
116.78891
 20
56.147508
 11
116.78891
 21
37.814033
  0
LINE
  8
型材断面
  6
CONTINUOUS
 62
    47
 10
117.12224
 20
55.647515
 11
117.12224
 21
37.814033
  0
LINE
  8
型材断面
  6
CONTINUOUS
 62
    47
 10
112.82892
 20
21.4907
 11
112.81892
 21
21.4807
  0
LINE
  8
型材断面
  6
CONTINUOUS
 62
    47
 10
112.82892
 20
21.4907
 11
112.83892
 21
21.4807
  0
LINE
  8
型材断面
  6
CONTINUOUS
 62
    47
 10
113.471153
 20
21.4907
 11
113.461153
 21
21.4807
  0
LINE
  8
型材断面
  6
CONTINUOUS
 62
    47
 10
113.471153
 20
21.4907
 11
113.481152
 21
21.4807
  0
LINE
  8
型材断面
  6
CONTINUOUS
 62
    47
 10
113.88892
 20
21.4807
 11
113.481152
 21
21.4807
  0
LINE
  8
型材断面
  6
CONTINUOUS
 62
    47
 10
113.461153
 20
21.4807
 11
112.83892
 21
21.4807
  0
LINE
  8
型材断面
  6
CONTINUOUS
 62
    47
 10
112.81892
 20
21.4807
 11
112.122235
 21
21.4807
  0
LINE
  8
型材断面
  6
CONTINUOUS
 62
    47
 10
113.955245
 20
20.213892
 11
114.121875
 21
20.213892
  0
LINE
  8
型材断面
  6
CONTINUOUS
 62
    47
 10
115.02225
 20
21.69056
 11
115.01225
 21
21.68056
  0
LINE
  8
型材断面
  6
CONTINUOUS
 62
    47
 10
115.02225
 20
21.69056
 11
115.03225
 21
21.68056
  0
LINE
  8
型材断面
  6
CONTINUOUS
 62
    47
 10
115.488925
 20
21.69056
 11
115.478925
 21
21.68056
  0
LINE
  8
型材断面
  6
CONTINUOUS
 62
    47
 10
115.488925
 20
21.69056
 11
115.498925
 21
21.68056
  0
LINE
  8
型材断面
  6
CONTINUOUS
 62
    47
 10
114.3889
 20
21.68056
 11
115.01225
 21
21.68056
  0
LINE
  8
型材断面
  6
CONTINUOUS
 62
    47
 10
115.03225
 20
21.68056
 11
115.478925
 21
21.68056
  0
LINE
  8
型材断面
  6
CONTINUOUS
 62
    47
 10
116.288907
 20
19.48056
 11
116.78891
 21
19.48056
  0
LINE
  8
型材断面
  6
CONTINUOUS
 62
    47
 10
117.12224
 20
19.980552
 11
116.78891
 21
19.980552
  0
LINE
  8
型材断面
  6
CONTINUOUS
 62
    47
 10
116.288907
 20
19.48056
 11
116.12224
 21
21.68056
  0
LINE
  8
型材断面
  6
CONTINUOUS
 62
    47
 10
116.12224
 20
22.414035
 11
116.12224
 21
21.747228
  0
LINE
  8
型材断面
  6
CONTINUOUS
 62
    47
 10
116.02224
 20
21.69056
 11
116.01224
 21
21.68056
  0
LINE
  8
型材断面
  6
CONTINUOUS
 62
    47
 10
116.02224
 20
21.69056
 11
116.03224
 21
21.68056
  0
LINE
  8
型材断面
  6
CONTINUOUS
 62
    47
 10
116.12224
 20
21.68056
 11
116.03224
 21
21.68056
  0
LINE
  8
型材断面
  6
CONTINUOUS
 62
    47
 10
115.498925
 20
21.68056
 11
116.01224
 21
21.68056
  0
LINE
  8
型材断面
  6
CONTINUOUS
 62
    47
 10
114.3889
 20
20.213892
 11
114.255582
 21
20.213892
  0
LINE
  8
型材断面
  6
CONTINUOUS
 62
    47
 10
113.88892
 20
21.4807
 11
113.955245
 21
20.213892
  0
LINE
  8
型材断面
  6
CONTINUOUS
 62
    47
 10
112.122235
 20
21.75069
 11
111.88879
 21
21.75069
  0
LINE
  8
型材断面
  6
CONTINUOUS
 62
    47
 10
112.122235
 20
21.4807
 11
112.122235
 21
37.814033
  0
LINE
  8
型材断面
  6
CONTINUOUS
 62
    47
 10
114.255582
 20
20.213892
 11
114.255582
 21
37.814033
  0
LINE
  8
型材断面
  6
CONTINUOUS
 62
    47
 10
114.3889
 20
20.213892
 11
114.3889
 21
37.814033
  0
LINE
  8
型材断面
  6
CONTINUOUS
 62
    47
 10
114.121875
 20
20.213892
 11
114.121875
 21
37.814033
  0
LINE
  8
型材断面
  6
CONTINUOUS
 10
113.88892
 20
21.4807
 11
113.88892
 21
37.814033
  0
LINE
  8
型材断面
  6
CONTINUOUS
 10
113.955245
 20
20.213892
 11
113.955245
 21
37.814033
  0
LINE
  8
型材断面
  6
CONTINUOUS
 10
116.12224
 20
21.68056
 11
116.12224
 21
37.814033
  0
LINE
  8
型材断面
  6
CONTINUOUS
 10
116.288907
 20
19.48056
 11
116.288907
 21
37.814033
  0
LINE
  8
型材断面
  6
CONTINUOUS
 62
    47
 10
116.78891
 20
19.48056
 11
116.78891
 21
37.814033
  0
LINE
  8
型材断面
  6
CONTINUOUS
 62
    47
 10
117.12224
 20
19.980552
 11
117.12224
 21
37.814033
  0
LINE
  8
型材断面
  6
DOT
 62
    47
 10
112.078982
 20
55.560837
 11
112.078982
 21
55.574978
  0
LINE
  8
型材断面
  6
DOT
 62
    47
 10
112.078982
 20
55.560837
 11
112.093125
 21
55.560837
  0
LINE
  8
型材断面
  6
DOT
 62
    47
 10
112.53311
 20
55.10671
 11
112.53311
 21
55.120852
  0
LINE
  8
型材断面
  6
DOT
 62
    47
 10
112.53311
 20
55.10671
 11
112.54725
 21
55.10671
  0
LINE
  8
型材断面
  6
DOT
 62
    47
 10
112.835587
 20
54.818375
 11
112.54725
 21
55.10671
  0
LINE
  8
型材断面
  6
DOT
 62
    47
 10
112.53311
 20
55.120852
 11
112.093125
 21
55.560837
  0
LINE
  8
型材断面
  6
DOT
 62
    47
 10
112.078982
 20
55.574978
 11
111.586353
 21
56.06761
  0
LINE
  8
型材断面
  6
DOT
 62
    47
 10
113.778255
 20
55.667245
 11
113.89608
 21
55.54942
  0
LINE
  8
型材断面
  6
DOT
 62
    47
 10
112.835587
 20
54.818375
 11
113.778255
 21
55.667245
  0
LINE
  8
型材断面
  6
DOT
 62
    47
 10
111.39544
 20
55.876698
 11
111.23037
 21
56.04177
  0
LINE
  8
型材断面
  6
DOT
 62
    47
 10
111.586353
 20
56.06761
 11
100.036943
 21
44.518197
  0
LINE
  8
型材断面
  6
DOT
 62
    47
 10
113.89608
 20
55.54942
 11
101.4509
 21
43.104242
  0
LINE
  8
型材断面
  6
DOT
 10
112.835587
 20
54.818375
 11
101.286175
 21
43.268963
  0
LINE
  8
型材断面
  6
DOT
 10
113.778255
 20
55.667245
 11
101.333075
 21
43.222065
  0
LINE
  8
型材断面
  6
DOT
 62
    47
 10
88.994305
 20
32.476158
 11
88.98016
 21
32.476158
  0
LINE
  8
型材断面
  6
DOT
 62
    47
 10
88.994305
 20
32.476158
 11
88.994305
 21
32.462015
  0
LINE
  8
型材断面
  6
DOT
 62
    47
 10
89.44843
 20
32.022033
 11
89.434288
 21
32.022033
  0
LINE
  8
型材断面
  6
DOT
 62
    47
 10
89.44843
 20
32.022033
 11
89.44843
 21
32.007887
  0
LINE
  8
型材断面
  6
DOT
 62
    47
 10
89.736765
 20
31.719552
 11
89.44843
 21
32.007887
  0
LINE
  8
型材断面
  6
DOT
 62
    47
 10
89.434288
 20
32.022033
 11
88.994305
 21
32.462015
  0
LINE
  8
型材断面
  6
DOT
 62
    47
 10
88.98016
 20
32.476158
 11
88.48753
 21
32.968787
  0
LINE
  8
型材断面
  6
DOT
 62
    47
 10
88.887895
 20
30.776885
 11
89.00572
 21
30.659063
  0
LINE
  8
型材断面
  6
DOT
 62
    47
 10
89.736765
 20
31.719552
 11
88.887895
 21
30.776885
  0
LINE
  8
型材断面
  6
DOT
 62
    47
 10
88.678442
 20
33.1597
 11
88.51337
 21
33.324772
  0
LINE
  8
型材断面
  6
DOT
 62
    47
 10
88.48753
 20
32.968787
 11
100.036943
 21
44.518197
  0
LINE
  8
型材断面
  6
DOT
 62
    47
 10
89.00572
 20
30.659063
 11
101.4509
 21
43.104242
  0
LINE
  8
型材断面
  6
DOT
 10
89.736765
 20
31.719552
 11
101.286175
 21
43.268963
  0
LINE
  8
型材断面
  6
DOT
 10
88.887895
 20
30.776885
 11
101.333075
 21
43.222065
  0
ARC
  8
型材断面
  6
DOT
 10
114.172233
 20
55.754357
 40
35.540502
 50
225.0
 51
269.918816
  0
LINE
  8
型材断面
  6
CONTINUOUS
 62
    47
 10
22.726403
 20
-72.149742
 11
22.736403
 21
-72.139743
  0
LINE
  8
型材断面
  6
CONTINUOUS
 62
    47
 10
22.726403
 20
-72.149742
 11
22.736403
 21
-72.159742
  0
LINE
  8
型材断面
  6
CONTINUOUS
 62
    47
 10
22.726403
 20
-72.791975
 11
22.736403
 21
-72.781975
  0
LINE
  8
型材断面
  6
CONTINUOUS
 62
    47
 10
22.726403
 20
-72.791975
 11
22.736403
 21
-72.801975
  0
LINE
  8
型材断面
  6
CONTINUOUS
 62
    47
 10
22.736403
 20
-73.209742
 11
22.736403
 21
-72.801975
  0
LINE
  8
型材断面
  6
CONTINUOUS
 62
    47
 10
22.736403
 20
-72.781975
 11
22.736403
 21
-72.159742
  0
LINE
  8
型材断面
  6
CONTINUOUS
 62
    47
 10
22.736403
 20
-72.139743
 11
22.736403
 21
-71.443058
  0
LINE
  8
型材断面
  6
CONTINUOUS
 62
    47
 10
24.00321
 20
-73.276068
 11
24.00321
 21
-73.442698
  0
LINE
  8
型材断面
  6
CONTINUOUS
 62
    47
 10
22.526542
 20
-74.343073
 11
22.536542
 21
-74.333072
  0
LINE
  8
型材断面
  6
CONTINUOUS
 62
    47
 10
22.526542
 20
-74.343073
 11
22.536542
 21
-74.353072
  0
LINE
  8
型材断面
  6
CONTINUOUS
 62
    47
 10
22.526542
 20
-74.809747
 11
22.536542
 21
-74.799748
  0
LINE
  8
型材断面
  6
CONTINUOUS
 62
    47
 10
22.526542
 20
-74.809747
 11
22.536542
 21
-74.819747
  0
LINE
  8
型材断面
  6
CONTINUOUS
 62
    47
 10
22.536542
 20
-73.709723
 11
22.536542
 21
-74.333072
  0
LINE
  8
型材断面
  6
CONTINUOUS
 62
    47
 10
22.536542
 20
-74.353072
 11
22.536542
 21
-74.799748
  0
LINE
  8
型材断面
  6
CONTINUOUS
 62
    47
 10
24.736542
 20
-75.60973
 11
24.736542
 21
-76.109732
  0
LINE
  8
型材断面
  6
CONTINUOUS
 62
    47
 10
24.23655
 20
-76.443062
 11
24.23655
 21
-76.109732
  0
LINE
  8
型材断面
  6
CONTINUOUS
 62
    47
 10
24.736542
 20
-75.60973
 11
22.536542
 21
-75.443062
  0
LINE
  8
型材断面
  6
CONTINUOUS
 62
    47
 10
21.803067
 20
-75.443062
 11
22.469875
 21
-75.443062
  0
LINE
  8
型材断面
  6
CONTINUOUS
 62
    47
 10
22.526542
 20
-75.343063
 11
22.536542
 21
-75.333062
  0
LINE
  8
型材断面
  6
CONTINUOUS
 62
    47
 10
22.526542
 20
-75.343063
 11
22.536542
 21
-75.353063
  0
LINE
  8
型材断面
  6
CONTINUOUS
 62
    47
 10
22.536542
 20
-75.443062
 11
22.536542
 21
-75.353063
  0
LINE
  8
型材断面
  6
CONTINUOUS
 62
    47
 10
22.536542
 20
-74.819747
 11
22.536542
 21
-75.333062
  0
LINE
  8
型材断面
  6
CONTINUOUS
 62
    47
 10
24.00321
 20
-73.709723
 11
24.00321
 21
-73.576405
  0
LINE
  8
型材断面
  6
CONTINUOUS
 62
    47
 10
22.736403
 20
-73.209742
 11
24.00321
 21
-73.276068
  0
LINE
  8
型材断面
  6
CONTINUOUS
 62
    47
 10
22.466412
 20
-71.443058
 11
22.466412
 21
-71.209613
  0
LINE
  8
型材断面
  6
CONTINUOUS
 62
    47
 10
24.23655
 20
-76.443062
 11
-28.596933
 21
-76.443062
  0
LINE
  8
型材断面
  6
CONTINUOUS
 62
    47
 10
24.736542
 20
-76.109732
 11
-28.596933
 21
-76.109732
  0
LINE
  8
型材断面
  6
CONTINUOUS
 10
24.736542
 20
-75.60973
 11
-28.596933
 21
-75.60973
  0
LINE
  8
型材断面
  6
CONTINUOUS
 10
22.536542
 20
-75.443062
 11
-28.596933
 21
-75.443062
  0
LINE
  8
型材断面
  6
CONTINUOUS
 10
24.00321
 20
-73.276068
 11
-28.596933
 21
-73.276068
  0
LINE
  8
型材断面
  6
CONTINUOUS
 62
    47
 10
24.00321
 20
-73.576405
 11
-28.596933
 21
-73.576405
  0
LINE
  8
型材断面
  6
CONTINUOUS
 62
    47
 10
24.00321
 20
-73.442698
 11
-28.596933
 21
-73.442698
  0
LINE
  8
型材断面
  6
CONTINUOUS
 62
    47
 10
24.00321
 20
-73.709723
 11
-28.596933
 21
-73.709723
  0
LINE
  8
型材断面
  6
CONTINUOUS
 10
22.736403
 20
-73.209742
 11
-28.596933
 21
-73.209742
  0
LINE
  8
型材断面
  6
CONTINUOUS
 62
    47
 10
22.736403
 20
-71.443058
 11
-28.596933
 21
-71.443058
  0
LINE
  8
型材断面
  6
CONTINUOUS
 62
    47
 10
-79.920268
 20
-72.149742
 11
-79.930267
 21
-72.139743
  0
LINE
  8
型材断面
  6
CONTINUOUS
 62
    47
 10
-79.920268
 20
-72.149742
 11
-79.930267
 21
-72.159742
  0
LINE
  8
型材断面
  6
CONTINUOUS
 62
    47
 10
-79.920268
 20
-72.791975
 11
-79.930267
 21
-72.781975
  0
LINE
  8
型材断面
  6
CONTINUOUS
 62
    47
 10
-79.920268
 20
-72.791975
 11
-79.930267
 21
-72.801975
  0
LINE
  8
型材断面
  6
CONTINUOUS
 62
    47
 10
-79.930267
 20
-73.209742
 11
-79.930267
 21
-72.801975
  0
LINE
  8
型材断面
  6
CONTINUOUS
 62
    47
 10
-79.930267
 20
-72.781975
 11
-79.930267
 21
-72.159742
  0
LINE
  8
型材断面
  6
CONTINUOUS
 62
    47
 10
-79.930267
 20
-72.139743
 11
-79.930267
 21
-71.443058
  0
LINE
  8
型材断面
  6
CONTINUOUS
 62
    47
 10
-81.197075
 20
-73.276068
 11
-81.197075
 21
-73.442698
  0
LINE
  8
型材断面
  6
CONTINUOUS
 62
    47
 10
-79.720407
 20
-74.343073
 11
-79.730407
 21
-74.333072
  0
LINE
  8
型材断面
  6
CONTINUOUS
 62
    47
 10
-79.720407
 20
-74.343073
 11
-79.730407
 21
-74.353072
  0
LINE
  8
型材断面
  6
CONTINUOUS
 62
    47
 10
-79.720407
 20
-74.809747
 11
-79.730407
 21
-74.799748
  0
LINE
  8
型材断面
  6
CONTINUOUS
 62
    47
 10
-79.720407
 20
-74.809747
 11
-79.730407
 21
-74.819747
  0
LINE
  8
型材断面
  6
CONTINUOUS
 62
    47
 10
-79.730407
 20
-73.709723
 11
-79.730407
 21
-74.333072
  0
LINE
  8
型材断面
  6
CONTINUOUS
 62
    47
 10
-79.730407
 20
-74.353072
 11
-79.730407
 21
-74.799748
  0
LINE
  8
型材断面
  6
CONTINUOUS
 62
    47
 10
-81.930408
 20
-75.60973
 11
-81.930408
 21
-76.109732
  0
LINE
  8
型材断面
  6
CONTINUOUS
 62
    47
 10
-81.430415
 20
-76.443062
 11
-81.430415
 21
-76.109732
  0
LINE
  8
型材断面
  6
CONTINUOUS
 62
    47
 10
-81.930408
 20
-75.60973
 11
-79.730407
 21
-75.443062
  0
LINE
  8
型材断面
  6
CONTINUOUS
 62
    47
 10
-78.996933
 20
-75.443062
 11
-79.66374
 21
-75.443062
  0
LINE
  8
型材断面
  6
CONTINUOUS
 62
    47
 10
-79.720407
 20
-75.343063
 11
-79.730407
 21
-75.333062
  0
LINE
  8
型材断面
  6
CONTINUOUS
 62
    47
 10
-79.720407
 20
-75.343063
 11
-79.730407
 21
-75.353063
  0
LINE
  8
型材断面
  6
CONTINUOUS
 62
    47
 10
-79.730407
 20
-75.443062
 11
-79.730407
 21
-75.353063
  0
LINE
  8
型材断面
  6
CONTINUOUS
 62
    47
 10
-79.730407
 20
-74.819747
 11
-79.730407
 21
-75.333062
  0
LINE
  8
型材断面
  6
CONTINUOUS
 62
    47
 10
-81.197075
 20
-73.709723
 11
-81.197075
 21
-73.576405
  0
LINE
  8
型材断面
  6
CONTINUOUS
 62
    47
 10
-79.930267
 20
-73.209742
 11
-81.197075
 21
-73.276068
  0
LINE
  8
型材断面
  6
CONTINUOUS
 62
    47
 10
-79.660278
 20
-71.443058
 11
-79.660278
 21
-71.209613
  0
LINE
  8
型材断面
  6
CONTINUOUS
 62
    47
 10
-81.430415
 20
-76.443062
 11
-28.596933
 21
-76.443062
  0
LINE
  8
型材断面
  6
CONTINUOUS
 62
    47
 10
-81.930408
 20
-76.109732
 11
-28.596933
 21
-76.109732
  0
LINE
  8
型材断面
  6
CONTINUOUS
 10
-81.930408
 20
-75.60973
 11
-28.596933
 21
-75.60973
  0
LINE
  8
型材断面
  6
CONTINUOUS
 10
-79.730407
 20
-75.443062
 11
-28.596933
 21
-75.443062
  0
LINE
  8
型材断面
  6
CONTINUOUS
 10
-81.197075
 20
-73.276068
 11
-28.596933
 21
-73.276068
  0
LINE
  8
型材断面
  6
CONTINUOUS
 62
    47
 10
-81.197075
 20
-73.576405
 11
-28.596933
 21
-73.576405
  0
LINE
  8
型材断面
  6
CONTINUOUS
 62
    47
 10
-81.197075
 20
-73.442698
 11
-28.596933
 21
-73.442698
  0
LINE
  8
型材断面
  6
CONTINUOUS
 62
    47
 10
-81.197075
 20
-73.709723
 11
-28.596933
 21
-73.709723
  0
LINE
  8
型材断面
  6
CONTINUOUS
 10
-79.930267
 20
-73.209742
 11
-28.596933
 21
-73.209742
  0
LINE
  8
型材断面
  6
CONTINUOUS
 62
    47
 10
-79.930267
 20
-71.443058
 11
-28.596933
 21
-71.443058
  0
LINE
  8
型材断面
  6
CONTINUOUS
 10
24.736542
 20
19.480558
 11
24.736542
 21
37.814033
  0
LINE
  8
型材断面
  6
CONTINUOUS
 10
23.469735
 20
20.747365
 11
24.736542
 21
19.480558
  0
LINE
  8
型材断面
  6
CONTINUOUS
 10
24.736542
 20
19.480558
 11
-28.596933
 21
19.480558
  0
LINE
  8
型材断面
  6
CONTINUOUS
 10
24.736542
 20
56.147508
 11
24.736542
 21
37.814033
  0
LINE
  8
型材断面
  6
CONTINUOUS
 10
23.469735
 20
54.8807
 11
24.736542
 21
56.147508
  0
LINE
  8
型材断面
  6
CONTINUOUS
 10
24.736542
 20
56.147508
 11
-28.596933
 21
56.147508
  0
LINE
  8
型材断面
  6
CONTINUOUS
 10
-81.930408
 20
56.147508
 11
-81.930408
 21
37.814033
  0
LINE
  8
型材断面
  6
CONTINUOUS
 10
-80.6636
 20
54.8807
 11
-81.930408
 21
56.147508
  0
LINE
  8
型材断面
  6
CONTINUOUS
 10
-81.930408
 20
56.147508
 11
-28.596933
 21
56.147508
  0
LINE
  8
型材断面
  6
CONTINUOUS
 10
-81.930408
 20
19.480558
 11
-81.930408
 21
37.814033
  0
LINE
  8
型材断面
  6
CONTINUOUS
 10
-80.6636
 20
20.747365
 11
-81.930408
 21
19.480558
  0
LINE
  8
型材断面
  6
CONTINUOUS
 10
-81.930408
 20
19.480558
 11
-28.596933
 21
19.480558
  0
LINE
  8
型材断面
  6
DASHDOT
 10
-45.493598
 20
22.814033
 11
-45.493598
 21
52.814033
  0
LINE
  8
型材断面
  6
DOT
 10
-46.743598
 20
22.814033
 11
-46.743598
 21
52.814033
  0
LINE
  8
型材断面
  6
DOT
 10
-44.243598
 20
22.814033
 11
-44.243598
 21
52.814033
  0
LINE
  8
型材断面
  6
DASHDOT
 10
-11.700267
 20
22.814033
 11
-11.700267
 21
52.814033
  0
LINE
  8
型材断面
  6
DOT
 10
-10.450267
 20
22.814033
 11
-10.450267
 21
52.814033
  0
LINE
  8
型材断面
  6
DOT
 10
-12.950267
 20
22.814033
 11
-12.950267
 21
52.814033
  0
LINE
  8
ガラス
  6
CONTINUOUS
 10
115.196463
 20
-73.957318
 11
115.196463
 21
-43.423982
  0
LINE
  8
ガラス
  6
CONTINUOUS
 10
115.196463
 20
-43.423982
 11
82.26313
 21
-43.423982
  0
LINE
  8
ガラス
  6
CONTINUOUS
 10
82.26313
 20
-43.423982
 11
82.26313
 21
-73.957318
  0
LINE
  8
ガラス
  6
CONTINUOUS
 10
115.196463
 20
-73.957318
 11
82.26313
 21
-73.957318
  0
TEXT
  7
TextStyle03
  8
文字
  6
CONTINUOUS
 10
-129.675
 20
94.925
  1
は排水穴位置を示す
 40
3.0
 72
     5
 11
-99.675
 21
94.925
  0
TEXT
  7
TextStyle03
  8
文字
  6
CONTINUOUS
 10
-129.675
 20
89.4
  1
はケーシング位置を示す
 40
3.0
 72
     5
 11
-92.925
 21
89.4
  0
TEXT
  7
TextStyle03
  8
文字
  6
CONTINUOUS
 10
-129.675
 20
86.025
  1
２ヶ所中1ヶ所に設定
 40
3.0
 72
     5
 11
-97.9875
 21
86.025
  0
TEXT
  7
TextStyle03
  8
文字
  6
CONTINUOUS
 10
88.45
 20
23.375
  1
45°
 40
3.0
 72
     5
 11
94.825
 21
23.375
  0
TEXT
  7
TextStyle03
  8
文字
  6
CONTINUOUS
 10
97.25
 20
-67.925
  1
網入り6.8t
 40
3.0
 72
     5
 11
113.9375
 21
-67.925
  0
TEXT
  7
TextStyle03
  8
文字
  6
CONTINUOUS
 10
103.925
 20
-72.6
  1
×３枚
 40
3.0
 72
     5
 11
113.675
 21
-72.6
  0
TEXT
  7
TextStyle03
  8
文字
  6
CONTINUOUS
 10
-99.55
 20
16.275
  1
アンカーピッチ
 40
3.0
 50
90.0
 72
     5
 11
-99.55
 21
39.525
  0
TEXT
  7
TextStyle03
  8
文字
  6
CONTINUOUS
 10
-68.65
 20
90.2
  1
アンカーピッチ
 40
3.0
 72
     5
 11
-45.4
 21
90.2
  0
TEXT
  7
TextStyle03
  8
文字
  6
CONTINUOUS
 10
-133.4
 20
80.05
  1
アンカー数量　１２ヶ所
 40
3.0
 72
     5
 11
-96.65
 21
80.05
  0
TEXT
  7
TextStyle03
  8
文字
  6
CONTINUOUS
 10
78.1
 20
125.25
  1
シリーズ：ＴＤ２ＨＬ
 40
5.0
 72
     5
 11
133.725
 21
125.25
  0
TEXT
  7
TextStyle03
  8
文字
  6
CONTINUOUS
 10
78.1
 20
119.625
  1
　　　　　（片側開閉）900×3000タイプ
 40
5.0
 72
     5
 11
181.5375
 21
119.625
  0
TEXT
  7
TextStyle03
  8
文字
  6
CONTINUOUS
 10
78.1
 20
114.0
  1
図面名　：外観姿図
 40
5.0
 72
     5
 11
128.1
 21
114.0
  0
TEXT
  7
TextStyle03
  8
文字
  6
CONTINUOUS
 10
78.1
 20
108.375
  1
　　　　　　
 40
5.0
 72
     5
 11
111.225
 21
108.375
  0
TEXT
  7
TextStyle03
  8
文字
  6
CONTINUOUS
 10
77.425
 20
103.975
  1
ＮＳコード：ＮＳＨＺＬ
 40
5.0
 72
     5
 11
138.675
 21
103.975
  0
INSERT
  2
*DIM_0002
  8
寸法
  6
CONTINUOUS
 10
0.0
 20
0.0
  0
INSERT
  2
*DIM_0003
  8
寸法
  6
CONTINUOUS
 10
0.0
 20
0.0
  0
INSERT
  2
*DIM_0005
  8
寸法
  6
CONTINUOUS
 10
0.0
 20
0.0
  0
INSERT
  2
*DIM_0006
  8
寸法
  6
CONTINUOUS
 10
0.0
 20
0.0
  0
INSERT
  2
*DIM_0007
  8
寸法
  6
CONTINUOUS
 10
0.0
 20
0.0
  0
INSERT
  2
*DIM_0009
  8
寸法
  6
CONTINUOUS
 10
0.0
 20
0.0
  0
INSERT
  2
*DIM_0010
  8
寸法
  6
CONTINUOUS
 10
0.0
 20
0.0
  0
INSERT
  2
*DIM_0011
  8
寸法
  6
CONTINUOUS
 10
0.0
 20
0.0
  0
INSERT
  2
*DIM_0012
  8
寸法
  6
CONTINUOUS
 10
0.0
 20
0.0
  0
INSERT
  2
*DIM_0013
  8
寸法
  6
CONTINUOUS
 10
0.0
 20
0.0
  0
INSERT
  2
*DIM_0014
  8
寸法
  6
CONTINUOUS
 10
0.0
 20
0.0
  0
INSERT
  2
*DIM_0015
  8
寸法
  6
CONTINUOUS
 10
0.0
 20
0.0
  0
INSERT
  2
*DIM_0016
  8
寸法
  6
CONTINUOUS
 10
0.0
 20
0.0
  0
INSERT
  2
*DIM_0017
  8
寸法
  6
CONTINUOUS
 10
0.0
 20
0.0
  0
INSERT
  2
*DIM_0018
  8
寸法
  6
CONTINUOUS
 10
0.0
 20
0.0
  0
INSERT
  2
*DIM_0019
  8
寸法
  6
CONTINUOUS
 10
0.0
 20
0.0
  0
INSERT
  2
*DIM_0020
  8
寸法
  6
CONTINUOUS
 10
0.0
 20
0.0
  0
INSERT
  2
*DIM_0021
  8
寸法
  6
CONTINUOUS
 10
0.0
 20
0.0
  0
INSERT
  2
*DIM_0022
  8
寸法
  6
CONTINUOUS
 10
0.0
 20
0.0
  0
LINE
  8
別途部材
  6
CONTINUOUS
 10
23.469735
 20
20.747365
 11
23.069735
 21
21.147365
  0
LINE
  8
別途部材
  6
CONTINUOUS
 10
21.403067
 20
22.814033
 11
13.343813
 21
30.87329
  0
LINE
  8
別途部材
  6
CONTINUOUS
 10
23.069735
 20
21.147365
 11
23.069735
 21
37.814033
  0
LINE
  8
別途部材
  6
CONTINUOUS
 10
23.469735
 20
20.747365
 11
23.469735
 21
37.814033
  0
LINE
  8
別途部材
  6
CONTINUOUS
 10
23.469735
 20
54.8807
 11
23.069735
 21
54.4807
  0
LINE
  8
別途部材
  6
CONTINUOUS
 10
21.403067
 20
52.814033
 11
13.343813
 21
44.754775
  0
LINE
  8
別途部材
  6
CONTINUOUS
 10
23.069735
 20
54.4807
 11
23.069735
 21
37.814033
  0
LINE
  8
別途部材
  6
CONTINUOUS
 10
23.469735
 20
54.8807
 11
23.469735
 21
37.814033
  0
LINE
  8
別途部材
  6
CONTINUOUS
 10
23.069735
 20
54.4807
 11
-28.596933
 21
54.4807
  0
LINE
  8
別途部材
  6
CONTINUOUS
 10
23.469735
 20
54.8807
 11
-28.596933
 21
54.8807
  0
LINE
  8
別途部材
  6
CONTINUOUS
 10
23.069735
 20
21.147365
 11
-28.596933
 21
21.147365
  0
LINE
  8
別途部材
  6
CONTINUOUS
 10
23.469735
 20
20.747365
 11
-28.596933
 21
20.747365
  0
LINE
  8
別途部材
  6
CONTINUOUS
 10
-80.6636
 20
20.747365
 11
-80.2636
 21
21.147365
  0
LINE
  8
別途部材
  6
CONTINUOUS
 10
-78.596933
 20
22.814033
 11
-70.537677
 21
30.87329
  0
LINE
  8
別途部材
  6
CONTINUOUS
 10
-80.2636
 20
21.147365
 11
-80.2636
 21
37.814033
  0
LINE
  8
別途部材
  6
CONTINUOUS
 10
-80.6636
 20
20.747365
 11
-80.6636
 21
37.814033
  0
LINE
  8
別途部材
  6
CONTINUOUS
 10
-80.6636
 20
54.8807
 11
-80.2636
 21
54.4807
  0
LINE
  8
別途部材
  6
CONTINUOUS
 10
-78.596933
 20
52.814033
 11
-70.537677
 21
44.754775
  0
LINE
  8
別途部材
  6
CONTINUOUS
 10
-80.2636
 20
54.4807
 11
-80.2636
 21
37.814033
  0
LINE
  8
別途部材
  6
CONTINUOUS
 10
-80.6636
 20
54.8807
 11
-80.6636
 21
37.814033
  0
LINE
  8
別途部材
  6
CONTINUOUS
 10
-80.2636
 20
54.4807
 11
-28.596933
 21
54.4807
  0
LINE
  8
別途部材
  6
CONTINUOUS
 10
-80.6636
 20
54.8807
 11
-28.596933
 21
54.8807
  0
LINE
  8
別途部材
  6
CONTINUOUS
 10
-80.2636
 20
21.147365
 11
-28.596933
 21
21.147365
  0
LINE
  8
別途部材
  6
CONTINUOUS
 10
-80.6636
 20
20.747365
 11
-28.596933
 21
20.747365
  0
INSERT
  2
*GRP_0004
  8
別途部材
  6
CONTINUOUS
 10
0.0
 20
0.0
  0
LINE
  8
別途部材
  6
CONTINUOUS
 62
    96
 10
110.88879
 20
54.4807
 11
111.88879
 21
54.8807
  0
LINE
  8
別途部材
  6
CONTINUOUS
 62
    96
 10
110.88879
 20
54.4807
 11
110.88879
 21
37.814033
  0
LINE
  8
別途部材
  6
CONTINUOUS
 10
111.88879
 20
54.8807
 11
111.88879
 21
37.814033
  0
LINE
  8
別途部材
  6
CONTINUOUS
 62
    96
 10
110.88879
 20
21.147367
 11
111.88879
 21
20.747367
  0
LINE
  8
別途部材
  6
CONTINUOUS
 62
    96
 10
110.88879
 20
21.147367
 11
110.88879
 21
37.814033
  0
LINE
  8
別途部材
  6
CONTINUOUS
 10
111.88879
 20
20.747367
 11
111.88879
 21
37.814033
  0
ARC
  8
別途部材
  6
CONTINUOUS
 10
120.222123
 20
37.814032
 40
17.666667
 50
121.890792
 51
238.109208
  0
INSERT
  2
*GRP_0008
  8
別途部材
  6
CONTINUOUS
 10
0.0
 20
0.0
  0
LINE
  8
別途部材
  6
DOT
 62
    96
 10
110.949875
 20
57.17549
 11
111.939825
 21
56.751227
  0
LINE
  8
別途部材
  6
DOT
 62
    96
 10
110.949875
 20
57.17549
 11
99.164762
 21
45.390378
  0
LINE
  8
別途部材
  6
DOT
 10
111.939825
 20
56.751227
 11
99.87187
 21
44.68327
  0
LINE
  8
別途部材
  6
DOT
 62
    96
 10
87.37965
 20
33.605265
 11
87.803915
 21
32.615315
  0
LINE
  8
別途部材
  6
DOT
 62
    96
 10
87.37965
 20
33.605265
 11
99.164762
 21
45.390378
  0
LINE
  8
別途部材
  6
DOT
 10
87.803915
 20
32.615315
 11
99.87187
 21
44.68327
  0
ARC
  8
別途部材
  6
DOT
 10
105.764426
 20
38.790713
 40
17.666667
 50
76.890792
 51
193.109208
  0
INSERT
  2
*GRP_0023
  8
別途部材
  6
DOT
 10
0.0
 20
0.0
  0
INSERT
  2
*GRP_0024
  8
別途部材
  6
DOT
 10
0.0
 20
0.0
  0
INSERT
  2
*GRP_0025
  8
別途部材
  6
DOT
 10
0.0
 20
0.0
  0
INSERT
  2
*GRP_0026
  8
別途部材
  6
DOT
 10
0.0
 20
0.0
  0
INSERT
  2
*GRP_0027
  8
別途部材
  6
DOT
 10
0.0
 20
0.0
  0
INSERT
  2
*GRP_0028
  8
別途部材
  6
DOT
 10
0.0
 20
0.0
  0
ENDSEC
  0
EOF
