  0
SECTION
  2
HEADER
  9
$EXTMIN
 10
-210.0
 20
-148.5
  9
$EXTMAX
 10
210.0
 20
148.5
  9
$PDMODE
 70
    32
  9
$PDSIZE
 40
1.5
  9
$LTSCALE
 40
10.0
  0
ENDSEC
  0
SECTION
  2
TABLES
  0
TABLE
  2
LTYPE
 70
    15
  0
LTYPE
  2
CONTINUOUS
 70
    64
  3
実線
 72
    65
 73
     0
 40
0.0
  0
LTYPE
  2
DASHED
 70
    64
  3
破線A
 72
    65
 73
     2
 40
0.6
 49
0.4
 49
-0.2
  0
LTYPE
  2
DASHEDX2
 70
    64
  3
破線B
 72
    65
 73
     2
 40
1.3
 49
0.9
 49
-0.4
  0
LTYPE
  2
DASHDOT
 70
    64
  3
１点鎖線A
 72
    65
 73
     4
 40
0.5375
 49
0.375
 49
-0.05
 49
0.0625
 49
-0.05
  0
LTYPE
  2
DASHDOTX2
 70
    64
  3
１点鎖線B
 72
    65
 73
     4
 40
1.075
 49
0.75
 49
-0.1
 49
0.125
 49
-0.1
  0
LTYPE
  2
DIVIDE2
 70
    64
  3
２点鎖線A
 72
    65
 73
     6
 40
0.5125
 49
0.3
 49
-0.0375
 49
0.05
 49
-0.0375
 49
0.05
 49
-0.0375
  0
LTYPE
  2
DIVIDE
 70
    64
  3
２点鎖線B
 72
    65
 73
     6
 40
1.05
 49
0.55
 49
-0.1
 49
0.1
 49
-0.1
 49
0.1
 49
-0.1
  0
LTYPE
  2
DOT
 70
    64
  3
点線A
 72
    65
 73
     2
 40
0.1125
 49
0.0625
 49
-0.05
  0
LTYPE
  2
DOTX2
 70
    64
  3
点線B
 72
    65
 73
     2
 40
0.275
 49
0.15
 49
-0.125
  0
LTYPE
  2
CONTINUOUS
 70
    64
  3
実線
 72
    65
 73
     0
 40
0.0
  0
LTYPE
  2
CONTINUOUS
 70
    64
  3
実線
 72
    65
 73
     0
 40
0.0
  0
LTYPE
  2
CONTINUOUS
 70
    64
  3
実線
 72
    65
 73
     0
 40
0.0
  0
LTYPE
  2
CONTINUOUS
 70
    64
  3
実線
 72
    65
 73
     0
 40
0.0
  0
LTYPE
  2
CONTINUOUS
 70
    64
  3
実線
 72
    65
 73
     0
 40
0.0
  0
LTYPE
  2
CONTINUOUS
 70
    64
  3
実線
 72
    65
 73
     0
 40
0.0
  0
ENDTAB
  0
TABLE
  2
LAYER
 70
    34
  0
LAYER
  2
通り芯
 70
     0
 62
    15
  6
CONTINUOUS
  0
LAYER
  2
補助線
 70
     0
 62
    16
  6
DOT
  0
LAYER
  2
躯体
 70
     0
 62
    31
  6
CONTINUOUS
  0
LAYER
  2
型材
 70
     0
 62
    32
  6
CONTINUOUS
  0
LAYER
  2
型材断面
 70
     0
 62
    47
  6
CONTINUOUS
  0
LAYER
  2
ガラス
 70
     0
 62
    48
  6
CONTINUOUS
  0
LAYER
  2
ゴム等
 70
     0
 62
    63
  6
CONTINUOUS
  0
LAYER
  2
ボルト／ビス
 70
     0
 62
    64
  6
CONTINUOUS
  0
LAYER
  2
文字
 70
     0
 62
    79
  6
CONTINUOUS
  0
LAYER
  2
寸法
 70
     0
 62
    80
  6
CONTINUOUS
  0
LAYER
  2
ﾊｯﾁﾝｸﾞ
 70
     0
 62
    95
  6
CONTINUOUS
  0
LAYER
  2
別途部材
 70
     0
 62
    96
  6
CONTINUOUS
  0
LAYER
  2
曲げ物
 70
     0
 62
   111
  6
CONTINUOUS
  0
LAYER
  2
鉄骨等
 70
     0
 62
   112
  6
CONTINUOUS
  0
LAYER
  2
St
 70
     0
 62
   127
  6
CONTINUOUS
  0
LAYER
  2
その他部品等
 70
     0
 62
   128
  6
CONTINUOUS
  0
LAYER
  2
ｶﾞｽｹｯﾄ
 70
     0
 62
   143
  6
CONTINUOUS
  0
LAYER
  2
ｽｹｯﾁ
 70
     0
 62
    14
  6
CONTINUOUS
  0
LAYER
  2
0
 70
     0
 62
    17
  6
CONTINUOUS
  0
LAYER
  2
1
 70
     0
 62
    30
  6
CONTINUOUS
  0
LAYER
  2
4
 70
     0
 62
    33
  6
CONTINUOUS
  0
LAYER
  2
ﾚｲﾔ3
 70
     0
 62
    46
  6
CONTINUOUS
  0
LAYER
  2
外形線
 70
     0
 62
    49
  6
CONTINUOUS
  0
LAYER
  2
部品
 70
     0
 62
    14
  6
CONTINUOUS
  0
LAYER
  2
サッシ芯
 70
     0
 62
    17
  6
DASHDOTX2
  0
LAYER
  2
寸法線
 70
     0
 62
    62
  6
CONTINUOUS
  0
LAYER
  2
姿図外形線
 70
     0
 62
    65
  6
CONTINUOUS
  0
LAYER
  2
姿補助線
 70
     0
 62
    30
  6
CONTINUOUS
  0
LAYER
  2
透視線
 70
     0
 62
    78
  6
DOT
  0
LAYER
  2
用紙
 70
     0
 62
    81
  6
CONTINUOUS
  0
LAYER
  2
実線図枠
 70
     0
 62
    94
  6
CONTINUOUS
  0
LAYER
  2
補助図枠
 70
     0
 62
    97
  6
CONTINUOUS
  0
LAYER
  2
建具記号
 70
     0
 62
   110
  6
CONTINUOUS
  0
LAYER
  2
補助文字
 70
     0
 62
   113
  6
CONTINUOUS
  0
ENDTAB
  0
TABLE
  2
STYLE
 70
    10
  0
STYLE
  2
STANDARD
 70
     0
 40
1.0
 41
1.0
 42
1.0
 50
0.0
 71
     0
  3
TXT
  4
BIGFONT
  0
STYLE
  2
TATE
 70
     4
 40
1.0
 41
1.0
 42
1.0
 50
0.0
 71
     0
  3
TXT
  4
BIGFONT
  0
STYLE
  2
TextStyle03
 70
     0
 40
1.0
 41
1.0
 42
1.0
 50
0.0
 71
     0
  3
MONOTXT
  4
BIGFONT
  0
STYLE
  2
TextStyle04
 70
     0
 40
1.0
 41
1.0
 42
1.0
 50
0.0
 71
     0
  3
MONOTXT
  4
BIGFONT
  0
STYLE
  2
TextStyle05
 70
     0
 40
1.0
 41
1.0
 42
1.0
 50
0.0
 71
     0
  3
MONOTXT
  4
BIGFONT
  0
STYLE
  2
TextStyle06
 70
     0
 40
1.0
 41
1.0
 42
1.0
 50
0.0
 71
     0
  3
MONOTXT
  4
BIGFONT
  0
STYLE
  2
TextStyle07
 70
     0
 40
1.0
 41
1.0
 42
1.0
 50
0.0
 71
     0
  3
MONOTXT
  4
BIGFONT
  0
STYLE
  2
TextStyle08
 70
     0
 40
1.0
 41
1.0
 42
1.0
 50
0.0
 71
     0
  3
MONOTXT
  4
BIGFONT
  0
STYLE
  2
TextStyle09
 70
     0
 40
1.0
 41
1.0
 42
1.0
 50
0.0
 71
     0
  3
MONOTXT
  4
BIGFONT
  0
STYLE
  2
TextStyle10
 70
     0
 40
1.0
 41
1.0
 42
1.0
 50
0.0
 71
     0
  3
MONOTXT
  4
BIGFONT
  0
ENDTAB
  0
ENDSEC
  0
SECTION
  2
BLOCKS
  0
BLOCK
  2
*GRP_0001
 70
    65
 10
0.0
 20
0.0
  0
LINE
  8
型材断面
  6
CONTINUOUS
 10
195.0
 20
133.5
 11
195.0
 21
-133.5
  0
LINE
  8
型材断面
  6
CONTINUOUS
 10
195.0
 20
-133.5
 11
-185.0
 21
-133.5
  0
LINE
  8
型材断面
  6
CONTINUOUS
 10
-185.0
 20
-133.5
 11
-185.0
 21
133.5
  0
LINE
  8
型材断面
  6
CONTINUOUS
 10
195.0
 20
133.5
 11
-185.0
 21
133.5
  0
LINE
  8
型材断面
  6
CONTINUOUS
 10
145.0
 20
-133.5
 11
145.0
 21
-118.5
  0
LINE
  8
型材断面
  6
CONTINUOUS
 10
195.0
 20
-118.5
 11
145.0
 21
-118.5
  0
ENDBLK
  0
BLOCK
  2
*DIM_0002
 70
    65
 10
0.0
 20
0.0
  0
LINE
  8
寸法
  6
BYBLOCK
 62
     0
 10
4.712865
 20
-13.121378
 11
-78.620467
 21
-13.121378
  0
POINT
  8
寸法
 62
     0
 10
4.712865
 20
-13.121378
  0
POINT
  8
寸法
 62
     0
 10
-78.620467
 20
-13.121378
  0
TEXT
  7
TextStyle03
  8
寸法
  6
CONTINUOUS
 62
     0
 10
-48.69375
 20
-12.75
  1
呼称寸法　2500
 40
3.0
 72
     5
 11
-25.25625
 21
-12.75
  0
ENDBLK
  0
BLOCK
  2
*DIM_0003
 70
    65
 10
0.0
 20
0.0
  0
LINE
  8
寸法
  6
BYBLOCK
 62
     0
 10
-61.9538
 20
19.183902
 11
-61.9538
 21
14.01842
  0
LINE
  8
寸法
  6
BYBLOCK
 62
     0
 10
-11.953805
 20
19.183902
 11
-11.953805
 21
14.01842
  0
LINE
  8
寸法
  6
BYBLOCK
 62
     0
 10
-61.9538
 20
14.01842
 11
-11.953805
 21
14.01842
  0
POINT
  8
寸法
 62
     0
 10
-61.9538
 20
14.01842
  0
POINT
  8
寸法
 62
     0
 10
-11.953805
 20
14.01842
  0
TEXT
  7
TextStyle03
  8
寸法
  6
CONTINUOUS
 62
     0
 10
-40.23125
 20
14.375
  1
1500
 40
3.0
 72
     5
 11
-33.66875
 21
14.375
  0
ENDBLK
  0
BLOCK
  2
*GRP_0004
 70
    65
 10
0.0
 20
0.0
  0
LINE
  8
別途部材
  6
CONTINUOUS
 62
    96
 10
-80.287135
 20
-70.209613
 11
-80.687135
 21
-71.209613
  0
ARC
  8
別途部材
  6
CONTINUOUS
 10
-68.62047
 20
-76.917948
 40
12.041668
 50
90.0
 51
146.144967
  0
LINE
  8
別途部材
  6
CONTINUOUS
 10
-80.687135
 20
-71.209613
 11
-36.9538
 21
-71.209613
  0
LINE
  8
別途部材
  6
CONTINUOUS
 62
    96
 10
-80.287135
 20
-70.209613
 11
-36.9538
 21
-70.209613
  0
LINE
  8
別途部材
  6
CONTINUOUS
 10
-37.4538
 20
-63.87628
 11
-38.4538
 21
-64.87628
  0
LINE
  8
別途部材
  6
CONTINUOUS
 10
-39.4538
 20
-64.87628
 11
-40.4538
 21
-63.87628
  0
LINE
  8
別途部材
  6
CONTINUOUS
 10
-41.4538
 20
-63.87628
 11
-42.4538
 21
-64.87628
  0
LINE
  8
別途部材
  6
CONTINUOUS
 10
-40.4538
 20
-63.87628
 11
-41.4538
 21
-63.87628
  0
LINE
  8
別途部材
  6
CONTINUOUS
 10
-37.4538
 20
-63.87628
 11
-36.9538
 21
-63.87628
  0
LINE
  8
別途部材
  6
CONTINUOUS
 10
-43.4538
 20
-64.87628
 11
-44.4538
 21
-63.87628
  0
LINE
  8
別途部材
  6
CONTINUOUS
 10
-45.4538
 20
-63.87628
 11
-46.4538
 21
-64.87628
  0
LINE
  8
別途部材
  6
CONTINUOUS
 10
-44.4538
 20
-63.87628
 11
-45.4538
 21
-63.87628
  0
LINE
  8
別途部材
  6
CONTINUOUS
 10
-47.4538
 20
-64.87628
 11
-48.4538
 21
-63.87628
  0
LINE
  8
別途部材
  6
CONTINUOUS
 10
-49.4538
 20
-63.87628
 11
-50.4538
 21
-64.87628
  0
LINE
  8
別途部材
  6
CONTINUOUS
 10
-48.4538
 20
-63.87628
 11
-49.4538
 21
-63.87628
  0
LINE
  8
別途部材
  6
CONTINUOUS
 10
-51.4538
 20
-64.87628
 11
-52.4538
 21
-63.87628
  0
LINE
  8
別途部材
  6
CONTINUOUS
 10
-53.4538
 20
-63.87628
 11
-54.4538
 21
-64.87628
  0
LINE
  8
別途部材
  6
CONTINUOUS
 10
-52.4538
 20
-63.87628
 11
-53.4538
 21
-63.87628
  0
LINE
  8
別途部材
  6
CONTINUOUS
 10
-55.4538
 20
-64.87628
 11
-56.4538
 21
-63.87628
  0
LINE
  8
別途部材
  6
CONTINUOUS
 10
-57.4538
 20
-63.87628
 11
-58.4538
 21
-64.87628
  0
LINE
  8
別途部材
  6
CONTINUOUS
 10
-56.4538
 20
-63.87628
 11
-57.4538
 21
-63.87628
  0
LINE
  8
別途部材
  6
CONTINUOUS
 10
-59.4538
 20
-64.87628
 11
-60.4538
 21
-63.87628
  0
LINE
  8
別途部材
  6
CONTINUOUS
 10
-61.4538
 20
-63.87628
 11
-62.4538
 21
-64.87628
  0
LINE
  8
別途部材
  6
CONTINUOUS
 10
-60.4538
 20
-63.87628
 11
-61.4538
 21
-63.87628
  0
LINE
  8
別途部材
  6
CONTINUOUS
 10
-63.4538
 20
-64.87628
 11
-64.4538
 21
-63.87628
  0
LINE
  8
別途部材
  6
CONTINUOUS
 10
-65.4538
 20
-63.87628
 11
-66.4538
 21
-64.87628
  0
LINE
  8
別途部材
  6
CONTINUOUS
 10
-64.4538
 20
-63.87628
 11
-65.4538
 21
-63.87628
  0
LINE
  8
別途部材
  6
CONTINUOUS
 10
-62.4538
 20
-64.87628
 11
-63.4538
 21
-64.87628
  0
LINE
  8
別途部材
  6
CONTINUOUS
 10
-58.4538
 20
-64.87628
 11
-59.4538
 21
-64.87628
  0
LINE
  8
別途部材
  6
CONTINUOUS
 10
-54.4538
 20
-64.87628
 11
-55.4538
 21
-64.87628
  0
LINE
  8
別途部材
  6
CONTINUOUS
 10
-50.4538
 20
-64.87628
 11
-51.4538
 21
-64.87628
  0
LINE
  8
別途部材
  6
CONTINUOUS
 10
-46.4538
 20
-64.87628
 11
-47.4538
 21
-64.87628
  0
LINE
  8
別途部材
  6
CONTINUOUS
 10
-42.4538
 20
-64.87628
 11
-43.4538
 21
-64.87628
  0
LINE
  8
別途部材
  6
CONTINUOUS
 10
-39.4538
 20
-64.87628
 11
-38.4538
 21
-64.87628
  0
LINE
  8
別途部材
  6
CONTINUOUS
 10
-65.4538
 20
-63.87628
 11
-65.4538
 21
-70.209613
  0
LINE
  8
別途部材
  6
CONTINUOUS
 10
-66.4538
 20
-64.87628
 11
-66.4538
 21
-70.209613
  0
LINE
  8
別途部材
  6
CONTINUOUS
 10
-63.4538
 20
-64.87628
 11
-63.4538
 21
-70.209613
  0
LINE
  8
別途部材
  6
CONTINUOUS
 10
-64.4538
 20
-63.87628
 11
-64.4538
 21
-70.209613
  0
LINE
  8
別途部材
  6
CONTINUOUS
 10
-62.4538
 20
-64.87628
 11
-62.4538
 21
-70.209613
  0
LINE
  8
別途部材
  6
CONTINUOUS
 10
-61.4538
 20
-63.87628
 11
-61.4538
 21
-70.209613
  0
LINE
  8
別途部材
  6
CONTINUOUS
 10
-57.4538
 20
-63.87628
 11
-57.4538
 21
-70.209613
  0
LINE
  8
別途部材
  6
CONTINUOUS
 10
-56.4538
 20
-63.87628
 11
-56.4538
 21
-70.209613
  0
LINE
  8
別途部材
  6
CONTINUOUS
 10
-58.4538
 20
-64.87628
 11
-58.4538
 21
-70.209613
  0
LINE
  8
別途部材
  6
CONTINUOUS
 10
-59.4538
 20
-64.87628
 11
-59.4538
 21
-70.209613
  0
LINE
  8
別途部材
  6
CONTINUOUS
 10
-60.4538
 20
-63.87628
 11
-60.4538
 21
-70.209613
  0
LINE
  8
別途部材
  6
CONTINUOUS
 10
-55.4538
 20
-64.87628
 11
-55.4538
 21
-70.209613
  0
LINE
  8
別途部材
  6
CONTINUOUS
 10
-53.4538
 20
-63.87628
 11
-53.4538
 21
-70.209613
  0
LINE
  8
別途部材
  6
CONTINUOUS
 10
-52.4538
 20
-63.87628
 11
-52.4538
 21
-70.209613
  0
LINE
  8
別途部材
  6
CONTINUOUS
 10
-51.4538
 20
-64.87628
 11
-51.4538
 21
-70.209613
  0
LINE
  8
別途部材
  6
CONTINUOUS
 10
-50.4538
 20
-64.87628
 11
-50.4538
 21
-70.209613
  0
LINE
  8
別途部材
  6
CONTINUOUS
 10
-49.4538
 20
-63.87628
 11
-49.4538
 21
-70.209613
  0
LINE
  8
別途部材
  6
CONTINUOUS
 10
-54.4538
 20
-64.87628
 11
-54.4538
 21
-70.209613
  0
LINE
  8
別途部材
  6
CONTINUOUS
 10
-48.4538
 20
-63.87628
 11
-48.4538
 21
-70.209613
  0
LINE
  8
別途部材
  6
CONTINUOUS
 10
-47.4538
 20
-64.87628
 11
-47.4538
 21
-70.209613
  0
LINE
  8
別途部材
  6
CONTINUOUS
 10
-46.4538
 20
-64.87628
 11
-46.4538
 21
-70.209613
  0
LINE
  8
別途部材
  6
CONTINUOUS
 10
-44.4538
 20
-63.87628
 11
-44.4538
 21
-70.209613
  0
LINE
  8
別途部材
  6
CONTINUOUS
 10
-42.4538
 20
-64.87628
 11
-42.4538
 21
-70.209613
  0
LINE
  8
別途部材
  6
CONTINUOUS
 10
-41.4538
 20
-63.87628
 11
-41.4538
 21
-70.209613
  0
LINE
  8
別途部材
  6
CONTINUOUS
 10
-39.4538
 20
-64.87628
 11
-39.4538
 21
-70.209613
  0
LINE
  8
別途部材
  6
CONTINUOUS
 10
-38.4538
 20
-64.87628
 11
-38.4538
 21
-70.209613
  0
LINE
  8
別途部材
  6
CONTINUOUS
 10
-37.4538
 20
-63.87628
 11
-37.4538
 21
-70.209613
  0
LINE
  8
別途部材
  6
CONTINUOUS
 10
-40.4538
 20
-63.87628
 11
-40.4538
 21
-70.209613
  0
LINE
  8
別途部材
  6
CONTINUOUS
 10
-43.4538
 20
-64.87628
 11
-43.4538
 21
-70.209613
  0
LINE
  8
別途部材
  6
CONTINUOUS
 10
-45.4538
 20
-63.87628
 11
-45.4538
 21
-70.209613
  0
LINE
  8
別途部材
  6
CONTINUOUS
 10
-66.4538
 20
-64.87628
 11
-68.620467
 21
-64.87628
  0
LINE
  8
別途部材
  6
CONTINUOUS
 62
    96
 10
6.379532
 20
-70.209613
 11
6.779532
 21
-71.209613
  0
ARC
  8
別途部材
  6
CONTINUOUS
 10
-5.287131
 20
-76.917948
 40
12.041668
 50
33.855033
 51
90.0
  0
LINE
  8
別途部材
  6
CONTINUOUS
 10
6.779532
 20
-71.209613
 11
-36.9538
 21
-71.209613
  0
LINE
  8
別途部材
  6
CONTINUOUS
 62
    96
 10
6.379532
 20
-70.209613
 11
-36.9538
 21
-70.209613
  0
LINE
  8
別途部材
  6
CONTINUOUS
 10
-36.4538
 20
-63.87628
 11
-35.4538
 21
-64.87628
  0
LINE
  8
別途部材
  6
CONTINUOUS
 10
-34.4538
 20
-64.87628
 11
-33.4538
 21
-63.87628
  0
LINE
  8
別途部材
  6
CONTINUOUS
 10
-32.4538
 20
-63.87628
 11
-31.4538
 21
-64.87628
  0
LINE
  8
別途部材
  6
CONTINUOUS
 10
-33.4538
 20
-63.87628
 11
-32.4538
 21
-63.87628
  0
LINE
  8
別途部材
  6
CONTINUOUS
 10
-36.4538
 20
-63.87628
 11
-36.9538
 21
-63.87628
  0
LINE
  8
別途部材
  6
CONTINUOUS
 10
-30.4538
 20
-64.87628
 11
-29.4538
 21
-63.87628
  0
LINE
  8
別途部材
  6
CONTINUOUS
 10
-28.4538
 20
-63.87628
 11
-27.4538
 21
-64.87628
  0
LINE
  8
別途部材
  6
CONTINUOUS
 10
-29.4538
 20
-63.87628
 11
-28.4538
 21
-63.87628
  0
LINE
  8
別途部材
  6
CONTINUOUS
 10
-26.4538
 20
-64.87628
 11
-25.4538
 21
-63.87628
  0
LINE
  8
別途部材
  6
CONTINUOUS
 10
-24.4538
 20
-63.87628
 11
-23.4538
 21
-64.87628
  0
LINE
  8
別途部材
  6
CONTINUOUS
 10
-25.4538
 20
-63.87628
 11
-24.4538
 21
-63.87628
  0
LINE
  8
別途部材
  6
CONTINUOUS
 10
-22.4538
 20
-64.87628
 11
-21.4538
 21
-63.87628
  0
LINE
  8
別途部材
  6
CONTINUOUS
 10
-20.4538
 20
-63.87628
 11
-19.4538
 21
-64.87628
  0
LINE
  8
別途部材
  6
CONTINUOUS
 10
-21.4538
 20
-63.87628
 11
-20.4538
 21
-63.87628
  0
LINE
  8
別途部材
  6
CONTINUOUS
 10
-18.4538
 20
-64.87628
 11
-17.4538
 21
-63.87628
  0
LINE
  8
別途部材
  6
CONTINUOUS
 10
-16.4538
 20
-63.87628
 11
-15.4538
 21
-64.87628
  0
LINE
  8
別途部材
  6
CONTINUOUS
 10
-17.4538
 20
-63.87628
 11
-16.4538
 21
-63.87628
  0
LINE
  8
別途部材
  6
CONTINUOUS
 10
-14.4538
 20
-64.87628
 11
-13.4538
 21
-63.87628
  0
LINE
  8
別途部材
  6
CONTINUOUS
 10
-12.4538
 20
-63.87628
 11
-11.4538
 21
-64.87628
  0
LINE
  8
別途部材
  6
CONTINUOUS
 10
-13.4538
 20
-63.87628
 11
-12.4538
 21
-63.87628
  0
LINE
  8
別途部材
  6
CONTINUOUS
 10
-10.4538
 20
-64.87628
 11
-9.4538
 21
-63.87628
  0
LINE
  8
別途部材
  6
CONTINUOUS
 10
-8.4538
 20
-63.87628
 11
-7.4538
 21
-64.87628
  0
LINE
  8
別途部材
  6
CONTINUOUS
 10
-9.4538
 20
-63.87628
 11
-8.4538
 21
-63.87628
  0
LINE
  8
別途部材
  6
CONTINUOUS
 10
-11.4538
 20
-64.87628
 11
-10.4538
 21
-64.87628
  0
LINE
  8
別途部材
  6
CONTINUOUS
 10
-15.4538
 20
-64.87628
 11
-14.4538
 21
-64.87628
  0
LINE
  8
別途部材
  6
CONTINUOUS
 10
-19.4538
 20
-64.87628
 11
-18.4538
 21
-64.87628
  0
LINE
  8
別途部材
  6
CONTINUOUS
 10
-23.4538
 20
-64.87628
 11
-22.4538
 21
-64.87628
  0
LINE
  8
別途部材
  6
CONTINUOUS
 10
-27.4538
 20
-64.87628
 11
-26.4538
 21
-64.87628
  0
LINE
  8
別途部材
  6
CONTINUOUS
 10
-31.4538
 20
-64.87628
 11
-30.4538
 21
-64.87628
  0
LINE
  8
別途部材
  6
CONTINUOUS
 10
-34.4538
 20
-64.87628
 11
-35.4538
 21
-64.87628
  0
LINE
  8
別途部材
  6
CONTINUOUS
 10
-8.4538
 20
-63.87628
 11
-8.4538
 21
-70.209613
  0
LINE
  8
別途部材
  6
CONTINUOUS
 10
-7.4538
 20
-64.87628
 11
-7.4538
 21
-70.209613
  0
LINE
  8
別途部材
  6
CONTINUOUS
 10
-10.4538
 20
-64.87628
 11
-10.4538
 21
-70.209613
  0
LINE
  8
別途部材
  6
CONTINUOUS
 10
-9.4538
 20
-63.87628
 11
-9.4538
 21
-70.209613
  0
LINE
  8
別途部材
  6
CONTINUOUS
 10
-11.4538
 20
-64.87628
 11
-11.4538
 21
-70.209613
  0
LINE
  8
別途部材
  6
CONTINUOUS
 10
-12.4538
 20
-63.87628
 11
-12.4538
 21
-70.209613
  0
LINE
  8
別途部材
  6
CONTINUOUS
 10
-16.4538
 20
-63.87628
 11
-16.4538
 21
-70.209613
  0
LINE
  8
別途部材
  6
CONTINUOUS
 10
-17.4538
 20
-63.87628
 11
-17.4538
 21
-70.209613
  0
LINE
  8
別途部材
  6
CONTINUOUS
 10
-15.4538
 20
-64.87628
 11
-15.4538
 21
-70.209613
  0
LINE
  8
別途部材
  6
CONTINUOUS
 10
-14.4538
 20
-64.87628
 11
-14.4538
 21
-70.209613
  0
LINE
  8
別途部材
  6
CONTINUOUS
 10
-13.4538
 20
-63.87628
 11
-13.4538
 21
-70.209613
  0
LINE
  8
別途部材
  6
CONTINUOUS
 10
-18.4538
 20
-64.87628
 11
-18.4538
 21
-70.209613
  0
LINE
  8
別途部材
  6
CONTINUOUS
 10
-20.4538
 20
-63.87628
 11
-20.4538
 21
-70.209613
  0
LINE
  8
別途部材
  6
CONTINUOUS
 10
-21.4538
 20
-63.87628
 11
-21.4538
 21
-70.209613
  0
LINE
  8
別途部材
  6
CONTINUOUS
 10
-22.4538
 20
-64.87628
 11
-22.4538
 21
-70.209613
  0
LINE
  8
別途部材
  6
CONTINUOUS
 10
-23.4538
 20
-64.87628
 11
-23.4538
 21
-70.209613
  0
LINE
  8
別途部材
  6
CONTINUOUS
 10
-24.4538
 20
-63.87628
 11
-24.4538
 21
-70.209613
  0
LINE
  8
別途部材
  6
CONTINUOUS
 10
-19.4538
 20
-64.87628
 11
-19.4538
 21
-70.209613
  0
LINE
  8
別途部材
  6
CONTINUOUS
 10
-25.4538
 20
-63.87628
 11
-25.4538
 21
-70.209613
  0
LINE
  8
別途部材
  6
CONTINUOUS
 10
-26.4538
 20
-64.87628
 11
-26.4538
 21
-70.209613
  0
LINE
  8
別途部材
  6
CONTINUOUS
 10
-27.4538
 20
-64.87628
 11
-27.4538
 21
-70.209613
  0
LINE
  8
別途部材
  6
CONTINUOUS
 10
-29.4538
 20
-63.87628
 11
-29.4538
 21
-70.209613
  0
LINE
  8
別途部材
  6
CONTINUOUS
 10
-31.4538
 20
-64.87628
 11
-31.4538
 21
-70.209613
  0
LINE
  8
別途部材
  6
CONTINUOUS
 10
-32.4538
 20
-63.87628
 11
-32.4538
 21
-70.209613
  0
LINE
  8
別途部材
  6
CONTINUOUS
 10
-34.4538
 20
-64.87628
 11
-34.4538
 21
-70.209613
  0
LINE
  8
別途部材
  6
CONTINUOUS
 10
-35.4538
 20
-64.87628
 11
-35.4538
 21
-70.209613
  0
LINE
  8
別途部材
  6
CONTINUOUS
 10
-36.4538
 20
-63.87628
 11
-36.4538
 21
-70.209613
  0
LINE
  8
別途部材
  6
CONTINUOUS
 10
-33.4538
 20
-63.87628
 11
-33.4538
 21
-70.209613
  0
LINE
  8
別途部材
  6
CONTINUOUS
 10
-30.4538
 20
-64.87628
 11
-30.4538
 21
-70.209613
  0
LINE
  8
別途部材
  6
CONTINUOUS
 10
-28.4538
 20
-63.87628
 11
-28.4538
 21
-70.209613
  0
LINE
  8
別途部材
  6
CONTINUOUS
 10
-7.4538
 20
-64.87628
 11
-5.287135
 21
-64.87628
  0
ENDBLK
  0
BLOCK
  2
*DIM_0005
 70
    65
 10
0.0
 20
0.0
  0
LINE
  8
寸法
  6
BYBLOCK
 62
     0
 10
2.712865
 20
17.20722
 11
2.712865
 21
14.182178
  0
LINE
  8
寸法
  6
BYBLOCK
 62
     0
 10
4.712865
 20
14.182178
 11
2.712865
 21
14.182178
  0
POINT
  8
寸法
 62
     0
 10
4.712865
 20
14.182178
  0
POINT
  8
寸法
 62
     0
 10
2.712865
 20
14.182178
  0
TEXT
  7
TextStyle03
  8
寸法
  6
CONTINUOUS
 62
     0
 10
0.83125
 20
10.4
  1
60
 40
3.0
 72
     5
 11
4.01875
 21
10.4
  0
ENDBLK
  0
BLOCK
  2
*DIM_0006
 70
    65
 10
0.0
 20
0.0
  0
LINE
  8
寸法
  6
BYBLOCK
 62
     0
 10
-76.62047
 20
17.20722
 11
-76.62047
 21
14.182178
  0
LINE
  8
寸法
  6
BYBLOCK
 62
     0
 10
-78.62047
 20
14.182178
 11
-76.62047
 21
14.182178
  0
POINT
  8
寸法
 62
     0
 10
-78.62047
 20
14.182178
  0
POINT
  8
寸法
 62
     0
 10
-76.62047
 20
14.182178
  0
TEXT
  7
TextStyle03
  8
寸法
  6
CONTINUOUS
 62
     0
 10
-77.94375
 20
10.4
  1
60
 40
3.0
 72
     5
 11
-74.75625
 21
10.4
  0
ENDBLK
  0
BLOCK
  2
*DIM_0007
 70
    65
 10
0.0
 20
0.0
  0
LINE
  8
寸法
  6
BYBLOCK
 62
     0
 10
-4.287135
 20
-64.87628
 11
20.682515
 21
-64.87628
  0
LINE
  8
寸法
  6
BYBLOCK
 62
     0
 10
20.682515
 20
-70.209613
 11
20.682515
 21
-64.87628
  0
POINT
  8
寸法
 62
     0
 10
20.682515
 20
-70.209613
  0
POINT
  8
寸法
 62
     0
 10
20.682515
 20
-64.87628
  0
TEXT
  7
TextStyle03
  8
寸法
  6
CONTINUOUS
 62
     0
 10
20.3
 20
-69.9875
  1
160
 40
3.0
 50
90.0
 72
     5
 11
20.3
 21
-65.1125
  0
ENDBLK
  0
BLOCK
  2
*DIM_0008
 70
    65
 10
0.0
 20
0.0
  0
LINE
  8
寸法
  6
BYBLOCK
 62
     0
 10
9.379532
 20
-70.209613
 11
20.682515
 21
-70.209613
  0
LINE
  8
寸法
  6
BYBLOCK
 62
     0
 10
11.04634
 20
-76.109732
 11
20.682515
 21
-76.109732
  0
LINE
  8
寸法
  6
BYBLOCK
 62
     0
 10
20.682515
 20
-70.209613
 11
20.682515
 21
-76.109732
  0
POINT
  8
寸法
 62
     0
 10
20.682515
 20
-70.209613
  0
POINT
  8
寸法
 62
     0
 10
20.682515
 20
-76.109732
  0
TEXT
  7
TextStyle03
  8
寸法
  6
CONTINUOUS
 62
     0
 10
20.3
 20
-75.6125
  1
177
 40
3.0
 50
90.0
 72
     5
 11
20.3
 21
-70.7375
  0
ENDBLK
  0
BLOCK
  2
*DIM_0009
 70
    65
 10
0.0
 20
0.0
  0
LINE
  8
寸法
  6
BYBLOCK
 62
     0
 10
8.04634
 20
-72.60973
 11
8.04634
 21
-13.121378
  0
LINE
  8
寸法
  6
BYBLOCK
 62
     0
 10
4.712865
 20
-13.121378
 11
8.04634
 21
-13.121378
  0
POINT
  8
寸法
 62
     0
 10
4.712865
 20
-13.121378
  0
POINT
  8
寸法
 62
     0
 10
8.04634
 20
-13.121378
  0
TEXT
  7
TextStyle03
  8
寸法
  6
CONTINUOUS
 62
     0
 10
9.2625
 20
-16.025
  1
100
 40
3.0
 72
     5
 11
14.1375
 21
-16.025
  0
ENDBLK
  0
BLOCK
  2
*DIM_0010
 70
    65
 10
0.0
 20
0.0
  0
LINE
  8
寸法
  6
BYBLOCK
 62
     0
 10
-81.953945
 20
-72.60973
 11
-81.953945
 21
-13.121378
  0
LINE
  8
寸法
  6
BYBLOCK
 62
     0
 10
-78.62047
 20
-13.121378
 11
-81.953945
 21
-13.121378
  0
POINT
  8
寸法
 62
     0
 10
-78.62047
 20
-13.121378
  0
POINT
  8
寸法
 62
     0
 10
-81.953945
 20
-13.121378
  0
TEXT
  7
TextStyle03
  8
寸法
  6
CONTINUOUS
 62
     0
 10
-88.0625
 20
-16.025
  1
100
 40
3.0
 72
     5
 11
-83.1875
 21
-16.025
  0
ENDBLK
  0
BLOCK
  2
*DIM_0011
 70
    65
 10
0.0
 20
0.0
  0
LINE
  8
寸法
  6
BYBLOCK
 62
     0
 10
103.346892
 20
-51.966888
 11
110.22125
 21
-51.966888
  0
LINE
  8
寸法
  6
BYBLOCK
 62
     0
 10
103.346892
 20
-72.500223
 11
110.22125
 21
-72.500223
  0
LINE
  8
寸法
  6
BYBLOCK
 62
     0
 10
110.22125
 20
-51.966888
 11
110.22125
 21
-72.500223
  0
POINT
  8
寸法
 62
     0
 10
110.22125
 20
-51.966888
  0
POINT
  8
寸法
 62
     0
 10
110.22125
 20
-72.500223
  0
TEXT
  7
TextStyle03
  8
寸法
  6
CONTINUOUS
 62
     0
 10
109.825
 20
-64.6625
  1
616
 40
3.0
 50
90.0
 72
     5
 11
109.825
 21
-59.7875
  0
ENDBLK
  0
BLOCK
  2
*DIM_0012
 70
    65
 10
0.0
 20
0.0
  0
LINE
  8
寸法
  6
BYBLOCK
 62
     0
 10
38.732515
 20
22.814033
 11
38.732515
 21
42.814033
  0
POINT
  8
寸法
 62
     0
 10
38.732515
 20
22.814033
  0
POINT
  8
寸法
 62
     0
 10
38.732515
 20
42.814033
  0
TEXT
  7
TextStyle03
  8
寸法
  6
CONTINUOUS
 62
     0
 10
38.35
 20
21.925
  1
呼称寸法　600
 40
3.0
 50
90.0
 72
     5
 11
38.35
 21
43.675
  0
ENDBLK
  0
BLOCK
  2
*DIM_0013
 70
    65
 10
0.0
 20
0.0
  0
LINE
  8
寸法
  6
BYBLOCK
 62
     0
 10
88.912797
 20
33.814033
 11
88.912797
 21
60.666798
  0
LINE
  8
寸法
  6
BYBLOCK
 62
     0
 10
94.24613
 20
60.666798
 11
88.912797
 21
60.666798
  0
POINT
  8
寸法
 62
     0
 10
94.24613
 20
60.666798
  0
POINT
  8
寸法
 62
     0
 10
88.912797
 20
60.666798
  0
TEXT
  7
TextStyle03
  8
寸法
  6
CONTINUOUS
 62
     0
 10
89.1375
 20
61.025
  1
160
 40
3.0
 72
     5
 11
94.0125
 21
61.025
  0
ENDBLK
  0
BLOCK
  2
*GRP_0014
 70
    65
 10
0.0
 20
0.0
  0
LINE
  8
別途部材
  6
CONTINUOUS
 62
    96
 10
99.329572
 20
44.047688
 11
99.329572
 21
43.947688
  0
LINE
  8
別途部材
  6
CONTINUOUS
 62
    96
 10
97.228492
 20
44.147688
 11
97.298168
 21
45.478492
  0
LINE
  8
別途部材
  6
CONTINUOUS
 62
    96
 10
97.84624
 20
45.487687
 11
97.729572
 21
45.754355
  0
LINE
  8
別途部材
  6
CONTINUOUS
 62
    96
 10
97.74624
 20
45.466772
 11
97.67872
 21
45.621105
  0
LINE
  8
別途部材
  6
CONTINUOUS
 62
    96
 10
97.199397
 20
45.50461
 11
97.329847
 21
45.764812
  0
LINE
  8
別途部材
  6
CONTINUOUS
 62
    96
 10
97.298168
 20
45.478492
 11
97.430328
 21
45.742105
  0
LINE
  8
別途部材
  6
CONTINUOUS
 62
    96
 10
97.465927
 20
45.677223
 11
97.402282
 21
45.600093
  0
LINE
  8
別途部材
  6
DASHDOTX2
 62
    96
 10
97.529573
 20
45.754355
 11
97.216087
 21
45.754355
  0
LINE
  8
別途部材
  6
DASHDOTX2
 62
    96
 10
97.529573
 20
45.754355
 11
97.860032
 21
45.754355
  0
LINE
  8
別途部材
  6
DASHDOTX2
 62
    96
 10
97.529573
 20
45.754355
 11
97.529573
 21
45.490883
  0
LINE
  8
別途部材
  6
DASHDOTX2
 62
    96
 10
97.529573
 20
45.754355
 11
97.529573
 21
46.032665
  0
LINE
  8
別途部材
  6
CONTINUOUS
 62
    96
 10
97.74624
 20
43.947688
 11
97.74624
 21
45.466772
  0
LINE
  8
別途部材
  6
CONTINUOUS
 62
    96
 10
97.84624
 20
44.047688
 11
97.84624
 21
45.487687
  0
LINE
  8
別途部材
  6
CONTINUOUS
 62
    96
 10
95.99516
 20
44.24769
 11
97.133592
 21
44.24769
  0
LINE
  8
別途部材
  6
CONTINUOUS
 62
    96
 10
95.99516
 20
44.147688
 11
95.99516
 21
44.24769
  0
LINE
  8
別途部材
  6
CONTINUOUS
 62
    96
 10
95.99516
 20
44.147688
 11
97.228492
 21
44.147688
  0
CIRCLE
  8
別途部材
  6
CONTINUOUS
 62
    96
 10
97.529573
 20
45.754355
 40
0.1
  0
ARC
  8
別途部材
  6
CONTINUOUS
 62
    96
 10
97.529572
 20
45.754355
 40
0.2
 50
218.780606
 51
537.001556
  0
LINE
  8
別途部材
  6
CONTINUOUS
 62
    96
 10
97.74624
 20
43.947688
 11
99.329572
 21
43.947688
  0
LINE
  8
別途部材
  6
CONTINUOUS
 62
    96
 10
97.84624
 20
44.047688
 11
99.329572
 21
44.047688
  0
LINE
  8
別途部材
  6
CONTINUOUS
 62
    96
 10
97.199397
 20
45.50461
 11
97.133592
 21
44.24769
  0
ENDBLK
  0
BLOCK
  2
*DIM_0015
 70
    65
 10
0.0
 20
0.0
  0
LINE
  8
寸法
  6
BYBLOCK
 62
     0
 10
94.24613
 20
47.4807
 11
94.24613
 21
60.666798
  0
LINE
  8
寸法
  6
BYBLOCK
 62
     0
 10
100.14625
 20
49.147505
 11
100.14625
 21
60.666798
  0
LINE
  8
寸法
  6
BYBLOCK
 62
     0
 10
94.24613
 20
60.666798
 11
100.14625
 21
60.666798
  0
POINT
  8
寸法
 62
     0
 10
94.24613
 20
60.666798
  0
POINT
  8
寸法
 62
     0
 10
100.14625
 20
60.666798
  0
TEXT
  7
TextStyle03
  8
寸法
  6
CONTINUOUS
 62
     0
 10
94.7375
 20
61.025
  1
177
 40
3.0
 72
     5
 11
99.6125
 21
61.025
  0
ENDBLK
  0
BLOCK
  2
*DIM_0016
 70
    65
 10
0.0
 20
0.0
  0
LINE
  8
寸法
  6
BYBLOCK
 62
     0
 10
96.646248
 20
46.147505
 11
38.732515
 21
46.147505
  0
LINE
  8
寸法
  6
BYBLOCK
 62
     0
 10
38.732515
 20
42.814033
 11
38.732515
 21
46.147505
  0
POINT
  8
寸法
 62
     0
 10
38.732515
 20
42.814033
  0
POINT
  8
寸法
 62
     0
 10
38.732515
 20
46.147505
  0
TEXT
  7
TextStyle03
  8
寸法
  6
CONTINUOUS
 62
     0
 10
41.725
 20
46.9625
  1
100
 40
3.0
 50
90.0
 72
     5
 11
41.725
 21
51.8375
  0
ENDBLK
  0
BLOCK
  2
*DIM_0017
 70
    65
 10
0.0
 20
0.0
  0
LINE
  8
寸法
  6
BYBLOCK
 62
     0
 10
96.646248
 20
19.48056
 11
38.732515
 21
19.48056
  0
LINE
  8
寸法
  6
BYBLOCK
 62
     0
 10
38.732515
 20
22.814033
 11
38.732515
 21
19.48056
  0
POINT
  8
寸法
 62
     0
 10
38.732515
 20
22.814033
  0
POINT
  8
寸法
 62
     0
 10
38.732515
 20
19.48056
  0
TEXT
  7
TextStyle03
  8
寸法
  6
CONTINUOUS
 62
     0
 10
41.725
 20
13.7875
  1
100
 40
3.0
 50
90.0
 72
     5
 11
41.725
 21
18.6625
  0
ENDBLK
  0
BLOCK
  2
*GRP_0018
 70
    65
 10
0.0
 20
0.0
  0
LINE
  8
型材断面
  6
DOT
 62
    47
 10
95.436325
 20
45.560835
 11
95.436325
 21
45.574975
  0
LINE
  8
型材断面
  6
DOT
 62
    47
 10
95.436325
 20
45.560835
 11
95.450468
 21
45.560835
  0
LINE
  8
型材断面
  6
DOT
 62
    47
 10
95.89045
 20
45.10671
 11
95.89045
 21
45.12085
  0
LINE
  8
型材断面
  6
DOT
 62
    47
 10
95.89045
 20
45.10671
 11
95.904593
 21
45.10671
  0
LINE
  8
型材断面
  6
DOT
 62
    47
 10
96.192928
 20
44.818373
 11
95.904593
 21
45.10671
  0
LINE
  8
型材断面
  6
DOT
 62
    47
 10
95.89045
 20
45.12085
 11
95.450468
 21
45.560835
  0
LINE
  8
型材断面
  6
DOT
 62
    47
 10
95.436325
 20
45.574975
 11
94.943692
 21
46.067607
  0
LINE
  8
型材断面
  6
DOT
 62
    47
 10
94.943692
 20
46.067607
 11
86.929815
 21
38.05373
  0
LINE
  8
型材断面
  6
DOT
 10
96.192928
 20
44.818373
 11
88.17905
 21
36.804495
  0
LINE
  8
型材断面
  6
DOT
 10
88.22595
 20
36.757595
 11
97.135595
 21
45.66724
  0
LINE
  8
型材断面
  6
DOT
 62
    47
 10
97.135595
 20
45.66724
 11
97.25342
 21
45.549417
  0
LINE
  8
型材断面
  6
DOT
 62
    47
 10
88.343772
 20
36.639773
 11
97.25342
 21
45.549417
  0
LINE
  8
型材断面
  6
DOT
 62
    47
 10
96.192928
 20
44.818373
 11
97.135595
 21
45.66724
  0
LINE
  8
型材断面
  6
DOT
 62
    47
 10
94.752782
 20
45.876695
 11
94.58771
 21
46.041768
  0
LINE
  8
型材断面
  6
DOT
 62
    47
 10
79.422712
 20
29.547222
 11
79.40857
 21
29.547222
  0
LINE
  8
型材断面
  6
DOT
 62
    47
 10
79.422712
 20
29.547222
 11
79.422712
 21
29.53308
  0
LINE
  8
型材断面
  6
DOT
 62
    47
 10
79.876837
 20
29.093097
 11
79.862695
 21
29.093097
  0
LINE
  8
型材断面
  6
DOT
 62
    47
 10
79.876837
 20
29.093097
 11
79.876837
 21
29.078955
  0
LINE
  8
型材断面
  6
DOT
 62
    47
 10
80.165175
 20
28.790618
 11
79.876837
 21
29.078955
  0
LINE
  8
型材断面
  6
DOT
 62
    47
 10
79.862695
 20
29.093097
 11
79.422712
 21
29.53308
  0
LINE
  8
型材断面
  6
DOT
 62
    47
 10
79.40857
 20
29.547222
 11
78.91594
 21
30.039853
  0
LINE
  8
型材断面
  6
DOT
 62
    47
 10
78.91594
 20
30.039853
 11
86.929817
 21
38.05373
  0
LINE
  8
型材断面
  6
DOT
 10
80.165175
 20
28.790618
 11
88.179053
 21
36.804495
  0
LINE
  8
型材断面
  6
DOT
 10
88.22595
 20
36.757597
 11
79.316305
 21
27.84795
  0
LINE
  8
型材断面
  6
DOT
 62
    47
 10
79.316305
 20
27.84795
 11
79.434128
 21
27.730127
  0
LINE
  8
型材断面
  6
DOT
 62
    47
 10
88.343775
 20
36.639773
 11
79.434128
 21
27.730127
  0
LINE
  8
型材断面
  6
DOT
 62
    47
 10
80.165175
 20
28.790618
 11
79.316305
 21
27.84795
  0
LINE
  8
型材断面
  6
DOT
 62
    47
 10
79.10685
 20
30.230765
 11
78.94178
 21
30.395838
  0
LINE
  8
別途部材
  6
DOT
 62
    96
 10
94.307217
 20
47.17549
 11
95.297168
 21
46.751225
  0
LINE
  8
別途部材
  6
DOT
 62
    96
 10
94.307217
 20
47.17549
 11
86.057638
 21
38.92591
  0
LINE
  8
別途部材
  6
DOT
 10
95.297168
 20
46.751225
 11
86.764745
 21
38.218802
  0
LINE
  8
別途部材
  6
DOT
 62
    96
 10
77.808057
 20
30.67633
 11
78.232323
 21
29.68638
  0
LINE
  8
別途部材
  6
DOT
 62
    96
 10
77.808057
 20
30.67633
 11
86.057638
 21
38.92591
  0
LINE
  8
別途部材
  6
DOT
 10
78.232323
 20
29.68638
 11
86.764745
 21
38.218802
  0
ARC
  8
別途部材
  6
DOT
 10
90.801148
 20
34.1824
 40
12.041667
 50
78.855033
 51
191.144967
  0
ENDBLK
  0
BLOCK
  2
*DIM_0019
 70
    65
 10
0.0
 20
0.0
  0
LINE
  8
寸法
  6
BYBLOCK
 62
     0
 10
58.846892
 20
-48.966888
 11
58.846892
 21
-42.412677
  0
LINE
  8
寸法
  6
BYBLOCK
 62
     0
 10
100.346892
 20
-48.966888
 11
100.346892
 21
-42.412677
  0
LINE
  8
寸法
  6
BYBLOCK
 62
     0
 10
58.846892
 20
-42.412677
 11
100.346892
 21
-42.412677
  0
POINT
  8
寸法
 62
     0
 10
58.846892
 20
-42.412677
  0
POINT
  8
寸法
 62
     0
 10
100.346892
 20
-42.412677
  0
TEXT
  7
TextStyle03
  8
寸法
  6
CONTINUOUS
 62
     0
 10
76.29375
 20
-42.05
  1
1245
 40
3.0
 72
     5
 11
82.85625
 21
-42.05
  0
ENDBLK
  0
BLOCK
  2
*DIM_0020
 70
    65
 10
0.0
 20
0.0
  0
LINE
  8
寸法
  6
BYBLOCK
 62
     0
 10
-81.620467
 20
39.4807
 11
-94.913305
 21
39.4807
  0
LINE
  8
寸法
  6
BYBLOCK
 62
     0
 10
-81.620467
 20
26.147365
 11
-94.913305
 21
26.147365
  0
LINE
  8
寸法
  6
BYBLOCK
 62
     0
 10
-94.913305
 20
39.4807
 11
-94.913305
 21
26.147365
  0
POINT
  8
寸法
 62
     0
 10
-94.913305
 20
39.4807
  0
POINT
  8
寸法
 62
     0
 10
-94.913305
 20
26.147365
  0
TEXT
  7
TextStyle03
  8
寸法
  6
CONTINUOUS
 62
     0
 10
-95.35
 20
30.3625
  1
400
 40
3.0
 50
90.0
 72
     5
 11
-95.35
 21
35.2375
  0
ENDBLK
  0
BLOCK
  2
*DIM_0021
 70
    65
 10
0.0
 20
0.0
  0
LINE
  8
寸法
  6
BYBLOCK
 62
     0
 10
-71.953802
 20
45.814033
 11
-71.953802
 21
75.561652
  0
LINE
  8
寸法
  6
BYBLOCK
 62
     0
 10
-48.62047
 20
45.814033
 11
-48.62047
 21
75.561652
  0
LINE
  8
寸法
  6
BYBLOCK
 62
     0
 10
-71.953802
 20
75.561652
 11
-48.62047
 21
75.561652
  0
POINT
  8
寸法
 62
     0
 10
-71.953802
 20
75.561652
  0
POINT
  8
寸法
 62
     0
 10
-48.62047
 20
75.561652
  0
TEXT
  7
TextStyle03
  8
寸法
  6
CONTINUOUS
 62
     0
 10
-62.7375
 20
75.925
  1
700
 40
3.0
 72
     5
 11
-57.8625
 21
75.925
  0
ENDBLK
  0
BLOCK
  2
*DIM_0022
 70
    65
 10
0.0
 20
0.0
  0
LINE
  8
寸法
  6
BYBLOCK
 62
     0
 10
-25.287135
 20
45.814033
 11
-25.287135
 21
75.561652
  0
LINE
  8
寸法
  6
BYBLOCK
 62
     0
 10
-48.62047
 20
75.561652
 11
-25.287135
 21
75.561652
  0
POINT
  8
寸法
 62
     0
 10
-25.287135
 20
75.561652
  0
TEXT
  7
TextStyle03
  8
寸法
  6
CONTINUOUS
 62
     0
 10
-39.4125
 20
75.925
  1
700
 40
3.0
 72
     5
 11
-34.5375
 21
75.925
  0
ENDBLK
  0
BLOCK
  2
*DIM_0023
 70
    65
 10
0.0
 20
0.0
  0
LINE
  8
寸法
  6
BYBLOCK
 62
     0
 10
-1.953802
 20
45.814033
 11
-1.953802
 21
75.561652
  0
LINE
  8
寸法
  6
BYBLOCK
 62
     0
 10
-25.287135
 20
75.561652
 11
-1.953802
 21
75.561652
  0
POINT
  8
寸法
 62
     0
 10
-1.953802
 20
75.561652
  0
TEXT
  7
TextStyle03
  8
寸法
  6
CONTINUOUS
 62
     0
 10
-16.0625
 20
75.925
  1
700
 40
3.0
 72
     5
 11
-11.1875
 21
75.925
  0
ENDBLK
  0
BLOCK
  2
*GRP_0024
 70
    65
 10
0.0
 20
0.0
  0
LINE
  8
ボルト／ビス
  6
CONTINUOUS
 10
-79.287137
 20
-70.209613
 11
-79.287137
 21
-69.742945
  0
LINE
  8
ボルト／ビス
  6
CONTINUOUS
 10
-78.92047
 20
-70.209613
 11
-78.92047
 21
-70.142945
  0
LINE
  8
ボルト／ビス
  6
CONTINUOUS
 10
-78.92047
 20
-70.142945
 11
-79.653805
 21
-70.142945
  0
LINE
  8
ボルト／ビス
  6
CONTINUOUS
 10
-79.653805
 20
-70.142945
 11
-79.653805
 21
-70.209613
  0
LINE
  8
ボルト／ビス
  6
CONTINUOUS
 10
-78.92047
 20
-70.209613
 11
-79.653805
 21
-70.209613
  0
LINE
  8
ボルト／ビス
  6
CONTINUOUS
 10
-78.987137
 20
-70.109612
 11
-78.987137
 21
-70.142945
  0
LINE
  8
ボルト／ビス
  6
CONTINUOUS
 10
-78.987137
 20
-70.109612
 11
-79.587137
 21
-70.109612
  0
LINE
  8
ボルト／ビス
  6
CONTINUOUS
 10
-79.587137
 20
-70.109612
 11
-79.587137
 21
-70.142945
  0
LINE
  8
ボルト／ビス
  6
CONTINUOUS
 62
    64
 10
-79.126763
 20
-69.909613
 11
-79.094687
 21
-69.921288
  0
ARC
  8
ボルト／ビス
  6
CONTINUOUS
 62
    64
 10
-79.142799
 20
-70.014591
 40
0.104978
 50
90.0
 51
117.278033
  0
ARC
  8
ボルト／ビス
  6
CONTINUOUS
 62
    64
 10
-79.287137
 20
-70.312015
 40
0.402402
 50
76.165015
 51
103.834998
  0
LINE
  8
ボルト／ビス
  6
CONTINUOUS
 62
    64
 10
-79.447512
 20
-69.909613
 11
-79.479587
 21
-69.921288
  0
ARC
  8
ボルト／ビス
  6
CONTINUOUS
 62
    64
 10
-79.431474
 20
-70.014591
 40
0.104978
 50
62.721967
 51
90.0
  0
LINE
  8
ボルト／ビス
  6
CONTINUOUS
 62
    64
 10
-79.126763
 20
-69.909613
 11
-79.447512
 21
-69.909613
  0
LINE
  8
ボルト／ビス
  6
CONTINUOUS
 62
    64
 10
-79.479587
 20
-69.921288
 11
-79.479587
 21
-70.042945
  0
LINE
  8
ボルト／ビス
  6
CONTINUOUS
 62
    64
 10
-79.383363
 20
-69.921288
 11
-79.383363
 21
-70.042945
  0
LINE
  8
ボルト／ビス
  6
CONTINUOUS
 62
    64
 10
-79.094687
 20
-69.921288
 11
-79.094687
 21
-70.042945
  0
LINE
  8
ボルト／ビス
  6
CONTINUOUS
 62
    64
 10
-79.190913
 20
-69.921288
 11
-79.190913
 21
-70.042945
  0
LINE
  8
ボルト／ビス
  6
CONTINUOUS
 10
-79.094687
 20
-70.042945
 11
-79.479587
 21
-70.042945
  0
LINE
  8
ボルト／ビス
  6
CONTINUOUS
 10
-79.087137
 20
-70.042945
 11
-79.087137
 21
-70.109612
  0
LINE
  8
ボルト／ビス
  6
CONTINUOUS
 10
-79.087137
 20
-70.042945
 11
-79.487137
 21
-70.042945
  0
LINE
  8
ボルト／ビス
  6
CONTINUOUS
 10
-79.487137
 20
-70.042945
 11
-79.487137
 21
-70.109612
  0
ENDBLK
  0
BLOCK
  2
*GRP_0025
 70
    65
 10
0.0
 20
0.0
  0
LINE
  8
ボルト／ビス
  6
CONTINUOUS
 10
5.379532
 20
-70.209613
 11
5.379532
 21
-69.742945
  0
LINE
  8
ボルト／ビス
  6
CONTINUOUS
 10
5.7462
 20
-70.209613
 11
5.7462
 21
-70.142945
  0
LINE
  8
ボルト／ビス
  6
CONTINUOUS
 10
5.7462
 20
-70.142945
 11
5.012865
 21
-70.142945
  0
LINE
  8
ボルト／ビス
  6
CONTINUOUS
 10
5.012865
 20
-70.142945
 11
5.012865
 21
-70.209613
  0
LINE
  8
ボルト／ビス
  6
CONTINUOUS
 10
5.7462
 20
-70.209613
 11
5.012865
 21
-70.209613
  0
LINE
  8
ボルト／ビス
  6
CONTINUOUS
 10
5.679532
 20
-70.109612
 11
5.679532
 21
-70.142945
  0
LINE
  8
ボルト／ビス
  6
CONTINUOUS
 10
5.679532
 20
-70.109612
 11
5.079532
 21
-70.109612
  0
LINE
  8
ボルト／ビス
  6
CONTINUOUS
 10
5.079532
 20
-70.109612
 11
5.079532
 21
-70.142945
  0
LINE
  8
ボルト／ビス
  6
CONTINUOUS
 62
    64
 10
5.539907
 20
-69.909613
 11
5.571983
 21
-69.921288
  0
ARC
  8
ボルト／ビス
  6
CONTINUOUS
 62
    64
 10
5.523871
 20
-70.014591
 40
0.104978
 50
90.0
 51
117.278033
  0
ARC
  8
ボルト／ビス
  6
CONTINUOUS
 62
    64
 10
5.379533
 20
-70.312015
 40
0.402402
 50
76.165015
 51
103.834998
  0
LINE
  8
ボルト／ビス
  6
CONTINUOUS
 62
    64
 10
5.219158
 20
-69.909613
 11
5.187082
 21
-69.921288
  0
ARC
  8
ボルト／ビス
  6
CONTINUOUS
 62
    64
 10
5.235196
 20
-70.014591
 40
0.104978
 50
62.721967
 51
90.0
  0
LINE
  8
ボルト／ビス
  6
CONTINUOUS
 62
    64
 10
5.539907
 20
-69.909613
 11
5.219158
 21
-69.909613
  0
LINE
  8
ボルト／ビス
  6
CONTINUOUS
 62
    64
 10
5.187082
 20
-69.921288
 11
5.187082
 21
-70.042945
  0
LINE
  8
ボルト／ビス
  6
CONTINUOUS
 62
    64
 10
5.283308
 20
-69.921288
 11
5.283308
 21
-70.042945
  0
LINE
  8
ボルト／ビス
  6
CONTINUOUS
 62
    64
 10
5.571983
 20
-69.921288
 11
5.571983
 21
-70.042945
  0
LINE
  8
ボルト／ビス
  6
CONTINUOUS
 62
    64
 10
5.475757
 20
-69.921288
 11
5.475757
 21
-70.042945
  0
LINE
  8
ボルト／ビス
  6
CONTINUOUS
 10
5.571983
 20
-70.042945
 11
5.187082
 21
-70.042945
  0
LINE
  8
ボルト／ビス
  6
CONTINUOUS
 10
5.579532
 20
-70.042945
 11
5.579532
 21
-70.109612
  0
LINE
  8
ボルト／ビス
  6
CONTINUOUS
 10
5.579532
 20
-70.042945
 11
5.179532
 21
-70.042945
  0
LINE
  8
ボルト／ビス
  6
CONTINUOUS
 10
5.179532
 20
-70.042945
 11
5.179532
 21
-70.109612
  0
ENDBLK
  0
BLOCK
  2
*GRP_0026
 70
    65
 10
0.0
 20
0.0
  0
LINE
  8
ボルト／ビス
  6
CONTINUOUS
 10
94.24613
 20
22.147365
 11
93.779463
 21
22.147365
  0
LINE
  8
ボルト／ビス
  6
CONTINUOUS
 10
94.24613
 20
22.514033
 11
94.179463
 21
22.514033
  0
LINE
  8
ボルト／ビス
  6
CONTINUOUS
 10
94.179463
 20
22.514033
 11
94.179463
 21
21.780697
  0
LINE
  8
ボルト／ビス
  6
CONTINUOUS
 10
94.179463
 20
21.780697
 11
94.24613
 21
21.780697
  0
LINE
  8
ボルト／ビス
  6
CONTINUOUS
 10
94.24613
 20
22.514033
 11
94.24613
 21
21.780697
  0
LINE
  8
ボルト／ビス
  6
CONTINUOUS
 10
94.14613
 20
22.447365
 11
94.179463
 21
22.447365
  0
LINE
  8
ボルト／ビス
  6
CONTINUOUS
 10
94.14613
 20
22.447365
 11
94.14613
 21
21.847365
  0
LINE
  8
ボルト／ビス
  6
CONTINUOUS
 10
94.14613
 20
21.847365
 11
94.179463
 21
21.847365
  0
LINE
  8
ボルト／ビス
  6
CONTINUOUS
 62
    64
 10
93.94613
 20
22.30774
 11
93.957805
 21
22.339815
  0
ARC
  8
ボルト／ビス
  6
CONTINUOUS
 62
    64
 10
94.051109
 20
22.291702
 40
0.104978
 50
180.0
 51
207.278033
  0
ARC
  8
ボルト／ビス
  6
CONTINUOUS
 62
    64
 10
94.348533
 20
22.147364
 40
0.402402
 50
166.165015
 51
193.834998
  0
LINE
  8
ボルト／ビス
  6
CONTINUOUS
 62
    64
 10
93.94613
 20
21.98699
 11
93.957805
 21
21.954915
  0
ARC
  8
ボルト／ビス
  6
CONTINUOUS
 62
    64
 10
94.051109
 20
22.003027
 40
0.104978
 50
152.721967
 51
180.0
  0
LINE
  8
ボルト／ビス
  6
CONTINUOUS
 62
    64
 10
93.94613
 20
22.30774
 11
93.94613
 21
21.98699
  0
LINE
  8
ボルト／ビス
  6
CONTINUOUS
 62
    64
 10
93.957805
 20
21.954915
 11
94.079463
 21
21.954915
  0
LINE
  8
ボルト／ビス
  6
CONTINUOUS
 62
    64
 10
93.957805
 20
22.05114
 11
94.079463
 21
22.05114
  0
LINE
  8
ボルト／ビス
  6
CONTINUOUS
 62
    64
 10
93.957805
 20
22.339815
 11
94.079463
 21
22.339815
  0
LINE
  8
ボルト／ビス
  6
CONTINUOUS
 62
    64
 10
93.957805
 20
22.24359
 11
94.079463
 21
22.24359
  0
LINE
  8
ボルト／ビス
  6
CONTINUOUS
 10
94.079463
 20
22.339815
 11
94.079463
 21
21.954915
  0
LINE
  8
ボルト／ビス
  6
CONTINUOUS
 10
94.079463
 20
22.347365
 11
94.14613
 21
22.347365
  0
LINE
  8
ボルト／ビス
  6
CONTINUOUS
 10
94.079463
 20
22.347365
 11
94.079463
 21
21.947365
  0
LINE
  8
ボルト／ビス
  6
CONTINUOUS
 10
94.079463
 20
21.947365
 11
94.14613
 21
21.947365
  0
ENDBLK
  0
BLOCK
  2
*GRP_0027
 70
    65
 10
0.0
 20
0.0
  0
LINE
  8
ボルト／ビス
  6
CONTINUOUS
 10
94.24613
 20
43.4807
 11
93.779463
 21
43.4807
  0
LINE
  8
ボルト／ビス
  6
CONTINUOUS
 10
94.24613
 20
43.847367
 11
94.179463
 21
43.847367
  0
LINE
  8
ボルト／ビス
  6
CONTINUOUS
 10
94.179463
 20
43.847367
 11
94.179463
 21
43.114033
  0
LINE
  8
ボルト／ビス
  6
CONTINUOUS
 10
94.179463
 20
43.114033
 11
94.24613
 21
43.114033
  0
LINE
  8
ボルト／ビス
  6
CONTINUOUS
 10
94.24613
 20
43.847367
 11
94.24613
 21
43.114033
  0
LINE
  8
ボルト／ビス
  6
CONTINUOUS
 10
94.14613
 20
43.7807
 11
94.179463
 21
43.7807
  0
LINE
  8
ボルト／ビス
  6
CONTINUOUS
 10
94.14613
 20
43.7807
 11
94.14613
 21
43.1807
  0
LINE
  8
ボルト／ビス
  6
CONTINUOUS
 10
94.14613
 20
43.1807
 11
94.179463
 21
43.1807
  0
LINE
  8
ボルト／ビス
  6
CONTINUOUS
 62
    64
 10
93.94613
 20
43.641075
 11
93.957805
 21
43.67315
  0
ARC
  8
ボルト／ビス
  6
CONTINUOUS
 62
    64
 10
94.051109
 20
43.625037
 40
0.104978
 50
180.0
 51
207.278033
  0
ARC
  8
ボルト／ビス
  6
CONTINUOUS
 62
    64
 10
94.348533
 20
43.480699
 40
0.402402
 50
166.165015
 51
193.834998
  0
LINE
  8
ボルト／ビス
  6
CONTINUOUS
 62
    64
 10
93.94613
 20
43.320325
 11
93.957805
 21
43.28825
  0
ARC
  8
ボルト／ビス
  6
CONTINUOUS
 62
    64
 10
94.051109
 20
43.336362
 40
0.104978
 50
152.721967
 51
180.0
  0
LINE
  8
ボルト／ビス
  6
CONTINUOUS
 62
    64
 10
93.94613
 20
43.641075
 11
93.94613
 21
43.320325
  0
LINE
  8
ボルト／ビス
  6
CONTINUOUS
 62
    64
 10
93.957805
 20
43.28825
 11
94.079463
 21
43.28825
  0
LINE
  8
ボルト／ビス
  6
CONTINUOUS
 62
    64
 10
93.957805
 20
43.384475
 11
94.079463
 21
43.384475
  0
LINE
  8
ボルト／ビス
  6
CONTINUOUS
 62
    64
 10
93.957805
 20
43.67315
 11
94.079463
 21
43.67315
  0
LINE
  8
ボルト／ビス
  6
CONTINUOUS
 62
    64
 10
93.957805
 20
43.576925
 11
94.079463
 21
43.576925
  0
LINE
  8
ボルト／ビス
  6
CONTINUOUS
 10
94.079463
 20
43.67315
 11
94.079463
 21
43.28825
  0
LINE
  8
ボルト／ビス
  6
CONTINUOUS
 10
94.079463
 20
43.6807
 11
94.14613
 21
43.6807
  0
LINE
  8
ボルト／ビス
  6
CONTINUOUS
 10
94.079463
 20
43.6807
 11
94.079463
 21
43.2807
  0
LINE
  8
ボルト／ビス
  6
CONTINUOUS
 10
94.079463
 20
43.2807
 11
94.14613
 21
43.2807
  0
ENDBLK
  0
BLOCK
  2
*GRP_0028
 70
    65
 10
0.0
 20
0.0
  0
LINE
  8
ボルト／ビス
  6
DOT
 10
93.600113
 20
46.468383
 11
93.27013
 21
46.798367
  0
LINE
  8
ボルト／ビス
  6
DOT
 10
93.859388
 20
46.727655
 11
93.812245
 21
46.774798
  0
LINE
  8
ボルト／ビス
  6
DOT
 10
93.812245
 20
46.774798
 11
93.2937
 21
46.25625
  0
LINE
  8
ボルト／ビス
  6
DOT
 10
93.2937
 20
46.25625
 11
93.34084
 21
46.20911
  0
LINE
  8
ボルト／ビス
  6
DOT
 10
93.859388
 20
46.727655
 11
93.34084
 21
46.20911
  0
LINE
  8
ボルト／ビス
  6
DOT
 10
93.741535
 20
46.751225
 11
93.765105
 21
46.727655
  0
LINE
  8
ボルト／ビス
  6
DOT
 10
93.741535
 20
46.751225
 11
93.31727
 21
46.326963
  0
LINE
  8
ボルト／ビス
  6
DOT
 10
93.31727
 20
46.326963
 11
93.34084
 21
46.303392
  0
LINE
  8
ボルト／ビス
  6
DOT
 62
    64
 10
93.501383
 20
46.793917
 11
93.53232
 21
46.808343
  0
ARC
  8
ボルト／ビス
  6
DOT
 62
    64
 10
93.564274
 20
46.708344
 40
0.104978
 50
135.0
 51
162.278033
  0
ARC
  8
ボルト／ビス
  6
DOT
 62
    64
 10
93.672522
 20
46.395971
 40
0.402402
 50
121.165015
 51
148.834998
  0
LINE
  8
ボルト／ビス
  6
DOT
 62
    64
 10
93.27458
 20
46.567113
 11
93.260155
 21
46.536177
  0
ARC
  8
ボルト／ビス
  6
DOT
 62
    64
 10
93.36015
 20
46.50422
 40
0.104978
 50
107.721967
 51
135.0
  0
LINE
  8
ボルト／ビス
  6
DOT
 62
    64
 10
93.501383
 20
46.793917
 11
93.27458
 21
46.567113
  0
LINE
  8
ボルト／ビス
  6
DOT
 62
    64
 10
93.260155
 20
46.536177
 11
93.34618
 21
46.450152
  0
LINE
  8
ボルト／ビス
  6
DOT
 62
    64
 10
93.328195
 20
46.604218
 11
93.41422
 21
46.518193
  0
LINE
  8
ボルト／ビス
  6
DOT
 62
    64
 10
93.53232
 20
46.808343
 11
93.618345
 21
46.722317
  0
LINE
  8
ボルト／ビス
  6
DOT
 62
    64
 10
93.464278
 20
46.7403
 11
93.550303
 21
46.654275
  0
LINE
  8
ボルト／ビス
  6
DOT
 10
93.618345
 20
46.722317
 11
93.34618
 21
46.450152
  0
LINE
  8
ボルト／ビス
  6
DOT
 10
93.623683
 20
46.727655
 11
93.670825
 21
46.680515
  0
LINE
  8
ボルト／ビス
  6
DOT
 10
93.623683
 20
46.727655
 11
93.34084
 21
46.444813
  0
LINE
  8
ボルト／ビス
  6
DOT
 10
93.34084
 20
46.444813
 11
93.38798
 21
46.397673
  0
ENDBLK
  0
BLOCK
  2
*GRP_0029
 70
    65
 10
0.0
 20
0.0
  0
LINE
  8
ボルト／ビス
  6
DOT
 10
78.515163
 20
31.383438
 11
78.18518
 21
31.713422
  0
LINE
  8
ボルト／ビス
  6
DOT
 10
78.774438
 20
31.64271
 11
78.727295
 21
31.689853
  0
LINE
  8
ボルト／ビス
  6
DOT
 10
78.727295
 20
31.689853
 11
78.20875
 21
31.171305
  0
LINE
  8
ボルト／ビス
  6
DOT
 10
78.20875
 20
31.171305
 11
78.25589
 21
31.124165
  0
LINE
  8
ボルト／ビス
  6
DOT
 10
78.774438
 20
31.64271
 11
78.25589
 21
31.124165
  0
LINE
  8
ボルト／ビス
  6
DOT
 10
78.656585
 20
31.66628
 11
78.680155
 21
31.64271
  0
LINE
  8
ボルト／ビス
  6
DOT
 10
78.656585
 20
31.66628
 11
78.23232
 21
31.242017
  0
LINE
  8
ボルト／ビス
  6
DOT
 10
78.23232
 20
31.242017
 11
78.25589
 21
31.218448
  0
LINE
  8
ボルト／ビス
  6
DOT
 62
    64
 10
78.416432
 20
31.708972
 11
78.44737
 21
31.723397
  0
ARC
  8
ボルト／ビス
  6
DOT
 62
    64
 10
78.479325
 20
31.623398
 40
0.104978
 50
135.0
 51
162.278033
  0
ARC
  8
ボルト／ビス
  6
DOT
 62
    64
 10
78.587573
 20
31.311026
 40
0.402402
 50
121.165015
 51
148.834998
  0
LINE
  8
ボルト／ビス
  6
DOT
 62
    64
 10
78.18963
 20
31.482167
 11
78.175205
 21
31.451232
  0
ARC
  8
ボルト／ビス
  6
DOT
 62
    64
 10
78.2752
 20
31.419274
 40
0.104978
 50
107.721967
 51
135.0
  0
LINE
  8
ボルト／ビス
  6
DOT
 62
    64
 10
78.416432
 20
31.708972
 11
78.18963
 21
31.482167
  0
LINE
  8
ボルト／ビス
  6
DOT
 62
    64
 10
78.175205
 20
31.451232
 11
78.26123
 21
31.365207
  0
LINE
  8
ボルト／ビス
  6
DOT
 62
    64
 10
78.243245
 20
31.519273
 11
78.32927
 21
31.433247
  0
LINE
  8
ボルト／ビス
  6
DOT
 62
    64
 10
78.44737
 20
31.723397
 11
78.533395
 21
31.637372
  0
LINE
  8
ボルト／ビス
  6
DOT
 62
    64
 10
78.379328
 20
31.655355
 11
78.465352
 21
31.56933
  0
LINE
  8
ボルト／ビス
  6
DOT
 10
78.533395
 20
31.637372
 11
78.26123
 21
31.365207
  0
LINE
  8
ボルト／ビス
  6
DOT
 10
78.538732
 20
31.64271
 11
78.585875
 21
31.59557
  0
LINE
  8
ボルト／ビス
  6
DOT
 10
78.538732
 20
31.64271
 11
78.25589
 21
31.359867
  0
LINE
  8
ボルト／ビス
  6
DOT
 10
78.25589
 20
31.359867
 11
78.30303
 21
31.312728
  0
ENDBLK
  0
ENDSEC
  0
SECTION
  2
ENTITIES
  0
POLYLINE
  8
通り芯
  6
CONTINUOUS
 66
     1
 70
     1
  0
VERTEX
  8
通り芯
 10
-210.0
 20
-148.5
  0
VERTEX
  8
通り芯
 10
210.0
 20
-148.5
  0
VERTEX
  8
通り芯
 10
210.0
 20
148.5
  0
VERTEX
  8
通り芯
 10
-210.0
 20
148.5
  0
SEQEND
  0
INSERT
  2
*GRP_0001
  8
型材断面
  6
CONTINUOUS
 10
0.0
 20
0.0
  0
LINE
  8
型材断面
  6
DASHDOT
 10
4.712865
 20
-77.836442
 11
4.712865
 21
42.814033
  0
LINE
  8
型材断面
  6
DASHDOT
 10
-36.953802
 20
-77.836442
 11
-36.953802
 21
42.814033
  0
LINE
  8
型材断面
  6
DASHDOT
 10
-78.620467
 20
-77.836442
 11
-78.620467
 21
42.814033
  0
LINE
  8
型材断面
  6
DASHDOT
 10
102.389627
 20
42.814033
 11
-78.620467
 21
42.814033
  0
LINE
  8
型材断面
  6
DASHDOT
 10
102.389627
 20
32.814033
 11
-78.620467
 21
32.814033
  0
LINE
  8
型材断面
  6
DASHDOT
 10
102.389627
 20
22.814033
 11
-78.620467
 21
22.814033
  0
LINE
  8
型材断面
  6
DOT
 10
-35.703802
 20
22.814033
 11
-35.703802
 21
42.814033
  0
LINE
  8
型材断面
  6
DASHDOT
 10
-36.953802
 20
22.814033
 11
-36.953802
 21
42.814033
  0
LINE
  8
型材断面
  6
DOT
 10
-38.203802
 20
22.814033
 11
-38.203802
 21
42.814033
  0
LINE
  8
型材断面
  6
CONTINUOUS
 10
-61.9538
 20
45.444162
 11
-63.44943
 21
48.03467
  0
LINE
  8
型材断面
  6
CONTINUOUS
 10
-61.9538
 20
45.444162
 11
-60.45817
 21
48.03467
  0
LINE
  8
型材断面
  6
CONTINUOUS
 10
-60.45817
 20
48.03467
 11
-63.44943
 21
48.03467
  0
LINE
  8
型材断面
  6
CONTINUOUS
 10
-119.472675
 20
80.791505
 11
-118.87662
 21
78.200998
  0
LINE
  8
型材断面
  6
CONTINUOUS
 10
-119.472675
 20
80.791505
 11
-120.068732
 21
78.200998
  0
LINE
  8
型材断面
  6
CONTINUOUS
 10
-120.068732
 20
78.200998
 11
-118.87662
 21
78.200998
  0
LINE
  8
型材断面
  6
CONTINUOUS
 10
-125.495263
 20
74.922105
 11
-79.253485
 21
74.922105
  0
LINE
  8
型材断面
  6
CONTINUOUS
 10
-119.472675
 20
87.32138
 11
-120.968305
 21
84.730873
  0
LINE
  8
型材断面
  6
CONTINUOUS
 10
-119.472675
 20
87.32138
 11
-117.977045
 21
84.730873
  0
LINE
  8
型材断面
  6
CONTINUOUS
 10
-117.977045
 20
84.730873
 11
-120.968305
 21
84.730873
  0
LINE
  8
型材断面
  6
CONTINUOUS
 10
-125.495263
 20
83.792277
 11
-79.253485
 21
83.792277
  0
LINE
  8
型材断面
  6
CONTINUOUS
 10
-125.495263
 20
69.134073
 11
-79.253485
 21
69.134073
  0
LINE
  8
型材断面
  6
CONTINUOUS
 10
-81.250597
 20
32.814033
 11
-83.841105
 21
34.309663
  0
LINE
  8
型材断面
  6
CONTINUOUS
 10
-81.250597
 20
32.814033
 11
-83.841105
 21
31.318403
  0
LINE
  8
型材断面
  6
CONTINUOUS
 10
-83.841105
 20
31.318403
 11
-83.841105
 21
34.309663
  0
LINE
  8
型材断面
  6
CONTINUOUS
 10
-61.9538
 20
20.183902
 11
-63.44943
 21
17.593395
  0
LINE
  8
型材断面
  6
CONTINUOUS
 10
-61.9538
 20
20.183902
 11
-60.45817
 21
17.593395
  0
LINE
  8
型材断面
  6
CONTINUOUS
 10
-60.45817
 20
17.593395
 11
-63.44943
 21
17.593395
  0
LINE
  8
型材断面
  6
CONTINUOUS
 10
-11.953805
 20
45.444162
 11
-10.458175
 21
48.03467
  0
LINE
  8
型材断面
  6
CONTINUOUS
 10
-11.953805
 20
45.444162
 11
-13.449435
 21
48.03467
  0
LINE
  8
型材断面
  6
CONTINUOUS
 10
-13.449435
 20
48.03467
 11
-10.458175
 21
48.03467
  0
LINE
  8
型材断面
  6
CONTINUOUS
 10
7.342993
 20
32.814033
 11
9.9335
 21
34.309663
  0
LINE
  8
型材断面
  6
CONTINUOUS
 10
7.342993
 20
32.814033
 11
9.9335
 21
31.318403
  0
LINE
  8
型材断面
  6
CONTINUOUS
 10
9.9335
 20
31.318403
 11
9.9335
 21
34.309663
  0
LINE
  8
型材断面
  6
CONTINUOUS
 10
-11.953805
 20
20.183902
 11
-10.458175
 21
17.593395
  0
LINE
  8
型材断面
  6
CONTINUOUS
 10
-11.953805
 20
20.183902
 11
-13.449435
 21
17.593395
  0
LINE
  8
型材断面
  6
CONTINUOUS
 10
-13.449435
 20
17.593395
 11
-10.458175
 21
17.593395
  0
POLYLINE
  8
型材断面
  6
DASHDOT
 66
     1
  0
VERTEX
  8
型材断面
 10
-78.620467
 20
22.814033
  0
VERTEX
  8
型材断面
 10
-36.953802
 20
42.814033
  0
VERTEX
  8
型材断面
 10
4.712865
 20
22.814033
  0
SEQEND
  0
LINE
  8
型材断面
  6
CONTINUOUS
 10
2.712865
 20
20.20722
 11
2.116807
 21
17.616715
  0
LINE
  8
型材断面
  6
CONTINUOUS
 10
2.712865
 20
20.20722
 11
3.308922
 21
17.616715
  0
LINE
  8
型材断面
  6
CONTINUOUS
 10
3.308922
 20
17.616715
 11
2.116807
 21
17.616715
  0
LINE
  8
型材断面
  6
CONTINUOUS
 10
-76.62047
 20
20.20722
 11
-76.024413
 21
17.616715
  0
LINE
  8
型材断面
  6
CONTINUOUS
 10
-76.62047
 20
20.20722
 11
-77.216528
 21
17.616715
  0
LINE
  8
型材断面
  6
CONTINUOUS
 10
-77.216528
 20
17.616715
 11
-76.024413
 21
17.616715
  0
LINE
  8
型材断面
  6
CONTINUOUS
 62
    47
 10
6.0362
 20
-72.149745
 11
6.0462
 21
-72.139745
  0
LINE
  8
型材断面
  6
CONTINUOUS
 62
    47
 10
6.0362
 20
-72.149745
 11
6.0462
 21
-72.159745
  0
LINE
  8
型材断面
  6
CONTINUOUS
 62
    47
 10
6.0362
 20
-72.791975
 11
6.0462
 21
-72.781975
  0
LINE
  8
型材断面
  6
CONTINUOUS
 62
    47
 10
6.0362
 20
-72.791975
 11
6.0462
 21
-72.801975
  0
LINE
  8
型材断面
  6
CONTINUOUS
 62
    47
 10
6.0462
 20
-73.209745
 11
6.0462
 21
-72.801975
  0
LINE
  8
型材断面
  6
CONTINUOUS
 62
    47
 10
6.0462
 20
-72.781975
 11
6.0462
 21
-72.159745
  0
LINE
  8
型材断面
  6
CONTINUOUS
 62
    47
 10
6.0462
 20
-72.139745
 11
6.0462
 21
-71.44306
  0
LINE
  8
型材断面
  6
CONTINUOUS
 62
    47
 10
7.313007
 20
-73.27607
 11
7.313007
 21
-73.442698
  0
LINE
  8
型材断面
  6
CONTINUOUS
 62
    47
 10
5.83634
 20
-74.343075
 11
5.84634
 21
-74.333075
  0
LINE
  8
型材断面
  6
CONTINUOUS
 62
    47
 10
5.83634
 20
-74.343075
 11
5.84634
 21
-74.353075
  0
LINE
  8
型材断面
  6
CONTINUOUS
 62
    47
 10
5.83634
 20
-74.809747
 11
5.84634
 21
-74.799748
  0
LINE
  8
型材断面
  6
CONTINUOUS
 62
    47
 10
5.83634
 20
-74.809747
 11
5.84634
 21
-74.819747
  0
LINE
  8
型材断面
  6
CONTINUOUS
 62
    47
 10
5.84634
 20
-73.709723
 11
5.84634
 21
-74.333075
  0
LINE
  8
型材断面
  6
CONTINUOUS
 62
    47
 10
5.84634
 20
-74.353075
 11
5.84634
 21
-74.799748
  0
LINE
  8
型材断面
  6
CONTINUOUS
 62
    47
 10
8.04634
 20
-75.60973
 11
8.04634
 21
-76.109732
  0
LINE
  8
型材断面
  6
CONTINUOUS
 62
    47
 10
7.546348
 20
-76.443065
 11
7.546348
 21
-76.109732
  0
LINE
  8
型材断面
  6
CONTINUOUS
 62
    47
 10
8.04634
 20
-75.60973
 11
5.84634
 21
-75.443065
  0
LINE
  8
型材断面
  6
CONTINUOUS
 62
    47
 10
5.112865
 20
-75.443065
 11
5.779673
 21
-75.443065
  0
LINE
  8
型材断面
  6
CONTINUOUS
 62
    47
 10
5.83634
 20
-75.343065
 11
5.84634
 21
-75.333065
  0
LINE
  8
型材断面
  6
CONTINUOUS
 62
    47
 10
5.83634
 20
-75.343065
 11
5.84634
 21
-75.353065
  0
LINE
  8
型材断面
  6
CONTINUOUS
 62
    47
 10
5.84634
 20
-75.443065
 11
5.84634
 21
-75.353065
  0
LINE
  8
型材断面
  6
CONTINUOUS
 62
    47
 10
5.84634
 20
-74.819747
 11
5.84634
 21
-75.333065
  0
LINE
  8
型材断面
  6
CONTINUOUS
 62
    47
 10
7.313005
 20
-73.709723
 11
7.313005
 21
-73.576405
  0
LINE
  8
型材断面
  6
CONTINUOUS
 62
    47
 10
6.0462
 20
-73.209745
 11
7.313007
 21
-73.27607
  0
LINE
  8
型材断面
  6
CONTINUOUS
 62
    47
 10
5.77621
 20
-71.44306
 11
5.77621
 21
-71.209613
  0
LINE
  8
型材断面
  6
CONTINUOUS
 62
    47
 10
8.04634
 20
-76.109732
 11
-36.953802
 21
-76.109732
  0
LINE
  8
型材断面
  6
CONTINUOUS
 62
    47
 10
7.546348
 20
-76.443065
 11
-36.953802
 21
-76.443065
  0
LINE
  8
型材断面
  6
CONTINUOUS
 10
5.84634
 20
-75.443065
 11
-36.953802
 21
-75.443065
  0
LINE
  8
型材断面
  6
CONTINUOUS
 10
8.04634
 20
-75.60973
 11
-36.953802
 21
-75.60973
  0
LINE
  8
型材断面
  6
CONTINUOUS
 10
6.0462
 20
-73.209745
 11
-36.953802
 21
-73.209745
  0
LINE
  8
型材断面
  6
CONTINUOUS
 62
    47
 10
7.313007
 20
-73.442698
 11
-36.953802
 21
-73.442698
  0
LINE
  8
型材断面
  6
CONTINUOUS
 10
7.313007
 20
-73.27607
 11
-36.953802
 21
-73.27607
  0
LINE
  8
型材断面
  6
CONTINUOUS
 62
    47
 10
7.313005
 20
-73.576405
 11
-36.953802
 21
-73.576405
  0
LINE
  8
型材断面
  6
CONTINUOUS
 62
    47
 10
7.313005
 20
-73.709723
 11
-36.953802
 21
-73.709723
  0
LINE
  8
型材断面
  6
CONTINUOUS
 62
    47
 10
6.0462
 20
-71.44306
 11
-36.953802
 21
-71.44306
  0
LINE
  8
型材断面
  6
CONTINUOUS
 62
    47
 10
-79.943805
 20
-72.149745
 11
-79.953805
 21
-72.139745
  0
LINE
  8
型材断面
  6
CONTINUOUS
 62
    47
 10
-79.943805
 20
-72.149745
 11
-79.953805
 21
-72.159745
  0
LINE
  8
型材断面
  6
CONTINUOUS
 62
    47
 10
-79.943805
 20
-72.791975
 11
-79.953805
 21
-72.781975
  0
LINE
  8
型材断面
  6
CONTINUOUS
 62
    47
 10
-79.943805
 20
-72.791975
 11
-79.953805
 21
-72.801975
  0
LINE
  8
型材断面
  6
CONTINUOUS
 62
    47
 10
-79.953805
 20
-73.209745
 11
-79.953805
 21
-72.801975
  0
LINE
  8
型材断面
  6
CONTINUOUS
 62
    47
 10
-79.953805
 20
-72.781975
 11
-79.953805
 21
-72.159745
  0
LINE
  8
型材断面
  6
CONTINUOUS
 62
    47
 10
-79.953805
 20
-72.139745
 11
-79.953805
 21
-71.44306
  0
LINE
  8
型材断面
  6
CONTINUOUS
 62
    47
 10
-81.220612
 20
-73.27607
 11
-81.220612
 21
-73.442698
  0
LINE
  8
型材断面
  6
CONTINUOUS
 62
    47
 10
-79.743945
 20
-74.343075
 11
-79.753945
 21
-74.333075
  0
LINE
  8
型材断面
  6
CONTINUOUS
 62
    47
 10
-79.743945
 20
-74.343075
 11
-79.753945
 21
-74.353075
  0
LINE
  8
型材断面
  6
CONTINUOUS
 62
    47
 10
-79.743945
 20
-74.809747
 11
-79.753945
 21
-74.799748
  0
LINE
  8
型材断面
  6
CONTINUOUS
 62
    47
 10
-79.743945
 20
-74.809747
 11
-79.753945
 21
-74.819747
  0
LINE
  8
型材断面
  6
CONTINUOUS
 62
    47
 10
-79.753945
 20
-73.709723
 11
-79.753945
 21
-74.333075
  0
LINE
  8
型材断面
  6
CONTINUOUS
 62
    47
 10
-79.753945
 20
-74.353075
 11
-79.753945
 21
-74.799748
  0
LINE
  8
型材断面
  6
CONTINUOUS
 62
    47
 10
-81.953945
 20
-75.60973
 11
-81.953945
 21
-76.109732
  0
LINE
  8
型材断面
  6
CONTINUOUS
 62
    47
 10
-81.453953
 20
-76.443065
 11
-81.453953
 21
-76.109732
  0
LINE
  8
型材断面
  6
CONTINUOUS
 62
    47
 10
-81.953945
 20
-75.60973
 11
-79.753945
 21
-75.443065
  0
LINE
  8
型材断面
  6
CONTINUOUS
 62
    47
 10
-79.02047
 20
-75.443065
 11
-79.687277
 21
-75.443065
  0
LINE
  8
型材断面
  6
CONTINUOUS
 62
    47
 10
-79.743945
 20
-75.343065
 11
-79.753945
 21
-75.333065
  0
LINE
  8
型材断面
  6
CONTINUOUS
 62
    47
 10
-79.743945
 20
-75.343065
 11
-79.753945
 21
-75.353065
  0
LINE
  8
型材断面
  6
CONTINUOUS
 62
    47
 10
-79.753945
 20
-75.443065
 11
-79.753945
 21
-75.353065
  0
LINE
  8
型材断面
  6
CONTINUOUS
 62
    47
 10
-79.753945
 20
-74.819747
 11
-79.753945
 21
-75.333065
  0
LINE
  8
型材断面
  6
CONTINUOUS
 62
    47
 10
-81.22061
 20
-73.709723
 11
-81.22061
 21
-73.576405
  0
LINE
  8
型材断面
  6
CONTINUOUS
 62
    47
 10
-79.953805
 20
-73.209745
 11
-81.220612
 21
-73.27607
  0
LINE
  8
型材断面
  6
CONTINUOUS
 62
    47
 10
-79.683815
 20
-71.44306
 11
-79.683815
 21
-71.209613
  0
LINE
  8
型材断面
  6
CONTINUOUS
 62
    47
 10
-81.953945
 20
-76.109732
 11
-36.953802
 21
-76.109732
  0
LINE
  8
型材断面
  6
CONTINUOUS
 62
    47
 10
-81.453953
 20
-76.443065
 11
-36.953802
 21
-76.443065
  0
LINE
  8
型材断面
  6
CONTINUOUS
 10
-79.753945
 20
-75.443065
 11
-36.953802
 21
-75.443065
  0
LINE
  8
型材断面
  6
CONTINUOUS
 10
-81.953945
 20
-75.60973
 11
-36.953802
 21
-75.60973
  0
LINE
  8
型材断面
  6
CONTINUOUS
 10
-79.953805
 20
-73.209745
 11
-36.953802
 21
-73.209745
  0
LINE
  8
型材断面
  6
CONTINUOUS
 62
    47
 10
-81.220612
 20
-73.442698
 11
-36.953802
 21
-73.442698
  0
LINE
  8
型材断面
  6
CONTINUOUS
 10
-81.220612
 20
-73.27607
 11
-36.953802
 21
-73.27607
  0
LINE
  8
型材断面
  6
CONTINUOUS
 62
    47
 10
-81.22061
 20
-73.576405
 11
-36.953802
 21
-73.576405
  0
LINE
  8
型材断面
  6
CONTINUOUS
 62
    47
 10
-81.22061
 20
-73.709723
 11
-36.953802
 21
-73.709723
  0
LINE
  8
型材断面
  6
CONTINUOUS
 62
    47
 10
-79.953805
 20
-71.44306
 11
-36.953802
 21
-71.44306
  0
LINE
  8
型材断面
  6
CONTINUOUS
 10
6.779532
 20
20.747365
 11
8.04634
 21
19.48056
  0
LINE
  8
型材断面
  6
CONTINUOUS
 10
8.04634
 20
19.48056
 11
8.04634
 21
32.814033
  0
LINE
  8
型材断面
  6
CONTINUOUS
 10
8.04634
 20
19.48056
 11
-36.953802
 21
19.48056
  0
LINE
  8
型材断面
  6
CONTINUOUS
 10
6.779532
 20
44.8807
 11
8.04634
 21
46.147505
  0
LINE
  8
型材断面
  6
CONTINUOUS
 10
8.04634
 20
46.147505
 11
8.04634
 21
32.814033
  0
LINE
  8
型材断面
  6
CONTINUOUS
 10
8.04634
 20
46.147505
 11
-36.953802
 21
46.147505
  0
LINE
  8
型材断面
  6
CONTINUOUS
 10
-80.687137
 20
44.8807
 11
-81.953945
 21
46.147505
  0
LINE
  8
型材断面
  6
CONTINUOUS
 10
-81.953945
 20
46.147505
 11
-81.953945
 21
32.814033
  0
LINE
  8
型材断面
  6
CONTINUOUS
 10
-81.953945
 20
46.147505
 11
-36.953802
 21
46.147505
  0
LINE
  8
型材断面
  6
CONTINUOUS
 10
-80.687137
 20
20.747365
 11
-81.953945
 21
19.48056
  0
LINE
  8
型材断面
  6
CONTINUOUS
 10
-81.953945
 20
19.48056
 11
-81.953945
 21
32.814033
  0
LINE
  8
型材断面
  6
CONTINUOUS
 10
-81.953945
 20
19.48056
 11
-36.953802
 21
19.48056
  0
LINE
  8
型材断面
  6
CONTINUOUS
 62
    47
 10
96.186262
 20
44.137365
 11
96.176262
 21
44.147365
  0
LINE
  8
型材断面
  6
CONTINUOUS
 62
    47
 10
96.186262
 20
44.137365
 11
96.196263
 21
44.147365
  0
LINE
  8
型材断面
  6
CONTINUOUS
 62
    47
 10
96.828492
 20
44.137365
 11
96.818492
 21
44.147365
  0
LINE
  8
型材断面
  6
CONTINUOUS
 62
    47
 10
96.828492
 20
44.137365
 11
96.838493
 21
44.147365
  0
LINE
  8
型材断面
  6
CONTINUOUS
 62
    47
 10
97.246263
 20
44.147365
 11
96.838493
 21
44.147365
  0
LINE
  8
型材断面
  6
CONTINUOUS
 62
    47
 10
96.818492
 20
44.147365
 11
96.196263
 21
44.147365
  0
LINE
  8
型材断面
  6
CONTINUOUS
 62
    47
 10
96.176262
 20
44.147365
 11
95.479578
 21
44.147365
  0
LINE
  8
型材断面
  6
CONTINUOUS
 62
    47
 10
95.479578
 20
44.147365
 11
95.479578
 21
32.81403
  0
LINE
  8
型材断面
  6
CONTINUOUS
 10
97.246263
 20
44.147365
 11
97.246263
 21
32.81403
  0
LINE
  8
型材断面
  6
CONTINUOUS
 10
97.312587
 20
32.81403
 11
97.312587
 21
45.414172
  0
LINE
  8
型材断面
  6
CONTINUOUS
 62
    47
 10
97.312587
 20
45.414172
 11
97.479215
 21
45.414172
  0
LINE
  8
型材断面
  6
CONTINUOUS
 62
    47
 10
97.479215
 20
32.81403
 11
97.479215
 21
45.414172
  0
LINE
  8
型材断面
  6
CONTINUOUS
 62
    47
 10
98.379593
 20
43.937505
 11
98.369592
 21
43.947505
  0
LINE
  8
型材断面
  6
CONTINUOUS
 62
    47
 10
98.379593
 20
43.937505
 11
98.389593
 21
43.947505
  0
LINE
  8
型材断面
  6
CONTINUOUS
 62
    47
 10
98.846265
 20
43.937505
 11
98.836265
 21
43.947505
  0
LINE
  8
型材断面
  6
CONTINUOUS
 62
    47
 10
98.846265
 20
43.937505
 11
98.856265
 21
43.947505
  0
LINE
  8
型材断面
  6
CONTINUOUS
 62
    47
 10
97.74624
 20
43.947505
 11
98.369592
 21
43.947505
  0
LINE
  8
型材断面
  6
CONTINUOUS
 62
    47
 10
98.389593
 20
43.947505
 11
98.836265
 21
43.947505
  0
LINE
  8
型材断面
  6
CONTINUOUS
 62
    47
 10
99.646248
 20
46.147505
 11
100.14625
 21
46.147505
  0
LINE
  8
型材断面
  6
CONTINUOUS
 62
    47
 10
100.479582
 20
45.647513
 11
100.14625
 21
45.647513
  0
LINE
  8
型材断面
  6
CONTINUOUS
 62
    47
 10
99.646248
 20
46.147505
 11
99.479582
 21
43.947505
  0
LINE
  8
型材断面
  6
CONTINUOUS
 62
    47
 10
99.479582
 20
43.21403
 11
99.479582
 21
43.880838
  0
LINE
  8
型材断面
  6
CONTINUOUS
 62
    47
 10
99.379582
 20
43.937505
 11
99.369583
 21
43.947505
  0
LINE
  8
型材断面
  6
CONTINUOUS
 62
    47
 10
99.379582
 20
43.937505
 11
99.389582
 21
43.947505
  0
LINE
  8
型材断面
  6
CONTINUOUS
 62
    47
 10
99.479582
 20
43.947505
 11
99.389582
 21
43.947505
  0
LINE
  8
型材断面
  6
CONTINUOUS
 62
    47
 10
98.856265
 20
43.947505
 11
99.369583
 21
43.947505
  0
LINE
  8
型材断面
  6
CONTINUOUS
 62
    47
 10
97.612923
 20
32.81403
 11
97.612923
 21
45.414172
  0
LINE
  8
型材断面
  6
CONTINUOUS
 62
    47
 10
97.74624
 20
45.414172
 11
97.612923
 21
45.414172
  0
LINE
  8
型材断面
  6
CONTINUOUS
 62
    47
 10
97.74624
 20
45.414172
 11
97.74624
 21
32.81403
  0
LINE
  8
型材断面
  6
CONTINUOUS
 10
99.479582
 20
32.81403
 11
99.479582
 21
43.947505
  0
LINE
  8
型材断面
  6
CONTINUOUS
 10
99.646248
 20
32.81403
 11
99.646248
 21
46.147505
  0
LINE
  8
型材断面
  6
CONTINUOUS
 62
    47
 10
100.14625
 20
46.147505
 11
100.14625
 21
32.81403
  0
LINE
  8
型材断面
  6
CONTINUOUS
 62
    47
 10
100.479582
 20
45.647513
 11
100.479582
 21
32.81403
  0
LINE
  8
型材断面
  6
CONTINUOUS
 62
    47
 10
97.246263
 20
44.147365
 11
97.312587
 21
45.414172
  0
LINE
  8
型材断面
  6
CONTINUOUS
 62
    47
 10
95.479578
 20
43.877375
 11
95.24613
 21
43.877375
  0
LINE
  8
型材断面
  6
CONTINUOUS
 62
    47
 10
96.186262
 20
21.490697
 11
96.176262
 21
21.480697
  0
LINE
  8
型材断面
  6
CONTINUOUS
 62
    47
 10
96.186262
 20
21.490697
 11
96.196263
 21
21.480697
  0
LINE
  8
型材断面
  6
CONTINUOUS
 62
    47
 10
96.828492
 20
21.490697
 11
96.818492
 21
21.480697
  0
LINE
  8
型材断面
  6
CONTINUOUS
 62
    47
 10
96.828492
 20
21.490697
 11
96.838493
 21
21.480697
  0
LINE
  8
型材断面
  6
CONTINUOUS
 62
    47
 10
97.246263
 20
21.480697
 11
96.838493
 21
21.480697
  0
LINE
  8
型材断面
  6
CONTINUOUS
 62
    47
 10
96.818492
 20
21.480697
 11
96.196263
 21
21.480697
  0
LINE
  8
型材断面
  6
CONTINUOUS
 62
    47
 10
96.176262
 20
21.480697
 11
95.479578
 21
21.480697
  0
LINE
  8
型材断面
  6
CONTINUOUS
 62
    47
 10
95.479578
 20
21.480697
 11
95.479578
 21
32.814033
  0
LINE
  8
型材断面
  6
CONTINUOUS
 10
97.246263
 20
21.480697
 11
97.246263
 21
32.814033
  0
LINE
  8
型材断面
  6
CONTINUOUS
 10
97.312587
 20
32.814033
 11
97.312587
 21
20.21389
  0
LINE
  8
型材断面
  6
CONTINUOUS
 62
    47
 10
97.312587
 20
20.21389
 11
97.479215
 21
20.21389
  0
LINE
  8
型材断面
  6
CONTINUOUS
 62
    47
 10
97.479215
 20
32.814033
 11
97.479215
 21
20.21389
  0
LINE
  8
型材断面
  6
CONTINUOUS
 62
    47
 10
98.379593
 20
21.690558
 11
98.369592
 21
21.680558
  0
LINE
  8
型材断面
  6
CONTINUOUS
 62
    47
 10
98.379593
 20
21.690558
 11
98.389593
 21
21.680558
  0
LINE
  8
型材断面
  6
CONTINUOUS
 62
    47
 10
98.846265
 20
21.690558
 11
98.836265
 21
21.680558
  0
LINE
  8
型材断面
  6
CONTINUOUS
 62
    47
 10
98.846265
 20
21.690558
 11
98.856265
 21
21.680558
  0
LINE
  8
型材断面
  6
CONTINUOUS
 62
    47
 10
97.74624
 20
21.680558
 11
98.369592
 21
21.680558
  0
LINE
  8
型材断面
  6
CONTINUOUS
 62
    47
 10
98.389593
 20
21.680558
 11
98.836265
 21
21.680558
  0
LINE
  8
型材断面
  6
CONTINUOUS
 62
    47
 10
99.646248
 20
19.480558
 11
100.14625
 21
19.480558
  0
LINE
  8
型材断面
  6
CONTINUOUS
 62
    47
 10
100.479582
 20
19.98055
 11
100.14625
 21
19.98055
  0
LINE
  8
型材断面
  6
CONTINUOUS
 62
    47
 10
99.646248
 20
19.480558
 11
99.479582
 21
21.680558
  0
LINE
  8
型材断面
  6
CONTINUOUS
 62
    47
 10
99.479582
 20
22.414033
 11
99.479582
 21
21.747225
  0
LINE
  8
型材断面
  6
CONTINUOUS
 62
    47
 10
99.379582
 20
21.690558
 11
99.369583
 21
21.680558
  0
LINE
  8
型材断面
  6
CONTINUOUS
 62
    47
 10
99.379582
 20
21.690558
 11
99.389582
 21
21.680558
  0
LINE
  8
型材断面
  6
CONTINUOUS
 62
    47
 10
99.479582
 20
21.680558
 11
99.389582
 21
21.680558
  0
LINE
  8
型材断面
  6
CONTINUOUS
 62
    47
 10
98.856265
 20
21.680558
 11
99.369583
 21
21.680558
  0
LINE
  8
型材断面
  6
CONTINUOUS
 62
    47
 10
97.612923
 20
32.814033
 11
97.612923
 21
20.213892
  0
LINE
  8
型材断面
  6
CONTINUOUS
 62
    47
 10
97.74624
 20
20.213892
 11
97.612923
 21
20.213892
  0
LINE
  8
型材断面
  6
CONTINUOUS
 62
    47
 10
97.74624
 20
20.213892
 11
97.74624
 21
32.814033
  0
LINE
  8
型材断面
  6
CONTINUOUS
 10
99.479582
 20
32.814033
 11
99.479582
 21
21.680558
  0
LINE
  8
型材断面
  6
CONTINUOUS
 10
99.646248
 20
32.814033
 11
99.646248
 21
19.480558
  0
LINE
  8
型材断面
  6
CONTINUOUS
 62
    47
 10
100.14625
 20
19.480558
 11
100.14625
 21
32.814033
  0
LINE
  8
型材断面
  6
CONTINUOUS
 62
    47
 10
100.479582
 20
19.98055
 11
100.479582
 21
32.814033
  0
LINE
  8
型材断面
  6
CONTINUOUS
 62
    47
 10
97.246263
 20
21.480697
 11
97.312587
 21
20.21389
  0
LINE
  8
型材断面
  6
CONTINUOUS
 62
    47
 10
95.479578
 20
21.750687
 11
95.24613
 21
21.750687
  0
LINE
  8
型材断面
  6
DOT
 62
    47
 10
97.135595
 20
45.667243
 11
97.25342
 21
45.549417
  0
ARC
  8
型材断面
  6
DOT
 10
97.529573
 20
45.754355
 40
25.541387
 50
224.513243
 51
269.513242
  0
LINE
  8
ガラス
  6
CONTINUOUS
 10
100.346892
 20
-51.966888
 11
100.346892
 21
-72.500223
  0
LINE
  8
ガラス
  6
CONTINUOUS
 10
100.346892
 20
-51.966888
 11
58.846892
 21
-51.966888
  0
LINE
  8
ガラス
  6
CONTINUOUS
 10
58.846892
 20
-51.966888
 11
58.846892
 21
-72.500223
  0
LINE
  8
ガラス
  6
CONTINUOUS
 10
100.346892
 20
-72.500223
 11
58.846892
 21
-72.500223
  0
TEXT
  7
TextStyle03
  8
文字
  6
CONTINUOUS
 10
-116.675
 20
84.95
  1
は排水穴位置を示す
 40
3.0
 72
     5
 11
-86.675
 21
84.95
  0
TEXT
  7
TextStyle03
  8
文字
  6
CONTINUOUS
 10
-116.675
 20
79.425
  1
はケーシング位置を示す
 40
3.0
 72
     5
 11
-79.925
 21
79.425
  0
TEXT
  7
TextStyle03
  8
文字
  6
CONTINUOUS
 10
-116.675
 20
76.05
  1
２ヶ所中1ヶ所に設定
 40
3.0
 72
     5
 11
-84.9875
 21
76.05
  0
TEXT
  7
TextStyle03
  8
文字
  6
CONTINUOUS
 10
82.175
 20
-65.175
  1
網入り6.8t
 40
3.0
 72
     5
 11
98.8625
 21
-65.175
  0
TEXT
  7
TextStyle03
  8
文字
  6
CONTINUOUS
 10
88.85
 20
-69.85
  1
×２枚
 40
3.0
 72
     5
 11
98.6
 21
-69.85
  0
TEXT
  7
TextStyle03
  8
文字
  6
CONTINUOUS
 10
74.825
 20
23.375
  1
45°
 40
3.0
 72
     5
 11
81.2
 21
23.375
  0
TEXT
  7
TextStyle03
  8
文字
  6
CONTINUOUS
 10
-99.7
 20
11.275
  1
アンカーピッチ
 40
3.0
 50
90.0
 72
     5
 11
-99.7
 21
34.525
  0
TEXT
  7
TextStyle03
  8
文字
  6
CONTINUOUS
 10
-72.0
 20
80.825
  1
アンカーピッチ
 40
3.0
 72
     5
 11
-48.75
 21
80.825
  0
TEXT
  7
TextStyle03
  8
文字
  6
CONTINUOUS
 10
-120.4
 20
70.075
  1
アンカー数量　１２ヶ所
 40
3.0
 72
     5
 11
-83.65
 21
70.075
  0
TEXT
  7
TextStyle03
  8
文字
  6
CONTINUOUS
 10
78.1
 20
125.25
  1
シリーズ：ＴＤ２ＨＬ
 40
5.0
 72
     5
 11
133.725
 21
125.25
  0
TEXT
  7
TextStyle03
  8
文字
  6
CONTINUOUS
 10
78.1
 20
119.625
  1
　　　　　（片側開閉）600×2500タイプ
 40
5.0
 72
     5
 11
181.5375
 21
119.625
  0
TEXT
  7
TextStyle03
  8
文字
  6
CONTINUOUS
 10
78.1
 20
114.0
  1
図面名　：外観姿図
 40
5.0
 72
     5
 11
128.1
 21
114.0
  0
TEXT
  7
TextStyle03
  8
文字
  6
CONTINUOUS
 10
78.1
 20
108.375
  1
　　　　　　
 40
5.0
 72
     5
 11
111.225
 21
108.375
  0
TEXT
  7
TextStyle03
  8
文字
  6
CONTINUOUS
 10
77.425
 20
103.975
  1
ＮＳコード：ＮＳＨＺＬ
 40
5.0
 72
     5
 11
138.675
 21
103.975
  0
INSERT
  2
*DIM_0002
  8
寸法
  6
CONTINUOUS
 10
0.0
 20
0.0
  0
INSERT
  2
*DIM_0003
  8
寸法
  6
CONTINUOUS
 10
0.0
 20
0.0
  0
INSERT
  2
*DIM_0005
  8
寸法
  6
CONTINUOUS
 10
0.0
 20
0.0
  0
INSERT
  2
*DIM_0006
  8
寸法
  6
CONTINUOUS
 10
0.0
 20
0.0
  0
INSERT
  2
*DIM_0007
  8
寸法
  6
CONTINUOUS
 10
0.0
 20
0.0
  0
INSERT
  2
*DIM_0008
  8
寸法
  6
CONTINUOUS
 10
0.0
 20
0.0
  0
INSERT
  2
*DIM_0009
  8
寸法
  6
CONTINUOUS
 10
0.0
 20
0.0
  0
INSERT
  2
*DIM_0010
  8
寸法
  6
CONTINUOUS
 10
0.0
 20
0.0
  0
INSERT
  2
*DIM_0011
  8
寸法
  6
CONTINUOUS
 10
0.0
 20
0.0
  0
INSERT
  2
*DIM_0012
  8
寸法
  6
CONTINUOUS
 10
0.0
 20
0.0
  0
INSERT
  2
*DIM_0013
  8
寸法
  6
CONTINUOUS
 10
0.0
 20
0.0
  0
INSERT
  2
*DIM_0015
  8
寸法
  6
CONTINUOUS
 10
0.0
 20
0.0
  0
INSERT
  2
*DIM_0016
  8
寸法
  6
CONTINUOUS
 10
0.0
 20
0.0
  0
INSERT
  2
*DIM_0017
  8
寸法
  6
CONTINUOUS
 10
0.0
 20
0.0
  0
INSERT
  2
*DIM_0019
  8
寸法
  6
CONTINUOUS
 10
0.0
 20
0.0
  0
INSERT
  2
*DIM_0020
  8
寸法
  6
CONTINUOUS
 10
0.0
 20
0.0
  0
INSERT
  2
*DIM_0021
  8
寸法
  6
CONTINUOUS
 10
0.0
 20
0.0
  0
INSERT
  2
*DIM_0022
  8
寸法
  6
CONTINUOUS
 10
0.0
 20
0.0
  0
INSERT
  2
*DIM_0023
  8
寸法
  6
CONTINUOUS
 10
0.0
 20
0.0
  0
LINE
  8
別途部材
  6
CONTINUOUS
 10
6.779532
 20
20.747365
 11
6.379532
 21
21.147365
  0
LINE
  8
別途部材
  6
CONTINUOUS
 10
4.712865
 20
22.814033
 11
-3.34639
 21
30.87329
  0
LINE
  8
別途部材
  6
CONTINUOUS
 10
6.379532
 20
21.147365
 11
6.379532
 21
32.814033
  0
LINE
  8
別途部材
  6
CONTINUOUS
 10
6.779532
 20
20.747365
 11
6.779532
 21
32.814033
  0
LINE
  8
別途部材
  6
CONTINUOUS
 10
6.779532
 20
44.8807
 11
6.379532
 21
44.4807
  0
LINE
  8
別途部材
  6
CONTINUOUS
 10
4.712865
 20
42.814033
 11
-3.34639
 21
34.754775
  0
LINE
  8
別途部材
  6
CONTINUOUS
 10
6.379532
 20
44.4807
 11
6.379532
 21
32.814033
  0
LINE
  8
別途部材
  6
CONTINUOUS
 10
6.779532
 20
44.8807
 11
6.779532
 21
32.814033
  0
LINE
  8
別途部材
  6
CONTINUOUS
 10
6.379532
 20
44.4807
 11
-36.953802
 21
44.4807
  0
LINE
  8
別途部材
  6
CONTINUOUS
 10
6.779532
 20
44.8807
 11
-36.953802
 21
44.8807
  0
LINE
  8
別途部材
  6
CONTINUOUS
 10
6.379532
 20
21.147365
 11
-36.953802
 21
21.147365
  0
LINE
  8
別途部材
  6
CONTINUOUS
 10
6.779532
 20
20.747365
 11
-36.953802
 21
20.747365
  0
LINE
  8
別途部材
  6
CONTINUOUS
 10
-80.687137
 20
20.747365
 11
-80.287137
 21
21.147365
  0
LINE
  8
別途部材
  6
CONTINUOUS
 10
-78.62047
 20
22.814033
 11
-70.561215
 21
30.87329
  0
LINE
  8
別途部材
  6
CONTINUOUS
 10
-80.287137
 20
21.147365
 11
-80.287137
 21
32.814033
  0
LINE
  8
別途部材
  6
CONTINUOUS
 10
-80.687137
 20
20.747365
 11
-80.687137
 21
32.814033
  0
LINE
  8
別途部材
  6
CONTINUOUS
 10
-80.687137
 20
44.8807
 11
-80.287137
 21
44.4807
  0
LINE
  8
別途部材
  6
CONTINUOUS
 10
-78.62047
 20
42.814033
 11
-70.561215
 21
34.754775
  0
LINE
  8
別途部材
  6
CONTINUOUS
 10
-80.287137
 20
44.4807
 11
-80.287137
 21
32.814033
  0
LINE
  8
別途部材
  6
CONTINUOUS
 10
-80.687137
 20
44.8807
 11
-80.687137
 21
32.814033
  0
LINE
  8
別途部材
  6
CONTINUOUS
 10
-80.287137
 20
44.4807
 11
-36.953802
 21
44.4807
  0
LINE
  8
別途部材
  6
CONTINUOUS
 10
-80.687137
 20
44.8807
 11
-36.953802
 21
44.8807
  0
LINE
  8
別途部材
  6
CONTINUOUS
 10
-80.287137
 20
21.147365
 11
-36.953802
 21
21.147365
  0
LINE
  8
別途部材
  6
CONTINUOUS
 10
-80.687137
 20
20.747365
 11
-36.953802
 21
20.747365
  0
INSERT
  2
*GRP_0004
  8
別途部材
  6
CONTINUOUS
 10
0.0
 20
0.0
  0
LINE
  8
別途部材
  6
CONTINUOUS
 62
    96
 10
94.24613
 20
44.4807
 11
95.24613
 21
44.8807
  0
LINE
  8
別途部材
  6
CONTINUOUS
 62
    96
 10
94.24613
 20
44.4807
 11
94.24613
 21
32.814033
  0
LINE
  8
別途部材
  6
CONTINUOUS
 10
95.24613
 20
44.8807
 11
95.24613
 21
32.814033
  0
LINE
  8
別途部材
  6
CONTINUOUS
 62
    96
 10
94.24613
 20
21.147365
 11
95.24613
 21
20.747365
  0
LINE
  8
別途部材
  6
CONTINUOUS
 62
    96
 10
94.24613
 20
21.147365
 11
94.24613
 21
32.814033
  0
LINE
  8
別途部材
  6
CONTINUOUS
 10
95.24613
 20
20.747365
 11
95.24613
 21
32.814033
  0
ARC
  8
別途部材
  6
CONTINUOUS
 10
100.954465
 20
32.814033
 40
12.041667
 50
123.855033
 51
236.144967
  0
INSERT
  2
*GRP_0014
  8
別途部材
  6
CONTINUOUS
 10
0.0
 20
0.0
  0
INSERT
  2
*GRP_0018
  8
別途部材
  6
CONTINUOUS
 10
0.0
 20
0.0
  0
INSERT
  2
*GRP_0024
  8
別途部材
  6
DOT
 10
0.0
 20
0.0
  0
INSERT
  2
*GRP_0025
  8
別途部材
  6
DOT
 10
0.0
 20
0.0
  0
INSERT
  2
*GRP_0026
  8
別途部材
  6
DOT
 10
0.0
 20
0.0
  0
INSERT
  2
*GRP_0027
  8
別途部材
  6
DOT
 10
0.0
 20
0.0
  0
INSERT
  2
*GRP_0028
  8
別途部材
  6
DOT
 10
0.0
 20
0.0
  0
INSERT
  2
*GRP_0029
  8
別途部材
  6
DOT
 10
0.0
 20
0.0
  0
ENDSEC
  0
EOF
