  0
SECTION
  2
HEADER
  9
$EXTMIN
 10
-210.0
 20
-148.5
  9
$EXTMAX
 10
210.0
 20
148.5
  9
$PDMODE
 70
    32
  9
$PDSIZE
 40
1.5
  9
$LTSCALE
 40
10.0
  0
ENDSEC
  0
SECTION
  2
TABLES
  0
TABLE
  2
LTYPE
 70
    15
  0
LTYPE
  2
CONTINUOUS
 70
    64
  3
実線
 72
    65
 73
     0
 40
0.0
  0
LTYPE
  2
DASHED
 70
    64
  3
破線A
 72
    65
 73
     2
 40
0.6
 49
0.4
 49
-0.2
  0
LTYPE
  2
DASHEDX2
 70
    64
  3
破線B
 72
    65
 73
     2
 40
1.3
 49
0.9
 49
-0.4
  0
LTYPE
  2
DASHDOT
 70
    64
  3
１点鎖線A
 72
    65
 73
     4
 40
0.5375
 49
0.375
 49
-0.05
 49
0.0625
 49
-0.05
  0
LTYPE
  2
DASHDOTX2
 70
    64
  3
１点鎖線B
 72
    65
 73
     4
 40
1.075
 49
0.75
 49
-0.1
 49
0.125
 49
-0.1
  0
LTYPE
  2
DIVIDE2
 70
    64
  3
２点鎖線A
 72
    65
 73
     6
 40
0.5125
 49
0.3
 49
-0.0375
 49
0.05
 49
-0.0375
 49
0.05
 49
-0.0375
  0
LTYPE
  2
DIVIDE
 70
    64
  3
２点鎖線B
 72
    65
 73
     6
 40
1.05
 49
0.55
 49
-0.1
 49
0.1
 49
-0.1
 49
0.1
 49
-0.1
  0
LTYPE
  2
DOT
 70
    64
  3
点線A
 72
    65
 73
     2
 40
0.1125
 49
0.0625
 49
-0.05
  0
LTYPE
  2
DOTX2
 70
    64
  3
点線B
 72
    65
 73
     2
 40
0.275
 49
0.15
 49
-0.125
  0
LTYPE
  2
CONTINUOUS
 70
    64
  3
実線
 72
    65
 73
     0
 40
0.0
  0
LTYPE
  2
CONTINUOUS
 70
    64
  3
実線
 72
    65
 73
     0
 40
0.0
  0
LTYPE
  2
CONTINUOUS
 70
    64
  3
実線
 72
    65
 73
     0
 40
0.0
  0
LTYPE
  2
CONTINUOUS
 70
    64
  3
実線
 72
    65
 73
     0
 40
0.0
  0
LTYPE
  2
CONTINUOUS
 70
    64
  3
実線
 72
    65
 73
     0
 40
0.0
  0
LTYPE
  2
CONTINUOUS
 70
    64
  3
実線
 72
    65
 73
     0
 40
0.0
  0
ENDTAB
  0
TABLE
  2
LAYER
 70
    34
  0
LAYER
  2
通り芯
 70
     0
 62
    15
  6
CONTINUOUS
  0
LAYER
  2
補助線
 70
     0
 62
    16
  6
DOT
  0
LAYER
  2
躯体
 70
     0
 62
    31
  6
CONTINUOUS
  0
LAYER
  2
型材
 70
     0
 62
    32
  6
CONTINUOUS
  0
LAYER
  2
型材断面
 70
     0
 62
    47
  6
CONTINUOUS
  0
LAYER
  2
ガラス
 70
     0
 62
    48
  6
CONTINUOUS
  0
LAYER
  2
ゴム等
 70
     0
 62
    63
  6
CONTINUOUS
  0
LAYER
  2
ボルト／ビス
 70
     0
 62
    64
  6
CONTINUOUS
  0
LAYER
  2
文字
 70
     0
 62
    79
  6
CONTINUOUS
  0
LAYER
  2
寸法
 70
     0
 62
    80
  6
CONTINUOUS
  0
LAYER
  2
ﾊｯﾁﾝｸﾞ
 70
     0
 62
    95
  6
CONTINUOUS
  0
LAYER
  2
別途部材
 70
     0
 62
    96
  6
CONTINUOUS
  0
LAYER
  2
曲げ物
 70
     0
 62
   111
  6
CONTINUOUS
  0
LAYER
  2
鉄骨等
 70
     0
 62
   112
  6
CONTINUOUS
  0
LAYER
  2
St
 70
     0
 62
   127
  6
CONTINUOUS
  0
LAYER
  2
その他部品等
 70
     0
 62
   128
  6
CONTINUOUS
  0
LAYER
  2
ｶﾞｽｹｯﾄ
 70
     0
 62
   143
  6
CONTINUOUS
  0
LAYER
  2
ｽｹｯﾁ
 70
     0
 62
    14
  6
CONTINUOUS
  0
LAYER
  2
0
 70
     0
 62
    17
  6
CONTINUOUS
  0
LAYER
  2
1
 70
     0
 62
    30
  6
CONTINUOUS
  0
LAYER
  2
4
 70
     0
 62
    33
  6
CONTINUOUS
  0
LAYER
  2
ﾚｲﾔ3
 70
     0
 62
    46
  6
CONTINUOUS
  0
LAYER
  2
外形線
 70
     0
 62
    49
  6
CONTINUOUS
  0
LAYER
  2
部品
 70
     0
 62
    14
  6
CONTINUOUS
  0
LAYER
  2
サッシ芯
 70
     0
 62
    17
  6
DASHDOTX2
  0
LAYER
  2
寸法線
 70
     0
 62
    62
  6
CONTINUOUS
  0
LAYER
  2
姿図外形線
 70
     0
 62
    65
  6
CONTINUOUS
  0
LAYER
  2
姿補助線
 70
     0
 62
    30
  6
CONTINUOUS
  0
LAYER
  2
透視線
 70
     0
 62
    78
  6
DOT
  0
LAYER
  2
用紙
 70
     0
 62
    81
  6
CONTINUOUS
  0
LAYER
  2
実線図枠
 70
     0
 62
    94
  6
CONTINUOUS
  0
LAYER
  2
補助図枠
 70
     0
 62
    97
  6
CONTINUOUS
  0
LAYER
  2
建具記号
 70
     0
 62
   110
  6
CONTINUOUS
  0
LAYER
  2
補助文字
 70
     0
 62
   113
  6
CONTINUOUS
  0
ENDTAB
  0
TABLE
  2
STYLE
 70
    10
  0
STYLE
  2
STANDARD
 70
     0
 40
1.0
 41
1.0
 42
1.0
 50
0.0
 71
     0
  3
TXT
  4
BIGFONT
  0
STYLE
  2
TATE
 70
     4
 40
1.0
 41
1.0
 42
1.0
 50
0.0
 71
     0
  3
TXT
  4
BIGFONT
  0
STYLE
  2
TextStyle03
 70
     0
 40
1.0
 41
1.0
 42
1.0
 50
0.0
 71
     0
  3
MONOTXT
  4
BIGFONT
  0
STYLE
  2
TextStyle04
 70
     0
 40
1.0
 41
1.0
 42
1.0
 50
0.0
 71
     0
  3
MONOTXT
  4
BIGFONT
  0
STYLE
  2
TextStyle05
 70
     0
 40
1.0
 41
1.0
 42
1.0
 50
0.0
 71
     0
  3
MONOTXT
  4
BIGFONT
  0
STYLE
  2
TextStyle06
 70
     0
 40
1.0
 41
1.0
 42
1.0
 50
0.0
 71
     0
  3
MONOTXT
  4
BIGFONT
  0
STYLE
  2
TextStyle07
 70
     0
 40
1.0
 41
1.0
 42
1.0
 50
0.0
 71
     0
  3
MONOTXT
  4
BIGFONT
  0
STYLE
  2
TextStyle08
 70
     0
 40
1.0
 41
1.0
 42
1.0
 50
0.0
 71
     0
  3
MONOTXT
  4
BIGFONT
  0
STYLE
  2
TextStyle09
 70
     0
 40
1.0
 41
1.0
 42
1.0
 50
0.0
 71
     0
  3
MONOTXT
  4
BIGFONT
  0
STYLE
  2
TextStyle10
 70
     0
 40
1.0
 41
1.0
 42
1.0
 50
0.0
 71
     0
  3
MONOTXT
  4
BIGFONT
  0
ENDTAB
  0
ENDSEC
  0
SECTION
  2
BLOCKS
  0
BLOCK
  2
*GRP_0001
 70
    65
 10
0.0
 20
0.0
  0
LINE
  8
型材断面
  6
CONTINUOUS
 10
195.0
 20
133.5
 11
195.0
 21
-133.5
  0
LINE
  8
型材断面
  6
CONTINUOUS
 10
195.0
 20
-133.5
 11
-185.0
 21
-133.5
  0
LINE
  8
型材断面
  6
CONTINUOUS
 10
-185.0
 20
-133.5
 11
-185.0
 21
133.5
  0
LINE
  8
型材断面
  6
CONTINUOUS
 10
195.0
 20
133.5
 11
-185.0
 21
133.5
  0
LINE
  8
型材断面
  6
CONTINUOUS
 10
145.0
 20
-133.5
 11
145.0
 21
-118.5
  0
LINE
  8
型材断面
  6
CONTINUOUS
 10
195.0
 20
-118.5
 11
145.0
 21
-118.5
  0
ENDBLK
  0
BLOCK
  2
*DIM_0002
 70
    65
 10
0.0
 20
0.0
  0
LINE
  8
寸法
  6
BYBLOCK
 62
     0
 10
21.33489
 20
-22.536362
 11
-61.998442
 21
-22.536362
  0
POINT
  8
寸法
 62
     0
 10
21.33489
 20
-22.536362
  0
POINT
  8
寸法
 62
     0
 10
-61.998442
 20
-22.536362
  0
TEXT
  7
TextStyle03
  8
寸法
  6
CONTINUOUS
 62
     0
 10
-32.06875
 20
-22.175
  1
呼称寸法　2500
 40
3.0
 72
     5
 11
-8.63125
 21
-22.175
  0
ENDBLK
  0
BLOCK
  2
*DIM_0003
 70
    65
 10
0.0
 20
0.0
  0
LINE
  8
寸法
  6
BYBLOCK
 62
     0
 10
-45.331775
 20
9.76892
 11
-45.331775
 21
4.76579
  0
LINE
  8
寸法
  6
BYBLOCK
 62
     0
 10
4.66822
 20
9.76892
 11
4.66822
 21
4.76579
  0
LINE
  8
寸法
  6
BYBLOCK
 62
     0
 10
-45.331775
 20
4.76579
 11
4.66822
 21
4.76579
  0
POINT
  8
寸法
 62
     0
 10
-45.331775
 20
4.76579
  0
POINT
  8
寸法
 62
     0
 10
4.66822
 20
4.76579
  0
TEXT
  7
TextStyle03
  8
寸法
  6
CONTINUOUS
 62
     0
 10
-23.63125
 20
5.125
  1
1500
 40
3.0
 72
     5
 11
-17.06875
 21
5.125
  0
ENDBLK
  0
BLOCK
  2
*GRP_0004
 70
    65
 10
0.0
 20
0.0
  0
LINE
  8
別途部材
  6
CONTINUOUS
 62
    96
 10
-63.66511
 20
-79.624597
 11
-64.06511
 21
-80.624597
  0
ARC
  8
別途部材
  6
CONTINUOUS
 10
-40.331775
 20
-93.910308
 40
25.952382
 50
90.0
 51
146.601512
  0
LINE
  8
別途部材
  6
CONTINUOUS
 10
-64.06511
 20
-80.624597
 11
-20.331775
 21
-80.624597
  0
LINE
  8
別途部材
  6
CONTINUOUS
 62
    96
 10
-63.66511
 20
-79.624597
 11
-20.331775
 21
-79.624597
  0
LINE
  8
別途部材
  6
CONTINUOUS
 10
-20.831775
 20
-66.95793
 11
-21.831775
 21
-67.95793
  0
LINE
  8
別途部材
  6
CONTINUOUS
 10
-22.831775
 20
-67.95793
 11
-23.831775
 21
-66.95793
  0
LINE
  8
別途部材
  6
CONTINUOUS
 10
-24.831775
 20
-66.95793
 11
-25.831775
 21
-67.95793
  0
LINE
  8
別途部材
  6
CONTINUOUS
 10
-23.831775
 20
-66.95793
 11
-24.831775
 21
-66.95793
  0
LINE
  8
別途部材
  6
CONTINUOUS
 10
-20.831775
 20
-66.95793
 11
-20.331775
 21
-66.95793
  0
LINE
  8
別途部材
  6
CONTINUOUS
 10
-26.831775
 20
-67.95793
 11
-27.831775
 21
-66.95793
  0
LINE
  8
別途部材
  6
CONTINUOUS
 10
-28.831775
 20
-66.95793
 11
-29.831775
 21
-67.95793
  0
LINE
  8
別途部材
  6
CONTINUOUS
 10
-27.831775
 20
-66.95793
 11
-28.831775
 21
-66.95793
  0
LINE
  8
別途部材
  6
CONTINUOUS
 10
-30.831775
 20
-67.95793
 11
-31.831775
 21
-66.95793
  0
LINE
  8
別途部材
  6
CONTINUOUS
 10
-32.831775
 20
-66.95793
 11
-33.831775
 21
-67.95793
  0
LINE
  8
別途部材
  6
CONTINUOUS
 10
-31.831775
 20
-66.95793
 11
-32.831775
 21
-66.95793
  0
LINE
  8
別途部材
  6
CONTINUOUS
 10
-34.831775
 20
-67.95793
 11
-35.831775
 21
-66.95793
  0
LINE
  8
別途部材
  6
CONTINUOUS
 10
-36.831775
 20
-66.95793
 11
-37.831775
 21
-67.95793
  0
LINE
  8
別途部材
  6
CONTINUOUS
 10
-35.831775
 20
-66.95793
 11
-36.831775
 21
-66.95793
  0
LINE
  8
別途部材
  6
CONTINUOUS
 10
-33.831775
 20
-67.95793
 11
-34.831775
 21
-67.95793
  0
LINE
  8
別途部材
  6
CONTINUOUS
 10
-29.831775
 20
-67.95793
 11
-30.831775
 21
-67.95793
  0
LINE
  8
別途部材
  6
CONTINUOUS
 10
-25.831775
 20
-67.95793
 11
-26.831775
 21
-67.95793
  0
LINE
  8
別途部材
  6
CONTINUOUS
 10
-22.831775
 20
-67.95793
 11
-21.831775
 21
-67.95793
  0
LINE
  8
別途部材
  6
CONTINUOUS
 10
-36.831775
 20
-66.95793
 11
-36.831775
 21
-79.624597
  0
LINE
  8
別途部材
  6
CONTINUOUS
 10
-35.831775
 20
-66.95793
 11
-35.831775
 21
-79.624597
  0
LINE
  8
別途部材
  6
CONTINUOUS
 10
-25.831775
 20
-67.95793
 11
-25.831775
 21
-79.624597
  0
LINE
  8
別途部材
  6
CONTINUOUS
 10
-20.831775
 20
-66.95793
 11
-20.831775
 21
-79.624597
  0
LINE
  8
別途部材
  6
CONTINUOUS
 10
-21.831775
 20
-67.95793
 11
-21.831775
 21
-79.624597
  0
LINE
  8
別途部材
  6
CONTINUOUS
 10
-23.831775
 20
-66.95793
 11
-23.831775
 21
-79.624597
  0
LINE
  8
別途部材
  6
CONTINUOUS
 10
-24.831775
 20
-66.95793
 11
-24.831775
 21
-79.624597
  0
LINE
  8
別途部材
  6
CONTINUOUS
 10
-26.831775
 20
-67.95793
 11
-26.831775
 21
-79.624597
  0
LINE
  8
別途部材
  6
CONTINUOUS
 10
-37.831775
 20
-67.95793
 11
-37.831775
 21
-79.624597
  0
LINE
  8
別途部材
  6
CONTINUOUS
 10
-33.831775
 20
-67.95793
 11
-33.831775
 21
-79.624597
  0
LINE
  8
別途部材
  6
CONTINUOUS
 10
-34.831775
 20
-67.95793
 11
-34.831775
 21
-79.624597
  0
LINE
  8
別途部材
  6
CONTINUOUS
 10
-32.831775
 20
-66.95793
 11
-32.831775
 21
-79.624597
  0
LINE
  8
別途部材
  6
CONTINUOUS
 10
-30.831775
 20
-67.95793
 11
-30.831775
 21
-79.624597
  0
LINE
  8
別途部材
  6
CONTINUOUS
 10
-31.831775
 20
-66.95793
 11
-31.831775
 21
-79.624597
  0
LINE
  8
別途部材
  6
CONTINUOUS
 10
-29.831775
 20
-67.95793
 11
-29.831775
 21
-79.624597
  0
LINE
  8
別途部材
  6
CONTINUOUS
 10
-27.831775
 20
-66.95793
 11
-27.831775
 21
-79.624597
  0
LINE
  8
別途部材
  6
CONTINUOUS
 10
-28.831775
 20
-66.95793
 11
-28.831775
 21
-79.624597
  0
LINE
  8
別途部材
  6
CONTINUOUS
 10
-22.831775
 20
-67.95793
 11
-22.831775
 21
-79.624597
  0
LINE
  8
別途部材
  6
CONTINUOUS
 10
-37.831775
 20
-67.95793
 11
-40.331775
 21
-67.95793
  0
LINE
  8
別途部材
  6
CONTINUOUS
 62
    96
 10
23.001557
 20
-79.624597
 11
23.401557
 21
-80.624597
  0
ARC
  8
別途部材
  6
CONTINUOUS
 10
-0.331776
 20
-93.910308
 40
25.952382
 50
33.398488
 51
90.0
  0
LINE
  8
別途部材
  6
CONTINUOUS
 10
23.401557
 20
-80.624597
 11
-20.331775
 21
-80.624597
  0
LINE
  8
別途部材
  6
CONTINUOUS
 62
    96
 10
23.001557
 20
-79.624597
 11
-20.331775
 21
-79.624597
  0
LINE
  8
別途部材
  6
CONTINUOUS
 10
-19.831775
 20
-66.95793
 11
-18.831775
 21
-67.95793
  0
LINE
  8
別途部材
  6
CONTINUOUS
 10
-17.831775
 20
-67.95793
 11
-16.831775
 21
-66.95793
  0
LINE
  8
別途部材
  6
CONTINUOUS
 10
-15.831775
 20
-66.95793
 11
-14.831775
 21
-67.95793
  0
LINE
  8
別途部材
  6
CONTINUOUS
 10
-16.831775
 20
-66.95793
 11
-15.831775
 21
-66.95793
  0
LINE
  8
別途部材
  6
CONTINUOUS
 10
-19.831775
 20
-66.95793
 11
-20.331775
 21
-66.95793
  0
LINE
  8
別途部材
  6
CONTINUOUS
 10
-13.831775
 20
-67.95793
 11
-12.831775
 21
-66.95793
  0
LINE
  8
別途部材
  6
CONTINUOUS
 10
-11.831775
 20
-66.95793
 11
-10.831775
 21
-67.95793
  0
LINE
  8
別途部材
  6
CONTINUOUS
 10
-12.831775
 20
-66.95793
 11
-11.831775
 21
-66.95793
  0
LINE
  8
別途部材
  6
CONTINUOUS
 10
-9.831775
 20
-67.95793
 11
-8.831775
 21
-66.95793
  0
LINE
  8
別途部材
  6
CONTINUOUS
 10
-7.831775
 20
-66.95793
 11
-6.831775
 21
-67.95793
  0
LINE
  8
別途部材
  6
CONTINUOUS
 10
-8.831775
 20
-66.95793
 11
-7.831775
 21
-66.95793
  0
LINE
  8
別途部材
  6
CONTINUOUS
 10
-5.831775
 20
-67.95793
 11
-4.831775
 21
-66.95793
  0
LINE
  8
別途部材
  6
CONTINUOUS
 10
-3.831775
 20
-66.95793
 11
-2.831775
 21
-67.95793
  0
LINE
  8
別途部材
  6
CONTINUOUS
 10
-4.831775
 20
-66.95793
 11
-3.831775
 21
-66.95793
  0
LINE
  8
別途部材
  6
CONTINUOUS
 10
-6.831775
 20
-67.95793
 11
-5.831775
 21
-67.95793
  0
LINE
  8
別途部材
  6
CONTINUOUS
 10
-10.831775
 20
-67.95793
 11
-9.831775
 21
-67.95793
  0
LINE
  8
別途部材
  6
CONTINUOUS
 10
-14.831775
 20
-67.95793
 11
-13.831775
 21
-67.95793
  0
LINE
  8
別途部材
  6
CONTINUOUS
 10
-17.831775
 20
-67.95793
 11
-18.831775
 21
-67.95793
  0
LINE
  8
別途部材
  6
CONTINUOUS
 10
-3.831775
 20
-66.95793
 11
-3.831775
 21
-79.624597
  0
LINE
  8
別途部材
  6
CONTINUOUS
 10
-4.831775
 20
-66.95793
 11
-4.831775
 21
-79.624597
  0
LINE
  8
別途部材
  6
CONTINUOUS
 10
-14.831775
 20
-67.95793
 11
-14.831775
 21
-79.624597
  0
LINE
  8
別途部材
  6
CONTINUOUS
 10
-19.831775
 20
-66.95793
 11
-19.831775
 21
-79.624597
  0
LINE
  8
別途部材
  6
CONTINUOUS
 10
-18.831775
 20
-67.95793
 11
-18.831775
 21
-79.624597
  0
LINE
  8
別途部材
  6
CONTINUOUS
 10
-16.831775
 20
-66.95793
 11
-16.831775
 21
-79.624597
  0
LINE
  8
別途部材
  6
CONTINUOUS
 10
-15.831775
 20
-66.95793
 11
-15.831775
 21
-79.624597
  0
LINE
  8
別途部材
  6
CONTINUOUS
 10
-13.831775
 20
-67.95793
 11
-13.831775
 21
-79.624597
  0
LINE
  8
別途部材
  6
CONTINUOUS
 10
-2.831775
 20
-67.95793
 11
-2.831775
 21
-79.624597
  0
LINE
  8
別途部材
  6
CONTINUOUS
 10
-6.831775
 20
-67.95793
 11
-6.831775
 21
-79.624597
  0
LINE
  8
別途部材
  6
CONTINUOUS
 10
-5.831775
 20
-67.95793
 11
-5.831775
 21
-79.624597
  0
LINE
  8
別途部材
  6
CONTINUOUS
 10
-7.831775
 20
-66.95793
 11
-7.831775
 21
-79.624597
  0
LINE
  8
別途部材
  6
CONTINUOUS
 10
-9.831775
 20
-67.95793
 11
-9.831775
 21
-79.624597
  0
LINE
  8
別途部材
  6
CONTINUOUS
 10
-8.831775
 20
-66.95793
 11
-8.831775
 21
-79.624597
  0
LINE
  8
別途部材
  6
CONTINUOUS
 10
-10.831775
 20
-67.95793
 11
-10.831775
 21
-79.624597
  0
LINE
  8
別途部材
  6
CONTINUOUS
 10
-12.831775
 20
-66.95793
 11
-12.831775
 21
-79.624597
  0
LINE
  8
別途部材
  6
CONTINUOUS
 10
-11.831775
 20
-66.95793
 11
-11.831775
 21
-79.624597
  0
LINE
  8
別途部材
  6
CONTINUOUS
 10
-17.831775
 20
-67.95793
 11
-17.831775
 21
-79.624597
  0
LINE
  8
別途部材
  6
CONTINUOUS
 10
-2.831775
 20
-67.95793
 11
-0.331775
 21
-67.95793
  0
ENDBLK
  0
BLOCK
  2
*DIM_0005
 70
    65
 10
0.0
 20
0.0
  0
LINE
  8
寸法
  6
BYBLOCK
 62
     0
 10
55.35454
 20
13.399048
 11
55.35454
 21
56.73238
  0
POINT
  8
寸法
 62
     0
 10
55.35454
 20
13.399048
  0
POINT
  8
寸法
 62
     0
 10
55.35454
 20
56.73238
  0
TEXT
  7
TextStyle03
  8
寸法
  6
CONTINUOUS
 62
     0
 10
55.025
 20
23.33125
  1
呼称寸法　1300
 40
3.0
 50
90.0
 72
     5
 11
55.025
 21
46.76875
  0
ENDBLK
  0
BLOCK
  2
*GRP_0006
 70
    65
 10
0.0
 20
0.0
  0
LINE
  8
別途部材
  6
CONTINUOUS
 62
    96
 10
114.733907
 20
57.966037
 11
114.733907
 21
57.866037
  0
LINE
  8
別途部材
  6
CONTINUOUS
 62
    96
 10
112.632827
 20
58.066037
 11
112.7025
 21
59.396842
  0
LINE
  8
別途部材
  6
CONTINUOUS
 62
    96
 10
113.250575
 20
59.406037
 11
113.133907
 21
59.672703
  0
LINE
  8
別途部材
  6
CONTINUOUS
 62
    96
 10
113.150575
 20
59.38512
 11
113.083055
 21
59.539452
  0
LINE
  8
別途部材
  6
CONTINUOUS
 62
    96
 10
112.60373
 20
59.422957
 11
112.73418
 21
59.68316
  0
LINE
  8
別途部材
  6
CONTINUOUS
 62
    96
 10
112.7025
 20
59.396842
 11
112.83466
 21
59.660453
  0
LINE
  8
別途部材
  6
CONTINUOUS
 62
    96
 10
112.870263
 20
59.595572
 11
112.806615
 21
59.518442
  0
LINE
  8
別途部材
  6
DASHDOTX2
 62
    96
 10
112.933907
 20
59.672703
 11
112.620422
 21
59.672703
  0
LINE
  8
別途部材
  6
DASHDOTX2
 62
    96
 10
112.933907
 20
59.672703
 11
113.264367
 21
59.672703
  0
LINE
  8
別途部材
  6
DASHDOTX2
 62
    96
 10
112.933907
 20
59.672703
 11
112.933907
 21
59.409232
  0
LINE
  8
別途部材
  6
DASHDOTX2
 62
    96
 10
112.933907
 20
59.672703
 11
112.933907
 21
59.951013
  0
LINE
  8
別途部材
  6
CONTINUOUS
 62
    96
 10
113.150575
 20
57.866037
 11
113.150575
 21
59.38512
  0
LINE
  8
別途部材
  6
CONTINUOUS
 62
    96
 10
113.250575
 20
57.966037
 11
113.250575
 21
59.406037
  0
LINE
  8
別途部材
  6
CONTINUOUS
 62
    96
 10
111.399495
 20
58.166037
 11
112.537925
 21
58.166037
  0
LINE
  8
別途部材
  6
CONTINUOUS
 62
    96
 10
111.399495
 20
58.066037
 11
111.399495
 21
58.166037
  0
LINE
  8
別途部材
  6
CONTINUOUS
 62
    96
 10
111.399495
 20
58.066037
 11
112.632827
 21
58.066037
  0
CIRCLE
  8
別途部材
  6
CONTINUOUS
 62
    96
 10
112.933907
 20
59.672703
 40
0.1
  0
ARC
  8
別途部材
  6
CONTINUOUS
 62
    96
 10
112.933907
 20
59.672705
 40
0.2
 50
218.780606
 51
537.001556
  0
LINE
  8
別途部材
  6
CONTINUOUS
 62
    96
 10
113.150575
 20
57.866037
 11
114.733907
 21
57.866037
  0
LINE
  8
別途部材
  6
CONTINUOUS
 62
    96
 10
113.250575
 20
57.966037
 11
114.733907
 21
57.966037
  0
LINE
  8
別途部材
  6
CONTINUOUS
 62
    96
 10
112.60373
 20
59.422957
 11
112.537925
 21
58.166037
  0
ENDBLK
  0
BLOCK
  2
*DIM_0007
 70
    65
 10
0.0
 20
0.0
  0
LINE
  8
寸法
  6
BYBLOCK
 62
     0
 10
97.9838
 20
38.065715
 11
97.9838
 21
71.694765
  0
LINE
  8
寸法
  6
BYBLOCK
 62
     0
 10
109.650465
 20
61.399048
 11
109.650465
 21
71.694765
  0
LINE
  8
寸法
  6
BYBLOCK
 62
     0
 10
97.9838
 20
71.694765
 11
109.650465
 21
71.694765
  0
POINT
  8
寸法
 62
     0
 10
97.9838
 20
71.694765
  0
POINT
  8
寸法
 62
     0
 10
109.650465
 20
71.694765
  0
TEXT
  7
TextStyle03
  8
寸法
  6
CONTINUOUS
 62
     0
 10
101.3625
 20
72.05
  1
350
 40
3.0
 72
     5
 11
106.2375
 21
72.05
  0
ENDBLK
  0
BLOCK
  2
*DIM_0008
 70
    65
 10
0.0
 20
0.0
  0
LINE
  8
寸法
  6
BYBLOCK
 62
     0
 10
115.550585
 20
63.065853
 11
115.550585
 21
71.694765
  0
LINE
  8
寸法
  6
BYBLOCK
 62
     0
 10
109.650465
 20
71.694765
 11
115.550585
 21
71.694765
  0
POINT
  8
寸法
 62
     0
 10
115.550585
 20
71.694765
  0
TEXT
  7
TextStyle03
  8
寸法
  6
CONTINUOUS
 62
     0
 10
110.1625
 20
72.05
  1
177
 40
3.0
 72
     5
 11
115.0375
 21
72.05
  0
ENDBLK
  0
BLOCK
  2
*DIM_0009
 70
    65
 10
0.0
 20
0.0
  0
LINE
  8
寸法
  6
BYBLOCK
 62
     0
 10
112.050583
 20
60.065853
 11
55.35454
 21
60.065853
  0
LINE
  8
寸法
  6
BYBLOCK
 62
     0
 10
55.35454
 20
56.73238
 11
55.35454
 21
60.065853
  0
POINT
  8
寸法
 62
     0
 10
55.35454
 20
56.73238
  0
POINT
  8
寸法
 62
     0
 10
55.35454
 20
60.065853
  0
TEXT
  7
TextStyle03
  8
寸法
  6
CONTINUOUS
 62
     0
 10
58.375
 20
61.1125
  1
100
 40
3.0
 50
90.0
 72
     5
 11
58.375
 21
65.9875
  0
ENDBLK
  0
BLOCK
  2
*DIM_0010
 70
    65
 10
0.0
 20
0.0
  0
LINE
  8
寸法
  6
BYBLOCK
 62
     0
 10
112.050583
 20
10.065577
 11
55.35454
 21
10.065577
  0
LINE
  8
寸法
  6
BYBLOCK
 62
     0
 10
55.35454
 20
13.39905
 11
55.35454
 21
10.065577
  0
POINT
  8
寸法
 62
     0
 10
55.35454
 20
13.39905
  0
POINT
  8
寸法
 62
     0
 10
55.35454
 20
10.065577
  0
TEXT
  7
TextStyle03
  8
寸法
  6
CONTINUOUS
 62
     0
 10
58.375
 20
4.1375
  1
100
 40
3.0
 50
90.0
 72
     5
 11
58.375
 21
9.0125
  0
ENDBLK
  0
BLOCK
  2
*DIM_0011
 70
    65
 10
0.0
 20
0.0
  0
LINE
  8
寸法
  6
BYBLOCK
 62
     0
 10
2.668225
 20
-67.957932
 11
36.297275
 21
-67.957932
  0
LINE
  8
寸法
  6
BYBLOCK
 62
     0
 10
26.001557
 20
-79.624597
 11
36.297275
 21
-79.624597
  0
LINE
  8
寸法
  6
BYBLOCK
 62
     0
 10
36.297275
 20
-67.957932
 11
36.297275
 21
-79.624597
  0
POINT
  8
寸法
 62
     0
 10
36.297275
 20
-67.957932
 50
-270.0
  0
POINT
  8
寸法
 62
     0
 10
36.297275
 20
-79.624597
 50
-270.0
  0
TEXT
  7
TextStyle03
  8
寸法
  6
CONTINUOUS
 62
     0
 10
36.675
 20
-71.3625
  1
350
 40
3.0
 50
270.0
 72
     5
 11
36.675
 21
-76.2375
  0
ENDBLK
  0
BLOCK
  2
*DIM_0012
 70
    65
 10
0.0
 20
0.0
  0
LINE
  8
寸法
  6
BYBLOCK
 62
     0
 10
27.668362
 20
-85.524718
 11
36.297275
 21
-85.524718
  0
LINE
  8
寸法
  6
BYBLOCK
 62
     0
 10
36.297275
 20
-79.624597
 11
36.297275
 21
-85.524718
  0
POINT
  8
寸法
 62
     0
 10
36.297275
 20
-85.524718
 50
-270.0
  0
TEXT
  7
TextStyle03
  8
寸法
  6
CONTINUOUS
 62
     0
 10
36.675
 20
-80.1625
  1
177
 40
3.0
 50
270.0
 72
     5
 11
36.675
 21
-85.0375
  0
ENDBLK
  0
BLOCK
  2
*DIM_0013
 70
    65
 10
0.0
 20
0.0
  0
LINE
  8
寸法
  6
BYBLOCK
 62
     0
 10
24.668362
 20
-82.024715
 11
24.668362
 21
-22.536362
  0
LINE
  8
寸法
  6
BYBLOCK
 62
     0
 10
21.33489
 20
-22.536362
 11
24.668362
 21
-22.536362
  0
POINT
  8
寸法
 62
     0
 10
21.33489
 20
-22.536362
  0
POINT
  8
寸法
 62
     0
 10
24.668362
 20
-22.536362
  0
TEXT
  7
TextStyle03
  8
寸法
  6
CONTINUOUS
 62
     0
 10
25.7875
 20
-25.7
  1
100
 40
3.0
 72
     5
 11
30.6625
 21
-25.7
  0
ENDBLK
  0
BLOCK
  2
*DIM_0014
 70
    65
 10
0.0
 20
0.0
  0
LINE
  8
寸法
  6
BYBLOCK
 62
     0
 10
-65.331917
 20
-82.024715
 11
-65.331917
 21
-22.536362
  0
LINE
  8
寸法
  6
BYBLOCK
 62
     0
 10
-61.998445
 20
-22.536362
 11
-65.331917
 21
-22.536362
  0
POINT
  8
寸法
 62
     0
 10
-61.998445
 20
-22.536362
  0
POINT
  8
寸法
 62
     0
 10
-65.331917
 20
-22.536362
  0
TEXT
  7
TextStyle03
  8
寸法
  6
CONTINUOUS
 62
     0
 10
-71.3375
 20
-25.7
  1
100
 40
3.0
 72
     5
 11
-66.4625
 21
-25.7
  0
ENDBLK
  0
BLOCK
  2
*DIM_0015
 70
    65
 10
0.0
 20
0.0
  0
LINE
  8
寸法
  6
BYBLOCK
 62
     0
 10
118.961652
 20
-81.915207
 11
125.83601
 21
-81.915207
  0
LINE
  8
寸法
  6
BYBLOCK
 62
     0
 10
118.961652
 20
-38.04854
 11
125.83601
 21
-38.04854
  0
LINE
  8
寸法
  6
BYBLOCK
 62
     0
 10
125.83601
 20
-81.915207
 11
125.83601
 21
-38.04854
  0
POINT
  8
寸法
 62
     0
 10
125.83601
 20
-81.915207
  0
POINT
  8
寸法
 62
     0
 10
125.83601
 20
-38.04854
  0
TEXT
  7
TextStyle03
  8
寸法
  6
CONTINUOUS
 62
     0
 10
125.45
 20
-63.28125
  1
1316
 40
3.0
 50
90.0
 72
     5
 11
125.45
 21
-56.71875
  0
ENDBLK
  0
BLOCK
  2
*DIM_0016
 70
    65
 10
0.0
 20
0.0
  0
LINE
  8
寸法
  6
BYBLOCK
 62
     0
 10
74.461652
 20
-35.04854
 11
74.461652
 21
-29.095585
  0
LINE
  8
寸法
  6
BYBLOCK
 62
     0
 10
115.961652
 20
-35.04854
 11
115.961652
 21
-29.095585
  0
LINE
  8
寸法
  6
BYBLOCK
 62
     0
 10
74.461652
 20
-29.095585
 11
115.961652
 21
-29.095585
  0
POINT
  8
寸法
 62
     0
 10
74.461652
 20
-29.095585
  0
POINT
  8
寸法
 62
     0
 10
115.961652
 20
-29.095585
  0
TEXT
  7
TextStyle03
  8
寸法
  6
CONTINUOUS
 62
     0
 10
91.91875
 20
-28.725
  1
1245
 40
3.0
 72
     5
 11
98.48125
 21
-28.725
  0
ENDBLK
  0
BLOCK
  2
*DIM_0017
 70
    65
 10
0.0
 20
0.0
  0
LINE
  8
寸法
  6
BYBLOCK
 62
     0
 10
-64.998442
 20
23.399048
 11
-93.943607
 21
23.399048
  0
LINE
  8
寸法
  6
BYBLOCK
 62
     0
 10
-64.998442
 20
46.732382
 11
-93.943607
 21
46.732382
  0
LINE
  8
寸法
  6
BYBLOCK
 62
     0
 10
-93.943607
 20
23.399048
 11
-93.943607
 21
46.732382
  0
POINT
  8
寸法
 62
     0
 10
-93.943607
 20
23.399048
  0
POINT
  8
寸法
 62
     0
 10
-93.943607
 20
46.732382
  0
TEXT
  7
TextStyle03
  8
寸法
  6
CONTINUOUS
 62
     0
 10
-94.4
 20
32.6125
  1
700
 40
3.0
 50
90.0
 72
     5
 11
-94.4
 21
37.4875
  0
ENDBLK
  0
BLOCK
  2
*DIM_0018
 70
    65
 10
0.0
 20
0.0
  0
LINE
  8
寸法
  6
BYBLOCK
 62
     0
 10
-55.331778
 20
59.73238
 11
-55.331778
 21
89.48
  0
LINE
  8
寸法
  6
BYBLOCK
 62
     0
 10
-31.998445
 20
59.73238
 11
-31.998445
 21
89.48
  0
LINE
  8
寸法
  6
BYBLOCK
 62
     0
 10
-55.331778
 20
89.48
 11
-31.998445
 21
89.48
  0
POINT
  8
寸法
 62
     0
 10
-55.331778
 20
89.48
  0
POINT
  8
寸法
 62
     0
 10
-31.998445
 20
89.48
  0
TEXT
  7
TextStyle03
  8
寸法
  6
CONTINUOUS
 62
     0
 10
-46.1125
 20
89.85
  1
700
 40
3.0
 72
     5
 11
-41.2375
 21
89.85
  0
ENDBLK
  0
BLOCK
  2
*DIM_0019
 70
    65
 10
0.0
 20
0.0
  0
LINE
  8
寸法
  6
BYBLOCK
 62
     0
 10
-8.66511
 20
59.73238
 11
-8.66511
 21
89.48
  0
LINE
  8
寸法
  6
BYBLOCK
 62
     0
 10
-31.998445
 20
89.48
 11
-8.66511
 21
89.48
  0
POINT
  8
寸法
 62
     0
 10
-8.66511
 20
89.48
  0
TEXT
  7
TextStyle03
  8
寸法
  6
CONTINUOUS
 62
     0
 10
-22.7875
 20
89.85
  1
700
 40
3.0
 72
     5
 11
-17.9125
 21
89.85
  0
ENDBLK
  0
BLOCK
  2
*DIM_0020
 70
    65
 10
0.0
 20
0.0
  0
LINE
  8
寸法
  6
BYBLOCK
 62
     0
 10
14.668223
 20
59.73238
 11
14.668223
 21
89.48
  0
LINE
  8
寸法
  6
BYBLOCK
 62
     0
 10
-8.66511
 20
89.48
 11
14.668223
 21
89.48
  0
POINT
  8
寸法
 62
     0
 10
14.668223
 20
89.48
  0
TEXT
  7
TextStyle03
  8
寸法
  6
CONTINUOUS
 62
     0
 10
0.5625
 20
89.85
  1
700
 40
3.0
 72
     5
 11
5.4375
 21
89.85
  0
ENDBLK
  0
BLOCK
  2
*GRP_0021
 70
    65
 10
0.0
 20
0.0
  0
LINE
  8
ボルト／ビス
  6
CONTINUOUS
 10
22.001557
 20
-79.624597
 11
22.001557
 21
-79.15793
  0
LINE
  8
ボルト／ビス
  6
CONTINUOUS
 10
22.368225
 20
-79.624597
 11
22.368225
 21
-79.55793
  0
LINE
  8
ボルト／ビス
  6
CONTINUOUS
 10
22.368225
 20
-79.55793
 11
21.63489
 21
-79.55793
  0
LINE
  8
ボルト／ビス
  6
CONTINUOUS
 10
21.63489
 20
-79.55793
 11
21.63489
 21
-79.624597
  0
LINE
  8
ボルト／ビス
  6
CONTINUOUS
 10
22.368225
 20
-79.624597
 11
21.63489
 21
-79.624597
  0
LINE
  8
ボルト／ビス
  6
CONTINUOUS
 10
22.301557
 20
-79.524597
 11
22.301557
 21
-79.55793
  0
LINE
  8
ボルト／ビス
  6
CONTINUOUS
 10
22.301557
 20
-79.524597
 11
21.701557
 21
-79.524597
  0
LINE
  8
ボルト／ビス
  6
CONTINUOUS
 10
21.701557
 20
-79.524597
 11
21.701557
 21
-79.55793
  0
LINE
  8
ボルト／ビス
  6
CONTINUOUS
 62
    64
 10
22.161932
 20
-79.324597
 11
22.194008
 21
-79.336272
  0
ARC
  8
ボルト／ビス
  6
CONTINUOUS
 62
    64
 10
22.145896
 20
-79.429577
 40
0.104978
 50
90.0
 51
117.278033
  0
ARC
  8
ボルト／ビス
  6
CONTINUOUS
 62
    64
 10
22.001558
 20
-79.727001
 40
0.402402
 50
76.165015
 51
103.834998
  0
LINE
  8
ボルト／ビス
  6
CONTINUOUS
 62
    64
 10
21.841182
 20
-79.324597
 11
21.809108
 21
-79.336272
  0
ARC
  8
ボルト／ビス
  6
CONTINUOUS
 62
    64
 10
21.857221
 20
-79.429577
 40
0.104978
 50
62.721967
 51
90.0
  0
LINE
  8
ボルト／ビス
  6
CONTINUOUS
 62
    64
 10
22.161932
 20
-79.324597
 11
21.841182
 21
-79.324597
  0
LINE
  8
ボルト／ビス
  6
CONTINUOUS
 62
    64
 10
21.809108
 20
-79.336272
 11
21.809108
 21
-79.45793
  0
LINE
  8
ボルト／ビス
  6
CONTINUOUS
 62
    64
 10
21.905333
 20
-79.336272
 11
21.905333
 21
-79.45793
  0
LINE
  8
ボルト／ビス
  6
CONTINUOUS
 62
    64
 10
22.194008
 20
-79.336272
 11
22.194008
 21
-79.45793
  0
LINE
  8
ボルト／ビス
  6
CONTINUOUS
 62
    64
 10
22.097782
 20
-79.336272
 11
22.097782
 21
-79.45793
  0
LINE
  8
ボルト／ビス
  6
CONTINUOUS
 10
22.194008
 20
-79.45793
 11
21.809108
 21
-79.45793
  0
LINE
  8
ボルト／ビス
  6
CONTINUOUS
 10
22.201557
 20
-79.45793
 11
22.201557
 21
-79.524597
  0
LINE
  8
ボルト／ビス
  6
CONTINUOUS
 10
22.201557
 20
-79.45793
 11
21.801557
 21
-79.45793
  0
LINE
  8
ボルト／ビス
  6
CONTINUOUS
 10
21.801557
 20
-79.45793
 11
21.801557
 21
-79.524597
  0
ENDBLK
  0
BLOCK
  2
*GRP_0022
 70
    65
 10
0.0
 20
0.0
  0
LINE
  8
ボルト／ビス
  6
CONTINUOUS
 10
-62.665113
 20
-79.624597
 11
-62.665113
 21
-79.15793
  0
LINE
  8
ボルト／ビス
  6
CONTINUOUS
 10
-62.298445
 20
-79.624597
 11
-62.298445
 21
-79.55793
  0
LINE
  8
ボルト／ビス
  6
CONTINUOUS
 10
-62.298445
 20
-79.55793
 11
-63.03178
 21
-79.55793
  0
LINE
  8
ボルト／ビス
  6
CONTINUOUS
 10
-63.03178
 20
-79.55793
 11
-63.03178
 21
-79.624597
  0
LINE
  8
ボルト／ビス
  6
CONTINUOUS
 10
-62.298445
 20
-79.624597
 11
-63.03178
 21
-79.624597
  0
LINE
  8
ボルト／ビス
  6
CONTINUOUS
 10
-62.365113
 20
-79.524597
 11
-62.365113
 21
-79.55793
  0
LINE
  8
ボルト／ビス
  6
CONTINUOUS
 10
-62.365113
 20
-79.524597
 11
-62.965113
 21
-79.524597
  0
LINE
  8
ボルト／ビス
  6
CONTINUOUS
 10
-62.965113
 20
-79.524597
 11
-62.965113
 21
-79.55793
  0
LINE
  8
ボルト／ビス
  6
CONTINUOUS
 62
    64
 10
-62.504738
 20
-79.324597
 11
-62.472663
 21
-79.336272
  0
ARC
  8
ボルト／ビス
  6
CONTINUOUS
 62
    64
 10
-62.520774
 20
-79.429577
 40
0.104978
 50
90.0
 51
117.278033
  0
ARC
  8
ボルト／ビス
  6
CONTINUOUS
 62
    64
 10
-62.665111
 20
-79.727001
 40
0.402402
 50
76.165015
 51
103.834998
  0
LINE
  8
ボルト／ビス
  6
CONTINUOUS
 62
    64
 10
-62.825487
 20
-79.324597
 11
-62.857563
 21
-79.336272
  0
ARC
  8
ボルト／ビス
  6
CONTINUOUS
 62
    64
 10
-62.809449
 20
-79.429577
 40
0.104978
 50
62.721967
 51
90.0
  0
LINE
  8
ボルト／ビス
  6
CONTINUOUS
 62
    64
 10
-62.504738
 20
-79.324597
 11
-62.825487
 21
-79.324597
  0
LINE
  8
ボルト／ビス
  6
CONTINUOUS
 62
    64
 10
-62.857563
 20
-79.336272
 11
-62.857563
 21
-79.45793
  0
LINE
  8
ボルト／ビス
  6
CONTINUOUS
 62
    64
 10
-62.761337
 20
-79.336272
 11
-62.761337
 21
-79.45793
  0
LINE
  8
ボルト／ビス
  6
CONTINUOUS
 62
    64
 10
-62.472663
 20
-79.336272
 11
-62.472663
 21
-79.45793
  0
LINE
  8
ボルト／ビス
  6
CONTINUOUS
 62
    64
 10
-62.568887
 20
-79.336272
 11
-62.568887
 21
-79.45793
  0
LINE
  8
ボルト／ビス
  6
CONTINUOUS
 10
-62.472663
 20
-79.45793
 11
-62.857563
 21
-79.45793
  0
LINE
  8
ボルト／ビス
  6
CONTINUOUS
 10
-62.465113
 20
-79.45793
 11
-62.465113
 21
-79.524597
  0
LINE
  8
ボルト／ビス
  6
CONTINUOUS
 10
-62.465113
 20
-79.45793
 11
-62.865113
 21
-79.45793
  0
LINE
  8
ボルト／ビス
  6
CONTINUOUS
 10
-62.865113
 20
-79.45793
 11
-62.865113
 21
-79.524597
  0
ENDBLK
  0
BLOCK
  2
*GRP_0023
 70
    65
 10
0.0
 20
0.0
  0
LINE
  8
ボルト／ビス
  6
CONTINUOUS
 10
109.650465
 20
12.732378
 11
109.183798
 21
12.732378
  0
LINE
  8
ボルト／ビス
  6
CONTINUOUS
 10
109.650465
 20
13.099045
 11
109.583798
 21
13.099045
  0
LINE
  8
ボルト／ビス
  6
CONTINUOUS
 10
109.583798
 20
13.099045
 11
109.583798
 21
12.36571
  0
LINE
  8
ボルト／ビス
  6
CONTINUOUS
 10
109.583798
 20
12.36571
 11
109.650465
 21
12.36571
  0
LINE
  8
ボルト／ビス
  6
CONTINUOUS
 10
109.650465
 20
13.099045
 11
109.650465
 21
12.36571
  0
LINE
  8
ボルト／ビス
  6
CONTINUOUS
 10
109.550465
 20
13.032378
 11
109.583798
 21
13.032378
  0
LINE
  8
ボルト／ビス
  6
CONTINUOUS
 10
109.550465
 20
13.032378
 11
109.550465
 21
12.432378
  0
LINE
  8
ボルト／ビス
  6
CONTINUOUS
 10
109.550465
 20
12.432378
 11
109.583798
 21
12.432378
  0
LINE
  8
ボルト／ビス
  6
CONTINUOUS
 62
    64
 10
109.350465
 20
12.892752
 11
109.36214
 21
12.924827
  0
ARC
  8
ボルト／ビス
  6
CONTINUOUS
 62
    64
 10
109.455444
 20
12.876714
 40
0.104978
 50
180.0
 51
207.278033
  0
ARC
  8
ボルト／ビス
  6
CONTINUOUS
 62
    64
 10
109.752868
 20
12.732376
 40
0.402402
 50
166.165015
 51
193.834998
  0
LINE
  8
ボルト／ビス
  6
CONTINUOUS
 62
    64
 10
109.350465
 20
12.572003
 11
109.36214
 21
12.539927
  0
ARC
  8
ボルト／ビス
  6
CONTINUOUS
 62
    64
 10
109.455444
 20
12.588039
 40
0.104978
 50
152.721967
 51
180.0
  0
LINE
  8
ボルト／ビス
  6
CONTINUOUS
 62
    64
 10
109.350465
 20
12.892752
 11
109.350465
 21
12.572003
  0
LINE
  8
ボルト／ビス
  6
CONTINUOUS
 62
    64
 10
109.36214
 20
12.539927
 11
109.483798
 21
12.539927
  0
LINE
  8
ボルト／ビス
  6
CONTINUOUS
 62
    64
 10
109.36214
 20
12.636153
 11
109.483798
 21
12.636153
  0
LINE
  8
ボルト／ビス
  6
CONTINUOUS
 62
    64
 10
109.36214
 20
12.924827
 11
109.483798
 21
12.924827
  0
LINE
  8
ボルト／ビス
  6
CONTINUOUS
 62
    64
 10
109.36214
 20
12.828602
 11
109.483798
 21
12.828602
  0
LINE
  8
ボルト／ビス
  6
CONTINUOUS
 10
109.483798
 20
12.924827
 11
109.483798
 21
12.539927
  0
LINE
  8
ボルト／ビス
  6
CONTINUOUS
 10
109.483798
 20
12.932378
 11
109.550465
 21
12.932378
  0
LINE
  8
ボルト／ビス
  6
CONTINUOUS
 10
109.483798
 20
12.932378
 11
109.483798
 21
12.532378
  0
LINE
  8
ボルト／ビス
  6
CONTINUOUS
 10
109.483798
 20
12.532378
 11
109.550465
 21
12.532378
  0
ENDBLK
  0
BLOCK
  2
*GRP_0024
 70
    65
 10
0.0
 20
0.0
  0
LINE
  8
ボルト／ビス
  6
CONTINUOUS
 10
109.650465
 20
57.399048
 11
109.183798
 21
57.399048
  0
LINE
  8
ボルト／ビス
  6
CONTINUOUS
 10
109.650465
 20
57.765715
 11
109.583798
 21
57.765715
  0
LINE
  8
ボルト／ビス
  6
CONTINUOUS
 10
109.583798
 20
57.765715
 11
109.583798
 21
57.03238
  0
LINE
  8
ボルト／ビス
  6
CONTINUOUS
 10
109.583798
 20
57.03238
 11
109.650465
 21
57.03238
  0
LINE
  8
ボルト／ビス
  6
CONTINUOUS
 10
109.650465
 20
57.765715
 11
109.650465
 21
57.03238
  0
LINE
  8
ボルト／ビス
  6
CONTINUOUS
 10
109.550465
 20
57.699048
 11
109.583798
 21
57.699048
  0
LINE
  8
ボルト／ビス
  6
CONTINUOUS
 10
109.550465
 20
57.699048
 11
109.550465
 21
57.099048
  0
LINE
  8
ボルト／ビス
  6
CONTINUOUS
 10
109.550465
 20
57.099048
 11
109.583798
 21
57.099048
  0
LINE
  8
ボルト／ビス
  6
CONTINUOUS
 62
    64
 10
109.350465
 20
57.559423
 11
109.36214
 21
57.591497
  0
ARC
  8
ボルト／ビス
  6
CONTINUOUS
 62
    64
 10
109.455444
 20
57.543384
 40
0.104978
 50
180.0
 51
207.278033
  0
ARC
  8
ボルト／ビス
  6
CONTINUOUS
 62
    64
 10
109.752868
 20
57.399046
 40
0.402402
 50
166.165015
 51
193.834998
  0
LINE
  8
ボルト／ビス
  6
CONTINUOUS
 62
    64
 10
109.350465
 20
57.238673
 11
109.36214
 21
57.206597
  0
ARC
  8
ボルト／ビス
  6
CONTINUOUS
 62
    64
 10
109.455444
 20
57.254709
 40
0.104978
 50
152.721967
 51
180.0
  0
LINE
  8
ボルト／ビス
  6
CONTINUOUS
 62
    64
 10
109.350465
 20
57.559423
 11
109.350465
 21
57.238673
  0
LINE
  8
ボルト／ビス
  6
CONTINUOUS
 62
    64
 10
109.36214
 20
57.206597
 11
109.483798
 21
57.206597
  0
LINE
  8
ボルト／ビス
  6
CONTINUOUS
 62
    64
 10
109.36214
 20
57.302823
 11
109.483798
 21
57.302823
  0
LINE
  8
ボルト／ビス
  6
CONTINUOUS
 62
    64
 10
109.36214
 20
57.591497
 11
109.483798
 21
57.591497
  0
LINE
  8
ボルト／ビス
  6
CONTINUOUS
 62
    64
 10
109.36214
 20
57.495272
 11
109.483798
 21
57.495272
  0
LINE
  8
ボルト／ビス
  6
CONTINUOUS
 10
109.483798
 20
57.591497
 11
109.483798
 21
57.206597
  0
LINE
  8
ボルト／ビス
  6
CONTINUOUS
 10
109.483798
 20
57.599048
 11
109.550465
 21
57.599048
  0
LINE
  8
ボルト／ビス
  6
CONTINUOUS
 10
109.483798
 20
57.599048
 11
109.483798
 21
57.199048
  0
LINE
  8
ボルト／ビス
  6
CONTINUOUS
 10
109.483798
 20
57.199048
 11
109.550465
 21
57.199048
  0
ENDBLK
  0
BLOCK
  2
*GRP_0025
 70
    65
 10
0.0
 20
0.0
  0
LINE
  8
ボルト／ビス
  6
DOT
 10
109.004448
 20
60.38673
 11
108.674465
 21
60.716715
  0
LINE
  8
ボルト／ビス
  6
DOT
 10
109.263723
 20
60.646003
 11
109.21658
 21
60.693145
  0
LINE
  8
ボルト／ビス
  6
DOT
 10
109.21658
 20
60.693145
 11
108.698035
 21
60.174597
  0
LINE
  8
ボルト／ビス
  6
DOT
 10
108.698035
 20
60.174597
 11
108.745175
 21
60.127457
  0
LINE
  8
ボルト／ビス
  6
DOT
 10
109.263723
 20
60.646003
 11
108.745175
 21
60.127457
  0
LINE
  8
ボルト／ビス
  6
DOT
 10
109.14587
 20
60.669572
 11
109.16944
 21
60.646003
  0
LINE
  8
ボルト／ビス
  6
DOT
 10
109.14587
 20
60.669572
 11
108.721605
 21
60.24531
  0
LINE
  8
ボルト／ビス
  6
DOT
 10
108.721605
 20
60.24531
 11
108.745175
 21
60.22174
  0
LINE
  8
ボルト／ビス
  6
DOT
 62
    64
 10
108.905717
 20
60.712265
 11
108.936655
 21
60.72669
  0
ARC
  8
ボルト／ビス
  6
DOT
 62
    64
 10
108.968608
 20
60.626691
 40
0.104978
 50
135.0
 51
162.278033
  0
ARC
  8
ボルト／ビス
  6
DOT
 62
    64
 10
109.076857
 20
60.314318
 40
0.402402
 50
121.165015
 51
148.834998
  0
LINE
  8
ボルト／ビス
  6
DOT
 62
    64
 10
108.678915
 20
60.48546
 11
108.66449
 21
60.454525
  0
ARC
  8
ボルト／ビス
  6
DOT
 62
    64
 10
108.764484
 20
60.422567
 40
0.104978
 50
107.721967
 51
135.0
  0
LINE
  8
ボルト／ビス
  6
DOT
 62
    64
 10
108.905717
 20
60.712265
 11
108.678915
 21
60.48546
  0
LINE
  8
ボルト／ビス
  6
DOT
 62
    64
 10
108.66449
 20
60.454525
 11
108.750515
 21
60.3685
  0
LINE
  8
ボルト／ビス
  6
DOT
 62
    64
 10
108.73253
 20
60.522565
 11
108.818555
 21
60.43654
  0
LINE
  8
ボルト／ビス
  6
DOT
 62
    64
 10
108.936655
 20
60.72669
 11
109.02268
 21
60.640665
  0
LINE
  8
ボルト／ビス
  6
DOT
 62
    64
 10
108.868613
 20
60.658648
 11
108.954637
 21
60.572623
  0
LINE
  8
ボルト／ビス
  6
DOT
 10
109.02268
 20
60.640665
 11
108.750515
 21
60.3685
  0
LINE
  8
ボルト／ビス
  6
DOT
 10
109.028017
 20
60.646003
 11
109.07516
 21
60.598862
  0
LINE
  8
ボルト／ビス
  6
DOT
 10
109.028017
 20
60.646003
 11
108.745175
 21
60.36316
  0
LINE
  8
ボルト／ビス
  6
DOT
 10
108.745175
 20
60.36316
 11
108.792315
 21
60.31602
  0
ENDBLK
  0
BLOCK
  2
*GRP_0026
 70
    65
 10
0.0
 20
0.0
  0
LINE
  8
ボルト／ビス
  6
DOT
 10
77.42034
 20
28.802625
 11
77.090358
 21
29.13261
  0
LINE
  8
ボルト／ビス
  6
DOT
 10
77.679615
 20
29.061897
 11
77.632473
 21
29.10904
  0
LINE
  8
ボルト／ビス
  6
DOT
 10
77.632473
 20
29.10904
 11
77.113927
 21
28.590493
  0
LINE
  8
ボルト／ビス
  6
DOT
 10
77.113927
 20
28.590493
 11
77.161067
 21
28.543353
  0
LINE
  8
ボルト／ビス
  6
DOT
 10
77.679615
 20
29.061897
 11
77.161067
 21
28.543353
  0
LINE
  8
ボルト／ビス
  6
DOT
 10
77.561763
 20
29.085468
 11
77.585333
 21
29.061897
  0
LINE
  8
ボルト／ビス
  6
DOT
 10
77.561763
 20
29.085468
 11
77.137498
 21
28.661205
  0
LINE
  8
ボルト／ビス
  6
DOT
 10
77.137498
 20
28.661205
 11
77.161067
 21
28.637635
  0
LINE
  8
ボルト／ビス
  6
DOT
 62
    64
 10
77.32161
 20
29.12816
 11
77.352548
 21
29.142585
  0
ARC
  8
ボルト／ビス
  6
DOT
 62
    64
 10
77.384501
 20
29.042586
 40
0.104978
 50
135.0
 51
162.278033
  0
ARC
  8
ボルト／ビス
  6
DOT
 62
    64
 10
77.492749
 20
28.730213
 40
0.402402
 50
121.165015
 51
148.834998
  0
LINE
  8
ボルト／ビス
  6
DOT
 62
    64
 10
77.094808
 20
28.901355
 11
77.080383
 21
28.87042
  0
ARC
  8
ボルト／ビス
  6
DOT
 62
    64
 10
77.180377
 20
28.838462
 40
0.104978
 50
107.721967
 51
135.0
  0
LINE
  8
ボルト／ビス
  6
DOT
 62
    64
 10
77.32161
 20
29.12816
 11
77.094808
 21
28.901355
  0
LINE
  8
ボルト／ビス
  6
DOT
 62
    64
 10
77.080383
 20
28.87042
 11
77.166408
 21
28.784395
  0
LINE
  8
ボルト／ビス
  6
DOT
 62
    64
 10
77.148423
 20
28.93846
 11
77.234447
 21
28.852435
  0
LINE
  8
ボルト／ビス
  6
DOT
 62
    64
 10
77.352548
 20
29.142585
 11
77.438573
 21
29.05656
  0
LINE
  8
ボルト／ビス
  6
DOT
 62
    64
 10
77.284505
 20
29.074542
 11
77.37053
 21
28.988517
  0
LINE
  8
ボルト／ビス
  6
DOT
 10
77.438573
 20
29.05656
 11
77.166408
 21
28.784395
  0
LINE
  8
ボルト／ビス
  6
DOT
 10
77.44391
 20
29.061897
 11
77.491052
 21
29.014758
  0
LINE
  8
ボルト／ビス
  6
DOT
 10
77.44391
 20
29.061897
 11
77.161067
 21
28.779055
  0
LINE
  8
ボルト／ビス
  6
DOT
 10
77.161067
 20
28.779055
 11
77.208208
 21
28.731915
  0
ENDBLK
  0
ENDSEC
  0
SECTION
  2
ENTITIES
  0
POLYLINE
  8
通り芯
  6
CONTINUOUS
 66
     1
 70
     1
  0
VERTEX
  8
通り芯
 10
-210.0
 20
-148.5
  0
VERTEX
  8
通り芯
 10
210.0
 20
-148.5
  0
VERTEX
  8
通り芯
 10
210.0
 20
148.5
  0
VERTEX
  8
通り芯
 10
-210.0
 20
148.5
  0
SEQEND
  0
INSERT
  2
*GRP_0001
  8
型材断面
  6
CONTINUOUS
 10
0.0
 20
0.0
  0
LINE
  8
型材断面
  6
DASHDOT
 10
21.33489
 20
-87.251428
 11
21.33489
 21
56.73238
  0
LINE
  8
型材断面
  6
DASHDOT
 10
-20.331778
 20
-87.251428
 11
-20.331778
 21
56.73238
  0
LINE
  8
型材断面
  6
DASHDOT
 10
-61.998442
 20
-87.251428
 11
-61.998442
 21
56.73238
  0
LINE
  8
型材断面
  6
DASHDOT
 10
119.011652
 20
56.73238
 11
-61.998442
 21
56.73238
  0
LINE
  8
型材断面
  6
DASHDOT
 10
119.011652
 20
35.065715
 11
-61.998442
 21
35.065715
  0
LINE
  8
型材断面
  6
DASHDOT
 10
119.011652
 20
13.399048
 11
-61.998442
 21
13.399048
  0
LINE
  8
型材断面
  6
DOT
 10
-19.081778
 20
13.399048
 11
-19.081778
 21
56.73238
  0
LINE
  8
型材断面
  6
DOT
 10
-21.581778
 20
13.399048
 11
-21.581778
 21
56.73238
  0
LINE
  8
型材断面
  6
CONTINUOUS
 10
-64.628572
 20
35.065715
 11
-67.21908
 21
36.561345
  0
LINE
  8
型材断面
  6
CONTINUOUS
 10
-64.628572
 20
35.065715
 11
-67.21908
 21
33.570085
  0
LINE
  8
型材断面
  6
CONTINUOUS
 10
-67.21908
 20
33.570085
 11
-67.21908
 21
36.561345
  0
LINE
  8
型材断面
  6
CONTINUOUS
 10
-45.331775
 20
59.36251
 11
-46.827405
 21
61.953017
  0
LINE
  8
型材断面
  6
CONTINUOUS
 10
-45.331775
 20
59.36251
 11
-43.836145
 21
61.953017
  0
LINE
  8
型材断面
  6
CONTINUOUS
 10
-43.836145
 20
61.953017
 11
-46.827405
 21
61.953017
  0
LINE
  8
型材断面
  6
CONTINUOUS
 10
-102.85065
 20
94.709852
 11
-102.254595
 21
92.119345
  0
LINE
  8
型材断面
  6
CONTINUOUS
 10
-102.85065
 20
94.709852
 11
-103.446707
 21
92.119345
  0
LINE
  8
型材断面
  6
CONTINUOUS
 10
-103.446707
 20
92.119345
 11
-102.254595
 21
92.119345
  0
LINE
  8
型材断面
  6
CONTINUOUS
 10
-108.873237
 20
88.840452
 11
-62.63146
 21
88.840452
  0
LINE
  8
型材断面
  6
CONTINUOUS
 10
-102.85065
 20
101.239727
 11
-104.34628
 21
98.64922
  0
LINE
  8
型材断面
  6
CONTINUOUS
 10
-102.85065
 20
101.239727
 11
-101.35502
 21
98.64922
  0
LINE
  8
型材断面
  6
CONTINUOUS
 10
-101.35502
 20
98.64922
 11
-104.34628
 21
98.64922
  0
LINE
  8
型材断面
  6
CONTINUOUS
 10
-108.873237
 20
97.710625
 11
-62.63146
 21
97.710625
  0
LINE
  8
型材断面
  6
CONTINUOUS
 10
-108.873237
 20
83.05242
 11
-62.63146
 21
83.05242
  0
LINE
  8
型材断面
  6
CONTINUOUS
 10
-45.331775
 20
10.76892
 11
-46.827405
 21
8.178413
  0
LINE
  8
型材断面
  6
CONTINUOUS
 10
-45.331775
 20
10.76892
 11
-43.836145
 21
8.178413
  0
LINE
  8
型材断面
  6
CONTINUOUS
 10
-43.836145
 20
8.178413
 11
-46.827405
 21
8.178413
  0
LINE
  8
型材断面
  6
CONTINUOUS
 10
23.965018
 20
35.065715
 11
26.555525
 21
36.561345
  0
LINE
  8
型材断面
  6
CONTINUOUS
 10
23.965018
 20
35.065715
 11
26.555525
 21
33.570085
  0
LINE
  8
型材断面
  6
CONTINUOUS
 10
26.555525
 20
33.570085
 11
26.555525
 21
36.561345
  0
LINE
  8
型材断面
  6
CONTINUOUS
 10
4.66822
 20
59.36251
 11
6.16385
 21
61.953017
  0
LINE
  8
型材断面
  6
CONTINUOUS
 10
4.66822
 20
59.36251
 11
3.17259
 21
61.953017
  0
LINE
  8
型材断面
  6
CONTINUOUS
 10
3.17259
 20
61.953017
 11
6.16385
 21
61.953017
  0
LINE
  8
型材断面
  6
CONTINUOUS
 10
4.66822
 20
10.76892
 11
6.16385
 21
8.178413
  0
LINE
  8
型材断面
  6
CONTINUOUS
 10
4.66822
 20
10.76892
 11
3.17259
 21
8.178413
  0
LINE
  8
型材断面
  6
CONTINUOUS
 10
3.17259
 20
8.178413
 11
6.16385
 21
8.178413
  0
POLYLINE
  8
型材断面
  6
DASHDOT
 66
     1
  0
VERTEX
  8
型材断面
 10
-61.998442
 20
13.399048
  0
VERTEX
  8
型材断面
 10
-20.331778
 20
56.73238
  0
VERTEX
  8
型材断面
 10
21.33489
 20
13.399048
  0
SEQEND
  0
LINE
  8
型材断面
  6
CONTINUOUS
 62
    47
 10
111.590595
 20
58.055712
 11
111.580595
 21
58.065712
  0
LINE
  8
型材断面
  6
CONTINUOUS
 62
    47
 10
111.590595
 20
58.055712
 11
111.600595
 21
58.065712
  0
LINE
  8
型材断面
  6
CONTINUOUS
 62
    47
 10
112.232827
 20
58.055712
 11
112.222827
 21
58.065712
  0
LINE
  8
型材断面
  6
CONTINUOUS
 62
    47
 10
112.232827
 20
58.055712
 11
112.242828
 21
58.065712
  0
LINE
  8
型材断面
  6
CONTINUOUS
 62
    47
 10
112.650595
 20
58.065712
 11
112.242828
 21
58.065712
  0
LINE
  8
型材断面
  6
CONTINUOUS
 62
    47
 10
112.222827
 20
58.065712
 11
111.600595
 21
58.065712
  0
LINE
  8
型材断面
  6
CONTINUOUS
 62
    47
 10
111.580595
 20
58.065712
 11
110.88391
 21
58.065712
  0
LINE
  8
型材断面
  6
CONTINUOUS
 62
    47
 10
112.71692
 20
59.332523
 11
112.88355
 21
59.332523
  0
LINE
  8
型材断面
  6
CONTINUOUS
 62
    47
 10
113.783925
 20
57.855853
 11
113.773925
 21
57.865853
  0
LINE
  8
型材断面
  6
CONTINUOUS
 62
    47
 10
113.783925
 20
57.855853
 11
113.793925
 21
57.865853
  0
LINE
  8
型材断面
  6
CONTINUOUS
 62
    47
 10
114.2506
 20
57.855853
 11
114.2406
 21
57.865853
  0
LINE
  8
型材断面
  6
CONTINUOUS
 62
    47
 10
114.2506
 20
57.855853
 11
114.2606
 21
57.865853
  0
LINE
  8
型材断面
  6
CONTINUOUS
 62
    47
 10
113.150575
 20
57.865853
 11
113.773925
 21
57.865853
  0
LINE
  8
型材断面
  6
CONTINUOUS
 62
    47
 10
113.793925
 20
57.865853
 11
114.2406
 21
57.865853
  0
LINE
  8
型材断面
  6
CONTINUOUS
 62
    47
 10
115.050583
 20
60.065853
 11
115.550585
 21
60.065853
  0
LINE
  8
型材断面
  6
CONTINUOUS
 62
    47
 10
115.883915
 20
59.565863
 11
115.550585
 21
59.565863
  0
LINE
  8
型材断面
  6
CONTINUOUS
 62
    47
 10
115.050583
 20
60.065853
 11
114.883915
 21
57.865853
  0
LINE
  8
型材断面
  6
CONTINUOUS
 62
    47
 10
114.883915
 20
57.132378
 11
114.883915
 21
57.799187
  0
LINE
  8
型材断面
  6
CONTINUOUS
 62
    47
 10
114.783915
 20
57.855853
 11
114.773915
 21
57.865853
  0
LINE
  8
型材断面
  6
CONTINUOUS
 62
    47
 10
114.783915
 20
57.855853
 11
114.793915
 21
57.865853
  0
LINE
  8
型材断面
  6
CONTINUOUS
 62
    47
 10
114.883915
 20
57.865853
 11
114.793915
 21
57.865853
  0
LINE
  8
型材断面
  6
CONTINUOUS
 62
    47
 10
114.2606
 20
57.865853
 11
114.773915
 21
57.865853
  0
LINE
  8
型材断面
  6
CONTINUOUS
 62
    47
 10
113.150575
 20
59.33252
 11
113.017258
 21
59.33252
  0
LINE
  8
型材断面
  6
CONTINUOUS
 62
    47
 10
112.650595
 20
58.065712
 11
112.71692
 21
59.332523
  0
LINE
  8
型材断面
  6
CONTINUOUS
 62
    47
 10
110.88391
 20
57.795723
 11
110.650465
 21
57.795723
  0
LINE
  8
型材断面
  6
CONTINUOUS
 62
    47
 10
110.88391
 20
58.065712
 11
110.88391
 21
35.065712
  0
LINE
  8
型材断面
  6
CONTINUOUS
 10
112.650595
 20
58.065712
 11
112.650595
 21
35.065712
  0
LINE
  8
型材断面
  6
CONTINUOUS
 10
112.71692
 20
59.332523
 11
112.71692
 21
35.065712
  0
LINE
  8
型材断面
  6
CONTINUOUS
 62
    47
 10
113.017258
 20
59.33252
 11
113.017258
 21
35.065712
  0
LINE
  8
型材断面
  6
CONTINUOUS
 62
    47
 10
113.150575
 20
59.33252
 11
113.150575
 21
35.065712
  0
LINE
  8
型材断面
  6
CONTINUOUS
 62
    47
 10
112.88355
 20
59.332523
 11
112.88355
 21
35.065712
  0
LINE
  8
型材断面
  6
CONTINUOUS
 10
114.883915
 20
57.865853
 11
114.883915
 21
35.065712
  0
LINE
  8
型材断面
  6
CONTINUOUS
 10
115.050583
 20
60.065853
 11
115.050583
 21
35.065712
  0
LINE
  8
型材断面
  6
CONTINUOUS
 62
    47
 10
115.550585
 20
60.065853
 11
115.550585
 21
35.065712
  0
LINE
  8
型材断面
  6
CONTINUOUS
 62
    47
 10
115.883915
 20
59.565863
 11
115.883915
 21
35.065712
  0
LINE
  8
型材断面
  6
CONTINUOUS
 62
    47
 10
111.590595
 20
12.075713
 11
111.580595
 21
12.065712
  0
LINE
  8
型材断面
  6
CONTINUOUS
 62
    47
 10
111.590595
 20
12.075713
 11
111.600595
 21
12.065712
  0
LINE
  8
型材断面
  6
CONTINUOUS
 62
    47
 10
112.232827
 20
12.075713
 11
112.222827
 21
12.065712
  0
LINE
  8
型材断面
  6
CONTINUOUS
 62
    47
 10
112.232827
 20
12.075713
 11
112.242828
 21
12.065712
  0
LINE
  8
型材断面
  6
CONTINUOUS
 62
    47
 10
112.650595
 20
12.065712
 11
112.242828
 21
12.065712
  0
LINE
  8
型材断面
  6
CONTINUOUS
 62
    47
 10
112.222827
 20
12.065712
 11
111.600595
 21
12.065712
  0
LINE
  8
型材断面
  6
CONTINUOUS
 62
    47
 10
111.580595
 20
12.065712
 11
110.88391
 21
12.065712
  0
LINE
  8
型材断面
  6
CONTINUOUS
 62
    47
 10
112.71692
 20
10.798905
 11
112.88355
 21
10.798905
  0
LINE
  8
型材断面
  6
CONTINUOUS
 62
    47
 10
113.783925
 20
12.275573
 11
113.773925
 21
12.265573
  0
LINE
  8
型材断面
  6
CONTINUOUS
 62
    47
 10
113.783925
 20
12.275573
 11
113.793925
 21
12.265573
  0
LINE
  8
型材断面
  6
CONTINUOUS
 62
    47
 10
114.2506
 20
12.275573
 11
114.2406
 21
12.265573
  0
LINE
  8
型材断面
  6
CONTINUOUS
 62
    47
 10
114.2506
 20
12.275573
 11
114.2606
 21
12.265573
  0
LINE
  8
型材断面
  6
CONTINUOUS
 62
    47
 10
113.150575
 20
12.265573
 11
113.773925
 21
12.265573
  0
LINE
  8
型材断面
  6
CONTINUOUS
 62
    47
 10
113.793925
 20
12.265573
 11
114.2406
 21
12.265573
  0
LINE
  8
型材断面
  6
CONTINUOUS
 62
    47
 10
115.050583
 20
10.065573
 11
115.550585
 21
10.065573
  0
LINE
  8
型材断面
  6
CONTINUOUS
 62
    47
 10
115.883915
 20
10.565565
 11
115.550585
 21
10.565565
  0
LINE
  8
型材断面
  6
CONTINUOUS
 62
    47
 10
115.050583
 20
10.065573
 11
114.883915
 21
12.265573
  0
LINE
  8
型材断面
  6
CONTINUOUS
 62
    47
 10
114.883915
 20
12.999048
 11
114.883915
 21
12.33224
  0
LINE
  8
型材断面
  6
CONTINUOUS
 62
    47
 10
114.783915
 20
12.275573
 11
114.773915
 21
12.265573
  0
LINE
  8
型材断面
  6
CONTINUOUS
 62
    47
 10
114.783915
 20
12.275573
 11
114.793915
 21
12.265573
  0
LINE
  8
型材断面
  6
CONTINUOUS
 62
    47
 10
114.883915
 20
12.265573
 11
114.793915
 21
12.265573
  0
LINE
  8
型材断面
  6
CONTINUOUS
 62
    47
 10
114.2606
 20
12.265573
 11
114.773915
 21
12.265573
  0
LINE
  8
型材断面
  6
CONTINUOUS
 62
    47
 10
113.150575
 20
10.798907
 11
113.017258
 21
10.798907
  0
LINE
  8
型材断面
  6
CONTINUOUS
 62
    47
 10
112.650595
 20
12.065712
 11
112.71692
 21
10.798905
  0
LINE
  8
型材断面
  6
CONTINUOUS
 62
    47
 10
110.88391
 20
12.335702
 11
110.650465
 21
12.335702
  0
LINE
  8
型材断面
  6
CONTINUOUS
 62
    47
 10
110.88391
 20
12.065712
 11
110.88391
 21
35.065712
  0
LINE
  8
型材断面
  6
CONTINUOUS
 10
112.650595
 20
12.065712
 11
112.650595
 21
35.065712
  0
LINE
  8
型材断面
  6
CONTINUOUS
 10
112.71692
 20
10.798905
 11
112.71692
 21
35.065712
  0
LINE
  8
型材断面
  6
CONTINUOUS
 62
    47
 10
113.017258
 20
10.798907
 11
113.017258
 21
35.065712
  0
LINE
  8
型材断面
  6
CONTINUOUS
 62
    47
 10
113.150575
 20
10.798907
 11
113.150575
 21
35.065712
  0
LINE
  8
型材断面
  6
CONTINUOUS
 62
    47
 10
112.88355
 20
10.798905
 11
112.88355
 21
35.065712
  0
LINE
  8
型材断面
  6
CONTINUOUS
 10
114.883915
 20
12.265573
 11
114.883915
 21
35.065712
  0
LINE
  8
型材断面
  6
CONTINUOUS
 10
115.050583
 20
10.065573
 11
115.050583
 21
35.065712
  0
LINE
  8
型材断面
  6
CONTINUOUS
 62
    47
 10
115.550585
 20
10.065573
 11
115.550585
 21
35.065712
  0
LINE
  8
型材断面
  6
CONTINUOUS
 62
    47
 10
115.883915
 20
10.565565
 11
115.883915
 21
35.065712
  0
LINE
  8
型材断面
  6
DOT
 62
    47
 10
110.840658
 20
59.479183
 11
110.840658
 21
59.493325
  0
LINE
  8
型材断面
  6
DOT
 62
    47
 10
110.840658
 20
59.479183
 11
110.8548
 21
59.479183
  0
LINE
  8
型材断面
  6
DOT
 62
    47
 10
111.294785
 20
59.025058
 11
111.294785
 21
59.0392
  0
LINE
  8
型材断面
  6
DOT
 62
    47
 10
111.294785
 20
59.025058
 11
111.308925
 21
59.025058
  0
LINE
  8
型材断面
  6
DOT
 62
    47
 10
111.597263
 20
58.736722
 11
111.308925
 21
59.025058
  0
LINE
  8
型材断面
  6
DOT
 62
    47
 10
111.294785
 20
59.0392
 11
110.8548
 21
59.479183
  0
LINE
  8
型材断面
  6
DOT
 62
    47
 10
110.840658
 20
59.493325
 11
110.348027
 21
59.985958
  0
LINE
  8
型材断面
  6
DOT
 62
    47
 10
112.53993
 20
59.585592
 11
112.657755
 21
59.467768
  0
LINE
  8
型材断面
  6
DOT
 62
    47
 10
111.597263
 20
58.736722
 11
112.53993
 21
59.585592
  0
LINE
  8
型材断面
  6
DOT
 62
    47
 10
110.157115
 20
59.795045
 11
109.992045
 21
59.960117
  0
LINE
  8
型材断面
  6
DOT
 62
    47
 10
110.348027
 20
59.985958
 11
94.08457
 21
43.7225
  0
LINE
  8
型材断面
  6
DOT
 10
111.597263
 20
58.736722
 11
95.333805
 21
42.473265
  0
LINE
  8
型材断面
  6
DOT
 10
112.53993
 20
59.585592
 11
95.380705
 21
42.426368
  0
LINE
  8
型材断面
  6
DOT
 62
    47
 10
112.657755
 20
59.467768
 11
95.49853
 21
42.308542
  0
LINE
  8
型材断面
  6
DOT
 62
    47
 10
78.327888
 20
26.966412
 11
78.313745
 21
26.966412
  0
LINE
  8
型材断面
  6
DOT
 62
    47
 10
78.327888
 20
26.966412
 11
78.327888
 21
26.952273
  0
LINE
  8
型材断面
  6
DOT
 62
    47
 10
78.782015
 20
26.512287
 11
78.767872
 21
26.512287
  0
LINE
  8
型材断面
  6
DOT
 62
    47
 10
78.782015
 20
26.512287
 11
78.782015
 21
26.498145
  0
LINE
  8
型材断面
  6
DOT
 62
    47
 10
79.07035
 20
26.20981
 11
78.782015
 21
26.498145
  0
LINE
  8
型材断面
  6
DOT
 62
    47
 10
78.767872
 20
26.512287
 11
78.327888
 21
26.952273
  0
LINE
  8
型材断面
  6
DOT
 62
    47
 10
78.313745
 20
26.966412
 11
77.821115
 21
27.459045
  0
LINE
  8
型材断面
  6
DOT
 62
    47
 10
78.22148
 20
25.267143
 11
78.339305
 21
25.149317
  0
LINE
  8
型材断面
  6
DOT
 62
    47
 10
79.07035
 20
26.20981
 11
78.22148
 21
25.267143
  0
LINE
  8
型材断面
  6
DOT
 62
    47
 10
78.012027
 20
27.649957
 11
77.846955
 21
27.815027
  0
LINE
  8
型材断面
  6
DOT
 62
    47
 10
77.821115
 20
27.459045
 11
94.08457
 21
43.7225
  0
LINE
  8
型材断面
  6
DOT
 10
79.07035
 20
26.20981
 11
95.333805
 21
42.473265
  0
LINE
  8
型材断面
  6
DOT
 10
78.22148
 20
25.267143
 11
95.380705
 21
42.426368
  0
LINE
  8
型材断面
  6
DOT
 62
    47
 10
78.339305
 20
25.149317
 11
95.49853
 21
42.308542
  0
ARC
  8
型材断面
  6
DOT
 10
112.933908
 20
59.672704
 40
48.873825
 50
224.940963
 51
269.940964
  0
LINE
  8
型材断面
  6
CONTINUOUS
 62
    47
 10
22.658223
 20
-81.564728
 11
22.668223
 21
-81.554727
  0
LINE
  8
型材断面
  6
CONTINUOUS
 62
    47
 10
22.658223
 20
-81.564728
 11
22.668223
 21
-81.574727
  0
LINE
  8
型材断面
  6
CONTINUOUS
 62
    47
 10
22.658223
 20
-82.20696
 11
22.668223
 21
-82.19696
  0
LINE
  8
型材断面
  6
CONTINUOUS
 62
    47
 10
22.658223
 20
-82.20696
 11
22.668223
 21
-82.21696
  0
LINE
  8
型材断面
  6
CONTINUOUS
 62
    47
 10
22.668223
 20
-82.624727
 11
22.668223
 21
-82.21696
  0
LINE
  8
型材断面
  6
CONTINUOUS
 62
    47
 10
22.668223
 20
-82.19696
 11
22.668223
 21
-81.574727
  0
LINE
  8
型材断面
  6
CONTINUOUS
 62
    47
 10
22.668223
 20
-81.554727
 11
22.668223
 21
-80.858043
  0
LINE
  8
型材断面
  6
CONTINUOUS
 62
    47
 10
23.93503
 20
-82.691053
 11
23.93503
 21
-82.857683
  0
LINE
  8
型材断面
  6
CONTINUOUS
 62
    47
 10
22.458362
 20
-83.758057
 11
22.468362
 21
-83.748057
  0
LINE
  8
型材断面
  6
CONTINUOUS
 62
    47
 10
22.458362
 20
-83.758057
 11
22.468362
 21
-83.768058
  0
LINE
  8
型材断面
  6
CONTINUOUS
 62
    47
 10
22.458362
 20
-84.224733
 11
22.468362
 21
-84.214732
  0
LINE
  8
型材断面
  6
CONTINUOUS
 62
    47
 10
22.458362
 20
-84.224733
 11
22.468362
 21
-84.234732
  0
LINE
  8
型材断面
  6
CONTINUOUS
 62
    47
 10
22.468362
 20
-83.124708
 11
22.468362
 21
-83.748057
  0
LINE
  8
型材断面
  6
CONTINUOUS
 62
    47
 10
22.468362
 20
-83.768058
 11
22.468362
 21
-84.214732
  0
LINE
  8
型材断面
  6
CONTINUOUS
 62
    47
 10
24.668362
 20
-85.024715
 11
24.668362
 21
-85.524718
  0
LINE
  8
型材断面
  6
CONTINUOUS
 62
    47
 10
24.16837
 20
-85.858047
 11
24.16837
 21
-85.524718
  0
LINE
  8
型材断面
  6
CONTINUOUS
 62
    47
 10
24.668362
 20
-85.024715
 11
22.468362
 21
-84.858047
  0
LINE
  8
型材断面
  6
CONTINUOUS
 62
    47
 10
21.734887
 20
-84.858047
 11
22.401695
 21
-84.858047
  0
LINE
  8
型材断面
  6
CONTINUOUS
 62
    47
 10
22.458362
 20
-84.758047
 11
22.468362
 21
-84.748048
  0
LINE
  8
型材断面
  6
CONTINUOUS
 62
    47
 10
22.458362
 20
-84.758047
 11
22.468362
 21
-84.768048
  0
LINE
  8
型材断面
  6
CONTINUOUS
 62
    47
 10
22.468362
 20
-84.858047
 11
22.468362
 21
-84.768048
  0
LINE
  8
型材断面
  6
CONTINUOUS
 62
    47
 10
22.468362
 20
-84.234732
 11
22.468362
 21
-84.748048
  0
LINE
  8
型材断面
  6
CONTINUOUS
 62
    47
 10
23.935028
 20
-83.124708
 11
23.935028
 21
-82.99139
  0
LINE
  8
型材断面
  6
CONTINUOUS
 62
    47
 10
22.668223
 20
-82.624727
 11
23.93503
 21
-82.691053
  0
LINE
  8
型材断面
  6
CONTINUOUS
 62
    47
 10
22.398233
 20
-80.858043
 11
22.398233
 21
-80.624597
  0
LINE
  8
型材断面
  6
CONTINUOUS
 62
    47
 10
24.668362
 20
-85.524718
 11
-20.331778
 21
-85.524718
  0
LINE
  8
型材断面
  6
CONTINUOUS
 62
    47
 10
24.16837
 20
-85.858047
 11
-20.331778
 21
-85.858047
  0
LINE
  8
型材断面
  6
CONTINUOUS
 10
24.668362
 20
-85.024715
 11
-20.331778
 21
-85.024715
  0
LINE
  8
型材断面
  6
CONTINUOUS
 10
22.468362
 20
-84.858047
 11
-20.331778
 21
-84.858047
  0
LINE
  8
型材断面
  6
CONTINUOUS
 62
    47
 10
23.935028
 20
-83.124708
 11
-20.331778
 21
-83.124708
  0
LINE
  8
型材断面
  6
CONTINUOUS
 62
    47
 10
23.93503
 20
-82.857683
 11
-20.331778
 21
-82.857683
  0
LINE
  8
型材断面
  6
CONTINUOUS
 10
22.668223
 20
-82.624727
 11
-20.331778
 21
-82.624727
  0
LINE
  8
型材断面
  6
CONTINUOUS
 62
    47
 10
23.935028
 20
-82.99139
 11
-20.331778
 21
-82.99139
  0
LINE
  8
型材断面
  6
CONTINUOUS
 10
23.93503
 20
-82.691053
 11
-20.331778
 21
-82.691053
  0
LINE
  8
型材断面
  6
CONTINUOUS
 62
    47
 10
22.668223
 20
-80.858043
 11
-20.331778
 21
-80.858043
  0
LINE
  8
型材断面
  6
CONTINUOUS
 62
    47
 10
-63.321778
 20
-81.564728
 11
-63.331778
 21
-81.554727
  0
LINE
  8
型材断面
  6
CONTINUOUS
 62
    47
 10
-63.321778
 20
-81.564728
 11
-63.331778
 21
-81.574727
  0
LINE
  8
型材断面
  6
CONTINUOUS
 62
    47
 10
-63.321778
 20
-82.20696
 11
-63.331778
 21
-82.19696
  0
LINE
  8
型材断面
  6
CONTINUOUS
 62
    47
 10
-63.321778
 20
-82.20696
 11
-63.331778
 21
-82.21696
  0
LINE
  8
型材断面
  6
CONTINUOUS
 62
    47
 10
-63.331778
 20
-82.624727
 11
-63.331778
 21
-82.21696
  0
LINE
  8
型材断面
  6
CONTINUOUS
 62
    47
 10
-63.331778
 20
-82.19696
 11
-63.331778
 21
-81.574727
  0
LINE
  8
型材断面
  6
CONTINUOUS
 62
    47
 10
-63.331778
 20
-81.554727
 11
-63.331778
 21
-80.858043
  0
LINE
  8
型材断面
  6
CONTINUOUS
 62
    47
 10
-64.598585
 20
-82.691053
 11
-64.598585
 21
-82.857683
  0
LINE
  8
型材断面
  6
CONTINUOUS
 62
    47
 10
-63.121918
 20
-83.758057
 11
-63.131917
 21
-83.748057
  0
LINE
  8
型材断面
  6
CONTINUOUS
 62
    47
 10
-63.121918
 20
-83.758057
 11
-63.131917
 21
-83.768058
  0
LINE
  8
型材断面
  6
CONTINUOUS
 62
    47
 10
-63.121918
 20
-84.224733
 11
-63.131917
 21
-84.214732
  0
LINE
  8
型材断面
  6
CONTINUOUS
 62
    47
 10
-63.121918
 20
-84.224733
 11
-63.131917
 21
-84.234732
  0
LINE
  8
型材断面
  6
CONTINUOUS
 62
    47
 10
-63.131917
 20
-83.124708
 11
-63.131917
 21
-83.748057
  0
LINE
  8
型材断面
  6
CONTINUOUS
 62
    47
 10
-63.131917
 20
-83.768058
 11
-63.131917
 21
-84.214732
  0
LINE
  8
型材断面
  6
CONTINUOUS
 62
    47
 10
-65.331917
 20
-85.024715
 11
-65.331917
 21
-85.524718
  0
LINE
  8
型材断面
  6
CONTINUOUS
 62
    47
 10
-64.831925
 20
-85.858047
 11
-64.831925
 21
-85.524718
  0
LINE
  8
型材断面
  6
CONTINUOUS
 62
    47
 10
-65.331917
 20
-85.024715
 11
-63.131917
 21
-84.858047
  0
LINE
  8
型材断面
  6
CONTINUOUS
 62
    47
 10
-62.398442
 20
-84.858047
 11
-63.06525
 21
-84.858047
  0
LINE
  8
型材断面
  6
CONTINUOUS
 62
    47
 10
-63.121918
 20
-84.758047
 11
-63.131917
 21
-84.748048
  0
LINE
  8
型材断面
  6
CONTINUOUS
 62
    47
 10
-63.121918
 20
-84.758047
 11
-63.131917
 21
-84.768048
  0
LINE
  8
型材断面
  6
CONTINUOUS
 62
    47
 10
-63.131917
 20
-84.858047
 11
-63.131917
 21
-84.768048
  0
LINE
  8
型材断面
  6
CONTINUOUS
 62
    47
 10
-63.131917
 20
-84.234732
 11
-63.131917
 21
-84.748048
  0
LINE
  8
型材断面
  6
CONTINUOUS
 62
    47
 10
-64.598582
 20
-83.124708
 11
-64.598582
 21
-82.99139
  0
LINE
  8
型材断面
  6
CONTINUOUS
 62
    47
 10
-63.331778
 20
-82.624727
 11
-64.598585
 21
-82.691053
  0
LINE
  8
型材断面
  6
CONTINUOUS
 62
    47
 10
-63.061787
 20
-80.858043
 11
-63.061787
 21
-80.624597
  0
LINE
  8
型材断面
  6
CONTINUOUS
 62
    47
 10
-65.331917
 20
-85.524718
 11
-20.331778
 21
-85.524718
  0
LINE
  8
型材断面
  6
CONTINUOUS
 62
    47
 10
-64.831925
 20
-85.858047
 11
-20.331778
 21
-85.858047
  0
LINE
  8
型材断面
  6
CONTINUOUS
 10
-65.331917
 20
-85.024715
 11
-20.331778
 21
-85.024715
  0
LINE
  8
型材断面
  6
CONTINUOUS
 10
-63.131917
 20
-84.858047
 11
-20.331778
 21
-84.858047
  0
LINE
  8
型材断面
  6
CONTINUOUS
 62
    47
 10
-64.598582
 20
-83.124708
 11
-20.331778
 21
-83.124708
  0
LINE
  8
型材断面
  6
CONTINUOUS
 62
    47
 10
-64.598585
 20
-82.857683
 11
-20.331778
 21
-82.857683
  0
LINE
  8
型材断面
  6
CONTINUOUS
 10
-63.331778
 20
-82.624727
 11
-20.331778
 21
-82.624727
  0
LINE
  8
型材断面
  6
CONTINUOUS
 62
    47
 10
-64.598582
 20
-82.99139
 11
-20.331778
 21
-82.99139
  0
LINE
  8
型材断面
  6
CONTINUOUS
 10
-64.598585
 20
-82.691053
 11
-20.331778
 21
-82.691053
  0
LINE
  8
型材断面
  6
CONTINUOUS
 62
    47
 10
-63.331778
 20
-80.858043
 11
-20.331778
 21
-80.858043
  0
LINE
  8
型材断面
  6
CONTINUOUS
 10
23.401557
 20
11.33238
 11
24.668223
 21
10.065715
  0
LINE
  8
型材断面
  6
CONTINUOUS
 10
24.668223
 20
10.065715
 11
24.668223
 21
35.065715
  0
LINE
  8
型材断面
  6
CONTINUOUS
 10
24.668223
 20
10.065715
 11
-20.331778
 21
10.065715
  0
LINE
  8
型材断面
  6
CONTINUOUS
 10
23.401557
 20
58.79905
 11
24.668223
 21
60.065715
  0
LINE
  8
型材断面
  6
CONTINUOUS
 10
24.668223
 20
60.065715
 11
24.668223
 21
35.065715
  0
LINE
  8
型材断面
  6
CONTINUOUS
 10
24.668223
 20
60.065715
 11
-20.331778
 21
60.065715
  0
LINE
  8
型材断面
  6
CONTINUOUS
 10
-64.065113
 20
58.79905
 11
-65.331778
 21
60.065715
  0
LINE
  8
型材断面
  6
CONTINUOUS
 10
-65.331778
 20
60.065715
 11
-65.331778
 21
35.065715
  0
LINE
  8
型材断面
  6
CONTINUOUS
 10
-65.331778
 20
60.065715
 11
-20.331778
 21
60.065715
  0
LINE
  8
型材断面
  6
CONTINUOUS
 10
-64.065113
 20
11.33238
 11
-65.331778
 21
10.065715
  0
LINE
  8
型材断面
  6
CONTINUOUS
 10
-65.331778
 20
10.065715
 11
-65.331778
 21
35.065715
  0
LINE
  8
型材断面
  6
CONTINUOUS
 10
-65.331778
 20
10.065715
 11
-20.331778
 21
10.065715
  0
LINE
  8
ガラス
  6
CONTINUOUS
 10
115.961652
 20
-81.915207
 11
115.961652
 21
-38.04854
  0
LINE
  8
ガラス
  6
CONTINUOUS
 10
115.961652
 20
-38.04854
 11
74.461652
 21
-38.04854
  0
LINE
  8
ガラス
  6
CONTINUOUS
 10
74.461652
 20
-38.04854
 11
74.461652
 21
-81.915207
  0
LINE
  8
ガラス
  6
CONTINUOUS
 10
115.961652
 20
-81.915207
 11
74.461652
 21
-81.915207
  0
TEXT
  7
TextStyle03
  8
文字
  6
CONTINUOUS
 10
-100.1
 20
98.85
  1
は排水穴位置を示す
 40
3.0
 72
     5
 11
-70.1
 21
98.85
  0
TEXT
  7
TextStyle03
  8
文字
  6
CONTINUOUS
 10
-103.825
 20
83.975
  1
アンカー数量　１２ヶ所
 40
3.0
 72
     5
 11
-67.075
 21
83.975
  0
TEXT
  7
TextStyle03
  8
文字
  6
CONTINUOUS
 10
-100.1
 20
93.325
  1
はケーシング位置を示す
 40
3.0
 72
     5
 11
-63.35
 21
93.325
  0
TEXT
  7
TextStyle03
  8
文字
  6
CONTINUOUS
 10
-100.1
 20
89.95
  1
２ヶ所中1ヶ所に設定
 40
3.0
 72
     5
 11
-68.4125
 21
89.95
  0
TEXT
  7
TextStyle03
  8
文字
  6
CONTINUOUS
 10
82.15
 20
14.325
  1
45°
 40
3.0
 72
     5
 11
88.525
 21
14.325
  0
TEXT
  7
TextStyle03
  8
文字
  6
CONTINUOUS
 10
97.8
 20
-74.575
  1
網入り6.8t
 40
3.0
 72
     5
 11
114.4875
 21
-74.575
  0
TEXT
  7
TextStyle03
  8
文字
  6
CONTINUOUS
 10
104.475
 20
-79.25
  1
×２枚
 40
3.0
 72
     5
 11
114.225
 21
-79.25
  0
TEXT
  7
TextStyle03
  8
文字
  6
CONTINUOUS
 10
-99.6
 20
23.975
  1
アンカーピッチ
 40
3.0
 50
90.0
 72
     5
 11
-99.6
 21
47.225
  0
TEXT
  7
TextStyle03
  8
文字
  6
CONTINUOUS
 10
-55.375
 20
94.75
  1
アンカーピッチ
 40
3.0
 72
     5
 11
-32.125
 21
94.75
  0
TEXT
  7
TextStyle03
  8
文字
  6
CONTINUOUS
 10
78.1
 20
125.25
  1
シリーズ：ＴＤ２ＨＬ
 40
5.0
 72
     5
 11
133.725
 21
125.25
  0
TEXT
  7
TextStyle03
  8
文字
  6
CONTINUOUS
 10
78.1
 20
119.625
  1
　　　　　（片側開閉）1300×2500タイプ
 40
5.0
 72
     5
 11
184.35
 21
119.625
  0
TEXT
  7
TextStyle03
  8
文字
  6
CONTINUOUS
 10
78.1
 20
114.0
  1
図面名　：外観姿図
 40
5.0
 72
     5
 11
128.1
 21
114.0
  0
TEXT
  7
TextStyle03
  8
文字
  6
CONTINUOUS
 10
78.1
 20
108.375
  1
　　　　　　
 40
5.0
 72
     5
 11
111.225
 21
108.375
  0
TEXT
  7
TextStyle03
  8
文字
  6
CONTINUOUS
 10
77.425
 20
103.975
  1
ＮＳコード：ＮＳＨＺＬ
 40
5.0
 72
     5
 11
138.675
 21
103.975
  0
INSERT
  2
*DIM_0002
  8
寸法
  6
CONTINUOUS
 10
0.0
 20
0.0
  0
INSERT
  2
*DIM_0003
  8
寸法
  6
CONTINUOUS
 10
0.0
 20
0.0
  0
INSERT
  2
*DIM_0005
  8
寸法
  6
CONTINUOUS
 10
0.0
 20
0.0
  0
INSERT
  2
*DIM_0007
  8
寸法
  6
CONTINUOUS
 10
0.0
 20
0.0
  0
INSERT
  2
*DIM_0008
  8
寸法
  6
CONTINUOUS
 10
0.0
 20
0.0
  0
INSERT
  2
*DIM_0009
  8
寸法
  6
CONTINUOUS
 10
0.0
 20
0.0
  0
INSERT
  2
*DIM_0010
  8
寸法
  6
CONTINUOUS
 10
0.0
 20
0.0
  0
INSERT
  2
*DIM_0011
  8
寸法
  6
CONTINUOUS
 10
0.0
 20
0.0
  0
INSERT
  2
*DIM_0012
  8
寸法
  6
CONTINUOUS
 10
0.0
 20
0.0
  0
INSERT
  2
*DIM_0013
  8
寸法
  6
CONTINUOUS
 10
0.0
 20
0.0
  0
INSERT
  2
*DIM_0014
  8
寸法
  6
CONTINUOUS
 10
0.0
 20
0.0
  0
INSERT
  2
*DIM_0015
  8
寸法
  6
CONTINUOUS
 10
0.0
 20
0.0
  0
INSERT
  2
*DIM_0016
  8
寸法
  6
CONTINUOUS
 10
0.0
 20
0.0
  0
INSERT
  2
*DIM_0017
  8
寸法
  6
CONTINUOUS
 10
0.0
 20
0.0
  0
INSERT
  2
*DIM_0018
  8
寸法
  6
CONTINUOUS
 10
0.0
 20
0.0
  0
INSERT
  2
*DIM_0019
  8
寸法
  6
CONTINUOUS
 10
0.0
 20
0.0
  0
INSERT
  2
*DIM_0020
  8
寸法
  6
CONTINUOUS
 10
0.0
 20
0.0
  0
LINE
  8
別途部材
  6
CONTINUOUS
 10
23.401557
 20
11.33238
 11
23.001557
 21
11.73238
  0
LINE
  8
別途部材
  6
CONTINUOUS
 10
21.33489
 20
13.399048
 11
13.275635
 21
21.458305
  0
LINE
  8
別途部材
  6
CONTINUOUS
 10
23.001557
 20
11.73238
 11
23.001557
 21
35.065715
  0
LINE
  8
別途部材
  6
CONTINUOUS
 10
23.401557
 20
11.33238
 11
23.401557
 21
35.065715
  0
LINE
  8
別途部材
  6
CONTINUOUS
 10
23.401557
 20
58.79905
 11
23.001557
 21
58.39905
  0
LINE
  8
別途部材
  6
CONTINUOUS
 10
21.33489
 20
56.732382
 11
13.275635
 21
48.673125
  0
LINE
  8
別途部材
  6
CONTINUOUS
 10
23.001557
 20
58.39905
 11
23.001557
 21
35.065715
  0
LINE
  8
別途部材
  6
CONTINUOUS
 10
23.401557
 20
58.79905
 11
23.401557
 21
35.065715
  0
LINE
  8
別途部材
  6
CONTINUOUS
 10
23.401557
 20
58.79905
 11
-20.331778
 21
58.79905
  0
LINE
  8
別途部材
  6
CONTINUOUS
 10
23.001557
 20
58.39905
 11
-20.331778
 21
58.39905
  0
LINE
  8
別途部材
  6
CONTINUOUS
 10
23.001557
 20
11.73238
 11
-20.331778
 21
11.73238
  0
LINE
  8
別途部材
  6
CONTINUOUS
 10
23.401557
 20
11.33238
 11
-20.331778
 21
11.33238
  0
LINE
  8
別途部材
  6
CONTINUOUS
 10
-64.065113
 20
11.33238
 11
-63.665113
 21
11.73238
  0
LINE
  8
別途部材
  6
CONTINUOUS
 10
-61.998445
 20
13.399048
 11
-53.93919
 21
21.458305
  0
LINE
  8
別途部材
  6
CONTINUOUS
 10
-63.665113
 20
11.73238
 11
-63.665113
 21
35.065715
  0
LINE
  8
別途部材
  6
CONTINUOUS
 10
-64.065113
 20
11.33238
 11
-64.065113
 21
35.065715
  0
LINE
  8
別途部材
  6
CONTINUOUS
 10
-64.065113
 20
58.79905
 11
-63.665113
 21
58.39905
  0
LINE
  8
別途部材
  6
CONTINUOUS
 10
-61.998445
 20
56.732382
 11
-53.93919
 21
48.673125
  0
LINE
  8
別途部材
  6
CONTINUOUS
 10
-63.665113
 20
58.39905
 11
-63.665113
 21
35.065715
  0
LINE
  8
別途部材
  6
CONTINUOUS
 10
-64.065113
 20
58.79905
 11
-64.065113
 21
35.065715
  0
LINE
  8
別途部材
  6
CONTINUOUS
 10
-64.065113
 20
58.79905
 11
-20.331778
 21
58.79905
  0
LINE
  8
別途部材
  6
CONTINUOUS
 10
-63.665113
 20
58.39905
 11
-20.331778
 21
58.39905
  0
LINE
  8
別途部材
  6
CONTINUOUS
 10
-63.665113
 20
11.73238
 11
-20.331778
 21
11.73238
  0
LINE
  8
別途部材
  6
CONTINUOUS
 10
-64.065113
 20
11.33238
 11
-20.331778
 21
11.33238
  0
INSERT
  2
*GRP_0004
  8
別途部材
  6
CONTINUOUS
 10
0.0
 20
0.0
  0
LINE
  8
別途部材
  6
CONTINUOUS
 62
    96
 10
109.650465
 20
58.399048
 11
110.650465
 21
58.799048
  0
LINE
  8
別途部材
  6
CONTINUOUS
 62
    96
 10
109.650465
 20
58.399048
 11
109.650465
 21
35.065712
  0
LINE
  8
別途部材
  6
CONTINUOUS
 10
110.650465
 20
58.799048
 11
110.650465
 21
35.065712
  0
LINE
  8
別途部材
  6
CONTINUOUS
 62
    96
 10
109.650465
 20
11.732378
 11
110.650465
 21
11.332378
  0
LINE
  8
別途部材
  6
CONTINUOUS
 62
    96
 10
109.650465
 20
11.732378
 11
109.650465
 21
35.065712
  0
LINE
  8
別途部材
  6
CONTINUOUS
 10
110.650465
 20
11.332378
 11
110.650465
 21
35.065712
  0
ARC
  8
別途部材
  6
CONTINUOUS
 10
123.93618
 20
35.065714
 40
25.952381
 50
123.39849
 51
236.60151
  0
INSERT
  2
*GRP_0006
  8
別途部材
  6
CONTINUOUS
 10
0.0
 20
0.0
  0
LINE
  8
別途部材
  6
DOT
 62
    96
 10
109.71155
 20
61.093837
 11
110.7015
 21
60.669572
  0
LINE
  8
別途部材
  6
DOT
 62
    96
 10
109.71155
 20
61.093837
 11
93.212392
 21
44.594678
  0
LINE
  8
別途部材
  6
DOT
 10
110.7015
 20
60.669572
 11
93.9195
 21
43.887572
  0
LINE
  8
別途部材
  6
DOT
 62
    96
 10
76.713235
 20
28.09552
 11
77.137498
 21
27.10557
  0
LINE
  8
別途部材
  6
DOT
 62
    96
 10
76.713235
 20
28.09552
 11
93.212392
 21
44.594678
  0
LINE
  8
別途部材
  6
DOT
 10
77.137498
 20
27.10557
 11
93.9195
 21
43.887572
  0
ARC
  8
別途部材
  6
DOT
 10
103.31392
 20
34.493153
 40
25.952381
 50
78.39849
 51
191.60151
  0
INSERT
  2
*GRP_0021
  8
別途部材
  6
DOT
 10
0.0
 20
0.0
  0
INSERT
  2
*GRP_0022
  8
別途部材
  6
DOT
 10
0.0
 20
0.0
  0
INSERT
  2
*GRP_0023
  8
別途部材
  6
DOT
 10
0.0
 20
0.0
  0
INSERT
  2
*GRP_0024
  8
別途部材
  6
DOT
 10
0.0
 20
0.0
  0
INSERT
  2
*GRP_0025
  8
別途部材
  6
DOT
 10
0.0
 20
0.0
  0
INSERT
  2
*GRP_0026
  8
別途部材
  6
DOT
 10
0.0
 20
0.0
  0
ENDSEC
  0
EOF
