  0
SECTION
  2
HEADER
  9
$EXTMIN
 10
-210.0
 20
-148.5
  9
$EXTMAX
 10
210.0
 20
148.5
  9
$PDMODE
 70
    32
  9
$PDSIZE
 40
1.5
  9
$LTSCALE
 40
10.0
  0
ENDSEC
  0
SECTION
  2
TABLES
  0
TABLE
  2
LTYPE
 70
    15
  0
LTYPE
  2
CONTINUOUS
 70
    64
  3
実線
 72
    65
 73
     0
 40
0.0
  0
LTYPE
  2
DASHED
 70
    64
  3
破線A
 72
    65
 73
     2
 40
0.6
 49
0.4
 49
-0.2
  0
LTYPE
  2
DASHEDX2
 70
    64
  3
破線B
 72
    65
 73
     2
 40
1.3
 49
0.9
 49
-0.4
  0
LTYPE
  2
DASHDOT
 70
    64
  3
１点鎖線A
 72
    65
 73
     4
 40
0.5375
 49
0.375
 49
-0.05
 49
0.0625
 49
-0.05
  0
LTYPE
  2
DASHDOTX2
 70
    64
  3
１点鎖線B
 72
    65
 73
     4
 40
1.075
 49
0.75
 49
-0.1
 49
0.125
 49
-0.1
  0
LTYPE
  2
DIVIDE2
 70
    64
  3
２点鎖線A
 72
    65
 73
     6
 40
0.5125
 49
0.3
 49
-0.0375
 49
0.05
 49
-0.0375
 49
0.05
 49
-0.0375
  0
LTYPE
  2
DIVIDE
 70
    64
  3
２点鎖線B
 72
    65
 73
     6
 40
1.05
 49
0.55
 49
-0.1
 49
0.1
 49
-0.1
 49
0.1
 49
-0.1
  0
LTYPE
  2
DOT
 70
    64
  3
点線A
 72
    65
 73
     2
 40
0.1125
 49
0.0625
 49
-0.05
  0
LTYPE
  2
DOTX2
 70
    64
  3
点線B
 72
    65
 73
     2
 40
0.275
 49
0.15
 49
-0.125
  0
LTYPE
  2
CONTINUOUS
 70
    64
  3
実線
 72
    65
 73
     0
 40
0.0
  0
LTYPE
  2
CONTINUOUS
 70
    64
  3
実線
 72
    65
 73
     0
 40
0.0
  0
LTYPE
  2
CONTINUOUS
 70
    64
  3
実線
 72
    65
 73
     0
 40
0.0
  0
LTYPE
  2
CONTINUOUS
 70
    64
  3
実線
 72
    65
 73
     0
 40
0.0
  0
LTYPE
  2
CONTINUOUS
 70
    64
  3
実線
 72
    65
 73
     0
 40
0.0
  0
LTYPE
  2
CONTINUOUS
 70
    64
  3
実線
 72
    65
 73
     0
 40
0.0
  0
ENDTAB
  0
TABLE
  2
LAYER
 70
    34
  0
LAYER
  2
通り芯
 70
     0
 62
    15
  6
CONTINUOUS
  0
LAYER
  2
補助線
 70
     0
 62
    16
  6
DOT
  0
LAYER
  2
躯体
 70
     0
 62
    31
  6
CONTINUOUS
  0
LAYER
  2
型材
 70
     0
 62
    32
  6
CONTINUOUS
  0
LAYER
  2
型材断面
 70
     0
 62
    47
  6
CONTINUOUS
  0
LAYER
  2
ガラス
 70
     0
 62
    48
  6
CONTINUOUS
  0
LAYER
  2
ゴム等
 70
     0
 62
    63
  6
CONTINUOUS
  0
LAYER
  2
ボルト／ビス
 70
     0
 62
    64
  6
CONTINUOUS
  0
LAYER
  2
文字
 70
     0
 62
    79
  6
CONTINUOUS
  0
LAYER
  2
寸法
 70
     0
 62
    80
  6
CONTINUOUS
  0
LAYER
  2
ﾊｯﾁﾝｸﾞ
 70
     0
 62
    95
  6
CONTINUOUS
  0
LAYER
  2
別途部材
 70
     0
 62
    96
  6
CONTINUOUS
  0
LAYER
  2
曲げ物
 70
     0
 62
   111
  6
CONTINUOUS
  0
LAYER
  2
鉄骨等
 70
     0
 62
   112
  6
CONTINUOUS
  0
LAYER
  2
St
 70
     0
 62
   127
  6
CONTINUOUS
  0
LAYER
  2
その他部品等
 70
     0
 62
   128
  6
CONTINUOUS
  0
LAYER
  2
ｶﾞｽｹｯﾄ
 70
     0
 62
   143
  6
CONTINUOUS
  0
LAYER
  2
ｽｹｯﾁ
 70
     0
 62
    14
  6
CONTINUOUS
  0
LAYER
  2
0
 70
     0
 62
    17
  6
CONTINUOUS
  0
LAYER
  2
1
 70
     0
 62
    30
  6
CONTINUOUS
  0
LAYER
  2
4
 70
     0
 62
    33
  6
CONTINUOUS
  0
LAYER
  2
ﾚｲﾔ3
 70
     0
 62
    46
  6
CONTINUOUS
  0
LAYER
  2
外形線
 70
     0
 62
    49
  6
CONTINUOUS
  0
LAYER
  2
部品
 70
     0
 62
    14
  6
CONTINUOUS
  0
LAYER
  2
サッシ芯
 70
     0
 62
    17
  6
DASHDOTX2
  0
LAYER
  2
寸法線
 70
     0
 62
    62
  6
CONTINUOUS
  0
LAYER
  2
姿図外形線
 70
     0
 62
    65
  6
CONTINUOUS
  0
LAYER
  2
姿補助線
 70
     0
 62
    30
  6
CONTINUOUS
  0
LAYER
  2
透視線
 70
     0
 62
    78
  6
DOT
  0
LAYER
  2
用紙
 70
     0
 62
    81
  6
CONTINUOUS
  0
LAYER
  2
実線図枠
 70
     0
 62
    94
  6
CONTINUOUS
  0
LAYER
  2
補助図枠
 70
     0
 62
    97
  6
CONTINUOUS
  0
LAYER
  2
建具記号
 70
     0
 62
   110
  6
CONTINUOUS
  0
LAYER
  2
補助文字
 70
     0
 62
   113
  6
CONTINUOUS
  0
ENDTAB
  0
TABLE
  2
STYLE
 70
    10
  0
STYLE
  2
STANDARD
 70
     0
 40
1.0
 41
1.0
 42
1.0
 50
0.0
 71
     0
  3
TXT
  4
BIGFONT
  0
STYLE
  2
TATE
 70
     4
 40
1.0
 41
1.0
 42
1.0
 50
0.0
 71
     0
  3
TXT
  4
BIGFONT
  0
STYLE
  2
TextStyle03
 70
     0
 40
1.0
 41
1.0
 42
1.0
 50
0.0
 71
     0
  3
MONOTXT
  4
BIGFONT
  0
STYLE
  2
TextStyle04
 70
     0
 40
1.0
 41
1.0
 42
1.0
 50
0.0
 71
     0
  3
MONOTXT
  4
BIGFONT
  0
STYLE
  2
TextStyle05
 70
     0
 40
1.0
 41
1.0
 42
1.0
 50
0.0
 71
     0
  3
MONOTXT
  4
BIGFONT
  0
STYLE
  2
TextStyle06
 70
     0
 40
1.0
 41
1.0
 42
1.0
 50
0.0
 71
     0
  3
MONOTXT
  4
BIGFONT
  0
STYLE
  2
TextStyle07
 70
     0
 40
1.0
 41
1.0
 42
1.0
 50
0.0
 71
     0
  3
MONOTXT
  4
BIGFONT
  0
STYLE
  2
TextStyle08
 70
     0
 40
1.0
 41
1.0
 42
1.0
 50
0.0
 71
     0
  3
MONOTXT
  4
BIGFONT
  0
STYLE
  2
TextStyle09
 70
     0
 40
1.0
 41
1.0
 42
1.0
 50
0.0
 71
     0
  3
MONOTXT
  4
BIGFONT
  0
STYLE
  2
TextStyle10
 70
     0
 40
1.0
 41
1.0
 42
1.0
 50
0.0
 71
     0
  3
MONOTXT
  4
BIGFONT
  0
ENDTAB
  0
ENDSEC
  0
SECTION
  2
BLOCKS
  0
BLOCK
  2
*HAT_0001
 70
    65
 10
0.0
 20
0.0
  0
LINE
  8
ゴム等
 10
-56.625
 20
-21.675
 11
-55.075
 21
-20.175
  0
LINE
  8
ゴム等
 10
-58.275
 20
-21.675
 11
-55.075
 21
-18.475
  0
LINE
  8
ゴム等
 10
-59.975
 20
-21.675
 11
-55.075
 21
-16.775
  0
LINE
  8
ゴム等
 10
-61.675
 20
-21.675
 11
-55.675
 21
-15.675
  0
LINE
  8
ゴム等
 10
-63.375
 20
-21.675
 11
-57.375
 21
-15.675
  0
LINE
  8
ゴム等
 10
-65.075
 20
-21.675
 11
-59.075
 21
-15.675
  0
LINE
  8
ゴム等
 10
-66.775
 20
-21.675
 11
-60.775
 21
-15.675
  0
LINE
  8
ゴム等
 10
-68.475
 20
-21.675
 11
-62.475
 21
-15.675
  0
LINE
  8
ゴム等
 10
-70.075
 20
-21.625
 11
-64.175
 21
-15.675
  0
LINE
  8
ゴム等
 10
-70.075
 20
-19.925
 11
-65.875
 21
-15.675
  0
LINE
  8
ゴム等
 10
-70.075
 20
-18.225
 11
-67.575
 21
-15.675
  0
LINE
  8
ゴム等
 10
-70.075
 20
-16.525
 11
-69.225
 21
-15.675
  0
ENDBLK
  0
BLOCK
  2
*HAT_0002
 70
    65
 10
0.0
 20
0.0
  0
LINE
  8
ゴム等
 10
-30.775
 20
75.325
 11
-29.025
 21
77.075
  0
LINE
  8
ゴム等
 10
-32.475
 20
75.325
 11
-29.725
 21
78.075
  0
LINE
  8
ゴム等
 10
-34.175
 20
75.325
 11
-31.175
 21
78.325
  0
LINE
  8
ゴム等
 10
-35.875
 20
75.325
 11
-32.875
 21
78.325
  0
LINE
  8
ゴム等
 10
-37.575
 20
75.325
 11
-34.575
 21
78.325
  0
LINE
  8
ゴム等
 10
-39.275
 20
75.325
 11
-36.275
 21
78.325
  0
LINE
  8
ゴム等
 10
-40.975
 20
75.325
 11
-37.925
 21
78.325
  0
LINE
  8
ゴム等
 10
-42.625
 20
75.325
 11
-39.625
 21
78.325
  0
LINE
  8
ゴム等
 10
-44.325
 20
75.325
 11
-41.325
 21
78.325
  0
LINE
  8
ゴム等
 10
-46.025
 20
75.325
 11
-43.025
 21
78.325
  0
LINE
  8
ゴム等
 10
-47.725
 20
75.325
 11
-44.725
 21
78.325
  0
LINE
  8
ゴム等
 10
-49.425
 20
75.325
 11
-46.425
 21
78.325
  0
LINE
  8
ゴム等
 10
-51.125
 20
75.325
 11
-48.125
 21
78.325
  0
LINE
  8
ゴム等
 10
-52.825
 20
75.325
 11
-49.825
 21
78.325
  0
LINE
  8
ゴム等
 10
-54.525
 20
75.325
 11
-51.525
 21
78.325
  0
LINE
  8
ゴム等
 10
-56.175
 20
75.325
 11
-53.225
 21
78.325
  0
LINE
  8
ゴム等
 10
-57.875
 20
75.325
 11
-54.875
 21
78.325
  0
LINE
  8
ゴム等
 10
-58.825
 20
76.075
 11
-56.575
 21
78.325
  0
ENDBLK
  0
BLOCK
  2
*HAT_0003
 70
    65
 10
0.0
 20
0.0
  0
LINE
  8
ゴム等
 10
-86.125
 20
-21.65
 11
-84.975
 21
-20.5
  0
LINE
  8
ゴム等
 10
-84.625
 20
-20.2
 11
-83.475
 21
-19.05
  0
LINE
  8
ゴム等
 10
-87.825
 20
-21.65
 11
-86.825
 21
-20.65
  0
LINE
  8
ゴム等
 10
-84.475
 20
-18.35
 11
-83.525
 21
-17.35
  0
LINE
  8
ゴム等
 10
-89.525
 20
-21.65
 11
-88.525
 21
-20.65
  0
LINE
  8
ゴム等
 10
-84.775
 20
-16.95
 11
-84.075
 21
-16.25
  0
LINE
  8
ゴム等
 10
-91.175
 20
-21.65
 11
-90.175
 21
-20.65
  0
LINE
  8
ゴム等
 10
-86.175
 20
-16.65
 11
-85.225
 21
-15.7
  0
LINE
  8
ゴム等
 10
-92.875
 20
-21.65
 11
-91.875
 21
-20.65
  0
LINE
  8
ゴム等
 10
-87.875
 20
-16.65
 11
-86.875
 21
-15.65
  0
LINE
  8
ゴム等
 10
-94.375
 20
-21.45
 11
-93.575
 21
-20.65
  0
LINE
  8
ゴム等
 10
-89.575
 20
-16.65
 11
-86.375
 21
-13.45
  0
LINE
  8
ゴム等
 10
-95.225
 20
-20.65
 11
-94.475
 21
-19.85
  0
LINE
  8
ゴム等
 10
-91.275
 20
-16.65
 11
-87.275
 21
-12.65
  0
LINE
  8
ゴム等
 10
-95.475
 20
-19.2
 11
-94.475
 21
-18.2
  0
LINE
  8
ゴム等
 10
-92.975
 20
-16.65
 11
-91.975
 21
-15.65
  0
LINE
  8
ゴム等
 10
-91.625
 20
-15.35
 11
-88.975
 21
-12.65
  0
LINE
  8
ゴム等
 10
-95.475
 20
-17.5
 11
-93.675
 21
-15.7
  0
LINE
  8
ゴム等
 10
-92.225
 20
-14.2
 11
-90.675
 21
-12.65
  0
LINE
  8
ゴム等
 10
-92.775
 20
-13.1
 11
-92.375
 21
-12.65
  0
ENDBLK
  0
BLOCK
  2
*HAT_0004
 70
    65
 10
0.0
 20
0.0
  0
LINE
  8
ゴム等
 10
-30.225
 20
48.025
 11
-29.025
 21
49.3
  0
LINE
  8
ゴム等
 10
-31.65
 20
48.025
 11
-29.025
 21
50.65
  0
LINE
  8
ゴム等
 10
-33.075
 20
48.025
 11
-29.025
 21
52.075
  0
LINE
  8
ゴム等
 10
-34.5
 20
48.025
 11
-29.025
 21
53.5
  0
LINE
  8
ゴム等
 10
-35.925
 20
48.025
 11
-29.025
 21
54.925
  0
LINE
  8
ゴム等
 10
-37.35
 20
48.025
 11
-29.025
 21
56.35
  0
LINE
  8
ゴム等
 10
-38.7
 20
48.025
 11
-29.025
 21
57.775
  0
LINE
  8
ゴム等
 10
-39.0
 20
49.15
 11
-30.15
 21
58.075
  0
LINE
  8
ゴム等
 10
-39.0
 20
50.575
 11
-31.575
 21
58.075
  0
LINE
  8
ゴム等
 10
-39.0
 20
52.0
 11
-33.0
 21
58.075
  0
LINE
  8
ゴム等
 10
-39.0
 20
53.425
 11
-34.35
 21
58.075
  0
LINE
  8
ゴム等
 10
-39.0
 20
54.775
 11
-35.775
 21
58.075
  0
LINE
  8
ゴム等
 10
-39.0
 20
56.2
 11
-37.2
 21
58.075
  0
LINE
  8
ゴム等
 10
-39.0
 20
57.625
 11
-38.625
 21
58.075
  0
ENDBLK
  0
BLOCK
  2
*HAT_0005
 70
    65
 10
0.0
 20
0.0
  0
LINE
  8
その他部品等
 10
-35.4
 20
-78.975
 11
-35.3
 21
-78.875
  0
LINE
  8
その他部品等
 10
-36.925
 20
-79.1
 11
-35.425
 21
-77.6
  0
LINE
  8
その他部品等
 10
-38.45
 20
-79.2
 11
-36.85
 21
-77.6
  0
LINE
  8
その他部品等
 10
-39.975
 20
-79.325
 11
-38.25
 21
-77.6
  0
LINE
  8
その他部品等
 10
-41.5
 20
-79.45
 11
-39.675
 21
-77.6
  0
LINE
  8
その他部品等
 10
-43.025
 20
-79.55
 11
-41.075
 21
-77.6
  0
LINE
  8
その他部品等
 10
-44.55
 20
-79.675
 11
-42.5
 21
-77.6
  0
LINE
  8
その他部品等
 10
-46.075
 20
-79.8
 11
-43.9
 21
-77.6
  0
LINE
  8
その他部品等
 10
-47.6
 20
-79.9
 11
-45.325
 21
-77.6
  0
LINE
  8
その他部品等
 10
-49.15
 20
-80.025
 11
-46.725
 21
-77.6
  0
LINE
  8
その他部品等
 10
-50.675
 20
-80.125
 11
-48.15
 21
-77.6
  0
LINE
  8
その他部品等
 10
-52.2
 20
-80.25
 11
-49.55
 21
-77.6
  0
LINE
  8
その他部品等
 10
-53.725
 20
-80.375
 11
-50.975
 21
-77.6
  0
LINE
  8
その他部品等
 10
-55.25
 20
-80.475
 11
-52.375
 21
-77.6
  0
LINE
  8
その他部品等
 10
-56.775
 20
-80.6
 11
-53.775
 21
-77.6
  0
LINE
  8
その他部品等
 10
-58.3
 20
-80.725
 11
-55.2
 21
-77.6
  0
LINE
  8
その他部品等
 10
-59.825
 20
-80.825
 11
-56.725
 21
-77.725
  0
LINE
  8
その他部品等
 10
-61.35
 20
-80.95
 11
-58.25
 21
-77.825
  0
LINE
  8
その他部品等
 10
-62.9
 20
-81.05
 11
-59.775
 21
-77.95
  0
LINE
  8
その他部品等
 10
-64.425
 20
-81.175
 11
-61.3
 21
-78.075
  0
LINE
  8
その他部品等
 10
-65.95
 20
-81.3
 11
-62.825
 21
-78.175
  0
LINE
  8
その他部品等
 10
-67.475
 20
-81.4
 11
-64.375
 21
-78.3
  0
LINE
  8
その他部品等
 10
-69.0
 20
-81.525
 11
-65.9
 21
-78.425
  0
LINE
  8
その他部品等
 10
-70.525
 20
-81.65
 11
-67.425
 21
-78.525
  0
LINE
  8
その他部品等
 10
-72.05
 20
-81.75
 11
-68.95
 21
-78.65
  0
LINE
  8
その他部品等
 10
-73.575
 20
-81.875
 11
-70.475
 21
-78.75
  0
LINE
  8
その他部品等
 10
-75.1
 20
-81.975
 11
-72.0
 21
-78.875
  0
LINE
  8
その他部品等
 10
-76.65
 20
-82.1
 11
-73.525
 21
-79.0
  0
LINE
  8
その他部品等
 10
-78.175
 20
-82.225
 11
-75.05
 21
-79.1
  0
LINE
  8
その他部品等
 10
-79.7
 20
-82.325
 11
-76.575
 21
-79.225
  0
LINE
  8
その他部品等
 10
-81.225
 20
-82.45
 11
-78.1
 21
-79.35
  0
LINE
  8
その他部品等
 10
-82.75
 20
-82.575
 11
-79.65
 21
-79.45
  0
LINE
  8
その他部品等
 10
-84.275
 20
-82.675
 11
-81.175
 21
-79.575
  0
LINE
  8
その他部品等
 10
-85.8
 20
-82.8
 11
-82.7
 21
-79.7
  0
LINE
  8
その他部品等
 10
-87.325
 20
-82.9
 11
-84.225
 21
-79.8
  0
LINE
  8
その他部品等
 10
-88.85
 20
-83.025
 11
-85.75
 21
-79.925
  0
LINE
  8
その他部品等
 10
-90.375
 20
-83.15
 11
-87.275
 21
-80.025
  0
LINE
  8
その他部品等
 10
-91.925
 20
-83.25
 11
-88.8
 21
-80.15
  0
LINE
  8
その他部品等
 10
-93.45
 20
-83.375
 11
-90.325
 21
-80.275
  0
LINE
  8
その他部品等
 10
-94.975
 20
-83.5
 11
-91.85
 21
-80.375
  0
LINE
  8
その他部品等
 10
-96.5
 20
-83.6
 11
-93.4
 21
-80.5
  0
LINE
  8
その他部品等
 10
-98.025
 20
-83.725
 11
-94.925
 21
-80.625
  0
LINE
  8
その他部品等
 10
-99.55
 20
-83.85
 11
-96.45
 21
-80.725
  0
LINE
  8
その他部品等
 10
-101.075
 20
-83.95
 11
-97.975
 21
-80.85
  0
LINE
  8
その他部品等
 10
-102.6
 20
-84.075
 11
-99.5
 21
-80.95
  0
LINE
  8
その他部品等
 10
-104.125
 20
-84.175
 11
-101.025
 21
-81.075
  0
LINE
  8
その他部品等
 10
-105.675
 20
-84.3
 11
-102.55
 21
-81.2
  0
LINE
  8
その他部品等
 10
-116.375
 20
-93.6
 11
-116.3
 21
-93.525
  0
LINE
  8
その他部品等
 10
-117.8
 20
-93.6
 11
-116.3
 21
-92.1
  0
LINE
  8
その他部品等
 10
-119.2
 20
-93.6
 11
-116.3
 21
-90.7
  0
LINE
  8
その他部品等
 10
-107.2
 20
-84.425
 11
-104.075
 21
-81.3
  0
LINE
  8
その他部品等
 10
-108.725
 20
-84.525
 11
-105.6
 21
-81.425
  0
LINE
  8
その他部品等
 10
-110.25
 20
-84.65
 11
-107.15
 21
-81.55
  0
LINE
  8
その他部品等
 10
-119.3
 20
-92.275
 11
-116.3
 21
-89.275
  0
LINE
  8
その他部品等
 10
-119.3
 20
-90.875
 11
-116.3
 21
-87.875
  0
LINE
  8
その他部品等
 10
-111.775
 20
-84.775
 11
-108.675
 21
-81.65
  0
LINE
  8
その他部品等
 10
-113.3
 20
-84.875
 11
-110.2
 21
-81.775
  0
LINE
  8
その他部品等
 10
-119.3
 20
-89.475
 11
-116.225
 21
-86.375
  0
LINE
  8
その他部品等
 10
-114.85
 20
-85.0
 11
-111.725
 21
-81.9
  0
LINE
  8
その他部品等
 10
-119.3
 20
-88.05
 11
-113.25
 21
-82.0
  0
LINE
  8
その他部品等
 10
-119.3
 20
-86.65
 11
-114.775
 21
-82.125
  0
LINE
  8
その他部品等
 10
-119.3
 20
-85.225
 11
-116.3
 21
-82.225
  0
LINE
  8
その他部品等
 10
-119.3
 20
-83.825
 11
-117.825
 21
-82.35
  0
LINE
  8
その他部品等
 10
-119.3
 20
-92.8
 11
-118.5
 21
-93.6
  0
LINE
  8
その他部品等
 10
-119.3
 20
-91.4
 11
-117.1
 21
-93.6
  0
LINE
  8
その他部品等
 10
-119.3
 20
-90.0
 11
-116.3
 21
-93.0
  0
LINE
  8
その他部品等
 10
-119.3
 20
-88.575
 11
-116.3
 21
-91.575
  0
LINE
  8
その他部品等
 10
-119.3
 20
-87.175
 11
-116.3
 21
-90.175
  0
LINE
  8
その他部品等
 10
-119.3
 20
-85.75
 11
-116.3
 21
-88.75
  0
LINE
  8
その他部品等
 10
-119.3
 20
-84.35
 11
-116.3
 21
-87.35
  0
LINE
  8
その他部品等
 10
-119.3
 20
-82.925
 11
-116.1
 21
-86.125
  0
LINE
  8
その他部品等
 10
-118.425
 20
-82.4
 11
-115.5
 21
-85.3
  0
LINE
  8
その他部品等
 10
-117.125
 20
-82.3
 11
-114.45
 21
-84.95
  0
LINE
  8
その他部品等
 10
-115.8
 20
-82.2
 11
-113.125
 21
-84.875
  0
LINE
  8
その他部品等
 10
-114.5
 20
-82.1
 11
-111.825
 21
-84.775
  0
LINE
  8
その他部品等
 10
-113.175
 20
-82.0
 11
-110.5
 21
-84.675
  0
LINE
  8
その他部品等
 10
-111.875
 20
-81.9
 11
-109.2
 21
-84.575
  0
LINE
  8
その他部品等
 10
-110.55
 20
-81.8
 11
-107.875
 21
-84.475
  0
LINE
  8
その他部品等
 10
-109.25
 20
-81.7
 11
-106.575
 21
-84.375
  0
LINE
  8
その他部品等
 10
-107.925
 20
-81.6
 11
-105.25
 21
-84.275
  0
LINE
  8
その他部品等
 10
-106.625
 20
-81.5
 11
-103.95
 21
-84.175
  0
LINE
  8
その他部品等
 10
-105.3
 20
-81.4
 11
-102.625
 21
-84.075
  0
LINE
  8
その他部品等
 10
-104.0
 20
-81.3
 11
-101.325
 21
-83.975
  0
LINE
  8
その他部品等
 10
-102.675
 20
-81.2
 11
-100.0
 21
-83.875
  0
LINE
  8
その他部品等
 10
-101.35
 20
-81.1
 11
-98.7
 21
-83.775
  0
LINE
  8
その他部品等
 10
-100.05
 20
-81.0
 11
-97.375
 21
-83.675
  0
LINE
  8
その他部品等
 10
-98.75
 20
-80.9
 11
-96.075
 21
-83.575
  0
LINE
  8
その他部品等
 10
-97.425
 20
-80.8
 11
-94.75
 21
-83.475
  0
LINE
  8
その他部品等
 10
-96.125
 20
-80.7
 11
-93.45
 21
-83.375
  0
LINE
  8
その他部品等
 10
-94.8
 20
-80.6
 11
-92.125
 21
-83.275
  0
LINE
  8
その他部品等
 10
-93.5
 20
-80.5
 11
-90.825
 21
-83.175
  0
LINE
  8
その他部品等
 10
-92.175
 20
-80.4
 11
-89.5
 21
-83.075
  0
LINE
  8
その他部品等
 10
-90.875
 20
-80.3
 11
-88.2
 21
-82.975
  0
LINE
  8
その他部品等
 10
-89.55
 20
-80.2
 11
-86.875
 21
-82.875
  0
LINE
  8
その他部品等
 10
-88.25
 20
-80.1
 11
-85.575
 21
-82.775
  0
LINE
  8
その他部品等
 10
-86.925
 20
-80.0
 11
-84.25
 21
-82.675
  0
LINE
  8
その他部品等
 10
-85.625
 20
-79.9
 11
-82.95
 21
-82.575
  0
LINE
  8
その他部品等
 10
-84.3
 20
-79.8
 11
-81.625
 21
-82.475
  0
LINE
  8
その他部品等
 10
-83.0
 20
-79.7
 11
-80.325
 21
-82.375
  0
LINE
  8
その他部品等
 10
-81.675
 20
-79.6
 11
-79.0
 21
-82.275
  0
LINE
  8
その他部品等
 10
-80.375
 20
-79.5
 11
-77.7
 21
-82.175
  0
LINE
  8
その他部品等
 10
-79.05
 20
-79.4
 11
-76.375
 21
-82.075
  0
LINE
  8
その他部品等
 10
-77.75
 20
-79.3
 11
-75.075
 21
-81.975
  0
LINE
  8
その他部品等
 10
-76.425
 20
-79.2
 11
-73.75
 21
-81.875
  0
LINE
  8
その他部品等
 10
-75.125
 20
-79.1
 11
-72.45
 21
-81.775
  0
LINE
  8
その他部品等
 10
-73.8
 20
-79.0
 11
-71.125
 21
-81.675
  0
LINE
  8
その他部品等
 10
-72.5
 20
-78.925
 11
-69.825
 21
-81.575
  0
LINE
  8
その他部品等
 10
-71.175
 20
-78.825
 11
-68.5
 21
-81.475
  0
LINE
  8
その他部品等
 10
-69.875
 20
-78.725
 11
-67.2
 21
-81.375
  0
LINE
  8
その他部品等
 10
-68.55
 20
-78.625
 11
-65.875
 21
-81.275
  0
LINE
  8
その他部品等
 10
-67.25
 20
-78.525
 11
-64.575
 21
-81.175
  0
LINE
  8
その他部品等
 10
-65.925
 20
-78.425
 11
-63.25
 21
-81.075
  0
LINE
  8
その他部品等
 10
-64.625
 20
-78.325
 11
-61.95
 21
-80.975
  0
LINE
  8
その他部品等
 10
-63.3
 20
-78.225
 11
-60.625
 21
-80.875
  0
LINE
  8
その他部品等
 10
-61.975
 20
-78.125
 11
-59.325
 21
-80.775
  0
LINE
  8
その他部品等
 10
-60.675
 20
-78.025
 11
-58.0
 21
-80.675
  0
LINE
  8
その他部品等
 10
-59.375
 20
-77.925
 11
-56.7
 21
-80.575
  0
LINE
  8
その他部品等
 10
-58.05
 20
-77.825
 11
-55.375
 21
-80.5
  0
LINE
  8
その他部品等
 10
-56.75
 20
-77.725
 11
-54.075
 21
-80.4
  0
LINE
  8
その他部品等
 10
-55.425
 20
-77.625
 11
-52.75
 21
-80.3
  0
LINE
  8
その他部品等
 10
-54.025
 20
-77.6
 11
-51.45
 21
-80.2
  0
LINE
  8
その他部品等
 10
-52.625
 20
-77.6
 11
-50.125
 21
-80.1
  0
LINE
  8
その他部品等
 10
-51.2
 20
-77.6
 11
-48.825
 21
-80.0
  0
LINE
  8
その他部品等
 10
-49.8
 20
-77.6
 11
-47.5
 21
-79.9
  0
LINE
  8
その他部品等
 10
-48.375
 20
-77.6
 11
-46.2
 21
-79.8
  0
LINE
  8
その他部品等
 10
-46.975
 20
-77.6
 11
-44.875
 21
-79.7
  0
LINE
  8
その他部品等
 10
-45.55
 20
-77.6
 11
-43.575
 21
-79.6
  0
LINE
  8
その他部品等
 10
-44.15
 20
-77.6
 11
-42.25
 21
-79.5
  0
LINE
  8
その他部品等
 10
-42.725
 20
-77.6
 11
-40.95
 21
-79.4
  0
LINE
  8
その他部品等
 10
-41.325
 20
-77.6
 11
-39.625
 21
-79.3
  0
LINE
  8
その他部品等
 10
-39.9
 20
-77.6
 11
-38.325
 21
-79.2
  0
LINE
  8
その他部品等
 10
-38.5
 20
-77.6
 11
-37.0
 21
-79.1
  0
LINE
  8
その他部品等
 10
-37.075
 20
-77.6
 11
-35.7
 21
-79.0
  0
LINE
  8
その他部品等
 10
-35.675
 20
-77.6
 11
-35.3
 21
-77.975
  0
ENDBLK
  0
BLOCK
  2
*HAT_0006
 70
    65
 10
0.0
 20
0.0
  0
LINE
  8
その他部品等
 10
-35.725
 20
-92.0
 11
-35.3
 21
-91.6
  0
LINE
  8
その他部品等
 10
-37.125
 20
-92.0
 11
-35.3
 21
-90.175
  0
LINE
  8
その他部品等
 10
-38.525
 20
-92.0
 11
-35.3
 21
-88.775
  0
LINE
  8
その他部品等
 10
-39.95
 20
-92.0
 11
-35.3
 21
-87.35
  0
LINE
  8
その他部品等
 10
-41.35
 20
-92.0
 11
-35.3
 21
-85.95
  0
LINE
  8
その他部品等
 10
-42.775
 20
-92.0
 11
-35.3
 21
-84.525
  0
LINE
  8
その他部品等
 10
-44.175
 20
-92.0
 11
-35.3
 21
-83.125
  0
LINE
  8
その他部品等
 10
-45.6
 20
-92.0
 11
-35.3
 21
-81.7
  0
LINE
  8
その他部品等
 10
-47.0
 20
-92.0
 11
-35.6
 21
-80.6
  0
LINE
  8
その他部品等
 10
-48.425
 20
-92.0
 11
-37.125
 21
-80.725
  0
LINE
  8
その他部品等
 10
-49.825
 20
-92.0
 11
-38.65
 21
-80.825
  0
LINE
  8
その他部品等
 10
-51.25
 20
-92.0
 11
-40.175
 21
-80.95
  0
LINE
  8
その他部品等
 10
-52.65
 20
-92.0
 11
-41.7
 21
-81.05
  0
LINE
  8
その他部品等
 10
-54.075
 20
-92.0
 11
-43.225
 21
-81.175
  0
LINE
  8
その他部品等
 10
-55.1
 20
-91.625
 11
-44.775
 21
-81.3
  0
LINE
  8
その他部品等
 10
-55.1
 20
-90.2
 11
-46.3
 21
-81.4
  0
LINE
  8
その他部品等
 10
-55.1
 20
-88.8
 11
-47.825
 21
-81.525
  0
LINE
  8
その他部品等
 10
-55.1
 20
-87.375
 11
-49.35
 21
-81.65
  0
LINE
  8
その他部品等
 10
-55.1
 20
-85.975
 11
-50.875
 21
-81.75
  0
LINE
  8
その他部品等
 10
-55.1
 20
-84.575
 11
-52.4
 21
-81.875
  0
LINE
  8
その他部品等
 10
-55.1
 20
-83.15
 11
-53.925
 21
-82.0
  0
LINE
  8
その他部品等
 10
-55.1
 20
-90.65
 11
-53.75
 21
-92.0
  0
LINE
  8
その他部品等
 10
-55.1
 20
-89.25
 11
-52.325
 21
-92.0
  0
LINE
  8
その他部品等
 10
-55.1
 20
-87.825
 11
-50.925
 21
-92.0
  0
LINE
  8
その他部品等
 10
-55.1
 20
-86.425
 11
-49.5
 21
-92.0
  0
LINE
  8
その他部品等
 10
-55.1
 20
-85.0
 11
-48.1
 21
-92.0
  0
LINE
  8
その他部品等
 10
-55.1
 20
-83.6
 11
-46.7
 21
-92.0
  0
LINE
  8
その他部品等
 10
-55.1
 20
-82.175
 11
-45.275
 21
-92.0
  0
LINE
  8
その他部品等
 10
-53.875
 20
-81.975
 11
-43.875
 21
-92.0
  0
LINE
  8
その他部品等
 10
-52.575
 20
-81.875
 11
-42.45
 21
-92.0
  0
LINE
  8
その他部品等
 10
-51.275
 20
-81.775
 11
-41.05
 21
-92.0
  0
LINE
  8
その他部品等
 10
-49.95
 20
-81.675
 11
-39.625
 21
-92.0
  0
LINE
  8
その他部品等
 10
-48.65
 20
-81.575
 11
-38.225
 21
-92.0
  0
LINE
  8
その他部品等
 10
-47.325
 20
-81.475
 11
-36.8
 21
-92.0
  0
LINE
  8
その他部品等
 10
-46.0
 20
-81.375
 11
-35.4
 21
-92.0
  0
LINE
  8
その他部品等
 10
-44.7
 20
-81.275
 11
-35.3
 21
-90.675
  0
LINE
  8
その他部品等
 10
-43.375
 20
-81.175
 11
-35.3
 21
-89.275
  0
LINE
  8
その他部品等
 10
-42.075
 20
-81.1
 11
-35.3
 21
-87.85
  0
LINE
  8
その他部品等
 10
-40.75
 20
-81.0
 11
-35.3
 21
-86.45
  0
LINE
  8
その他部品等
 10
-39.45
 20
-80.9
 11
-35.3
 21
-85.025
  0
LINE
  8
その他部品等
 10
-38.15
 20
-80.8
 11
-35.3
 21
-83.625
  0
LINE
  8
その他部品等
 10
-36.825
 20
-80.7
 11
-35.3
 21
-82.2
  0
LINE
  8
その他部品等
 10
-35.5
 20
-80.6
 11
-35.3
 21
-80.8
  0
ENDBLK
  0
BLOCK
  2
*GRP_0001
 70
    65
 10
0.0
 20
0.0
  0
LINE
  8
型材断面
  6
CONTINUOUS
 10
195.0
 20
133.5
 11
195.0
 21
-133.5
  0
LINE
  8
型材断面
  6
CONTINUOUS
 10
195.0
 20
-133.5
 11
-185.0
 21
-133.5
  0
LINE
  8
型材断面
  6
CONTINUOUS
 10
-185.0
 20
-133.5
 11
-185.0
 21
133.5
  0
LINE
  8
型材断面
  6
CONTINUOUS
 10
195.0
 20
133.5
 11
-185.0
 21
133.5
  0
LINE
  8
型材断面
  6
CONTINUOUS
 10
145.0
 20
-133.5
 11
145.0
 21
-118.5
  0
LINE
  8
型材断面
  6
CONTINUOUS
 10
195.0
 20
-118.5
 11
145.0
 21
-118.5
  0
ENDBLK
  0
BLOCK
  2
*GRP_0002
 70
    65
 10
0.0
 20
0.0
  0
LINE
  8
別途部材
  6
CONTINUOUS
 62
    47
 10
-42.397648
 20
-93.62707
 11
-99.897623
 21
-93.62707
  0
LINE
  8
別途部材
  6
CONTINUOUS
 62
    47
 10
-42.397648
 20
-92.02707
 11
-99.897623
 21
-92.02707
  0
LINE
  8
別途部材
  6
CONTINUOUS
 62
    47
 10
-85.397648
 20
-93.62707
 11
-91.633022
 21
-97.22707
  0
LINE
  8
別途部材
  6
CONTINUOUS
 62
    47
 10
-99.897623
 20
-97.22707
 11
-91.633022
 21
-97.22707
  0
LINE
  8
別途部材
  6
CONTINUOUS
 62
    47
 10
-99.897623
 20
-95.62707
 11
-92.061747
 21
-95.62707
  0
LINE
  8
別途部材
  6
CONTINUOUS
 62
    47
 10
-88.597648
 20
-93.62707
 11
-92.061747
 21
-95.62707
  0
LINE
  8
別途部材
  6
CONTINUOUS
 62
    47
 10
-99.897623
 20
-93.62707
 11
-99.897623
 21
-92.02707
  0
LINE
  8
別途部材
  6
CONTINUOUS
 62
    47
 10
-99.897623
 20
-95.62707
 11
-99.897623
 21
-97.22707
  0
LINE
  8
別途部材
  6
CONTINUOUS
 62
    47
 10
-56.897648
 20
-93.62707
 11
-50.662273
 21
-97.22707
  0
LINE
  8
別途部材
  6
CONTINUOUS
 62
    47
 10
-42.397648
 20
-97.22707
 11
-50.662273
 21
-97.22707
  0
LINE
  8
別途部材
  6
CONTINUOUS
 62
    47
 10
-42.397648
 20
-95.62707
 11
-50.233522
 21
-95.62707
  0
LINE
  8
別途部材
  6
CONTINUOUS
 62
    47
 10
-53.697623
 20
-93.62707
 11
-50.233522
 21
-95.62707
  0
LINE
  8
別途部材
  6
CONTINUOUS
 62
    47
 10
-42.397648
 20
-95.62707
 11
-42.397648
 21
-97.22707
  0
LINE
  8
別途部材
  6
CONTINUOUS
 62
    47
 10
-78.897623
 20
-110.02707
 11
-78.897623
 21
-93.62707
  0
LINE
  8
別途部材
  6
CONTINUOUS
 62
    47
 10
-77.297648
 20
-110.02707
 11
-77.297648
 21
-93.62707
  0
LINE
  8
別途部材
  6
CONTINUOUS
 62
    47
 10
-78.897623
 20
-110.02707
 11
-77.297648
 21
-110.02707
  0
LINE
  8
別途部材
  6
CONTINUOUS
 62
    47
 10
-42.397648
 20
-92.02707
 11
-42.397648
 21
-93.62707
  0
ENDBLK
  0
BLOCK
  2
*GRP_0003
 70
    65
 10
0.0
 20
0.0
  0
INSERT
  2
*HAT_0001
  8
ゴム等
 10
0.0
 20
0.0
  0
LINE
  8
ゴム等
  6
CONTINUOUS
 10
-54.943623
 20
-15.62645
 11
-54.943623
 21
-21.62645
  0
LINE
  8
ゴム等
  6
CONTINUOUS
 10
-54.943623
 20
-21.62645
 11
-69.943623
 21
-21.62645
  0
LINE
  8
ゴム等
  6
CONTINUOUS
 10
-69.943623
 20
-21.62645
 11
-69.943623
 21
-15.62645
  0
LINE
  8
ゴム等
  6
CONTINUOUS
 10
-54.943623
 20
-15.62645
 11
-69.943623
 21
-15.62645
  0
ENDBLK
  0
BLOCK
  2
*GRP_0004
 70
    65
 10
0.0
 20
0.0
  0
ARC
  8
ゴム等
  6
CONTINUOUS
 62
    63
 10
-30.377558
 20
76.873017
 40
1.5
 50
0.0
 51
90.0
  0
LINE
  8
ゴム等
  6
CONTINUOUS
 62
    63
 10
-28.877573
 20
76.873
 11
-28.877573
 21
76.873
  0
ARC
  8
ゴム等
  6
CONTINUOUS
 62
    63
 10
-30.377558
 20
76.873017
 40
1.5
 50
-90.0
 51
0.0
  0
LINE
  8
ゴム等
  6
CONTINUOUS
 62
    63
 10
-57.377573
 20
78.373
 11
-30.377573
 21
78.373
  0
ARC
  8
ゴム等
  6
CONTINUOUS
 62
    63
 10
-57.377558
 20
76.873017
 40
1.5
 50
90.0
 51
180.0
  0
LINE
  8
ゴム等
  6
CONTINUOUS
 62
    63
 10
-58.877573
 20
76.873
 11
-58.877573
 21
76.873
  0
LINE
  8
ゴム等
  6
CONTINUOUS
 62
    63
 10
-57.377573
 20
75.373
 11
-30.377573
 21
75.373
  0
ARC
  8
ゴム等
  6
CONTINUOUS
 62
    63
 10
-57.377558
 20
76.873017
 40
1.5
 50
180.0
 51
270.0
  0
INSERT
  2
*HAT_0002
  8
ゴム等
 10
0.0
 20
0.0
  0
ENDBLK
  0
BLOCK
  2
*GRP_0005
 70
    65
 10
0.0
 20
0.0
  0
INSERT
  2
*HAT_0003
  8
ゴム等
 10
0.0
 20
0.0
  0
LINE
  8
ゴム等
  6
CONTINUOUS
 10
-92.938255
 20
-12.626825
 11
-85.93918
 21
-12.626825
  0
LINE
  8
ゴム等
  6
CONTINUOUS
 10
-85.93918
 20
-12.626825
 11
-87.439155
 21
-15.626825
  0
LINE
  8
ゴム等
  6
CONTINUOUS
 10
-92.938255
 20
-12.626825
 11
-91.438455
 21
-15.62645
  0
LINE
  8
ゴム等
  6
CONTINUOUS
 10
-93.438705
 20
-15.62645
 11
-91.438455
 21
-15.62645
  0
ARC
  8
ゴム等
  6
CONTINUOUS
 10
-93.4387
 20
-17.626423
 40
2.0
 50
90.0
 51
180.0
  0
LINE
  8
ゴム等
  6
CONTINUOUS
 10
-95.43873
 20
-19.626425
 11
-95.43873
 21
-17.626425
  0
ARC
  8
ゴム等
  6
CONTINUOUS
 10
-93.4387
 20
-19.626423
 40
2.0
 50
180.0
 51
270.0
  0
LINE
  8
ゴム等
  6
CONTINUOUS
 10
-93.438705
 20
-21.62645
 11
-85.438705
 21
-21.62645
  0
ARC
  8
ゴム等
  6
CONTINUOUS
 10
-85.4387
 20
-19.626423
 40
2.0
 50
270.0
 51
360.0
  0
LINE
  8
ゴム等
  6
CONTINUOUS
 10
-83.43873
 20
-19.626425
 11
-83.43873
 21
-17.626825
  0
LINE
  8
ゴム等
  6
CONTINUOUS
 10
-85.438705
 20
-15.626825
 11
-87.439155
 21
-15.626825
  0
ARC
  8
ゴム等
  6
CONTINUOUS
 10
-85.4387
 20
-17.626813
 40
2.0
 50
0.0
 51
90.0
  0
ARC
  8
ゴム等
  6
CONTINUOUS
 10
-93.438703
 20
-17.626421
 40
1.0
 50
90.0
 51
180.0
  0
LINE
  8
ゴム等
  6
CONTINUOUS
 10
-94.438705
 20
-19.62645
 11
-94.438705
 21
-17.626425
  0
ARC
  8
ゴム等
  6
CONTINUOUS
 10
-93.438703
 20
-19.626426
 40
1.0
 50
180.0
 51
270.0
  0
LINE
  8
ゴム等
  6
CONTINUOUS
 10
-85.438705
 20
-20.626425
 11
-93.43873
 21
-20.626425
  0
ARC
  8
ゴム等
  6
CONTINUOUS
 10
-85.438698
 20
-19.626426
 40
1.0
 50
270.0
 51
360.0
  0
LINE
  8
ゴム等
  6
CONTINUOUS
 10
-84.438705
 20
-17.626425
 11
-84.438705
 21
-19.62645
  0
LINE
  8
ゴム等
  6
CONTINUOUS
 10
-85.438705
 20
-16.626425
 11
-93.43873
 21
-16.626425
  0
ARC
  8
ゴム等
  6
CONTINUOUS
 10
-85.438698
 20
-17.626421
 40
1.0
 50
0.0
 51
90.0
  0
ENDBLK
  0
BLOCK
  2
*GRP_0006
 70
    65
 10
0.0
 20
0.0
  0
LINE
  8
ゴム等
  6
CONTINUOUS
 10
-39.042663
 20
58.073175
 11
-39.042663
 21
48.073178
  0
LINE
  8
ゴム等
  6
CONTINUOUS
 10
-39.042663
 20
48.073178
 11
-29.042658
 21
48.073178
  0
LINE
  8
ゴム等
  6
CONTINUOUS
 10
-29.042658
 20
48.073178
 11
-29.042658
 21
58.073175
  0
LINE
  8
ゴム等
  6
CONTINUOUS
 10
-39.042663
 20
58.073175
 11
-29.042658
 21
58.073175
  0
INSERT
  2
*HAT_0004
  8
ゴム等
 10
0.0
 20
0.0
  0
ENDBLK
  0
BLOCK
  2
*GRP_0007
 70
    65
 10
0.0
 20
0.0
  0
LINE
  8
ボルト／ビス
  6
CONTINUOUS
 62
    64
 10
-45.647653
 20
-93.827005
 11
-41.647653
 21
-93.827005
  0
LINE
  8
ボルト／ビス
  6
CONTINUOUS
 62
    64
 10
-46.647653
 20
-95.627005
 11
-45.647653
 21
-93.827005
  0
LINE
  8
ボルト／ビス
  6
CONTINUOUS
 62
    64
 10
-46.647653
 20
-95.627005
 11
-40.647653
 21
-95.627005
  0
LINE
  8
ボルト／ビス
  6
CONTINUOUS
 62
    64
 10
-40.647653
 20
-95.627005
 11
-41.647653
 21
-93.827005
  0
LINE
  8
ボルト／ビス
  6
CONTINUOUS
 62
    64
 10
-43.647653
 20
-97.110538
 11
-43.647653
 21
-86.747977
  0
LINE
  8
ボルト／ビス
  6
CONTINUOUS
 62
    64
 10
-45.647653
 20
-88.127005
 11
-45.147653
 21
-87.627005
  0
LINE
  8
ボルト／ビス
  6
CONTINUOUS
 62
    64
 10
-41.647653
 20
-88.127005
 11
-42.147653
 21
-87.627005
  0
LINE
  8
ボルト／ビス
  6
CONTINUOUS
 62
    64
 10
-45.147653
 20
-87.627005
 11
-42.147653
 21
-87.627005
  0
LINE
  8
ボルト／ビス
  6
CONTINUOUS
 62
    64
 10
-45.647653
 20
-88.127005
 11
-41.647653
 21
-88.127005
  0
LINE
  8
ボルト／ビス
  6
CONTINUOUS
 62
    64
 10
-45.147653
 20
-93.827005
 11
-45.147653
 21
-87.627005
  0
LINE
  8
ボルト／ビス
  6
CONTINUOUS
 62
    64
 10
-42.147653
 20
-93.827005
 11
-42.147653
 21
-87.627005
  0
LINE
  8
ボルト／ビス
  6
CONTINUOUS
 62
    64
 10
-41.647653
 20
-93.827005
 11
-41.647653
 21
-88.127005
  0
LINE
  8
ボルト／ビス
  6
CONTINUOUS
 62
    64
 10
-45.647653
 20
-93.827005
 11
-45.647653
 21
-88.127005
  0
ENDBLK
  0
BLOCK
  2
*GRP_0008
 70
    65
 10
0.0
 20
0.0
  0
LINE
  8
ボルト／ビス
  6
CONTINUOUS
 62
    64
 10
-53.14334
 20
48.67216
 11
-54.191505
 21
48.763865
  0
ARC
  8
ボルト／ビス
  6
CONTINUOUS
 62
    64
 10
-54.043337
 20
50.457397
 40
1.7
 50
180.0
 51
265.000011
  0
LINE
  8
ボルト／ビス
  6
CONTINUOUS
 62
    64
 10
-55.74334
 20
50.457395
 11
-55.74334
 21
52.17216
  0
LINE
  8
ボルト／ビス
  6
CONTINUOUS
 62
    64
 10
-53.14334
 20
55.67216
 11
-54.191505
 21
55.58046
  0
ARC
  8
ボルト／ビス
  6
CONTINUOUS
 62
    64
 10
-54.043337
 20
53.88693
 40
1.7
 50
94.999989
 51
180.0
  0
LINE
  8
ボルト／ビス
  6
CONTINUOUS
 62
    64
 10
-55.74334
 20
53.88693
 11
-55.74334
 21
52.17216
  0
LINE
  8
ボルト／ビス
  6
CONTINUOUS
 62
    64
 10
-55.358435
 20
49.77552
 11
-55.600595
 21
49.77552
  0
LINE
  8
ボルト／ビス
  6
CONTINUOUS
 62
    64
 10
-54.70835
 20
51.47216
 11
-54.70835
 21
52.17216
  0
LINE
  8
ボルト／ビス
  6
CONTINUOUS
 62
    64
 10
-55.358435
 20
51.07216
 11
-55.358435
 21
49.77552
  0
LINE
  8
ボルト／ビス
  6
CONTINUOUS
 62
    64
 10
-54.70835
 20
51.47216
 11
-54.958435
 21
51.47216
  0
ARC
  8
ボルト／ビス
  6
CONTINUOUS
 62
    64
 10
-54.958432
 20
51.072163
 40
0.4
 50
90.0
 51
180.0
  0
LINE
  8
ボルト／ビス
  6
CONTINUOUS
 62
    64
 10
-55.358435
 20
54.5688
 11
-55.600595
 21
54.5688
  0
LINE
  8
ボルト／ビス
  6
CONTINUOUS
 62
    64
 10
-54.70835
 20
52.87216
 11
-54.70835
 21
52.17216
  0
LINE
  8
ボルト／ビス
  6
CONTINUOUS
 62
    64
 10
-55.358435
 20
53.27216
 11
-55.358435
 21
54.5688
  0
LINE
  8
ボルト／ビス
  6
CONTINUOUS
 62
    64
 10
-54.70835
 20
52.87216
 11
-54.958435
 21
52.87216
  0
ARC
  8
ボルト／ビス
  6
CONTINUOUS
 62
    64
 10
-54.958432
 20
53.272163
 40
0.4
 50
180.0
 51
270.0
  0
LINE
  8
ボルト／ビス
  6
CONTINUOUS
 62
    64
 10
-53.14334
 20
48.67216
 11
-53.14334
 21
55.67216
  0
LINE
  8
ボルト／ビス
  6
CONTINUOUS
 62
    64
 10
-43.64334
 20
50.17216
 11
-43.14334
 21
50.67216
  0
LINE
  8
ボルト／ビス
  6
CONTINUOUS
 62
    64
 10
-43.64334
 20
54.17216
 11
-43.14334
 21
53.67216
  0
LINE
  8
ボルト／ビス
  6
CONTINUOUS
 62
    64
 10
-43.64334
 20
50.17216
 11
-43.64334
 21
54.17216
  0
LINE
  8
ボルト／ビス
  6
CONTINUOUS
 62
    64
 10
-43.14334
 20
50.67216
 11
-43.14334
 21
53.67216
  0
LINE
  8
ボルト／ビス
  6
CONTINUOUS
 62
    64
 10
-57.714725
 20
52.17216
 11
-41.568465
 21
52.17216
  0
LINE
  8
ボルト／ビス
  6
CONTINUOUS
 62
    64
 10
-53.14334
 20
50.17216
 11
-43.64334
 21
50.17216
  0
LINE
  8
ボルト／ビス
  6
CONTINUOUS
 62
    64
 10
-53.14334
 20
54.17216
 11
-43.64334
 21
54.17216
  0
LINE
  8
ボルト／ビス
  6
CONTINUOUS
 62
    64
 10
-53.14334
 20
53.67216
 11
-43.14334
 21
53.67216
  0
LINE
  8
ボルト／ビス
  6
CONTINUOUS
 62
    64
 10
-53.14334
 20
50.67216
 11
-43.14334
 21
50.67216
  0
ENDBLK
  0
BLOCK
  2
*GRP_0009
 70
    65
 10
0.0
 20
0.0
  0
LINE
  8
ボルト／ビス
  6
CONTINUOUS
 62
    64
 10
-114.247412
 20
-93.82713
 11
-110.247412
 21
-93.82713
  0
LINE
  8
ボルト／ビス
  6
CONTINUOUS
 62
    64
 10
-115.247412
 20
-95.62713
 11
-114.247412
 21
-93.82713
  0
LINE
  8
ボルト／ビス
  6
CONTINUOUS
 62
    64
 10
-115.247412
 20
-95.62713
 11
-109.247412
 21
-95.62713
  0
LINE
  8
ボルト／ビス
  6
CONTINUOUS
 62
    64
 10
-109.247412
 20
-95.62713
 11
-110.247412
 21
-93.82713
  0
LINE
  8
ボルト／ビス
  6
CONTINUOUS
 62
    64
 10
-112.247412
 20
-97.110663
 11
-112.247412
 21
-86.748103
  0
LINE
  8
ボルト／ビス
  6
CONTINUOUS
 62
    64
 10
-114.247412
 20
-88.12713
 11
-113.747412
 21
-87.62713
  0
LINE
  8
ボルト／ビス
  6
CONTINUOUS
 62
    64
 10
-110.247412
 20
-88.12713
 11
-110.747412
 21
-87.62713
  0
LINE
  8
ボルト／ビス
  6
CONTINUOUS
 62
    64
 10
-113.747412
 20
-87.62713
 11
-110.747412
 21
-87.62713
  0
LINE
  8
ボルト／ビス
  6
CONTINUOUS
 62
    64
 10
-114.247412
 20
-88.12713
 11
-110.247412
 21
-88.12713
  0
LINE
  8
ボルト／ビス
  6
CONTINUOUS
 62
    64
 10
-113.747412
 20
-93.82713
 11
-113.747412
 21
-87.62713
  0
LINE
  8
ボルト／ビス
  6
CONTINUOUS
 62
    64
 10
-110.747412
 20
-93.82713
 11
-110.747412
 21
-87.62713
  0
LINE
  8
ボルト／ビス
  6
CONTINUOUS
 62
    64
 10
-110.247412
 20
-93.82713
 11
-110.247412
 21
-88.12713
  0
LINE
  8
ボルト／ビス
  6
CONTINUOUS
 62
    64
 10
-114.247412
 20
-93.82713
 11
-114.247412
 21
-88.12713
  0
ENDBLK
  0
BLOCK
  2
*DIM_0010
 70
    65
 10
0.0
 20
0.0
  0
LINE
  8
寸法
  6
BYBLOCK
 62
     0
 10
-122.247412
 20
-95.627005
 11
-153.4859
 21
-95.627005
  0
LINE
  8
寸法
  6
BYBLOCK
 62
     0
 10
-58.243165
 20
75.369415
 11
-153.4859
 21
75.369415
  0
LINE
  8
寸法
  6
BYBLOCK
 62
     0
 10
-153.4859
 20
-95.627005
 11
-153.4859
 21
75.369415
  0
POINT
  8
寸法
 62
     0
 10
-153.4859
 20
-95.627005
  0
POINT
  8
寸法
 62
     0
 10
-153.4859
 20
75.369415
  0
TEXT
  7
TextStyle03
  8
寸法
  6
CONTINUOUS
 62
     0
 10
-153.85
 20
-12.5625
  1
171
 40
3.0
 50
90.0
 72
     5
 11
-153.85
 21
-7.6875
  0
ENDBLK
  0
BLOCK
  2
*DIM_0011
 70
    65
 10
0.0
 20
0.0
  0
LINE
  8
寸法
  6
BYBLOCK
 62
     0
 10
-72.243163
 20
81.37657
 11
-153.4859
 21
81.37657
  0
LINE
  8
寸法
  6
BYBLOCK
 62
     0
 10
-153.4859
 20
75.369415
 11
-153.4859
 21
81.37657
  0
POINT
  8
寸法
 62
     0
 10
-153.4859
 20
81.37657
  0
TEXT
  7
TextStyle03
  8
寸法
  6
CONTINUOUS
 62
     0
 10
-153.85
 20
77.625
  1
6
 40
3.0
 50
90.0
 72
     5
 11
-153.85
 21
79.125
  0
ENDBLK
  0
BLOCK
  2
*DIM_0012
 70
    65
 10
0.0
 20
0.0
  0
LINE
  8
寸法
  6
BYBLOCK
 62
     0
 10
-100.447433
 20
-10.627605
 11
-143.922293
 21
-10.627605
  0
LINE
  8
寸法
  6
BYBLOCK
 62
     0
 10
-143.922293
 20
-8.62739
 11
-143.922293
 21
-10.627605
  0
POINT
  8
寸法
 62
     0
 10
-143.922293
 20
-10.627605
  0
TEXT
  7
TextStyle03
  8
寸法
  6
CONTINUOUS
 62
     0
 10
-144.275
 20
-10.375
  1
2
 40
3.0
 50
90.0
 72
     5
 11
-144.275
 21
-8.875
  0
ENDBLK
  0
BLOCK
  2
*DIM_0013
 70
    65
 10
0.0
 20
0.0
  0
LINE
  8
寸法
  6
BYBLOCK
 62
     0
 10
-100.447403
 20
-23.6267
 11
-143.922293
 21
-23.6267
  0
LINE
  8
寸法
  6
BYBLOCK
 62
     0
 10
-143.922293
 20
-10.627605
 11
-143.922293
 21
-23.6267
  0
POINT
  8
寸法
 62
     0
 10
-143.922293
 20
-23.6267
  0
TEXT
  7
TextStyle03
  8
寸法
  6
CONTINUOUS
 62
     0
 10
-144.275
 20
-18.71875
  1
13
 40
3.0
 50
90.0
 72
     5
 11
-144.275
 21
-15.53125
  0
ENDBLK
  0
BLOCK
  2
*DIM_0014
 70
    65
 10
0.0
 20
0.0
  0
LINE
  8
寸法
  6
BYBLOCK
 62
     0
 10
-56.24741
 20
-75.62695
 11
-143.922293
 21
-75.62695
  0
LINE
  8
寸法
  6
BYBLOCK
 62
     0
 10
-143.922293
 20
-23.6267
 11
-143.922293
 21
-75.62695
  0
POINT
  8
寸法
 62
     0
 10
-143.922293
 20
-75.62695
  0
TEXT
  7
TextStyle03
  8
寸法
  6
CONTINUOUS
 62
     0
 10
-144.275
 20
-51.21875
  1
52
 40
3.0
 50
90.0
 72
     5
 11
-144.275
 21
-48.03125
  0
ENDBLK
  0
BLOCK
  2
*DIM_0015
 70
    65
 10
0.0
 20
0.0
  0
LINE
  8
寸法
  6
BYBLOCK
 62
     0
 10
-122.247412
 20
-80.62695
 11
-143.922293
 21
-80.62695
  0
LINE
  8
寸法
  6
BYBLOCK
 62
     0
 10
-143.922293
 20
-75.62695
 11
-143.922293
 21
-80.62695
  0
POINT
  8
寸法
 62
     0
 10
-143.922293
 20
-80.62695
  0
TEXT
  7
TextStyle03
  8
寸法
  6
CONTINUOUS
 62
     0
 10
-144.275
 20
-78.875
  1
5
 40
3.0
 50
90.0
 72
     5
 11
-144.275
 21
-77.375
  0
ENDBLK
  0
BLOCK
  2
*DIM_0016
 70
    65
 10
0.0
 20
0.0
  0
LINE
  8
寸法
  6
BYBLOCK
 62
     0
 10
-122.247412
 20
-95.627005
 11
-143.922293
 21
-95.627005
  0
LINE
  8
寸法
  6
BYBLOCK
 62
     0
 10
-143.922293
 20
-80.62695
 11
-143.922293
 21
-95.627005
  0
POINT
  8
寸法
 62
     0
 10
-143.922293
 20
-95.627005
  0
TEXT
  7
TextStyle03
  8
寸法
  6
CONTINUOUS
 62
     0
 10
-144.275
 20
-89.71875
  1
15
 40
3.0
 50
90.0
 72
     5
 11
-144.275
 21
-86.53125
  0
ENDBLK
  0
BLOCK
  2
*DIM_0017
 70
    65
 10
0.0
 20
0.0
  0
LINE
  8
寸法
  6
BYBLOCK
 62
     0
 10
-134.893495
 20
-10.627605
 11
-135.789065
 21
-10.627605
  0
LINE
  8
寸法
  6
BYBLOCK
 62
     0
 10
-100.14744
 20
-15.62642
 11
-135.789065
 21
-15.62642
  0
LINE
  8
寸法
  6
BYBLOCK
 62
     0
 10
-135.789065
 20
-10.627605
 11
-135.789065
 21
-15.62642
  0
POINT
  8
寸法
 62
     0
 10
-135.789065
 20
-10.627605
  0
POINT
  8
寸法
 62
     0
 10
-135.789065
 20
-15.62642
  0
TEXT
  7
TextStyle03
  8
寸法
  6
CONTINUOUS
 62
     0
 10
-136.15
 20
-13.875
  1
5
 40
3.0
 50
90.0
 72
     5
 11
-136.15
 21
-12.375
  0
ENDBLK
  0
BLOCK
  2
*DIM_0018
 70
    65
 10
0.0
 20
0.0
  0
LINE
  8
寸法
  6
BYBLOCK
 62
     0
 10
-100.147403
 20
-19.627207
 11
-135.789065
 21
-19.627207
  0
LINE
  8
寸法
  6
BYBLOCK
 62
     0
 10
-135.789065
 20
-15.62642
 11
-135.789065
 21
-19.627207
  0
POINT
  8
寸法
 62
     0
 10
-135.789065
 20
-19.627207
  0
TEXT
  7
TextStyle03
  8
寸法
  6
CONTINUOUS
 62
     0
 10
-136.15
 20
-18.375
  1
4
 40
3.0
 50
90.0
 72
     5
 11
-136.15
 21
-16.875
  0
ENDBLK
  0
BLOCK
  2
*DIM_0019
 70
    65
 10
0.0
 20
0.0
  0
LINE
  8
寸法
  6
BYBLOCK
 62
     0
 10
-101.447403
 20
-23.6267
 11
-135.789065
 21
-23.6267
  0
LINE
  8
寸法
  6
BYBLOCK
 62
     0
 10
-135.789065
 20
-19.627207
 11
-135.789065
 21
-23.6267
  0
POINT
  8
寸法
 62
     0
 10
-135.789065
 20
-23.6267
  0
TEXT
  7
TextStyle03
  8
寸法
  6
CONTINUOUS
 62
     0
 10
-136.15
 20
-22.375
  1
4
 40
3.0
 50
90.0
 72
     5
 11
-136.15
 21
-20.875
  0
ENDBLK
  0
BLOCK
  2
*DIM_0020
 70
    65
 10
0.0
 20
0.0
  0
LINE
  8
寸法
  6
BYBLOCK
 62
     0
 10
-121.247412
 20
-79.62695
 11
-121.247412
 21
118.407907
  0
LINE
  8
寸法
  6
BYBLOCK
 62
     0
 10
-21.243163
 20
118.407907
 11
-121.247412
 21
118.407907
  0
POINT
  8
寸法
 62
     0
 10
-21.243163
 20
118.407907
  0
POINT
  8
寸法
 62
     0
 10
-121.247412
 20
118.407907
  0
TEXT
  7
TextStyle03
  8
寸法
  6
CONTINUOUS
 62
     0
 10
-73.6625
 20
118.75
  1
100
 40
3.0
 72
     5
 11
-68.7875
 21
118.75
  0
ENDBLK
  0
BLOCK
  2
*DIM_0021
 70
    65
 10
0.0
 20
0.0
  0
LINE
  8
寸法
  6
BYBLOCK
 62
     0
 10
-121.247412
 20
112.121515
 11
-121.247412
 21
111.90067
  0
LINE
  8
寸法
  6
BYBLOCK
 62
     0
 10
-6.243163
 20
-68.62695
 11
-6.243163
 21
111.90067
  0
LINE
  8
寸法
  6
BYBLOCK
 62
     0
 10
-121.247412
 20
111.90067
 11
-6.243163
 21
111.90067
  0
POINT
  8
寸法
 62
     0
 10
-121.247412
 20
111.90067
  0
POINT
  8
寸法
 62
     0
 10
-6.243163
 20
111.90067
  0
TEXT
  7
TextStyle03
  8
寸法
  6
CONTINUOUS
 62
     0
 10
-66.1625
 20
112.25
  1
115
 40
3.0
 72
     5
 11
-61.2875
 21
112.25
  0
ENDBLK
  0
BLOCK
  2
*DIM_0022
 70
    65
 10
0.0
 20
0.0
  0
LINE
  8
寸法
  6
BYBLOCK
 62
     0
 10
-6.243163
 20
104.718982
 11
-6.243163
 21
105.405693
  0
LINE
  8
寸法
  6
BYBLOCK
 62
     0
 10
-21.243163
 20
104.718982
 11
-21.243163
 21
105.405693
  0
LINE
  8
寸法
  6
BYBLOCK
 62
     0
 10
-6.243163
 20
105.405693
 11
-21.243163
 21
105.405693
  0
POINT
  8
寸法
 62
     0
 10
-6.243163
 20
105.405693
  0
POINT
  8
寸法
 62
     0
 10
-21.243163
 20
105.405693
  0
TEXT
  7
TextStyle03
  8
寸法
  6
CONTINUOUS
 62
     0
 10
-15.31875
 20
105.75
  1
15
 40
3.0
 72
     5
 11
-12.13125
 21
105.75
  0
ENDBLK
  0
BLOCK
  2
*DIM_0023
 70
    65
 10
0.0
 20
0.0
  0
LINE
  8
寸法
  6
BYBLOCK
 62
     0
 10
-30.543163
 20
-19.6272
 11
53.67201
 21
-19.6272
  0
LINE
  8
寸法
  6
BYBLOCK
 62
     0
 10
53.67201
 20
-15.62645
 11
53.67201
 21
-19.6272
  0
POINT
  8
寸法
 62
     0
 10
53.67201
 20
-19.6272
  0
TEXT
  7
TextStyle03
  8
寸法
  6
CONTINUOUS
 62
     0
 10
53.325
 20
-18.4
  1
4
 40
3.0
 50
90.0
 72
     5
 11
53.325
 21
-16.9
  0
ENDBLK
  0
BLOCK
  2
*DIM_0024
 70
    65
 10
0.0
 20
0.0
  0
LINE
  8
寸法
  6
BYBLOCK
 62
     0
 10
-5.243163
 20
-77.62695
 11
53.67201
 21
-77.62695
  0
LINE
  8
寸法
  6
BYBLOCK
 62
     0
 10
53.67201
 20
-19.6272
 11
53.67201
 21
-77.62695
  0
POINT
  8
寸法
 62
     0
 10
53.67201
 20
-77.62695
  0
TEXT
  7
TextStyle03
  8
寸法
  6
CONTINUOUS
 62
     0
 10
53.325
 20
-50.24375
  1
58
 40
3.0
 50
90.0
 72
     5
 11
53.325
 21
-47.05625
  0
ENDBLK
  0
BLOCK
  2
*DIM_0025
 70
    65
 10
0.0
 20
0.0
  0
LINE
  8
寸法
  6
BYBLOCK
 62
     0
 10
-99.247433
 20
-9.617135
 11
-99.247433
 21
105.405693
  0
LINE
  8
寸法
  6
BYBLOCK
 62
     0
 10
-71.243163
 20
105.405693
 11
-99.247433
 21
105.405693
  0
POINT
  8
寸法
 62
     0
 10
-71.243163
 20
105.405693
  0
POINT
  8
寸法
 62
     0
 10
-99.247433
 20
105.405693
  0
TEXT
  7
TextStyle03
  8
寸法
  6
CONTINUOUS
 62
     0
 10
-86.84375
 20
105.775
  1
28
 40
3.0
 72
     5
 11
-83.65625
 21
105.775
  0
ENDBLK
  0
BLOCK
  2
*DIM_0026
 70
    65
 10
0.0
 20
0.0
  0
LINE
  8
寸法
  6
BYBLOCK
 62
     0
 10
-121.247412
 20
-7.62739
 11
-121.247412
 21
105.405693
  0
LINE
  8
寸法
  6
BYBLOCK
 62
     0
 10
-99.247433
 20
105.405693
 11
-121.247412
 21
105.405693
  0
POINT
  8
寸法
 62
     0
 10
-121.247412
 20
105.405693
  0
TEXT
  7
TextStyle03
  8
寸法
  6
CONTINUOUS
 62
     0
 10
-111.84375
 20
105.775
  1
22
 40
3.0
 72
     5
 11
-108.65625
 21
105.775
  0
ENDBLK
  0
BLOCK
  2
*DIM_0027
 70
    65
 10
0.0
 20
0.0
  0
LINE
  8
寸法
  6
BYBLOCK
 62
     0
 10
-62.243163
 20
-8.62739
 11
-143.922293
 21
-8.62739
  0
LINE
  8
寸法
  6
BYBLOCK
 62
     0
 10
-62.243163
 20
44.373175
 11
-143.922293
 21
44.373175
  0
LINE
  8
寸法
  6
BYBLOCK
 62
     0
 10
-143.922293
 20
-8.62739
 11
-143.922293
 21
44.373175
  0
POINT
  8
寸法
 62
     0
 10
-143.922293
 20
-8.62739
  0
POINT
  8
寸法
 62
     0
 10
-143.922293
 20
44.373175
  0
TEXT
  7
TextStyle03
  8
寸法
  6
CONTINUOUS
 62
     0
 10
-144.3
 20
16.28125
  1
53
 40
3.0
 50
90.0
 72
     5
 11
-144.3
 21
19.46875
  0
ENDBLK
  0
BLOCK
  2
*DIM_0028
 70
    65
 10
0.0
 20
0.0
  0
LINE
  8
寸法
  6
BYBLOCK
 62
     0
 10
-74.64602
 20
75.369415
 11
-143.922293
 21
75.369415
  0
LINE
  8
寸法
  6
BYBLOCK
 62
     0
 10
-143.922293
 20
44.373175
 11
-143.922293
 21
75.369415
  0
POINT
  8
寸法
 62
     0
 10
-143.922293
 20
75.369415
  0
TEXT
  7
TextStyle03
  8
寸法
  6
CONTINUOUS
 62
     0
 10
-144.3
 20
58.25625
  1
31
 40
3.0
 50
90.0
 72
     5
 11
-144.3
 21
61.44375
  0
ENDBLK
  0
BLOCK
  2
*DIM_0029
 70
    65
 10
0.0
 20
0.0
  0
LINE
  8
寸法
  6
BYBLOCK
 62
     0
 10
-20.243163
 20
35.373175
 11
53.67201
 21
35.373175
  0
LINE
  8
寸法
  6
BYBLOCK
 62
     0
 10
53.67201
 20
45.373175
 11
53.67201
 21
35.373175
  0
POINT
  8
寸法
 62
     0
 10
53.67201
 20
35.373175
  0
TEXT
  7
TextStyle03
  8
寸法
  6
CONTINUOUS
 62
     0
 10
53.3
 20
38.78125
  1
10
 40
3.0
 50
90.0
 72
     5
 11
53.3
 21
41.96875
  0
ENDBLK
  0
BLOCK
  2
*DIM_0030
 70
    65
 10
0.0
 20
0.0
  0
LINE
  8
寸法
  6
BYBLOCK
 62
     0
 10
-30.543163
 20
-15.62645
 11
53.67201
 21
-15.62645
  0
LINE
  8
寸法
  6
BYBLOCK
 62
     0
 10
53.67201
 20
35.373175
 11
53.67201
 21
-15.62645
  0
POINT
  8
寸法
 62
     0
 10
53.67201
 20
-15.62645
  0
TEXT
  7
TextStyle03
  8
寸法
  6
CONTINUOUS
 62
     0
 10
53.3
 20
8.28125
  1
51
 40
3.0
 50
90.0
 72
     5
 11
53.3
 21
11.46875
  0
ENDBLK
  0
BLOCK
  2
*GRP_0031
 70
    65
 10
0.0
 20
0.0
  0
LINE
  8
別途部材
  6
CONTINUOUS
 62
    96
 10
-85.477603
 20
-6.358755
 11
-85.683493
 21
-4.8932
  0
ARC
  8
別途部材
  6
CONTINUOUS
 62
    96
 10
-87.664039
 20
-5.171437
 40
2.0
 50
7.996999
 51
92.996996
  0
LINE
  8
別途部材
  6
CONTINUOUS
 62
    96
 10
-94.46529
 20
-6.829305
 11
-94.413568
 21
-5.350265
  0
ARC
  8
別途部材
  6
CONTINUOUS
 62
    96
 10
-92.414783
 20
-5.420163
 40
2.0
 50
92.996996
 51
177.996993
  0
LINE
  8
別途部材
  6
CONTINUOUS
 62
    96
 10
-85.477603
 20
-6.358755
 11
-94.46529
 21
-6.829305
  0
LINE
  8
別途部材
  6
CONTINUOUS
 62
    96
 10
-87.76861
 20
-3.17418
 11
-92.519358
 21
-3.422905
  0
LINE
  8
別途部材
  6
CONTINUOUS
 62
    96
 10
-86.97817
 20
-15.95033
 11
-87.451345
 21
-16.475785
  0
LINE
  8
別途部材
  6
CONTINUOUS
 62
    96
 10
-91.97133
 20
-16.211745
 11
-91.445878
 21
-16.68492
  0
LINE
  8
別途部材
  6
CONTINUOUS
 62
    96
 10
-91.96871
 20
-6.698595
 11
-91.445878
 21
-16.68492
  0
LINE
  8
別途部材
  6
CONTINUOUS
 62
    96
 10
-92.468025
 20
-6.72474
 11
-91.97133
 21
-16.211745
  0
LINE
  8
別途部材
  6
CONTINUOUS
 62
    96
 10
-87.474865
 20
-6.46332
 11
-86.97817
 21
-15.95033
  0
LINE
  8
別途部材
  6
CONTINUOUS
 62
    96
 10
-91.97133
 20
-16.211745
 11
-86.97817
 21
-15.95033
  0
LINE
  8
別途部材
  6
CONTINUOUS
 62
    96
 10
-87.974183
 20
-6.489465
 11
-87.451345
 21
-16.475785
  0
LINE
  8
別途部材
  6
CONTINUOUS
 62
    96
 10
-91.445878
 20
-16.68492
 11
-87.451345
 21
-16.475785
  0
LINE
  8
別途部材
  6
CONTINUOUS
 62
    96
 10
-90.38574
 20
1.319135
 11
-89.448613
 21
-16.580355
  0
LINE
  8
別途部材
  6
CONTINUOUS
 62
    96
 10
-58.247418
 20
-71.12671
 11
-55.24741
 21
-71.12671
  0
LINE
  8
別途部材
  6
CONTINUOUS
 62
    96
 10
-61.247425
 20
-8.094295
 11
-101.171535
 21
-10.18453
  0
LINE
  8
別途部材
  6
CONTINUOUS
 62
    96
 10
-44.24742
 20
-42.62725
 11
-58.247418
 21
-42.62725
  0
LINE
  8
別途部材
  6
CONTINUOUS
 62
    96
 10
-61.247425
 20
23.172635
 11
-64.24744
 21
23.172635
  0
LINE
  8
別途部材
  6
CONTINUOUS
 62
    96
 10
-61.247425
 20
3.905705
 11
-64.24744
 21
3.905705
  0
LINE
  8
別途部材
  6
CONTINUOUS
 62
    96
 10
-61.247425
 20
3.905705
 11
-64.24744
 21
3.905705
  0
LINE
  8
別途部材
  6
CONTINUOUS
 62
    96
 10
-101.447387
 20
-26.62672
 11
-109.44742
 21
-23.12671
  0
LINE
  8
別途部材
  6
CONTINUOUS
 62
    96
 10
-100.819877
 20
-23.6267
 11
-105.449905
 21
-21.601085
  0
LINE
  8
別途部材
  6
CONTINUOUS
 62
    96
 10
-101.95503
 20
-7.22143
 11
-109.761122
 21
-11.134925
  0
LINE
  8
別途部材
  6
CONTINUOUS
 62
    96
 10
-101.171548
 20
-10.18453
 11
-109.079922
 21
-14.14931
  0
LINE
  8
別途部材
  6
CONTINUOUS
 62
    96
 10
-107.133463
 20
-15.217345
 11
-104.819532
 21
-13.30798
  0
LINE
  8
別途部材
  6
DASHDOTX2
 62
    96
 10
-109.44742
 20
-17.12672
 11
-109.44742
 21
-7.72214
  0
LINE
  8
別途部材
  6
DASHDOTX2
 62
    96
 10
-109.44742
 20
-17.12672
 11
-109.44742
 21
-27.040495
  0
LINE
  8
別途部材
  6
DASHDOTX2
 62
    96
 10
-109.44742
 20
-17.12672
 11
-101.54325
 21
-17.12672
  0
LINE
  8
別途部材
  6
DASHDOTX2
 62
    96
 10
-109.44742
 20
-17.12672
 11
-117.796683
 21
-17.12672
  0
LINE
  8
別途部材
  6
CONTINUOUS
 62
    96
 10
-55.24741
 20
-23.6267
 11
-100.819877
 21
-23.6267
  0
LINE
  8
別途部材
  6
CONTINUOUS
 62
    96
 10
-58.247418
 20
-26.62672
 11
-101.447387
 21
-26.62672
  0
LINE
  8
別途部材
  6
CONTINUOUS
 62
    96
 10
-64.24744
 20
28.90571
 11
-64.24744
 21
-5.247245
  0
LINE
  8
別途部材
  6
CONTINUOUS
 62
    96
 10
-61.247425
 20
28.90571
 11
-64.24744
 21
28.90571
  0
LINE
  8
別途部材
  6
CONTINUOUS
 62
    96
 10
-61.247425
 20
28.90571
 11
-61.247425
 21
-8.094295
  0
CIRCLE
  8
別途部材
  6
CONTINUOUS
 62
    96
 10
-109.44742
 20
-17.12672
 40
3.0
  0
ARC
  8
別途部材
  6
CONTINUOUS
 62
    96
 10
-109.447421
 20
-17.126708
 40
6.0
 50
92.998444
 51
411.219394
  0
LINE
  8
別途部材
  6
CONTINUOUS
 62
    96
 10
-55.24741
 20
-23.6267
 11
-55.24741
 21
-71.12671
  0
LINE
  8
別途部材
  6
CONTINUOUS
 62
    96
 10
-58.247418
 20
-26.62672
 11
-58.247418
 21
-71.12671
  0
LINE
  8
別途部材
  6
CONTINUOUS
 62
    96
 10
-42.24741
 20
-42.627245
 11
-44.24742
 21
-44.627245
  0
LINE
  8
別途部材
  6
CONTINUOUS
 62
    96
 10
-42.24741
 20
-42.627245
 11
-44.24742
 21
-40.62725
  0
LINE
  8
別途部材
  6
CONTINUOUS
 62
    96
 10
-46.860508
 20
-40.62725
 11
-46.860508
 21
-44.627245
  0
LINE
  8
別途部材
  6
CONTINUOUS
 62
    96
 10
-42.24741
 20
-42.627245
 11
-42.601205
 21
-42.479
  0
LINE
  8
別途部材
  6
CONTINUOUS
 62
    96
 10
-42.601205
 20
-42.479
 11
-42.95034
 21
-42.339335
  0
LINE
  8
別途部材
  6
CONTINUOUS
 62
    96
 10
-42.95034
 20
-42.339335
 11
-43.299478
 21
-42.339335
  0
LINE
  8
別途部材
  6
CONTINUOUS
 62
    96
 10
-43.299478
 20
-42.339335
 11
-43.57874
 21
-42.06005
  0
LINE
  8
別途部材
  6
CONTINUOUS
 62
    96
 10
-43.57874
 20
-42.06005
 11
-43.718395
 21
-41.78075
  0
LINE
  8
別途部材
  6
CONTINUOUS
 62
    96
 10
-43.718395
 20
-41.78075
 11
-43.858045
 21
-41.501455
  0
LINE
  8
別途部材
  6
CONTINUOUS
 62
    96
 10
-43.858045
 20
-41.501455
 11
-43.9977
 21
-41.222155
  0
LINE
  8
別途部材
  6
CONTINUOUS
 62
    96
 10
-43.9977
 20
-41.222155
 11
-44.067527
 21
-40.942855
  0
LINE
  8
別途部材
  6
CONTINUOUS
 62
    96
 10
-44.067527
 20
-40.942855
 11
-44.13736
 21
-40.663555
  0
LINE
  8
別途部材
  6
CONTINUOUS
 62
    96
 10
-44.13736
 20
-40.663555
 11
-44.24742
 21
-40.62725
  0
LINE
  8
別途部材
  6
CONTINUOUS
 62
    96
 10
-44.24742
 20
-44.627245
 11
-45.30109
 21
-43.666015
  0
LINE
  8
別途部材
  6
CONTINUOUS
 62
    96
 10
-45.30109
 20
-43.666015
 11
-45.580375
 21
-43.293625
  0
LINE
  8
別途部材
  6
CONTINUOUS
 62
    96
 10
-45.580375
 20
-43.293625
 11
-45.85969
 21
-42.921215
  0
LINE
  8
別途部材
  6
CONTINUOUS
 62
    96
 10
-45.85969
 20
-42.921215
 11
-45.39418
 21
-42.921215
  0
LINE
  8
別途部材
  6
CONTINUOUS
 62
    96
 10
-45.39418
 20
-42.921215
 11
-44.92869
 21
-42.921215
  0
LINE
  8
別途部材
  6
CONTINUOUS
 62
    96
 10
-44.92869
 20
-42.921215
 11
-44.463192
 21
-42.921215
  0
LINE
  8
別途部材
  6
CONTINUOUS
 62
    96
 10
-44.463192
 20
-42.921215
 11
-43.9977
 21
-42.921215
  0
LINE
  8
別途部材
  6
CONTINUOUS
 62
    96
 10
-43.9977
 20
-42.921215
 11
-43.532225
 21
-42.921215
  0
LINE
  8
別途部材
  6
CONTINUOUS
 62
    96
 10
-43.532225
 20
-42.921215
 11
-43.06671
 21
-42.921215
  0
LINE
  8
別途部材
  6
CONTINUOUS
 62
    96
 10
-43.06671
 20
-42.921215
 11
-42.24741
 21
-42.627245
  0
LINE
  8
別途部材
  6
CONTINUOUS
 62
    96
 10
-44.24742
 20
-44.627245
 11
-58.247418
 21
-44.627245
  0
LINE
  8
別途部材
  6
CONTINUOUS
 62
    96
 10
-46.860508
 20
-43.92014
 11
-58.247418
 21
-43.92014
  0
LINE
  8
別途部材
  6
CONTINUOUS
 62
    96
 10
-46.860508
 20
-41.33434
 11
-58.247418
 21
-41.33434
  0
LINE
  8
別途部材
  6
CONTINUOUS
 62
    96
 10
-44.24742
 20
-40.62725
 11
-58.247418
 21
-40.62725
  0
LINE
  8
別途部材
  6
CONTINUOUS
 62
    96
 10
-58.247418
 20
-39.12724
 11
-58.247418
 21
-46.12724
  0
LINE
  8
別途部材
  6
CONTINUOUS
 62
    96
 10
-59.24742
 20
-46.62724
 11
-58.74742
 21
-46.62724
  0
LINE
  8
別途部材
  6
CONTINUOUS
 62
    96
 10
-59.24742
 20
-38.62724
 11
-58.74742
 21
-38.62724
  0
LINE
  8
別途部材
  6
CONTINUOUS
 62
    96
 10
-61.247425
 20
-40.62725
 11
-61.247425
 21
-44.627245
  0
LINE
  8
別途部材
  6
CONTINUOUS
 62
    96
 10
-60.452653
 20
-42.827245
 11
-60.452653
 21
-42.427235
  0
LINE
  8
別途部材
  6
CONTINUOUS
 62
    96
 10
-60.909378
 20
-42.12724
 11
-60.752645
 21
-42.12724
  0
LINE
  8
別途部材
  6
CONTINUOUS
 62
    96
 10
-60.909378
 20
-43.127245
 11
-60.752645
 21
-43.127245
  0
LINE
  8
別途部材
  6
CONTINUOUS
 62
    96
 10
-61.20937
 20
-41.389535
 11
-61.247425
 21
-41.389535
  0
LINE
  8
別途部材
  6
CONTINUOUS
 62
    96
 10
-61.10938
 20
-41.48954
 11
-61.10938
 21
-41.92724
  0
LINE
  8
別途部材
  6
CONTINUOUS
 62
    96
 10
-61.20937
 20
-43.864945
 11
-61.247425
 21
-43.864945
  0
LINE
  8
別途部材
  6
CONTINUOUS
 62
    96
 10
-61.10938
 20
-43.76495
 11
-61.10938
 21
-43.32725
  0
ARC
  8
別途部材
  6
CONTINUOUS
 62
    96
 10
-58.747415
 20
-46.127232
 40
0.5
 50
270.00412
 51
360.005493
  0
ARC
  8
別途部材
  6
CONTINUOUS
 62
    96
 10
-58.747415
 20
-39.127233
 40
0.5
 50
0.005493
 51
90.001373
  0
ARC
  8
別途部材
  6
CONTINUOUS
 62
    96
 10
-59.247417
 20
-44.627239
 40
2.0
 50
180.002747
 51
270.00412
  0
ARC
  8
別途部材
  6
CONTINUOUS
 62
    96
 10
-59.247417
 20
-40.627238
 40
2.0
 50
90.001373
 51
180.002747
  0
ARC
  8
別途部材
  6
CONTINUOUS
 62
    96
 10
-60.752643
 20
-42.427227
 40
0.3
 50
0.005493
 51
90.001373
  0
ARC
  8
別途部材
  6
CONTINUOUS
 62
    96
 10
-60.752643
 20
-42.827238
 40
0.3
 50
270.00412
 51
360.005493
  0
ARC
  8
別途部材
  6
CONTINUOUS
 62
    96
 10
-60.909371
 20
-41.927225
 40
0.2
 50
180.002747
 51
270.00412
  0
ARC
  8
別途部材
  6
CONTINUOUS
 62
    96
 10
-60.909371
 20
-43.32724
 40
0.2
 50
90.001373
 51
180.002747
  0
ARC
  8
別途部材
  6
CONTINUOUS
 62
    96
 10
-61.209367
 20
-41.489529
 40
0.1
 50
0.005493
 51
90.001373
  0
ARC
  8
別途部材
  6
CONTINUOUS
 62
    96
 10
-61.209367
 20
-43.764936
 40
0.1
 50
270.00412
 51
360.005493
  0
LINE
  8
別途部材
  6
DASHDOTX2
 62
    96
 10
-62.59476
 20
-56.627465
 11
-39.54062
 21
-56.627465
  0
LINE
  8
別途部材
  6
CONTINUOUS
 62
    96
 10
-42.24741
 20
-56.627465
 11
-44.24742
 21
-58.627465
  0
LINE
  8
別途部材
  6
CONTINUOUS
 62
    96
 10
-42.24741
 20
-56.627465
 11
-44.24742
 21
-54.62744
  0
LINE
  8
別途部材
  6
CONTINUOUS
 62
    96
 10
-46.860508
 20
-54.62744
 11
-46.860508
 21
-58.627465
  0
LINE
  8
別途部材
  6
CONTINUOUS
 62
    96
 10
-42.24741
 20
-56.627465
 11
-42.601205
 21
-56.47922
  0
LINE
  8
別途部材
  6
CONTINUOUS
 62
    96
 10
-42.601205
 20
-56.47922
 11
-42.95034
 21
-56.33954
  0
LINE
  8
別途部材
  6
CONTINUOUS
 62
    96
 10
-42.95034
 20
-56.33954
 11
-43.299478
 21
-56.33954
  0
LINE
  8
別途部材
  6
CONTINUOUS
 62
    96
 10
-43.299478
 20
-56.33954
 11
-43.57874
 21
-56.06027
  0
LINE
  8
別途部材
  6
CONTINUOUS
 62
    96
 10
-43.57874
 20
-56.06027
 11
-43.718395
 21
-55.780955
  0
LINE
  8
別途部材
  6
CONTINUOUS
 62
    96
 10
-43.718395
 20
-55.780955
 11
-43.858045
 21
-55.50167
  0
LINE
  8
別途部材
  6
CONTINUOUS
 62
    96
 10
-43.858045
 20
-55.50167
 11
-43.9977
 21
-55.22236
  0
LINE
  8
別途部材
  6
CONTINUOUS
 62
    96
 10
-43.9977
 20
-55.22236
 11
-44.067527
 21
-54.943075
  0
LINE
  8
別途部材
  6
CONTINUOUS
 62
    96
 10
-44.067527
 20
-54.943075
 11
-44.13736
 21
-54.66377
  0
LINE
  8
別途部材
  6
CONTINUOUS
 62
    96
 10
-44.13736
 20
-54.66377
 11
-44.24742
 21
-54.62744
  0
LINE
  8
別途部材
  6
CONTINUOUS
 62
    96
 10
-44.24742
 20
-58.627465
 11
-45.30109
 21
-57.66623
  0
LINE
  8
別途部材
  6
CONTINUOUS
 62
    96
 10
-45.30109
 20
-57.66623
 11
-45.580375
 21
-57.29384
  0
LINE
  8
別途部材
  6
CONTINUOUS
 62
    96
 10
-45.580375
 20
-57.29384
 11
-45.85969
 21
-56.92142
  0
LINE
  8
別途部材
  6
CONTINUOUS
 62
    96
 10
-45.85969
 20
-56.92142
 11
-45.39418
 21
-56.92142
  0
LINE
  8
別途部材
  6
CONTINUOUS
 62
    96
 10
-45.39418
 20
-56.92142
 11
-44.92869
 21
-56.92142
  0
LINE
  8
別途部材
  6
CONTINUOUS
 62
    96
 10
-44.92869
 20
-56.92142
 11
-44.463192
 21
-56.92142
  0
LINE
  8
別途部材
  6
CONTINUOUS
 62
    96
 10
-44.463192
 20
-56.92142
 11
-43.9977
 21
-56.92142
  0
LINE
  8
別途部材
  6
CONTINUOUS
 62
    96
 10
-43.9977
 20
-56.92142
 11
-43.532225
 21
-56.92142
  0
LINE
  8
別途部材
  6
CONTINUOUS
 62
    96
 10
-43.532225
 20
-56.92142
 11
-43.06671
 21
-56.92142
  0
LINE
  8
別途部材
  6
CONTINUOUS
 62
    96
 10
-43.06671
 20
-56.92142
 11
-42.24741
 21
-56.627465
  0
LINE
  8
別途部材
  6
CONTINUOUS
 62
    96
 10
-44.24742
 20
-58.627465
 11
-58.247418
 21
-58.627465
  0
LINE
  8
別途部材
  6
CONTINUOUS
 62
    96
 10
-46.860508
 20
-57.92036
 11
-58.247418
 21
-57.92036
  0
LINE
  8
別途部材
  6
CONTINUOUS
 62
    96
 10
-46.860508
 20
-55.334555
 11
-58.247418
 21
-55.334555
  0
LINE
  8
別途部材
  6
CONTINUOUS
 62
    96
 10
-44.24742
 20
-54.62744
 11
-58.247418
 21
-54.62744
  0
LINE
  8
別途部材
  6
CONTINUOUS
 62
    96
 10
-58.247418
 20
-53.12746
 11
-58.247418
 21
-60.12745
  0
LINE
  8
別途部材
  6
CONTINUOUS
 62
    96
 10
-59.24742
 20
-60.627445
 11
-58.74742
 21
-60.627445
  0
LINE
  8
別途部材
  6
CONTINUOUS
 62
    96
 10
-59.24742
 20
-52.62746
 11
-58.74742
 21
-52.62746
  0
LINE
  8
別途部材
  6
CONTINUOUS
 62
    96
 10
-61.247425
 20
-54.62744
 11
-61.247425
 21
-58.627465
  0
LINE
  8
別途部材
  6
CONTINUOUS
 62
    96
 10
-60.452653
 20
-56.82745
 11
-60.452653
 21
-56.427455
  0
LINE
  8
別途部材
  6
CONTINUOUS
 62
    96
 10
-60.909378
 20
-56.127445
 11
-60.752645
 21
-56.127445
  0
LINE
  8
別途部材
  6
CONTINUOUS
 62
    96
 10
-60.909378
 20
-57.127465
 11
-60.752645
 21
-57.127465
  0
LINE
  8
別途部材
  6
CONTINUOUS
 62
    96
 10
-61.20937
 20
-55.389755
 11
-61.247425
 21
-55.389755
  0
LINE
  8
別途部材
  6
CONTINUOUS
 62
    96
 10
-61.10938
 20
-55.489745
 11
-61.10938
 21
-55.927445
  0
LINE
  8
別途部材
  6
CONTINUOUS
 62
    96
 10
-61.20937
 20
-57.86516
 11
-61.247425
 21
-57.86516
  0
LINE
  8
別途部材
  6
CONTINUOUS
 62
    96
 10
-61.10938
 20
-57.765155
 11
-61.10938
 21
-57.32747
  0
ARC
  8
別途部材
  6
CONTINUOUS
 62
    96
 10
-58.747415
 20
-60.127438
 40
0.5
 50
270.00412
 51
360.005493
  0
ARC
  8
別途部材
  6
CONTINUOUS
 62
    96
 10
-58.747415
 20
-53.127452
 40
0.5
 50
0.005493
 51
90.001373
  0
ARC
  8
別途部材
  6
CONTINUOUS
 62
    96
 10
-59.247417
 20
-58.627458
 40
2.0
 50
180.002747
 51
270.00412
  0
ARC
  8
別途部材
  6
CONTINUOUS
 62
    96
 10
-59.247417
 20
-54.627432
 40
2.0
 50
90.001373
 51
180.002747
  0
ARC
  8
別途部材
  6
CONTINUOUS
 62
    96
 10
-60.752643
 20
-56.427446
 40
0.3
 50
0.005493
 51
90.001373
  0
ARC
  8
別途部材
  6
CONTINUOUS
 62
    96
 10
-60.752643
 20
-56.827445
 40
0.3
 50
270.00412
 51
360.005493
  0
ARC
  8
別途部材
  6
CONTINUOUS
 62
    96
 10
-60.909371
 20
-55.927432
 40
0.2
 50
180.002747
 51
270.00412
  0
ARC
  8
別途部材
  6
CONTINUOUS
 62
    96
 10
-60.909371
 20
-57.327459
 40
0.2
 50
90.001373
 51
180.002747
  0
ARC
  8
別途部材
  6
CONTINUOUS
 62
    96
 10
-61.209367
 20
-55.489736
 40
0.1
 50
0.005493
 51
90.001373
  0
ARC
  8
別途部材
  6
CONTINUOUS
 62
    96
 10
-61.209367
 20
-57.765143
 40
0.1
 50
270.00412
 51
360.005493
  0
LINE
  8
別途部材
  6
DASHDOT
 62
    96
 10
-59.24742
 20
23.172635
 11
-66.24744
 21
23.172635
  0
LINE
  8
別途部材
  6
DASHDOTX2
 62
    96
 10
-68.594775
 20
23.172635
 11
-45.540643
 21
23.172635
  0
LINE
  8
別途部材
  6
CONTINUOUS
 62
    96
 10
-48.247435
 20
23.172635
 11
-50.247435
 21
21.17263
  0
LINE
  8
別途部材
  6
CONTINUOUS
 62
    96
 10
-48.247435
 20
23.172635
 11
-50.247435
 21
25.172645
  0
LINE
  8
別途部材
  6
CONTINUOUS
 62
    96
 10
-52.860525
 20
25.172645
 11
-52.860525
 21
21.17263
  0
LINE
  8
別途部材
  6
CONTINUOUS
 62
    96
 10
-48.247435
 20
23.172635
 11
-48.601228
 21
23.32088
  0
LINE
  8
別途部材
  6
CONTINUOUS
 62
    96
 10
-48.601228
 20
23.32088
 11
-48.950355
 21
23.460545
  0
LINE
  8
別途部材
  6
CONTINUOUS
 62
    96
 10
-48.950355
 20
23.460545
 11
-49.299497
 21
23.460545
  0
LINE
  8
別途部材
  6
CONTINUOUS
 62
    96
 10
-49.299497
 20
23.460545
 11
-49.57876
 21
23.73983
  0
LINE
  8
別途部材
  6
CONTINUOUS
 62
    96
 10
-49.57876
 20
23.73983
 11
-49.71841
 21
24.01913
  0
LINE
  8
別途部材
  6
CONTINUOUS
 62
    96
 10
-49.71841
 20
24.01913
 11
-49.858068
 21
24.29842
  0
LINE
  8
別途部材
  6
CONTINUOUS
 62
    96
 10
-49.858068
 20
24.29842
 11
-49.997728
 21
24.57772
  0
LINE
  8
別途部材
  6
CONTINUOUS
 62
    96
 10
-49.997728
 20
24.57772
 11
-50.06755
 21
24.85702
  0
LINE
  8
別途部材
  6
CONTINUOUS
 62
    96
 10
-50.06755
 20
24.85702
 11
-50.137375
 21
25.13632
  0
LINE
  8
別途部材
  6
CONTINUOUS
 62
    96
 10
-50.137375
 20
25.13632
 11
-50.247435
 21
25.172645
  0
LINE
  8
別途部材
  6
CONTINUOUS
 62
    96
 10
-50.247435
 20
21.17263
 11
-51.301113
 21
22.13386
  0
LINE
  8
別途部材
  6
CONTINUOUS
 62
    96
 10
-51.301113
 20
22.13386
 11
-51.580395
 21
22.50626
  0
LINE
  8
別途部材
  6
CONTINUOUS
 62
    96
 10
-51.580395
 20
22.50626
 11
-51.859707
 21
22.878665
  0
LINE
  8
別途部材
  6
CONTINUOUS
 62
    96
 10
-51.859707
 20
22.878665
 11
-51.394205
 21
22.878665
  0
LINE
  8
別途部材
  6
CONTINUOUS
 62
    96
 10
-51.394205
 20
22.878665
 11
-50.928718
 21
22.878665
  0
LINE
  8
別途部材
  6
CONTINUOUS
 62
    96
 10
-50.928718
 20
22.878665
 11
-50.463208
 21
22.878665
  0
LINE
  8
別途部材
  6
CONTINUOUS
 62
    96
 10
-50.463208
 20
22.878665
 11
-49.997728
 21
22.878665
  0
LINE
  8
別途部材
  6
CONTINUOUS
 62
    96
 10
-49.997728
 20
22.878665
 11
-49.532235
 21
22.878665
  0
LINE
  8
別途部材
  6
CONTINUOUS
 62
    96
 10
-49.532235
 20
22.878665
 11
-49.066725
 21
22.878665
  0
LINE
  8
別途部材
  6
CONTINUOUS
 62
    96
 10
-49.066725
 20
22.878665
 11
-48.247435
 21
23.172635
  0
LINE
  8
別途部材
  6
CONTINUOUS
 62
    96
 10
-50.247435
 20
21.17263
 11
-64.24744
 21
21.17263
  0
LINE
  8
別途部材
  6
CONTINUOUS
 62
    96
 10
-52.860525
 20
21.87974
 11
-64.24744
 21
21.87974
  0
LINE
  8
別途部材
  6
CONTINUOUS
 62
    96
 10
-52.860525
 20
24.465535
 11
-64.24744
 21
24.465535
  0
LINE
  8
別途部材
  6
CONTINUOUS
 62
    96
 10
-50.247435
 20
25.172645
 11
-64.24744
 21
25.172645
  0
LINE
  8
別途部材
  6
CONTINUOUS
 62
    96
 10
-64.24744
 20
26.672635
 11
-64.24744
 21
19.67264
  0
LINE
  8
別途部材
  6
CONTINUOUS
 62
    96
 10
-65.247435
 20
19.172635
 11
-64.747435
 21
19.172635
  0
LINE
  8
別途部材
  6
CONTINUOUS
 62
    96
 10
-65.247435
 20
27.17264
 11
-64.747435
 21
27.17264
  0
LINE
  8
別途部材
  6
CONTINUOUS
 62
    96
 10
-67.247447
 20
25.172645
 11
-67.247447
 21
21.17263
  0
LINE
  8
別途部材
  6
CONTINUOUS
 62
    96
 10
-66.45267
 20
22.97263
 11
-66.45267
 21
23.372645
  0
LINE
  8
別途部材
  6
CONTINUOUS
 62
    96
 10
-66.909393
 20
23.672635
 11
-66.752668
 21
23.672635
  0
LINE
  8
別途部材
  6
CONTINUOUS
 62
    96
 10
-66.909393
 20
22.67263
 11
-66.752668
 21
22.67263
  0
LINE
  8
別途部材
  6
CONTINUOUS
 62
    96
 10
-67.209393
 20
24.410345
 11
-67.247447
 21
24.410345
  0
LINE
  8
別途部材
  6
CONTINUOUS
 62
    96
 10
-67.1094
 20
24.31034
 11
-67.1094
 21
23.872645
  0
LINE
  8
別途部材
  6
CONTINUOUS
 62
    96
 10
-67.209393
 20
21.93493
 11
-67.247447
 21
21.93493
  0
LINE
  8
別途部材
  6
CONTINUOUS
 62
    96
 10
-67.1094
 20
22.03493
 11
-67.1094
 21
22.47263
  0
ARC
  8
別途部材
  6
CONTINUOUS
 62
    96
 10
-64.747435
 20
19.672644
 40
0.5
 50
270.00412
 51
360.005493
  0
ARC
  8
別途部材
  6
CONTINUOUS
 62
    96
 10
-64.747435
 20
26.672642
 40
0.5
 50
0.005493
 51
90.001373
  0
ARC
  8
別途部材
  6
CONTINUOUS
 62
    96
 10
-65.247437
 20
21.172636
 40
2.0
 50
180.002747
 51
270.00412
  0
ARC
  8
別途部材
  6
CONTINUOUS
 62
    96
 10
-65.247437
 20
25.17265
 40
2.0
 50
90.001373
 51
180.002747
  0
ARC
  8
別途部材
  6
CONTINUOUS
 62
    96
 10
-66.752663
 20
23.372649
 40
0.3
 50
0.005493
 51
90.001373
  0
ARC
  8
別途部材
  6
CONTINUOUS
 62
    96
 10
-66.752663
 20
22.972637
 40
0.3
 50
270.00412
 51
360.005493
  0
ARC
  8
別途部材
  6
CONTINUOUS
 62
    96
 10
-66.909391
 20
23.87265
 40
0.2
 50
180.002747
 51
270.00412
  0
ARC
  8
別途部材
  6
CONTINUOUS
 62
    96
 10
-66.909391
 20
22.472636
 40
0.2
 50
90.001373
 51
180.002747
  0
ARC
  8
別途部材
  6
CONTINUOUS
 62
    96
 10
-67.209387
 20
24.310347
 40
0.1
 50
0.005493
 51
90.001373
  0
ARC
  8
別途部材
  6
CONTINUOUS
 62
    96
 10
-67.209387
 20
22.034939
 40
0.1
 50
270.00412
 51
360.005493
  0
LINE
  8
別途部材
  6
DASHDOT
 62
    96
 10
-59.24742
 20
3.905705
 11
-66.24744
 21
3.905705
  0
LINE
  8
別途部材
  6
DASHDOTX2
 62
    96
 10
-68.594775
 20
3.905705
 11
-45.540643
 21
3.905705
  0
LINE
  8
別途部材
  6
CONTINUOUS
 62
    96
 10
-48.247435
 20
3.905705
 11
-50.247435
 21
1.905695
  0
LINE
  8
別途部材
  6
CONTINUOUS
 62
    96
 10
-48.247435
 20
3.905705
 11
-50.247435
 21
5.905705
  0
LINE
  8
別途部材
  6
CONTINUOUS
 62
    96
 10
-52.860525
 20
5.905705
 11
-52.860525
 21
1.905695
  0
LINE
  8
別途部材
  6
CONTINUOUS
 62
    96
 10
-48.247435
 20
3.905705
 11
-48.601228
 21
4.05394
  0
LINE
  8
別途部材
  6
CONTINUOUS
 62
    96
 10
-48.601228
 20
4.05394
 11
-48.950355
 21
4.193605
  0
LINE
  8
別途部材
  6
CONTINUOUS
 62
    96
 10
-48.950355
 20
4.193605
 11
-49.299497
 21
4.193605
  0
LINE
  8
別途部材
  6
CONTINUOUS
 62
    96
 10
-49.299497
 20
4.193605
 11
-49.57876
 21
4.47289
  0
LINE
  8
別途部材
  6
CONTINUOUS
 62
    96
 10
-49.57876
 20
4.47289
 11
-49.71841
 21
4.75219
  0
LINE
  8
別途部材
  6
CONTINUOUS
 62
    96
 10
-49.71841
 20
4.75219
 11
-49.858068
 21
5.03149
  0
LINE
  8
別途部材
  6
CONTINUOUS
 62
    96
 10
-49.858068
 20
5.03149
 11
-49.997728
 21
5.31079
  0
LINE
  8
別途部材
  6
CONTINUOUS
 62
    96
 10
-49.997728
 20
5.31079
 11
-50.06755
 21
5.590085
  0
LINE
  8
別途部材
  6
CONTINUOUS
 62
    96
 10
-50.06755
 20
5.590085
 11
-50.137375
 21
5.869385
  0
LINE
  8
別途部材
  6
CONTINUOUS
 62
    96
 10
-50.137375
 20
5.869385
 11
-50.247435
 21
5.905705
  0
LINE
  8
別途部材
  6
CONTINUOUS
 62
    96
 10
-50.247435
 20
1.905695
 11
-51.301113
 21
2.866925
  0
LINE
  8
別途部材
  6
CONTINUOUS
 62
    96
 10
-51.301113
 20
2.866925
 11
-51.580395
 21
3.23932
  0
LINE
  8
別途部材
  6
CONTINUOUS
 62
    96
 10
-51.580395
 20
3.23932
 11
-51.859707
 21
3.611725
  0
LINE
  8
別途部材
  6
CONTINUOUS
 62
    96
 10
-51.859707
 20
3.611725
 11
-51.394205
 21
3.611725
  0
LINE
  8
別途部材
  6
CONTINUOUS
 62
    96
 10
-51.394205
 20
3.611725
 11
-50.928718
 21
3.611725
  0
LINE
  8
別途部材
  6
CONTINUOUS
 62
    96
 10
-50.928718
 20
3.611725
 11
-50.463208
 21
3.611725
  0
LINE
  8
別途部材
  6
CONTINUOUS
 62
    96
 10
-50.463208
 20
3.611725
 11
-49.997728
 21
3.611725
  0
LINE
  8
別途部材
  6
CONTINUOUS
 62
    96
 10
-49.997728
 20
3.611725
 11
-49.532235
 21
3.611725
  0
LINE
  8
別途部材
  6
CONTINUOUS
 62
    96
 10
-49.532235
 20
3.611725
 11
-49.066725
 21
3.611725
  0
LINE
  8
別途部材
  6
CONTINUOUS
 62
    96
 10
-49.066725
 20
3.611725
 11
-48.247435
 21
3.905705
  0
LINE
  8
別途部材
  6
CONTINUOUS
 62
    96
 10
-50.247435
 20
1.905695
 11
-64.24744
 21
1.905695
  0
LINE
  8
別途部材
  6
CONTINUOUS
 62
    96
 10
-52.860525
 20
2.6128
 11
-64.24744
 21
2.6128
  0
LINE
  8
別途部材
  6
CONTINUOUS
 62
    96
 10
-52.860525
 20
5.1986
 11
-64.24744
 21
5.1986
  0
LINE
  8
別途部材
  6
CONTINUOUS
 62
    96
 10
-50.247435
 20
5.905705
 11
-64.24744
 21
5.905705
  0
LINE
  8
別途部材
  6
CONTINUOUS
 62
    96
 10
-64.24744
 20
7.4057
 11
-64.24744
 21
0.4057
  0
LINE
  8
別途部材
  6
CONTINUOUS
 62
    96
 10
-65.247435
 20
-0.0943
 11
-64.747435
 21
-0.0943
  0
LINE
  8
別途部材
  6
CONTINUOUS
 62
    96
 10
-65.247435
 20
7.9057
 11
-64.747435
 21
7.9057
  0
LINE
  8
別途部材
  6
CONTINUOUS
 62
    96
 10
-67.247447
 20
5.905705
 11
-67.247447
 21
1.905695
  0
LINE
  8
別途部材
  6
CONTINUOUS
 62
    96
 10
-66.45267
 20
3.705695
 11
-66.45267
 21
4.105705
  0
LINE
  8
別途部材
  6
CONTINUOUS
 62
    96
 10
-66.909393
 20
4.4057
 11
-66.752668
 21
4.4057
  0
LINE
  8
別途部材
  6
CONTINUOUS
 62
    96
 10
-66.909393
 20
3.4057
 11
-66.752668
 21
3.4057
  0
LINE
  8
別途部材
  6
CONTINUOUS
 62
    96
 10
-67.209393
 20
5.143405
 11
-67.247447
 21
5.143405
  0
LINE
  8
別途部材
  6
CONTINUOUS
 62
    96
 10
-67.1094
 20
5.0434
 11
-67.1094
 21
4.60571
  0
LINE
  8
別途部材
  6
CONTINUOUS
 62
    96
 10
-67.209393
 20
2.667995
 11
-67.247447
 21
2.667995
  0
LINE
  8
別途部材
  6
CONTINUOUS
 62
    96
 10
-67.1094
 20
2.768
 11
-67.1094
 21
3.20569
  0
ARC
  8
別途部材
  6
CONTINUOUS
 62
    96
 10
-64.747435
 20
0.405709
 40
0.5
 50
270.00412
 51
360.005493
  0
ARC
  8
別途部材
  6
CONTINUOUS
 62
    96
 10
-64.747435
 20
7.405707
 40
0.5
 50
0.005493
 51
90.001373
  0
ARC
  8
別途部材
  6
CONTINUOUS
 62
    96
 10
-65.247437
 20
1.905701
 40
2.0
 50
180.002747
 51
270.00412
  0
ARC
  8
別途部材
  6
CONTINUOUS
 62
    96
 10
-65.247437
 20
5.905715
 40
2.0
 50
90.001373
 51
180.002747
  0
ARC
  8
別途部材
  6
CONTINUOUS
 62
    96
 10
-66.752663
 20
4.105714
 40
0.3
 50
0.005493
 51
90.001373
  0
ARC
  8
別途部材
  6
CONTINUOUS
 62
    96
 10
-66.752663
 20
3.705702
 40
0.3
 50
270.00412
 51
360.005493
  0
ARC
  8
別途部材
  6
CONTINUOUS
 62
    96
 10
-66.909391
 20
4.605715
 40
0.2
 50
180.002747
 51
270.00412
  0
ARC
  8
別途部材
  6
CONTINUOUS
 62
    96
 10
-66.909391
 20
3.205701
 40
0.2
 50
90.001373
 51
180.002747
  0
ARC
  8
別途部材
  6
CONTINUOUS
 62
    96
 10
-67.209387
 20
5.043412
 40
0.1
 50
0.005493
 51
90.001373
  0
ARC
  8
別途部材
  6
CONTINUOUS
 62
    96
 10
-67.209387
 20
2.768004
 40
0.1
 50
270.00412
 51
360.005493
  0
LINE
  8
別途部材
  6
CONTINUOUS
 62
    96
 10
-93.447418
 20
-21.62672
 11
-85.44741
 21
-21.62672
  0
LINE
  8
別途部材
  6
CONTINUOUS
 62
    96
 10
-91.947403
 20
-23.126725
 11
-86.94742
 21
-23.126725
  0
LINE
  8
別途部材
  6
CONTINUOUS
 62
    96
 10
-85.44741
 20
-21.62672
 11
-86.94742
 21
-23.126725
  0
LINE
  8
別途部材
  6
CONTINUOUS
 62
    96
 10
-93.447418
 20
-21.62672
 11
-91.947403
 21
-23.126725
  0
LINE
  8
別途部材
  6
DASHDOT
 62
    96
 10
-89.447403
 20
-20.093735
 11
-89.447403
 21
-33.386
  0
LINE
  8
別途部材
  6
CONTINUOUS
 62
    96
 10
-91.947403
 20
-26.9196
 11
-86.94742
 21
-26.9196
  0
LINE
  8
別途部材
  6
CONTINUOUS
 62
    96
 10
-86.94742
 20
-26.9196
 11
-87.654525
 21
-27.62672
  0
LINE
  8
別途部材
  6
CONTINUOUS
 62
    96
 10
-91.947403
 20
-26.9196
 11
-91.240302
 21
-27.62672
  0
LINE
  8
別途部材
  6
CONTINUOUS
 62
    96
 10
-91.240302
 20
-27.62672
 11
-87.654525
 21
-27.62672
  0
LINE
  8
別途部材
  6
CONTINUOUS
 62
    96
 10
-86.94742
 20
-23.126725
 11
-86.94742
 21
-26.9196
  0
LINE
  8
別途部材
  6
CONTINUOUS
 62
    96
 10
-91.947403
 20
-23.126725
 11
-91.947403
 21
-26.9196
  0
LINE
  8
別途部材
  6
CONTINUOUS
 62
    96
 10
-91.240302
 20
-23.126725
 11
-91.240302
 21
-27.62672
  0
LINE
  8
別途部材
  6
CONTINUOUS
 62
    96
 10
-87.654525
 20
-23.126725
 11
-87.654525
 21
-27.62672
  0
LINE
  8
別途部材
  6
CONTINUOUS
 62
    96
 10
-101.95503
 20
-7.22143
 11
-64.24744
 21
-5.247245
  0
ENDBLK
  0
BLOCK
  2
*GRP_0032
 70
    65
 10
0.0
 20
0.0
  0
POLYLINE
  8
寸法
  6
BYBLOCK
 62
     0
 66
     1
  0
VERTEX
  8
寸法
 10
-26.279482
 20
75.373018
  0
VERTEX
  8
寸法
 10
-28.877557
 20
76.873018
  0
VERTEX
  8
寸法
 10
-27.377557
 20
74.274942
  0
SEQEND
  0
POLYLINE
  8
寸法
  6
BYBLOCK
 62
     0
 66
     1
  0
VERTEX
  8
寸法
 10
-28.877557
 20
76.873018
  0
VERTEX
  8
寸法
 10
-24.175282
 20
72.170743
  0
VERTEX
  8
寸法
 10
-0.628367
 20
72.170743
  0
SEQEND
  0
ENDBLK
  0
BLOCK
  2
*GRP_0033
 70
    65
 10
0.0
 20
0.0
  0
POLYLINE
  8
寸法
  6
BYBLOCK
 62
     0
 66
     1
  0
VERTEX
  8
寸法
 10
-10.15
 20
61.548075
  0
VERTEX
  8
寸法
 10
-11.65
 20
58.95
  0
VERTEX
  8
寸法
 10
-9.051925
 20
60.45
  0
SEQEND
  0
POLYLINE
  8
寸法
  6
BYBLOCK
 62
     0
 66
     1
  0
VERTEX
  8
寸法
 10
-11.65
 20
58.95
  0
VERTEX
  8
寸法
 10
-7.97749
 20
62.62251
  0
VERTEX
  8
寸法
 10
-0.504853
 20
62.62251
  0
SEQEND
  0
ENDBLK
  0
BLOCK
  2
*GRP_0034
 70
    65
 10
0.0
 20
0.0
  0
POLYLINE
  8
寸法
  6
BYBLOCK
 62
     0
 66
     1
  0
VERTEX
  8
寸法
 10
-30.837702
 20
48.166052
  0
VERTEX
  8
寸法
 10
-32.653855
 20
50.553855
  0
VERTEX
  8
寸法
 10
-32.274922
 20
47.577882
  0
SEQEND
  0
POLYLINE
  8
寸法
  6
BYBLOCK
 62
     0
 66
     1
  0
VERTEX
  8
寸法
 10
-32.653855
 20
50.553855
  0
VERTEX
  8
寸法
 10
-22.459703
 20
25.64404
  0
VERTEX
  8
寸法
 10
-1.39703
 20
25.64404
  0
SEQEND
  0
ENDBLK
  0
BLOCK
  2
*GRP_0035
 70
    65
 10
0.0
 20
0.0
  0
POLYLINE
  8
寸法
  6
BYBLOCK
 62
     0
 66
     1
  0
VERTEX
  8
寸法
 10
-64.09252
 20
-78.552585
  0
VERTEX
  8
寸法
 10
-62.42958
 20
-81.049507
  0
VERTEX
  8
寸法
 10
-62.621267
 20
-78.05564
  0
SEQEND
  0
POLYLINE
  8
寸法
  6
BYBLOCK
 62
     0
 66
     1
  0
VERTEX
  8
寸法
 10
-62.42958
 20
-81.049507
  0
VERTEX
  8
寸法
 10
-70.008953
 20
-58.610085
  0
VERTEX
  8
寸法
 10
-73.18507
 20
-58.610085
  0
SEQEND
  0
ENDBLK
  0
BLOCK
  2
*GRP_0036
 70
    65
 10
0.0
 20
0.0
  0
POLYLINE
  8
寸法
  6
BYBLOCK
 62
     0
 66
     1
  0
VERTEX
  8
寸法
 10
-72.46726
 20
-78.024988
  0
VERTEX
  8
寸法
 10
-70.854813
 20
-80.554813
  0
VERTEX
  8
寸法
 10
-70.986323
 20
-77.557695
  0
SEQEND
  0
POLYLINE
  8
寸法
  6
BYBLOCK
 62
     0
 66
     1
  0
VERTEX
  8
寸法
 10
-70.854813
 20
-80.554813
  0
VERTEX
  8
寸法
 10
-74.854478
 20
-67.87911
  0
VERTEX
  8
寸法
 10
-78.532085
 20
-67.87911
  0
SEQEND
  0
ENDBLK
  0
BLOCK
  2
*GRP_0037
 70
    65
 10
0.0
 20
0.0
  0
POLYLINE
  8
寸法
  6
BYBLOCK
 62
     0
 66
     1
  0
VERTEX
  8
寸法
 10
-54.345088
 20
16.022758
  0
VERTEX
  8
寸法
 10
-56.943163
 20
17.522758
  0
VERTEX
  8
寸法
 10
-55.443163
 20
14.924683
  0
SEQEND
  0
POLYLINE
  8
寸法
  6
BYBLOCK
 62
     0
 66
     1
  0
VERTEX
  8
寸法
 10
-56.943163
 20
17.522758
  0
VERTEX
  8
寸法
 10
-52.349932
 20
12.929528
  0
VERTEX
  8
寸法
 10
-1.452257
 20
12.929528
  0
SEQEND
  0
ENDBLK
  0
BLOCK
  2
*GRP_0038
 70
    65
 10
0.0
 20
0.0
  0
POLYLINE
  8
寸法
  6
BYBLOCK
 62
     0
 66
     1
  0
VERTEX
  8
寸法
 10
-48.349335
 20
-31.800007
  0
VERTEX
  8
寸法
 10
-50.94741
 20
-30.300007
  0
VERTEX
  8
寸法
 10
-49.44741
 20
-32.898085
  0
SEQEND
  0
POLYLINE
  8
寸法
  6
BYBLOCK
 62
     0
 66
     1
  0
VERTEX
  8
寸法
 10
-50.94741
 20
-30.300007
  0
VERTEX
  8
寸法
 10
-46.430232
 20
-34.817185
  0
VERTEX
  8
寸法
 10
-0.122037
 20
-34.817185
  0
SEQEND
  0
ENDBLK
  0
BLOCK
  2
*GRP_0039
 70
    65
 10
0.0
 20
0.0
  0
ARC
  8
型材断面
  6
CONTINUOUS
 62
    47
 10
-87.115393
 20
-15.426444
 40
0.199974
 50
153.434949
 51
270.0
  0
ARC
  8
型材断面
  6
CONTINUOUS
 62
    47
 10
-91.762005
 20
-15.426444
 40
0.199974
 50
270.0
 51
386.565051
  0
LINE
  8
型材断面
  6
CONTINUOUS
 62
    47
 10
-94.138112
 20
-15.62645
 11
-91.76203
 21
-15.62645
  0
ARC
  8
型材断面
  6
CONTINUOUS
 62
    47
 10
-94.138091
 20
-15.326457
 40
0.299961
 50
180.0
 51
270.0
  0
LINE
  8
型材断面
  6
CONTINUOUS
 62
    47
 10
-84.439383
 20
-14.426825
 11
-82.439387
 21
-14.426825
  0
LINE
  8
型材断面
  6
CONTINUOUS
 62
    47
 10
-62.743165
 20
-15.126447
 11
-62.743165
 21
-14.426825
  0
ARC
  8
型材断面
  6
CONTINUOUS
 62
    47
 10
-62.243163
 20
-15.126445
 40
0.5
 50
180.0
 51
270.0
  0
LINE
  8
型材断面
  6
CONTINUOUS
 62
    47
 10
-59.743165
 20
-15.62645
 11
-62.243163
 21
-15.62645
  0
LINE
  8
型材断面
  6
CONTINUOUS
 62
    47
 10
-59.243163
 20
-12.626825
 11
-59.243163
 21
-15.126447
  0
ARC
  8
型材断面
  6
CONTINUOUS
 62
    47
 10
-59.743163
 20
-15.126445
 40
0.5
 50
270.0
 51
360.0
  0
LINE
  8
型材断面
  6
CONTINUOUS
 62
    47
 10
-87.115405
 20
-15.62645
 11
-82.939383
 21
-15.62645
  0
LINE
  8
型材断面
  6
CONTINUOUS
 62
    47
 10
-82.439387
 20
-15.126447
 11
-82.439387
 21
-14.426825
  0
ARC
  8
型材断面
  6
CONTINUOUS
 62
    47
 10
-82.939383
 20
-15.126445
 40
0.5
 50
270.0
 51
360.0
  0
LINE
  8
型材断面
  6
CONTINUOUS
 62
    47
 10
-82.439387
 20
-11.739883
 11
-82.439387
 21
-12.626825
  0
LINE
  8
型材断面
  6
CONTINUOUS
 62
    47
 10
-84.439383
 20
-12.626825
 11
-82.439387
 21
-12.626825
  0
LINE
  8
型材断面
  6
CONTINUOUS
 62
    47
 10
-62.743165
 20
-10.708662
 11
-62.743165
 21
-12.626825
  0
LINE
  8
型材断面
  6
CONTINUOUS
 62
    47
 10
-84.439383
 20
-14.426825
 11
-84.439383
 21
-12.626825
  0
LINE
  8
型材断面
  6
CONTINUOUS
 62
    47
 10
-73.59127
 20
-12.626825
 11
-71.591275
 21
-12.626825
  0
LINE
  8
型材断面
  6
CONTINUOUS
 62
    47
 10
-73.59127
 20
-12.626825
 11
-73.59127
 21
-11.27663
  0
LINE
  8
型材断面
  6
CONTINUOUS
 62
    47
 10
-71.591275
 20
-12.626825
 11
-71.591275
 21
-11.171915
  0
LINE
  8
型材断面
  6
CONTINUOUS
 62
    47
 10
-62.743165
 20
-10.708662
 11
-71.591275
 21
-11.171915
  0
LINE
  8
型材断面
  6
CONTINUOUS
 62
    47
 10
-94.438083
 20
-15.326472
 11
-94.438083
 21
-12.368083
  0
LINE
  8
型材断面
  6
CONTINUOUS
 62
    47
 10
-73.59127
 20
-11.27663
 11
-82.439387
 21
-11.739883
  0
LINE
  8
型材断面
  6
CONTINUOUS
 62
    47
 10
-92.956218
 20
-12.590907
 11
-85.732105
 21
-12.212683
  0
LINE
  8
型材断面
  6
CONTINUOUS
 62
    47
 10
-87.29428
 20
-15.337025
 11
-85.732105
 21
-12.212683
  0
LINE
  8
型材断面
  6
CONTINUOUS
 62
    47
 10
-91.583155
 20
-15.337025
 11
-92.956218
 21
-12.590907
  0
LINE
  8
型材断面
  6
CONTINUOUS
 62
    47
 10
-62.743165
 20
-12.626825
 11
-60.743163
 21
-12.626825
  0
LINE
  8
型材断面
  6
CONTINUOUS
 62
    47
 10
-60.743163
 20
-12.626825
 11
-60.743163
 21
-14.426825
  0
LINE
  8
型材断面
  6
CONTINUOUS
 62
    47
 10
-62.743165
 20
-14.426825
 11
-60.743163
 21
-14.426825
  0
LINE
  8
型材断面
  6
CONTINUOUS
 62
    47
 10
-89.73502
 20
-10.419515
 11
-89.451115
 21
-10.104238
  0
LINE
  8
型材断面
  6
CONTINUOUS
 62
    47
 10
-89.73502
 20
-10.419515
 11
-90.05029
 21
-10.13561
  0
LINE
  8
型材断面
  6
CONTINUOUS
 62
    47
 10
-61.243165
 20
-8.62739
 11
-89.451115
 21
-10.104238
  0
LINE
  8
型材断面
  6
CONTINUOUS
 62
    47
 10
-32.743165
 20
-15.32645
 11
-32.743165
 21
-12.626825
  0
ARC
  8
型材断面
  6
CONTINUOUS
 62
    47
 10
-32.443163
 20
-15.326445
 40
0.3
 50
180.0
 51
270.0
  0
LINE
  8
型材断面
  6
CONTINUOUS
 62
    47
 10
-31.543165
 20
-15.62645
 11
-32.443165
 21
-15.62645
  0
ARC
  8
型材断面
  6
CONTINUOUS
 62
    47
 10
-31.543163
 20
-15.326445
 40
0.3
 50
270.0
 51
360.0
  0
LINE
  8
型材断面
  6
CONTINUOUS
 62
    47
 10
-59.243163
 20
-12.626825
 11
-32.743165
 21
-12.626825
  0
LINE
  8
型材断面
  6
CONTINUOUS
 62
    47
 10
-60.943165
 20
23.172632
 11
-61.243165
 21
23.472632
  0
LINE
  8
型材断面
  6
CONTINUOUS
 62
    47
 10
-60.943165
 20
23.172632
 11
-61.243165
 21
22.872632
  0
LINE
  8
型材断面
  6
CONTINUOUS
 62
    47
 10
-60.943165
 20
3.905703
 11
-61.243165
 21
4.205703
  0
LINE
  8
型材断面
  6
CONTINUOUS
 62
    47
 10
-60.943165
 20
3.905703
 11
-61.243165
 21
3.605703
  0
LINE
  8
型材断面
  6
CONTINUOUS
 62
    47
 10
-61.243165
 20
-8.62739
 11
-61.243165
 21
3.605703
  0
LINE
  8
型材断面
  6
CONTINUOUS
 62
    47
 10
-61.243165
 20
4.205703
 11
-61.243165
 21
22.872632
  0
LINE
  8
型材断面
  6
CONTINUOUS
 62
    47
 10
-33.243167
 20
37.373178
 11
-23.243163
 21
37.373178
  0
LINE
  8
型材断面
  6
CONTINUOUS
 62
    47
 10
-31.243165
 20
35.373175
 11
-21.243167
 21
35.373175
  0
LINE
  8
型材断面
  6
CONTINUOUS
 62
    47
 10
-23.243163
 20
42.273175
 11
-23.243163
 21
37.373178
  0
LINE
  8
型材断面
  6
CONTINUOUS
 62
    47
 10
-59.243163
 20
42.273175
 11
-23.243163
 21
42.273175
  0
LINE
  8
型材断面
  6
CONTINUOUS
 62
    47
 10
-46.143468
 20
45.27265
 11
-46.143468
 21
44.273178
  0
LINE
  8
型材断面
  6
CONTINUOUS
 62
    47
 10
-41.24317
 20
75.069422
 11
-40.94317
 21
75.369422
  0
LINE
  8
型材断面
  6
CONTINUOUS
 62
    47
 10
-41.24317
 20
75.069422
 11
-41.54317
 21
75.369422
  0
LINE
  8
型材断面
  6
CONTINUOUS
 62
    47
 10
-40.939592
 20
75.372992
 11
-31.243165
 21
75.372992
  0
LINE
  8
型材断面
  6
CONTINUOUS
 62
    47
 10
-31.743167
 20
73.869392
 11
-31.243165
 21
74.369395
  0
LINE
  8
型材断面
  6
CONTINUOUS
 62
    47
 10
-36.743163
 20
72.372992
 11
-35.246763
 21
73.869392
  0
LINE
  8
型材断面
  6
CONTINUOUS
 62
    47
 10
-31.743167
 20
73.869392
 11
-35.246763
 21
73.869392
  0
LINE
  8
型材断面
  6
CONTINUOUS
 62
    47
 10
-31.243165
 20
75.372992
 11
-31.243165
 21
74.369395
  0
LINE
  8
型材断面
  6
CONTINUOUS
 62
    47
 10
-31.043515
 20
44.273178
 11
-22.243165
 21
44.273178
  0
LINE
  8
型材断面
  6
CONTINUOUS
 62
    47
 10
-30.14347
 20
44.273178
 11
-22.243165
 21
44.273178
  0
LINE
  8
型材断面
  6
CONTINUOUS
 62
    47
 10
-53.143465
 20
53.82187
 11
-53.143465
 21
73.872992
  0
LINE
  8
型材断面
  6
CONTINUOUS
 62
    47
 10
-47.643468
 20
44.273178
 11
-47.643468
 21
46.273172
  0
LINE
  8
型材断面
  6
CONTINUOUS
 62
    47
 10
-46.143468
 20
44.273178
 11
-46.143468
 21
46.273172
  0
LINE
  8
型材断面
  6
CONTINUOUS
 62
    47
 10
-47.643468
 20
46.273172
 11
-46.143468
 21
46.273172
  0
LINE
  8
型材断面
  6
CONTINUOUS
 62
    47
 10
-47.643468
 20
58.071138
 11
-46.143468
 21
58.071138
  0
LINE
  8
型材断面
  6
CONTINUOUS
 62
    47
 10
-51.14347
 20
44.273178
 11
-47.643468
 21
44.273178
  0
LINE
  8
型材断面
  6
CONTINUOUS
 62
    47
 10
-32.543515
 20
44.273178
 11
-46.143468
 21
44.273178
  0
LINE
  8
型材断面
  6
CONTINUOUS
 62
    47
 10
-36.743163
 20
72.372992
 11
-51.14347
 21
72.372992
  0
LINE
  8
型材断面
  6
CONTINUOUS
 62
    47
 10
-51.14347
 20
61.57114
 11
-51.14347
 21
72.372992
  0
LINE
  8
型材断面
  6
CONTINUOUS
 62
    47
 10
-52.843465
 20
52.172163
 11
-53.143465
 21
52.472163
  0
LINE
  8
型材断面
  6
CONTINUOUS
 62
    47
 10
-52.843465
 20
52.172163
 11
-53.143465
 21
51.872163
  0
LINE
  8
型材断面
  6
CONTINUOUS
 62
    47
 10
-53.143465
 20
54.772653
 11
-53.143465
 21
52.472163
  0
LINE
  8
型材断面
  6
CONTINUOUS
 62
    47
 10
-57.243167
 20
75.369415
 11
-57.243167
 21
73.872992
  0
LINE
  8
型材断面
  6
CONTINUOUS
 62
    47
 10
-53.143465
 20
73.872992
 11
-57.243167
 21
73.872992
  0
LINE
  8
型材断面
  6
CONTINUOUS
 62
    47
 10
-31.243165
 20
-15.32645
 11
-31.243165
 21
35.373175
  0
LINE
  8
型材断面
  6
CONTINUOUS
 62
    47
 10
-33.243167
 20
35.873178
 11
-33.243167
 21
-10.626822
  0
LINE
  8
型材断面
  6
CONTINUOUS
 62
    47
 10
-59.243163
 20
42.273175
 11
-59.243163
 21
-10.626822
  0
LINE
  8
型材断面
  6
CONTINUOUS
 62
    47
 10
-20.243163
 20
43.273172
 11
-21.243167
 21
43.273172
  0
LINE
  8
型材断面
  6
CONTINUOUS
 62
    47
 10
-21.243167
 20
35.373175
 11
-21.243167
 21
43.273172
  0
LINE
  8
型材断面
  6
CONTINUOUS
 62
    47
 10
-22.243165
 20
44.273178
 11
-21.243167
 21
44.273178
  0
LINE
  8
型材断面
  6
CONTINUOUS
 62
    47
 10
-53.143465
 20
51.872163
 11
-53.143465
 21
44.373175
  0
LINE
  8
型材断面
  6
CONTINUOUS
 62
    47
 10
-53.143465
 20
44.373175
 11
-61.243165
 21
44.373175
  0
LINE
  8
型材断面
  6
CONTINUOUS
 62
    47
 10
-61.243165
 20
23.472632
 11
-61.243165
 21
44.373175
  0
LINE
  8
型材断面
  6
CONTINUOUS
 62
    47
 10
-20.243163
 20
43.273172
 11
-20.243163
 21
45.373172
  0
LINE
  8
型材断面
  6
CONTINUOUS
 62
    47
 10
-20.243163
 20
45.373172
 11
-21.243167
 21
45.373172
  0
LINE
  8
型材断面
  6
CONTINUOUS
 62
    47
 10
-21.243167
 20
44.273178
 11
-21.243167
 21
45.373172
  0
ARC
  8
型材断面
  6
CONTINUOUS
 62
    47
 10
-98.947443
 20
-15.315987
 40
0.299961
 50
180.0
 51
270.0
  0
LINE
  8
型材断面
  6
CONTINUOUS
 62
    47
 10
-97.547657
 20
-15.61598
 11
-98.947458
 21
-15.61598
  0
ARC
  8
型材断面
  6
CONTINUOUS
 62
    47
 10
-97.547624
 20
-15.315987
 40
0.299961
 50
270.0
 51
360.0
  0
LINE
  8
型材断面
  6
CONTINUOUS
 62
    47
 10
-99.247435
 20
-15.316003
 11
-99.247435
 21
-10.617133
  0
LINE
  8
型材断面
  6
CONTINUOUS
 62
    47
 10
-97.24768
 20
-15.316003
 11
-97.24768
 21
-12.515187
  0
LINE
  8
型材断面
  6
CONTINUOUS
 62
    47
 10
-90.05029
 20
-10.13561
 11
-99.247435
 21
-10.617133
  0
LINE
  8
型材断面
  6
CONTINUOUS
 62
    47
 10
-94.438083
 20
-12.368083
 11
-97.24768
 21
-12.515187
  0
LINE
  8
型材断面
  6
CONTINUOUS
 62
    47
 10
-40.542677
 20
59.77114
 11
-46.143468
 21
59.77114
  0
LINE
  8
型材断面
  6
CONTINUOUS
 62
    47
 10
-51.14347
 20
59.77114
 11
-47.643468
 21
59.77114
  0
LINE
  8
型材断面
  6
CONTINUOUS
 62
    47
 10
-51.14347
 20
44.273178
 11
-51.14347
 21
59.77114
  0
LINE
  8
型材断面
  6
CONTINUOUS
 62
    47
 10
-47.643468
 20
58.071138
 11
-47.643468
 21
59.77114
  0
LINE
  8
型材断面
  6
CONTINUOUS
 62
    47
 10
-46.143468
 20
58.071138
 11
-46.143468
 21
59.77114
  0
ARC
  8
型材断面
  6
CONTINUOUS
 62
    47
 10
-37.842679
 20
60.171142
 40
0.1
 50
-90.0
 51
45.0
  0
LINE
  8
型材断面
  6
CONTINUOUS
 62
    47
 10
-39.042677
 20
60.07114
 11
-37.842677
 21
60.07114
  0
LINE
  8
型材断面
  6
CONTINUOUS
 62
    47
 10
-37.771968
 20
60.241848
 11
-39.101253
 21
61.57114
  0
LINE
  8
型材断面
  6
CONTINUOUS
 62
    47
 10
-39.042677
 20
60.07114
 11
-37.842677
 21
60.07114
  0
LINE
  8
型材断面
  6
CONTINUOUS
 62
    47
 10
-51.14347
 20
61.57114
 11
-39.101253
 21
61.57114
  0
LINE
  8
型材断面
  6
CONTINUOUS
 62
    47
 10
-40.542677
 20
59.77114
 11
-40.542633
 21
51.771138
  0
LINE
  8
型材断面
  6
CONTINUOUS
 62
    47
 10
-39.042677
 20
60.071148
 11
-39.042633
 21
51.771138
  0
LINE
  8
型材断面
  6
CONTINUOUS
 62
    47
 10
-39.042633
 20
51.771138
 11
-40.542633
 21
51.771138
  0
LINE
  8
型材断面
  6
CONTINUOUS
 62
    47
 10
-32.543515
 20
44.273178
 11
-32.543515
 21
46.573172
  0
ARC
  8
型材断面
  6
CONTINUOUS
 62
    47
 10
-33.943519
 20
46.673177
 40
0.1
 50
135.0
 51
270.0
  0
LINE
  8
型材断面
  6
CONTINUOUS
 62
    47
 10
-32.543515
 20
46.573172
 11
-33.943517
 21
46.573172
  0
LINE
  8
型材断面
  6
CONTINUOUS
 62
    47
 10
-34.014228
 20
46.743887
 11
-32.684935
 21
48.073172
  0
LINE
  8
型材断面
  6
CONTINUOUS
 62
    47
 10
-32.684935
 20
48.073172
 11
-31.043515
 21
48.073172
  0
LINE
  8
型材断面
  6
CONTINUOUS
 62
    47
 10
-31.043515
 20
44.273178
 11
-31.043515
 21
48.073172
  0
LINE
  8
型材断面
  6
CONTINUOUS
 62
    47
 10
-23.743165
 20
37.373178
 11
-39.243167
 21
37.373178
  0
LINE
  8
型材断面
  6
CONTINUOUS
 62
    47
 10
-39.243167
 20
37.373178
 11
-39.243167
 21
33.873175
  0
LINE
  8
型材断面
  6
CONTINUOUS
 62
    47
 10
-39.243167
 20
33.873175
 11
-37.743167
 21
33.873175
  0
LINE
  8
型材断面
  6
CONTINUOUS
 62
    47
 10
-37.743167
 20
33.873175
 11
-37.743167
 21
35.873178
  0
LINE
  8
型材断面
  6
CONTINUOUS
 62
    47
 10
-33.243167
 20
35.873178
 11
-37.743167
 21
35.873178
  0
LINE
  8
型材断面
  6
CONTINUOUS
 62
    47
 10
-39.243167
 20
-10.626822
 11
-39.243167
 21
-9.126822
  0
LINE
  8
型材断面
  6
CONTINUOUS
 62
    47
 10
-37.743167
 20
-10.626822
 11
-37.743167
 21
-9.126822
  0
LINE
  8
型材断面
  6
CONTINUOUS
 62
    47
 10
-59.243163
 20
-10.626822
 11
-39.243167
 21
-10.626822
  0
LINE
  8
型材断面
  6
CONTINUOUS
 62
    47
 10
-33.243167
 20
-10.626822
 11
-37.743167
 21
-10.626822
  0
LINE
  8
型材断面
  6
CONTINUOUS
 62
    47
 10
-57.243167
 20
75.369415
 11
-41.543163
 21
75.369415
  0
LINE
  8
寸法
  6
CONTINUOUS
 62
    47
 10
-39.243167
 20
-9.126822
 11
-37.743167
 21
-9.126822
  0
ENDBLK
  0
BLOCK
  2
*GRP_0040
 70
    65
 10
0.0
 20
0.0
  0
LINE
  8
型材断面
  6
CONTINUOUS
 62
    47
 10
-65.646745
 20
-21.626983
 11
-85.344197
 21
-21.626983
  0
LINE
  8
型材断面
  6
CONTINUOUS
 62
    47
 10
-65.646745
 20
-21.626983
 11
-85.344197
 21
-21.626983
  0
LINE
  8
型材断面
  6
CONTINUOUS
 62
    47
 10
-61.147787
 20
-21.626983
 11
-57.34801
 21
-21.626983
  0
ARC
  8
型材断面
  6
CONTINUOUS
 62
    47
 10
-54.647245
 20
-19.927142
 40
0.299961
 50
90.0
 51
180.0
  0
LINE
  8
型材断面
  6
CONTINUOUS
 62
    47
 10
-54.047357
 20
-19.627205
 11
-54.647282
 21
-19.627205
  0
ARC
  8
型材断面
  6
CONTINUOUS
 62
    47
 10
-54.047323
 20
-19.927142
 40
0.299961
 50
0.0
 51
90.0
  0
LINE
  8
型材断面
  6
CONTINUOUS
 62
    47
 10
-54.947238
 20
-19.927153
 11
-54.947238
 21
-21.626952
  0
LINE
  8
型材断面
  6
CONTINUOUS
 62
    47
 10
-53.74741
 20
-19.927153
 11
-53.74741
 21
-21.626952
  0
LINE
  8
型材断面
  6
CONTINUOUS
 62
    47
 10
-70.551138
 20
-21.626952
 11
-54.947238
 21
-21.626952
  0
LINE
  8
型材断面
  6
CONTINUOUS
 62
    47
 10
-57.04654
 20
-21.626952
 11
-54.947238
 21
-21.626952
  0
ARC
  8
型材断面
  6
CONTINUOUS
 62
    47
 10
-32.443158
 20
-19.927199
 40
0.3
 50
90.0
 51
180.0
  0
LINE
  8
型材断面
  6
CONTINUOUS
 62
    47
 10
-31.543157
 20
-19.627205
 11
-32.443157
 21
-19.627205
  0
ARC
  8
型材断面
  6
CONTINUOUS
 62
    47
 10
-31.543158
 20
-19.927199
 40
0.3
 50
0.0
 51
90.0
  0
LINE
  8
型材断面
  6
CONTINUOUS
 62
    47
 10
-32.743157
 20
-21.626952
 11
-32.743157
 21
-19.927205
  0
LINE
  8
型材断面
  6
CONTINUOUS
 62
    47
 10
-53.74741
 20
-21.626952
 11
-32.743157
 21
-21.626952
  0
LINE
  8
型材断面
  6
CONTINUOUS
 62
    47
 10
-54.94741
 20
-42.627253
 11
-55.24741
 21
-42.327253
  0
LINE
  8
型材断面
  6
CONTINUOUS
 62
    47
 10
-54.94741
 20
-42.627253
 11
-55.24741
 21
-42.927253
  0
LINE
  8
型材断面
  6
CONTINUOUS
 62
    47
 10
-54.94741
 20
-56.627473
 11
-55.24741
 21
-56.327473
  0
LINE
  8
型材断面
  6
CONTINUOUS
 62
    47
 10
-54.94741
 20
-56.627473
 11
-55.24741
 21
-56.927473
  0
LINE
  8
型材断面
  6
CONTINUOUS
 62
    47
 10
-55.24741
 20
-23.626707
 11
-55.24741
 21
-42.327253
  0
LINE
  8
型材断面
  6
CONTINUOUS
 62
    47
 10
-55.24741
 20
-42.927253
 11
-55.24741
 21
-56.327473
  0
LINE
  8
型材断面
  6
CONTINUOUS
 62
    47
 10
-89.447403
 20
-21.926983
 11
-89.147403
 21
-21.626983
  0
LINE
  8
型材断面
  6
CONTINUOUS
 62
    47
 10
-89.447403
 20
-21.926983
 11
-89.747403
 21
-21.626983
  0
LINE
  8
型材断面
  6
CONTINUOUS
 62
    47
 10
-78.544383
 20
-21.626983
 11
-89.147403
 21
-21.626983
  0
LINE
  8
型材断面
  6
CONTINUOUS
 62
    47
 10
-31.243157
 20
-75.626952
 11
-7.74316
 21
-75.626952
  0
LINE
  8
型材断面
  6
CONTINUOUS
 62
    47
 10
-106.247657
 20
-105.62699
 11
-104.747657
 21
-105.62699
  0
LINE
  8
型材断面
  6
CONTINUOUS
 62
    47
 10
-104.747657
 20
-105.62699
 11
-104.747657
 21
-95.626887
  0
LINE
  8
型材断面
  6
CONTINUOUS
 62
    47
 10
-121.24741
 20
-80.626955
 11
-121.24741
 21
-95.627008
  0
LINE
  8
型材断面
  6
CONTINUOUS
 62
    47
 10
-106.247657
 20
-105.62699
 11
-106.247657
 21
-95.627008
  0
ARC
  8
型材断面
  6
CONTINUOUS
 62
    47
 10
-47.143386
 20
-94.127006
 40
0.5
 50
90.0
 51
180.0
  0
LINE
  8
型材断面
  6
CONTINUOUS
 62
    47
 10
-47.643385
 20
-94.127008
 11
-47.643385
 21
-95.126885
  0
ARC
  8
型材断面
  6
CONTINUOUS
 62
    47
 10
-47.143386
 20
-95.126881
 40
0.5
 50
180.0
 51
270.0
  0
LINE
  8
型材断面
  6
CONTINUOUS
 62
    47
 10
-119.247408
 20
-93.627013
 11
-119.247408
 21
-82.481172
  0
LINE
  8
型材断面
  6
CONTINUOUS
 62
    47
 10
-35.247408
 20
-93.627013
 11
-35.247408
 21
-77.626955
  0
LINE
  8
型材断面
  6
CONTINUOUS
 62
    47
 10
-47.143383
 20
-93.627013
 11
-35.247408
 21
-93.627013
  0
LINE
  8
型材断面
  6
CONTINUOUS
 62
    47
 10
-121.24741
 20
-80.626955
 11
-55.24741
 21
-75.626952
  0
LINE
  8
型材断面
  6
CONTINUOUS
 62
    47
 10
-33.24316
 20
-75.626952
 11
-53.247408
 21
-75.626952
  0
ARC
  8
型材断面
  6
CONTINUOUS
 62
    47
 10
-95.143386
 20
-94.127006
 40
0.5
 50
0.0
 51
90.0
  0
LINE
  8
型材断面
  6
CONTINUOUS
 62
    47
 10
-94.64338
 20
-94.127008
 11
-94.64338
 21
-95.126885
  0
ARC
  8
型材断面
  6
CONTINUOUS
 62
    47
 10
-95.143386
 20
-95.126881
 40
0.5
 50
270.0
 51
360.0
  0
LINE
  8
型材断面
  6
CONTINUOUS
 62
    47
 10
-104.747657
 20
-95.626887
 11
-95.143383
 21
-95.626887
  0
LINE
  8
型材断面
  6
CONTINUOUS
 62
    47
 10
-119.247408
 20
-93.627013
 11
-95.143383
 21
-93.627013
  0
LINE
  8
型材断面
  6
CONTINUOUS
 62
    47
 10
-54.94741
 20
-72.626952
 11
-55.24741
 21
-72.326952
  0
LINE
  8
型材断面
  6
CONTINUOUS
 62
    47
 10
-54.94741
 20
-72.626952
 11
-55.24741
 21
-72.926952
  0
LINE
  8
型材断面
  6
CONTINUOUS
 62
    47
 10
-55.24741
 20
-75.626952
 11
-55.24741
 21
-72.926952
  0
LINE
  8
型材断面
  6
CONTINUOUS
 62
    47
 10
-119.247408
 20
-82.481172
 11
-55.171765
 21
-77.626955
  0
LINE
  8
型材断面
  6
CONTINUOUS
 62
    47
 10
-31.243157
 20
-19.927197
 11
-31.243157
 21
-75.626952
  0
LINE
  8
型材断面
  6
CONTINUOUS
 62
    47
 10
-55.24741
 20
-56.927473
 11
-55.24741
 21
-72.326952
  0
LINE
  8
型材断面
  6
CONTINUOUS
 62
    47
 10
-53.247408
 20
-23.626955
 11
-33.24316
 21
-23.626955
  0
LINE
  8
型材断面
  6
CONTINUOUS
 62
    47
 10
-53.247408
 20
-75.626952
 11
-53.247408
 21
-23.626955
  0
LINE
  8
型材断面
  6
CONTINUOUS
 62
    47
 10
-33.24316
 20
-75.626952
 11
-33.24316
 21
-23.626955
  0
LINE
  8
型材断面
  6
CONTINUOUS
 62
    47
 10
-55.171765
 20
-77.626955
 11
-35.247408
 21
-77.626955
  0
LINE
  8
型材断面
  6
CONTINUOUS
 62
    47
 10
-33.247405
 20
-77.626955
 11
-6.24316
 21
-77.626955
  0
LINE
  8
型材断面
  6
CONTINUOUS
 62
    47
 10
-33.247405
 20
-95.626887
 11
-33.247405
 21
-77.626955
  0
LINE
  8
型材断面
  6
CONTINUOUS
 62
    47
 10
-43.647648
 20
-95.326887
 11
-43.347648
 21
-95.626887
  0
LINE
  8
型材断面
  6
CONTINUOUS
 62
    47
 10
-43.647648
 20
-95.326887
 11
-43.947648
 21
-95.626887
  0
LINE
  8
型材断面
  6
CONTINUOUS
 62
    47
 10
-47.143383
 20
-95.626887
 11
-43.947648
 21
-95.626887
  0
LINE
  8
型材断面
  6
CONTINUOUS
 62
    47
 10
-33.247405
 20
-95.626887
 11
-43.347648
 21
-95.626887
  0
LINE
  8
型材断面
  6
CONTINUOUS
 62
    47
 10
-112.24741
 20
-95.327008
 11
-111.94741
 21
-95.627008
  0
LINE
  8
型材断面
  6
CONTINUOUS
 62
    47
 10
-112.24741
 20
-95.327008
 11
-112.54741
 21
-95.627008
  0
LINE
  8
型材断面
  6
CONTINUOUS
 62
    47
 10
-106.247657
 20
-95.627008
 11
-111.94741
 21
-95.627008
  0
LINE
  8
型材断面
  6
CONTINUOUS
 62
    47
 10
-121.24741
 20
-95.627008
 11
-112.54741
 21
-95.627008
  0
ARC
  8
型材断面
  6
CONTINUOUS
 62
    47
 10
-98.947401
 20
-19.927172
 40
0.299961
 50
90.0
 51
180.0
  0
LINE
  8
型材断面
  6
CONTINUOUS
 62
    47
 10
-98.347495
 20
-19.627235
 11
-98.94742
 21
-19.627235
  0
ARC
  8
型材断面
  6
CONTINUOUS
 62
    47
 10
-98.347479
 20
-19.927172
 40
0.299961
 50
0.0
 51
90.0
  0
LINE
  8
型材断面
  6
CONTINUOUS
 62
    47
 10
-98.047548
 20
-19.927182
 11
-98.047548
 21
-21.626983
  0
LINE
  8
型材断面
  6
CONTINUOUS
 62
    47
 10
-99.247397
 20
-19.927182
 11
-99.247397
 21
-23.626707
  0
LINE
  8
型材断面
  6
CONTINUOUS
 62
    47
 10
-55.24741
 20
-23.626707
 11
-99.247397
 21
-23.626707
  0
LINE
  8
型材断面
  6
CONTINUOUS
 62
    47
 10
-89.747403
 20
-21.626983
 11
-98.047548
 21
-21.626983
  0
LINE
  8
型材断面
  6
CONTINUOUS
 62
    47
 10
-7.74316
 20
-75.626952
 11
-7.74316
 21
-67.626958
  0
LINE
  8
型材断面
  6
CONTINUOUS
 62
    47
 10
-6.24316
 20
-77.626955
 11
-6.24316
 21
-67.626958
  0
LINE
  8
St
  6
DASHDOT
 62
    47
 10
-7.74316
 20
-67.626958
 11
-6.24316
 21
-67.626958
  0
ENDBLK
  0
BLOCK
  2
*DIM_0041
 70
    65
 10
0.0
 20
0.0
  0
LINE
  8
寸法
  6
BYBLOCK
 62
     0
 10
43.122382
 20
-77.62695
 11
43.788055
 21
-77.62695
  0
LINE
  8
寸法
  6
BYBLOCK
 62
     0
 10
-5.24316
 20
-67.626958
 11
43.788055
 21
-67.626958
  0
LINE
  8
寸法
  6
BYBLOCK
 62
     0
 10
43.788055
 20
-77.62695
 11
43.788055
 21
-67.626958
  0
POINT
  8
寸法
 62
     0
 10
43.788055
 20
-77.62695
  0
POINT
  8
寸法
 62
     0
 10
43.788055
 20
-67.626958
  0
TEXT
  7
TextStyle03
  8
寸法
  6
CONTINUOUS
 62
     0
 10
43.4
 20
-74.24375
  1
10
 40
3.0
 50
90.0
 72
     5
 11
43.4
 21
-71.05625
  0
ENDBLK
  0
BLOCK
  2
*DIM_0042
 70
    65
 10
0.0
 20
0.0
  0
LINE
  8
寸法
  6
BYBLOCK
 62
     0
 10
-5.243163
 20
-19.6272
 11
43.788055
 21
-19.6272
  0
LINE
  8
寸法
  6
BYBLOCK
 62
     0
 10
43.788055
 20
-67.626958
 11
43.788055
 21
-19.6272
  0
POINT
  8
寸法
 62
     0
 10
43.788055
 20
-19.6272
  0
TEXT
  7
TextStyle03
  8
寸法
  6
CONTINUOUS
 62
     0
 10
43.4
 20
-45.24375
  1
48
 40
3.0
 50
90.0
 72
     5
 11
43.4
 21
-42.05625
  0
ENDBLK
  0
BLOCK
  2
*DIM_0043
 70
    65
 10
0.0
 20
0.0
  0
LINE
  8
寸法
  6
BYBLOCK
 62
     0
 10
-41.243155
 20
95.076568
 11
-41.243155
 21
105.405693
  0
LINE
  8
寸法
  6
BYBLOCK
 62
     0
 10
-21.243163
 20
105.405693
 11
-41.243155
 21
105.405693
  0
POINT
  8
寸法
 62
     0
 10
-21.243163
 20
105.405693
  0
POINT
  8
寸法
 62
     0
 10
-41.243155
 20
105.405693
  0
TEXT
  7
TextStyle03
  8
寸法
  6
CONTINUOUS
 62
     0
 10
-32.84375
 20
105.775
  1
20
 40
3.0
 72
     5
 11
-29.65625
 21
105.775
  0
ENDBLK
  0
BLOCK
  2
*DIM_0044
 70
    65
 10
0.0
 20
0.0
  0
LINE
  8
寸法
  6
BYBLOCK
 62
     0
 10
-71.243163
 20
82.37657
 11
-71.243163
 21
105.405693
  0
LINE
  8
寸法
  6
BYBLOCK
 62
     0
 10
-41.243155
 20
105.405693
 11
-71.243163
 21
105.405693
  0
POINT
  8
寸法
 62
     0
 10
-71.243163
 20
105.405693
  0
TEXT
  7
TextStyle03
  8
寸法
  6
CONTINUOUS
 62
     0
 10
-57.84375
 20
105.775
  1
30
 40
3.0
 72
     5
 11
-54.65625
 21
105.775
  0
ENDBLK
  0
BLOCK
  2
*DIM_0045
 70
    65
 10
0.0
 20
0.0
  0
LINE
  8
寸法
  6
BYBLOCK
 62
     0
 10
-32.247405
 20
-95.626887
 11
53.67201
 21
-95.626887
  0
LINE
  8
寸法
  6
BYBLOCK
 62
     0
 10
53.67201
 20
-77.62695
 11
53.67201
 21
-95.626887
  0
POINT
  8
寸法
 62
     0
 10
53.67201
 20
-77.62695
  0
POINT
  8
寸法
 62
     0
 10
53.67201
 20
-95.626887
  0
TEXT
  7
TextStyle03
  8
寸法
  6
CONTINUOUS
 62
     0
 10
53.275
 20
-88.24375
  1
18
 40
3.0
 50
90.0
 72
     5
 11
53.275
 21
-85.05625
  0
ENDBLK
  0
BLOCK
  2
*DIM_0046
 70
    65
 10
0.0
 20
0.0
  0
LINE
  8
寸法
  6
BYBLOCK
 62
     0
 10
-103.747657
 20
-105.62699
 11
53.67201
 21
-105.62699
  0
LINE
  8
寸法
  6
BYBLOCK
 62
     0
 10
53.67201
 20
-95.626887
 11
53.67201
 21
-105.62699
  0
POINT
  8
寸法
 62
     0
 10
53.67201
 20
-105.62699
  0
TEXT
  7
TextStyle03
  8
寸法
  6
CONTINUOUS
 62
     0
 10
53.275
 20
-102.24375
  1
10
 40
3.0
 50
90.0
 72
     5
 11
53.275
 21
-99.05625
  0
ENDBLK
  0
BLOCK
  2
*DIM_0047
 70
    65
 10
0.0
 20
0.0
  0
LINE
  8
寸法
  6
BYBLOCK
 62
     0
 10
-107.247657
 20
-105.62699
 11
-153.4859
 21
-105.62699
  0
LINE
  8
寸法
  6
BYBLOCK
 62
     0
 10
-153.4859
 20
-95.627005
 11
-153.4859
 21
-105.62699
  0
POINT
  8
寸法
 62
     0
 10
-153.4859
 20
-95.627005
  0
POINT
  8
寸法
 62
     0
 10
-153.4859
 20
-105.62699
  0
TEXT
  7
TextStyle03
  8
寸法
  6
CONTINUOUS
 62
     0
 10
-153.875
 20
-102.24375
  1
10
 40
3.0
 50
90.0
 72
     5
 11
-153.875
 21
-99.05625
  0
ENDBLK
  0
BLOCK
  2
*DIM_0048
 70
    65
 10
0.0
 20
0.0
  0
LINE
  8
寸法
  6
BYBLOCK
 62
     0
 10
-121.24741
 20
-96.627008
 11
-121.24741
 21
-118.141643
  0
LINE
  8
寸法
  6
BYBLOCK
 62
     0
 10
-106.247657
 20
-106.62699
 11
-106.247657
 21
-118.141643
  0
LINE
  8
寸法
  6
BYBLOCK
 62
     0
 10
-121.24741
 20
-118.141643
 11
-106.247657
 21
-118.141643
  0
POINT
  8
寸法
 62
     0
 10
-121.24741
 20
-118.141643
  0
POINT
  8
寸法
 62
     0
 10
-106.247657
 20
-118.141643
  0
TEXT
  7
TextStyle03
  8
寸法
  6
CONTINUOUS
 62
     0
 10
-115.34375
 20
-117.775
  1
15
 40
3.0
 72
     5
 11
-112.15625
 21
-117.775
  0
ENDBLK
  0
BLOCK
  2
*DIM_0049
 70
    65
 10
0.0
 20
0.0
  0
LINE
  8
寸法
  6
BYBLOCK
 62
     0
 10
-33.247405
 20
-96.626887
 11
-33.247405
 21
-118.141643
  0
LINE
  8
寸法
  6
BYBLOCK
 62
     0
 10
-106.247657
 20
-118.141643
 11
-33.247405
 21
-118.141643
  0
POINT
  8
寸法
 62
     0
 10
-106.247657
 20
-118.141643
  0
POINT
  8
寸法
 62
     0
 10
-33.247405
 20
-118.141643
  0
TEXT
  7
TextStyle03
  8
寸法
  6
CONTINUOUS
 62
     0
 10
-71.34375
 20
-117.775
  1
73
 40
3.0
 72
     5
 11
-68.15625
 21
-117.775
  0
ENDBLK
  0
BLOCK
  2
*DIM_0050
 70
    65
 10
0.0
 20
0.0
  0
LINE
  8
寸法
  6
BYBLOCK
 62
     0
 10
-6.24316
 20
-78.626955
 11
-6.24316
 21
-118.141643
  0
LINE
  8
寸法
  6
BYBLOCK
 62
     0
 10
-33.247405
 20
-118.141643
 11
-6.24316
 21
-118.141643
  0
POINT
  8
寸法
 62
     0
 10
-6.24316
 20
-118.141643
  0
TEXT
  7
TextStyle03
  8
寸法
  6
CONTINUOUS
 62
     0
 10
-21.34375
 20
-117.775
  1
27
 40
3.0
 72
     5
 11
-18.15625
 21
-117.775
  0
ENDBLK
  0
BLOCK
  2
*GRP_0051
 70
    65
 10
0.0
 20
0.0
  0
POLYLINE
  8
寸法
  6
BYBLOCK
 62
     0
 66
     1
  0
VERTEX
  8
寸法
 10
-77.297648
 20
-100.64342
  0
VERTEX
  8
寸法
 10
-53.741587
 20
-124.199482
  0
VERTEX
  8
寸法
 10
-49.073685
 20
-124.199482
  0
SEQEND
  0
ENDBLK
  0
BLOCK
  2
*GRP_0052
 70
    65
 10
0.0
 20
0.0
  0
LINE
  8
ボルト／ビス
  6
CONTINUOUS
 10
-52.243157
 20
81.37657
 11
-52.243157
 21
83.376572
  0
LINE
  8
ボルト／ビス
  6
CONTINUOUS
 10
-52.243157
 20
83.376572
 11
-30.243152
 21
83.376572
  0
LINE
  8
ボルト／ビス
  6
CONTINUOUS
 10
-30.243152
 20
83.376572
 11
-30.243152
 21
81.37657
  0
LINE
  8
ボルト／ビス
  6
CONTINUOUS
 10
-52.243157
 20
81.37657
 11
-30.243152
 21
81.37657
  0
LINE
  8
ボルト／ビス
  6
CONTINUOUS
 10
-50.243155
 20
84.37657
 11
-50.243155
 21
83.376572
  0
LINE
  8
ボルト／ビス
  6
CONTINUOUS
 10
-50.243155
 20
84.37657
 11
-32.243155
 21
84.37657
  0
LINE
  8
ボルト／ビス
  6
CONTINUOUS
 10
-32.243155
 20
84.37657
 11
-32.243155
 21
83.376572
  0
LINE
  8
ボルト／ビス
  6
CONTINUOUS
 62
    64
 10
-46.054405
 20
90.37657
 11
-47.016655
 21
90.026342
  0
ARC
  8
ボルト／ビス
  6
CONTINUOUS
 62
    64
 10
-45.573279
 20
87.227216
 40
3.149352
 50
62.721967
 51
90.0
  0
ARC
  8
ボルト／ビス
  6
CONTINUOUS
 62
    64
 10
-41.243152
 20
78.304501
 40
12.072067
 50
76.165002
 51
103.834985
  0
LINE
  8
ボルト／ビス
  6
CONTINUOUS
 62
    64
 10
-36.431905
 20
90.37657
 11
-35.469655
 21
90.026342
  0
ARC
  8
ボルト／ビス
  6
CONTINUOUS
 62
    64
 10
-36.913024
 20
87.227216
 40
3.149352
 50
90.0
 51
117.278033
  0
LINE
  8
ボルト／ビス
  6
CONTINUOUS
 62
    64
 10
-46.054405
 20
90.37657
 11
-36.431905
 21
90.37657
  0
LINE
  8
ボルト／ビス
  6
CONTINUOUS
 62
    64
 10
-35.469655
 20
90.026342
 11
-35.469655
 21
86.376572
  0
LINE
  8
ボルト／ビス
  6
CONTINUOUS
 62
    64
 10
-38.356405
 20
90.026342
 11
-38.356405
 21
86.376572
  0
LINE
  8
ボルト／ビス
  6
CONTINUOUS
 62
    64
 10
-47.016655
 20
90.026342
 11
-47.016655
 21
86.376572
  0
LINE
  8
ボルト／ビス
  6
CONTINUOUS
 62
    64
 10
-44.129905
 20
90.026342
 11
-44.129905
 21
86.376572
  0
LINE
  8
ボルト／ビス
  6
CONTINUOUS
 10
-47.016655
 20
86.376572
 11
-35.469655
 21
86.376572
  0
LINE
  8
ボルト／ビス
  6
CONTINUOUS
 10
-47.243155
 20
86.376572
 11
-47.243155
 21
84.37657
  0
LINE
  8
ボルト／ビス
  6
CONTINUOUS
 10
-47.243155
 20
86.376572
 11
-35.243155
 21
86.376572
  0
LINE
  8
ボルト／ビス
  6
CONTINUOUS
 10
-35.243155
 20
86.376572
 11
-35.243155
 21
84.37657
  0
LINE
  8
ボルト／ビス
  6
CONTINUOUS
 62
    64
 10
-43.543157
 20
81.37657
 11
-43.543157
 21
61.376575
  0
LINE
  8
ボルト／ビス
  6
CONTINUOUS
 62
    64
 10
-38.943152
 20
81.37657
 11
-38.943152
 21
61.376575
  0
LINE
  8
ボルト／ビス
  6
CONTINUOUS
 62
    64
 10
-43.543157
 20
61.376575
 11
-38.943152
 21
61.376575
  0
LINE
  8
ボルト／ビス
  6
CONTINUOUS
 62
    64
 10
-38.243155
 20
62.376572
 11
-38.943152
 21
61.376575
  0
LINE
  8
ボルト／ビス
  6
CONTINUOUS
 62
    64
 10
-44.243155
 20
62.376572
 11
-43.543157
 21
61.376575
  0
LINE
  8
ボルト／ビス
  6
CONTINUOUS
 62
    64
 10
-44.243155
 20
62.376572
 11
-38.243155
 21
62.376572
  0
LINE
  8
ボルト／ビス
  6
CONTINUOUS
 62
    64
 10
-43.543157
 20
61.376575
 11
-38.943152
 21
61.376575
  0
LINE
  8
ボルト／ビス
  6
CONTINUOUS
 62
    64
 10
-38.243155
 20
81.37657
 11
-38.243155
 21
62.376572
  0
LINE
  8
ボルト／ビス
  6
CONTINUOUS
 62
    64
 10
-44.243155
 20
81.37657
 11
-44.243155
 21
62.376572
  0
ENDBLK
  0
BLOCK
  2
*GRP_0053
 70
    65
 10
0.0
 20
0.0
  0
POLYLINE
  8
寸法
  6
BYBLOCK
 62
     0
 66
     1
  0
VERTEX
  8
寸法
 10
-73.55075
 20
-26.62672
  0
VERTEX
  8
寸法
 10
-85.580855
 20
-38.656825
  0
VERTEX
  8
寸法
 10
-93.37674
 20
-38.656825
  0
SEQEND
  0
ENDBLK
  0
BLOCK
  2
*GRP_0054
 70
    65
 10
0.0
 20
0.0
  0
SPLINE
  5
1400000
100
AcDbEntity
  8
ガラス
100
AcDbSpline
  6
CONTINUOUS
 70
     0
 71
     3
 74
     3
 44
0.0
 11
-14.783422
 21
-73.64666
 11
-12.964605
 21
-73.71656
 11
-11.693657
 21
-74.815318
  0
SPLINE
  5
1400001
100
AcDbEntity
  8
ガラス
100
AcDbSpline
  6
CONTINUOUS
 70
     0
 71
     3
 74
     3
 44
0.0
 11
-11.693657
 21
-74.815318
 11
-12.995767
 21
-75.024593
 11
-14.059652
 21
-75.41451
  0
ARC
  8
ガラス
  6
CONTINUOUS
 10
-14.421537
 20
-74.530583
 40
0.955135
 50
112.264588
 51
292.264588
  0
ENDBLK
  0
BLOCK
  2
*GRP_0055
 70
    65
 10
0.0
 20
0.0
  0
SPLINE
  5
1400002
100
AcDbEntity
  8
ガラス
100
AcDbSpline
  6
CONTINUOUS
 70
     0
 71
     3
 74
     3
 44
0.0
 11
-29.10381
 21
-73.64666
 11
-27.284993
 21
-73.71656
 11
-26.014045
 21
-74.815318
  0
SPLINE
  5
1400003
100
AcDbEntity
  8
ガラス
100
AcDbSpline
  6
CONTINUOUS
 70
     0
 71
     3
 74
     3
 44
0.0
 11
-26.014045
 21
-74.815318
 11
-27.316155
 21
-75.024593
 11
-28.38004
 21
-75.41451
  0
ARC
  8
ガラス
  6
CONTINUOUS
 10
-28.741925
 20
-74.530583
 40
0.955135
 50
112.264588
 51
292.264588
  0
ENDBLK
  0
BLOCK
  2
*GRP_0056
 70
    65
 10
0.0
 20
0.0
  0
SPLINE
  5
1400004
100
AcDbEntity
  8
ガラス
100
AcDbSpline
  6
CONTINUOUS
 70
     0
 71
     3
 74
     3
 44
0.0
 11
-46.600315
 21
-73.64666
 11
-44.781498
 21
-73.71656
 11
-43.51055
 21
-74.815318
  0
SPLINE
  5
1400005
100
AcDbEntity
  8
ガラス
100
AcDbSpline
  6
CONTINUOUS
 70
     0
 71
     3
 74
     3
 44
0.0
 11
-43.51055
 21
-74.815318
 11
-44.81266
 21
-75.024593
 11
-45.876545
 21
-75.41451
  0
ARC
  8
ガラス
  6
CONTINUOUS
 10
-46.23843
 20
-74.530583
 40
0.955135
 50
112.264588
 51
292.264588
  0
ENDBLK
  0
BLOCK
  2
*GRP_0057
 70
    65
 10
0.0
 20
0.0
  0
SPLINE
  5
1400006
100
AcDbEntity
  8
ガラス
100
AcDbSpline
  6
CONTINUOUS
 70
     0
 71
     3
 74
     3
 44
0.0
 11
-60.586375
 21
-73.64666
 11
-58.767558
 21
-73.71656
 11
-57.49661
 21
-74.815318
  0
SPLINE
  5
1400007
100
AcDbEntity
  8
ガラス
100
AcDbSpline
  6
CONTINUOUS
 70
     0
 71
     3
 74
     3
 44
0.0
 11
-57.49661
 21
-74.815318
 11
-58.79872
 21
-75.024593
 11
-59.862605
 21
-75.41451
  0
ARC
  8
ガラス
  6
CONTINUOUS
 10
-60.22449
 20
-74.530583
 40
0.955135
 50
112.264588
 51
292.264588
  0
ENDBLK
  0
BLOCK
  2
*GRP_0058
 70
    65
 10
0.0
 20
0.0
  0
LINE
  8
ゴム等
  6
CONTINUOUS
 10
-21.243167
 20
49.273172
 11
-21.243167
 21
44.273178
  0
LINE
  8
ゴム等
  6
CONTINUOUS
 10
-21.243167
 20
49.273172
 11
-31.243165
 21
49.273172
  0
LINE
  8
ゴム等
  6
CONTINUOUS
 10
-31.243165
 20
49.273172
 11
-31.243165
 21
44.273178
  0
LINE
  8
ゴム等
  6
CONTINUOUS
 10
-21.243167
 20
44.273178
 11
-31.243165
 21
44.273178
  0
LINE
  8
ゴム等
  6
CONTINUOUS
 10
-31.243165
 20
45.603295
 11
-29.913047
 21
44.273178
  0
LINE
  8
ゴム等
  6
CONTINUOUS
 10
-31.243165
 20
47.01751
 11
-28.498833
 21
44.273178
  0
LINE
  8
ゴム等
  6
CONTINUOUS
 10
-31.243165
 20
48.431725
 11
-27.084617
 21
44.273178
  0
LINE
  8
ゴム等
  6
CONTINUOUS
 10
-27.841975
 20
49.273172
 11
-22.84198
 21
44.273178
  0
LINE
  8
ゴム等
  6
CONTINUOUS
 10
-29.25619
 20
49.273172
 11
-24.256188
 21
44.273178
  0
LINE
  8
ゴム等
  6
CONTINUOUS
 10
-30.670405
 20
49.273172
 11
-25.670403
 21
44.273178
  0
LINE
  8
ゴム等
  6
CONTINUOUS
 10
-26.42776
 20
49.273172
 11
-21.427765
 21
44.273178
  0
LINE
  8
ゴム等
  6
CONTINUOUS
 10
-25.013545
 20
49.273172
 11
-21.243167
 21
45.502795
  0
LINE
  8
ゴム等
  6
CONTINUOUS
 10
-23.599338
 20
49.273172
 11
-21.243167
 21
46.917002
  0
LINE
  8
ゴム等
  6
CONTINUOUS
 10
-22.185123
 20
49.273172
 11
-21.243167
 21
48.331217
  0
ENDBLK
  0
BLOCK
  2
*GRP_0059
 70
    65
 10
0.0
 20
0.0
  0
LINE
  8
ゴム等
  6
CONTINUOUS
 10
-21.64621
 20
62.270815
 11
-11.646213
 21
62.270815
  0
LINE
  8
ゴム等
  6
CONTINUOUS
 10
-21.64621
 20
56.073175
 11
-11.646213
 21
56.073175
  0
LINE
  8
ゴム等
  6
CONTINUOUS
 10
-21.64621
 20
62.270815
 11
-21.64621
 21
56.073175
  0
LINE
  8
ゴム等
  6
CONTINUOUS
 10
-11.646213
 20
62.270815
 11
-11.646213
 21
56.073175
  0
LINE
  8
ゴム等
  6
CONTINUOUS
 10
-20.559445
 20
56.073175
 11
-21.64621
 21
57.15994
  0
LINE
  8
ゴム等
  6
CONTINUOUS
 10
-19.14523
 20
56.073175
 11
-21.64621
 21
58.574155
  0
LINE
  8
ゴム等
  6
CONTINUOUS
 10
-17.731015
 20
56.073175
 11
-21.64621
 21
59.98837
  0
LINE
  8
ゴム等
  6
CONTINUOUS
 10
-16.3168
 20
56.073175
 11
-21.64621
 21
61.402578
  0
LINE
  8
ゴム等
  6
CONTINUOUS
 10
-14.902585
 20
56.073175
 11
-21.100233
 21
62.270815
  0
LINE
  8
ゴム等
  6
CONTINUOUS
 10
-13.488378
 20
56.073175
 11
-19.686017
 21
62.270815
  0
LINE
  8
ゴム等
  6
CONTINUOUS
 10
-12.074162
 20
56.073175
 11
-18.271803
 21
62.270815
  0
LINE
  8
ゴム等
  6
CONTINUOUS
 10
-11.646213
 20
57.05944
 11
-16.857588
 21
62.270815
  0
LINE
  8
ゴム等
  6
CONTINUOUS
 10
-11.646213
 20
58.473647
 11
-15.44338
 21
62.270815
  0
LINE
  8
ゴム等
  6
CONTINUOUS
 10
-11.646213
 20
59.887862
 11
-14.029165
 21
62.270815
  0
LINE
  8
ゴム等
  6
CONTINUOUS
 10
-12.614958
 20
62.270815
 11
-11.646213
 21
61.30207
  0
ENDBLK
  0
BLOCK
  2
*DIM_0060
 70
    65
 10
0.0
 20
0.0
  0
LINE
  8
寸法
  6
CONTINUOUS
 10
-15.243163
 20
45.373172
 11
53.67201
 21
45.373172
  0
LINE
  8
寸法
  6
CONTINUOUS
 10
21.14952
 20
49.273172
 11
53.67201
 21
49.273172
  0
LINE
  8
寸法
  6
CONTINUOUS
 10
53.67201
 20
45.373172
 11
53.67201
 21
49.273172
  0
POINT
  8
寸法
 10
53.67201
 20
45.373172
  0
POINT
  8
寸法
 10
53.67201
 20
49.273172
  0
TEXT
  7
TextStyle03
  8
寸法
  6
CONTINUOUS
 10
56.65
 20
44.8625
  1
3.9
 40
3.0
 50
90.0
 72
     5
 11
56.65
 21
49.7375
  0
ENDBLK
  0
BLOCK
  2
*DIM_0061
 70
    65
 10
0.0
 20
0.0
  0
LINE
  8
寸法
  6
CONTINUOUS
 10
21.14952
 20
56.073172
 11
53.67201
 21
56.073172
  0
LINE
  8
寸法
  6
CONTINUOUS
 10
53.67201
 20
49.273172
 11
53.67201
 21
56.073172
  0
POINT
  8
寸法
 10
53.67201
 20
56.073172
  0
TEXT
  7
TextStyle03
  8
寸法
  6
CONTINUOUS
 10
53.275
 20
50.2125
  1
6.8
 40
3.0
 50
90.0
 72
     5
 11
53.275
 21
55.0875
  0
ENDBLK
  0
BLOCK
  2
*GRP_0062
 70
    65
 10
0.0
 20
0.0
  0
LINE
  8
型材断面
  6
CONTINUOUS
 62
    47
 10
-11.646213
 20
62.270815
 11
-35.243155
 21
62.270815
  0
LINE
  8
型材断面
  6
CONTINUOUS
 62
    47
 10
-35.243155
 20
62.270815
 11
-35.24314
 21
46.272918
  0
LINE
  8
型材断面
  6
CONTINUOUS
 62
    47
 10
-11.646213
 20
61.570915
 11
-11.646213
 21
62.270815
  0
ARC
  8
型材断面
  6
CONTINUOUS
 62
    47
 10
-11.346253
 20
61.570936
 40
0.299961
 50
180.0
 51
270.0
  0
LINE
  8
型材断面
  6
CONTINUOUS
 62
    47
 10
-10.746332
 20
61.270975
 11
-11.34625
 21
61.270968
  0
ARC
  8
型材断面
  6
CONTINUOUS
 62
    47
 10
-10.74633
 20
61.570936
 40
0.299961
 50
270.0
 51
360.0
  0
LINE
  8
型材断面
  6
CONTINUOUS
 62
    47
 10
-10.446378
 20
63.970608
 11
-10.446378
 21
61.570923
  0
ARC
  8
型材断面
  6
CONTINUOUS
 62
    47
 10
-10.74633
 20
63.970625
 40
0.299961
 50
360.0
 51
450.0
  0
LINE
  8
型材断面
  6
CONTINUOUS
 62
    47
 10
-37.24291
 20
63.970622
 11
-37.242895
 21
59.77114
  0
LINE
  8
型材断面
  6
CONTINUOUS
 62
    47
 10
-36.942955
 20
64.27057
 11
-10.746325
 21
64.27057
  0
ARC
  8
型材断面
  6
CONTINUOUS
 62
    47
 10
-36.942938
 20
63.970625
 40
0.299961
 50
90.0
 51
180.0
  0
LINE
  8
型材断面
  6
CONTINUOUS
 62
    47
 10
-38.742707
 20
59.77114
 11
-37.242895
 21
59.77114
  0
ARC
  8
型材断面
  6
CONTINUOUS
 62
    47
 10
-38.742705
 20
59.471208
 40
0.299961
 50
90.0
 51
180.0
  0
LINE
  8
型材断面
  6
CONTINUOUS
 62
    47
 10
-38.742707
 20
58.271342
 11
-37.242903
 21
58.271342
  0
LINE
  8
型材断面
  6
CONTINUOUS
 62
    47
 10
-39.042655
 20
58.57132
 11
-39.042663
 21
59.4712
  0
ARC
  8
型材断面
  6
CONTINUOUS
 62
    47
 10
-38.742705
 20
58.571324
 40
0.299961
 50
180.0
 51
270.0
  0
LINE
  8
型材断面
  6
CONTINUOUS
 62
    47
 10
-37.242903
 20
44.573125
 11
-37.242903
 21
58.271342
  0
ARC
  8
型材断面
  6
CONTINUOUS
 62
    47
 10
-36.942938
 20
44.573137
 40
0.299961
 50
180.0
 51
270.0
  0
LINE
  8
型材断面
  6
CONTINUOUS
 62
    47
 10
-32.843485
 20
46.272918
 11
-35.24314
 21
46.272918
  0
ARC
  8
型材断面
  6
CONTINUOUS
 62
    47
 10
-32.843469
 20
45.972956
 40
0.299961
 50
360.0
 51
450.0
  0
ARC
  8
型材断面
  6
CONTINUOUS
 62
    47
 10
-32.843469
 20
44.573137
 40
0.299961
 50
270.0
 51
360.0
  0
LINE
  8
型材断面
  6
CONTINUOUS
 62
    47
 10
-32.543515
 20
45.97294
 11
-32.5435
 21
44.273178
  0
LINE
  8
型材断面
  6
CONTINUOUS
 62
    47
 10
-36.942955
 20
44.27317
 11
-32.5435
 21
44.273178
  0
ENDBLK
  0
ENDSEC
  0
SECTION
  2
ENTITIES
  0
POLYLINE
  8
通り芯
  6
CONTINUOUS
 66
     1
 70
     1
  0
VERTEX
  8
通り芯
 10
-210.0
 20
-148.5
  0
VERTEX
  8
通り芯
 10
210.0
 20
-148.5
  0
VERTEX
  8
通り芯
 10
210.0
 20
148.5
  0
VERTEX
  8
通り芯
 10
-210.0
 20
148.5
  0
SEQEND
  0
INSERT
  2
*GRP_0001
  8
型材断面
  6
CONTINUOUS
 10
0.0
 20
0.0
  0
INSERT
  2
*GRP_0002
  8
型材断面
  6
CONTINUOUS
 62
    47
 10
0.0
 20
0.0
  0
LINE
  8
型材断面
  6
DASHDOT
 10
-21.243163
 20
81.37657
 11
-21.243163
 21
118.407907
  0
LINE
  8
型材断面
  6
DOT
 10
-53.24741
 20
-69.62695
 11
-55.24741
 21
-69.62695
  0
LINE
  8
型材断面
  6
DOT
 10
-53.24741
 20
-75.62695
 11
-55.24741
 21
-75.62695
  0
LINE
  8
型材断面
  6
DOT
 10
-54.74741
 20
-75.62695
 11
-54.74741
 21
-69.62695
  0
LINE
  8
型材断面
  6
DOT
 10
-54.24741
 20
-75.62695
 11
-54.24741
 21
-69.62695
  0
LINE
  8
型材断面
  6
DOT
 10
-53.74741
 20
-75.62695
 11
-53.74741
 21
-69.62695
  0
LINE
  8
型材断面
  6
DOT
 10
-31.243163
 20
-69.62695
 11
-33.243163
 21
-69.62695
  0
LINE
  8
型材断面
  6
DOT
 10
-31.243163
 20
-75.62695
 11
-33.243163
 21
-75.62695
  0
LINE
  8
型材断面
  6
DOT
 10
-32.743163
 20
-75.62695
 11
-32.743163
 21
-69.62695
  0
LINE
  8
型材断面
  6
DOT
 10
-32.243163
 20
-75.62695
 11
-32.243163
 21
-69.62695
  0
LINE
  8
型材断面
  6
DOT
 10
-31.743163
 20
-75.62695
 11
-31.743163
 21
-69.62695
  0
INSERT
  2
*GRP_0062
  8
型材断面
  6
CONTINUOUS
 10
0.0
 20
0.0
  0
INSERT
  2
*GRP_0054
  8
ガラス
  6
CONTINUOUS
 10
0.0
 20
0.0
  0
INSERT
  2
*GRP_0055
  8
ガラス
  6
CONTINUOUS
 10
0.0
 20
0.0
  0
INSERT
  2
*GRP_0056
  8
ガラス
  6
CONTINUOUS
 10
0.0
 20
0.0
  0
INSERT
  2
*GRP_0057
  8
ガラス
  6
CONTINUOUS
 10
0.0
 20
0.0
  0
INSERT
  2
*GRP_0003
  8
ゴム等
  6
CONTINUOUS
 10
0.0
 20
0.0
  0
INSERT
  2
*GRP_0004
  8
ゴム等
  6
CONTINUOUS
 10
0.0
 20
0.0
  0
INSERT
  2
*GRP_0005
  8
ゴム等
  6
CONTINUOUS
 10
0.0
 20
0.0
  0
INSERT
  2
*GRP_0006
  8
ゴム等
  6
CONTINUOUS
 10
0.0
 20
0.0
  0
INSERT
  2
*GRP_0058
  8
ゴム等
  6
CONTINUOUS
 10
0.0
 20
0.0
  0
INSERT
  2
*GRP_0007
  8
ボルト／ビス
  6
CONTINUOUS
 62
    64
 10
0.0
 20
0.0
  0
INSERT
  2
*GRP_0008
  8
ボルト／ビス
  6
CONTINUOUS
 62
    64
 10
0.0
 20
0.0
  0
INSERT
  2
*GRP_0009
  8
ボルト／ビス
  6
CONTINUOUS
 62
    64
 10
0.0
 20
0.0
  0
INSERT
  2
*GRP_0052
  8
ボルト／ビス
  6
CONTINUOUS
 10
0.0
 20
0.0
  0
TEXT
  7
TextStyle03
  8
文字
  6
CONTINUOUS
 10
-154.1
 20
85.975
  1
ドーム高さ
 40
3.0
 50
90.0
 72
     5
 11
-154.1
 21
102.475
  0
TEXT
  7
TextStyle03
  8
文字
  6
CONTINUOUS
 10
37.2
 20
118.4
  1
呼称寸法
 40
3.0
 72
     5
 11
50.325
 21
118.4
  0
TEXT
  7
TextStyle03
  8
文字
  6
CONTINUOUS
 10
32.2
 20
111.9
  1
有効開口寸法
 40
3.0
 72
     5
 11
52.075
 21
111.9
  0
TEXT
  7
TextStyle03
  8
文字
  6
CONTINUOUS
 10
1.4
 20
69.65
  1
TKR-1701
 40
4.0
 72
     5
 11
19.15
 21
69.65
  0
TEXT
  7
TextStyle03
  8
文字
  6
CONTINUOUS
 10
2.425
 20
60.5
  1
TKR-1303
 40
4.0
 72
     5
 11
20.175
 21
60.5
  0
TEXT
  7
TextStyle03
  8
文字
  6
CONTINUOUS
 10
0.525
 20
24.25
  1
10×10　CR
 40
4.0
 72
     5
 11
22.775
 21
24.25
  0
TEXT
  7
TextStyle03
  8
文字
  6
CONTINUOUS
 10
1.525
 20
10.9
  1
丁番裏板
 40
4.0
 72
     5
 11
19.025
 21
10.9
  0
TEXT
  7
TextStyle03
  8
文字
  6
CONTINUOUS
 10
1.525
 20
6.4
  1
St-2.3t
 40
4.0
 72
     5
 11
17.025
 21
6.4
  0
TEXT
  7
TextStyle03
  8
文字
  6
CONTINUOUS
 10
2.725
 20
-36.525
  1
丁番裏板
 40
4.0
 72
     5
 11
20.225
 21
-36.525
  0
TEXT
  7
TextStyle03
  8
文字
  6
CONTINUOUS
 10
2.725
 20
-41.025
  1
St-2.3t
 40
4.0
 72
     5
 11
18.225
 21
-41.025
  0
TEXT
  7
TextStyle03
  8
文字
  6
CONTINUOUS
 10
-102.525
 20
-67.95
  1
コーナーシール
 40
3.0
 72
     5
 11
-79.275
 21
-67.95
  0
TEXT
  7
TextStyle03
  8
文字
  6
CONTINUOUS
 10
-102.525
 20
-71.325
  1
（工場）
 40
3.0
 72
     5
 11
-89.4
 21
-71.325
  0
TEXT
  7
TextStyle03
  8
文字
  6
CONTINUOUS
 10
-111.35
 20
-58.925
  1
コーナージョイント金物
 40
3.0
 72
     5
 11
-74.6
 21
-58.925
  0
TEXT
  7
TextStyle03
  8
文字
  6
CONTINUOUS
 10
-111.35
 20
-62.3
  1
St-1.6t
 40
3.0
 72
     5
 11
-99.725
 21
-62.3
  0
TEXT
  7
TextStyle03
  8
文字
  6
CONTINUOUS
 10
-47.85
 20
-126.425
  1
KA-50C　末栄金属
 40
4.0
 72
     5
 11
-12.35
 21
-126.425
  0
TEXT
  7
TextStyle03
  8
文字
  6
CONTINUOUS
 10
-105.875
 20
-39.8
  1
SUS丁番
 40
3.0
 72
     5
 11
-94.4375
 21
-39.8
  0
TEXT
  7
TextStyle03
  8
文字
  6
CONTINUOUS
 10
89.775
 20
99.05
  1
ＮＳコード：ＮＳＨＺ
 40
5.0
 72
     5
 11
145.4
 21
99.05
  0
TEXT
  7
TextStyle03
  8
文字
  6
CONTINUOUS
 10
90.025
 20
121.75
  1
シリーズ：ＴＤ２Ｈ
 40
5.0
 72
     5
 11
140.025
 21
121.75
  0
TEXT
  7
TextStyle03
  8
文字
  6
CONTINUOUS
 10
90.025
 20
116.125
  1
　　　　　（片側開閉）　
 40
5.0
 72
     5
 11
156.9
 21
116.125
  0
TEXT
  7
TextStyle03
  8
文字
  6
CONTINUOUS
 10
90.025
 20
110.5
  1
図面名　：下枠断面詳細図　丁番側
 40
5.0
 72
     5
 11
179.4
 21
110.5
  0
INSERT
  2
*DIM_0010
  8
寸法
  6
CONTINUOUS
 10
0.0
 20
0.0
  0
INSERT
  2
*DIM_0011
  8
寸法
  6
CONTINUOUS
 10
0.0
 20
0.0
  0
INSERT
  2
*DIM_0012
  8
寸法
  6
CONTINUOUS
 10
0.0
 20
0.0
  0
INSERT
  2
*DIM_0013
  8
寸法
  6
CONTINUOUS
 10
0.0
 20
0.0
  0
INSERT
  2
*DIM_0014
  8
寸法
  6
CONTINUOUS
 10
0.0
 20
0.0
  0
INSERT
  2
*DIM_0015
  8
寸法
  6
CONTINUOUS
 10
0.0
 20
0.0
  0
INSERT
  2
*DIM_0016
  8
寸法
  6
CONTINUOUS
 10
0.0
 20
0.0
  0
INSERT
  2
*DIM_0017
  8
寸法
  6
CONTINUOUS
 10
0.0
 20
0.0
  0
INSERT
  2
*DIM_0018
  8
寸法
  6
CONTINUOUS
 10
0.0
 20
0.0
  0
INSERT
  2
*DIM_0019
  8
寸法
  6
CONTINUOUS
 10
0.0
 20
0.0
  0
LINE
  8
寸法
  6
CONTINUOUS
 10
-153.4859
 20
81.37657
 11
-153.4859
 21
116.558855
  0
POLYLINE
  8
寸法
  6
CONTINUOUS
 66
     1
  0
VERTEX
  8
寸法
 10
-153.4859
 20
116.558855
  0
VERTEX
  8
寸法
 10
-156.053662
 20
107.968722
  0
VERTEX
  8
寸法
 10
-153.4859
 20
107.968722
  0
SEQEND
  0
POLYLINE
  8
寸法
  6
CONTINUOUS
 66
     1
  0
VERTEX
  8
寸法
 10
-153.4859
 20
114.96675
  0
VERTEX
  8
寸法
 10
-156.053662
 20
106.376618
  0
VERTEX
  8
寸法
 10
-153.4859
 20
106.376618
  0
SEQEND
  0
LINE
  8
寸法
  6
CONTINUOUS
 10
-21.243163
 20
118.407907
 11
77.628023
 21
118.407907
  0
POLYLINE
  8
寸法
  6
CONTINUOUS
 66
     1
  0
VERTEX
  8
寸法
 10
77.628023
 20
118.407907
  0
VERTEX
  8
寸法
 10
69.03789
 20
115.840145
  0
VERTEX
  8
寸法
 10
69.03789
 20
118.407907
  0
SEQEND
  0
POLYLINE
  8
寸法
  6
CONTINUOUS
 66
     1
  0
VERTEX
  8
寸法
 10
76.035917
 20
118.407907
  0
VERTEX
  8
寸法
 10
67.445785
 20
115.840145
  0
VERTEX
  8
寸法
 10
67.445785
 20
118.407907
  0
SEQEND
  0
POLYLINE
  8
寸法
  6
CONTINUOUS
 66
     1
  0
VERTEX
  8
寸法
 10
77.628023
 20
118.407907
  0
VERTEX
  8
寸法
 10
69.03789
 20
120.97567
  0
VERTEX
  8
寸法
 10
69.03789
 20
118.407907
  0
SEQEND
  0
POLYLINE
  8
寸法
  6
CONTINUOUS
 66
     1
  0
VERTEX
  8
寸法
 10
76.035917
 20
118.407907
  0
VERTEX
  8
寸法
 10
67.445785
 20
120.97567
  0
VERTEX
  8
寸法
 10
67.445785
 20
118.407907
  0
SEQEND
  0
POLYLINE
  8
寸法
  6
CONTINUOUS
 66
     1
  0
VERTEX
  8
寸法
 10
77.628023
 20
111.90067
  0
VERTEX
  8
寸法
 10
69.03789
 20
114.468433
  0
VERTEX
  8
寸法
 10
69.03789
 20
111.90067
  0
SEQEND
  0
POLYLINE
  8
寸法
  6
CONTINUOUS
 66
     1
  0
VERTEX
  8
寸法
 10
76.035917
 20
111.90067
  0
VERTEX
  8
寸法
 10
67.445785
 20
114.468433
  0
VERTEX
  8
寸法
 10
67.445785
 20
111.90067
  0
SEQEND
  0
INSERT
  2
*DIM_0020
  8
寸法
  6
CONTINUOUS
 10
0.0
 20
0.0
  0
INSERT
  2
*DIM_0021
  8
寸法
  6
CONTINUOUS
 10
0.0
 20
0.0
  0
LINE
  8
寸法
  6
CONTINUOUS
 10
77.628023
 20
111.90067
 11
-6.243163
 21
111.90067
  0
INSERT
  2
*DIM_0022
  8
寸法
  6
CONTINUOUS
 10
0.0
 20
0.0
  0
INSERT
  2
*DIM_0023
  8
寸法
  6
CONTINUOUS
 10
0.0
 20
0.0
  0
INSERT
  2
*DIM_0024
  8
寸法
  6
CONTINUOUS
 10
0.0
 20
0.0
  0
INSERT
  2
*DIM_0025
  8
寸法
  6
CONTINUOUS
 10
0.0
 20
0.0
  0
INSERT
  2
*DIM_0026
  8
寸法
  6
CONTINUOUS
 10
0.0
 20
0.0
  0
INSERT
  2
*DIM_0027
  8
寸法
  6
CONTINUOUS
 10
0.0
 20
0.0
  0
INSERT
  2
*DIM_0028
  8
寸法
  6
CONTINUOUS
 10
0.0
 20
0.0
  0
INSERT
  2
*DIM_0029
  8
寸法
  6
CONTINUOUS
 10
0.0
 20
0.0
  0
INSERT
  2
*DIM_0030
  8
寸法
  6
CONTINUOUS
 10
0.0
 20
0.0
  0
INSERT
  2
*GRP_0032
  8
寸法
  6
CONTINUOUS
 10
0.0
 20
0.0
  0
INSERT
  2
*GRP_0033
  8
寸法
  6
CONTINUOUS
 10
0.0
 20
0.0
  0
INSERT
  2
*GRP_0034
  8
寸法
  6
CONTINUOUS
 10
0.0
 20
0.0
  0
INSERT
  2
*GRP_0035
  8
寸法
  6
CONTINUOUS
 10
0.0
 20
0.0
  0
INSERT
  2
*GRP_0036
  8
寸法
  6
CONTINUOUS
 10
0.0
 20
0.0
  0
INSERT
  2
*GRP_0037
  8
寸法
  6
CONTINUOUS
 10
0.0
 20
0.0
  0
INSERT
  2
*GRP_0038
  8
寸法
  6
CONTINUOUS
 10
0.0
 20
0.0
  0
INSERT
  2
*DIM_0041
  8
寸法
  6
CONTINUOUS
 10
0.0
 20
0.0
  0
INSERT
  2
*DIM_0042
  8
寸法
  6
CONTINUOUS
 10
0.0
 20
0.0
  0
INSERT
  2
*DIM_0043
  8
寸法
  6
CONTINUOUS
 10
0.0
 20
0.0
  0
INSERT
  2
*DIM_0044
  8
寸法
  6
CONTINUOUS
 10
0.0
 20
0.0
  0
INSERT
  2
*DIM_0045
  8
寸法
  6
CONTINUOUS
 10
0.0
 20
0.0
  0
INSERT
  2
*DIM_0046
  8
寸法
  6
CONTINUOUS
 10
0.0
 20
0.0
  0
INSERT
  2
*DIM_0047
  8
寸法
  6
CONTINUOUS
 10
0.0
 20
0.0
  0
INSERT
  2
*DIM_0048
  8
寸法
  6
CONTINUOUS
 10
0.0
 20
0.0
  0
INSERT
  2
*DIM_0049
  8
寸法
  6
CONTINUOUS
 10
0.0
 20
0.0
  0
INSERT
  2
*DIM_0050
  8
寸法
  6
CONTINUOUS
 10
0.0
 20
0.0
  0
INSERT
  2
*GRP_0051
  8
寸法
  6
CONTINUOUS
 10
0.0
 20
0.0
  0
INSERT
  2
*GRP_0053
  8
寸法
  6
CONTINUOUS
 10
0.0
 20
0.0
  0
INSERT
  2
*DIM_0060
  8
寸法
  6
CONTINUOUS
 10
0.0
 20
0.0
  0
INSERT
  2
*DIM_0061
  8
寸法
  6
CONTINUOUS
 10
0.0
 20
0.0
  0
INSERT
  2
*GRP_0031
  8
別途部材
  6
CONTINUOUS
 10
0.0
 20
0.0
  0
ARC
  8
別途部材
  6
CONTINUOUS
 62
    96
 10
-65.820385
 20
73.367078
 40
5.005952
 50
90.001373
 51
158.200992
  0
LINE
  8
別途部材
  6
CONTINUOUS
 62
    96
 10
-71.243163
 20
81.37657
 11
-21.243163
 21
81.37657
  0
LINE
  8
別途部材
  6
CONTINUOUS
 62
    96
 10
-83.243135
 20
51.37657
 11
-80.008185
 21
51.37657
  0
LINE
  8
別途部材
  6
CONTINUOUS
 62
    96
 10
-71.243163
 20
81.37657
 11
-83.243135
 21
51.37657
  0
LINE
  8
別途部材
  6
CONTINUOUS
 62
    96
 10
-70.468335
 20
75.226195
 11
-80.008185
 21
51.37657
  0
ARC
  8
別途部材
  6
CONTINUOUS
 62
    96
 10
213.513902
 20
-57.615202
 40
272.817885
 50
140.880649
 51
149.371644
  0
ARC
  8
別途部材
  6
CONTINUOUS
 62
    96
 10
213.513902
 20
-57.615202
 40
269.860905
 50
140.368216
 51
149.74034
  0
LINE
  8
別途部材
  6
CONTINUOUS
 62
    96
 10
-19.578605
 20
78.372995
 11
-65.803035
 21
78.372995
  0
INSERT
  2
*GRP_0059
  8
別途部材
  6
DASHDOT
 10
0.0
 20
0.0
  0
LINE
  8
曲げ物
  6
CONTINUOUS
 10
-29.243163
 20
56.073172
 11
-29.243163
 21
49.273172
  0
LINE
  8
曲げ物
  6
CONTINUOUS
 10
16.14952
 20
55.073172
 11
-29.243163
 21
55.073172
  0
LINE
  8
曲げ物
  6
CONTINUOUS
 10
16.14952
 20
56.073172
 11
-29.243163
 21
56.073172
  0
LINE
  8
曲げ物
  6
CONTINUOUS
 10
16.14952
 20
49.273172
 11
-29.243163
 21
49.273172
  0
LINE
  8
曲げ物
  6
CONTINUOUS
 10
16.14952
 20
50.273172
 11
-29.243163
 21
50.273172
  0
LINE
  8
St
  6
CONTINUOUS
 10
-33.74741
 20
-24.62695
 11
-33.74741
 21
-26.92695
  0
LINE
  8
St
  6
CONTINUOUS
 10
-33.74741
 20
-73.329895
 11
-33.74741
 21
-75.629895
  0
ARC
  8
St
  6
CONTINUOUS
 10
-50.947412
 20
-26.926948
 40
2.3
 50
90.0
 51
180.0
  0
LINE
  8
St
  6
CONTINUOUS
 10
-50.94741
 20
-36.26027
 11
-53.247395
 21
-38.560255
  0
LINE
  8
St
  6
CONTINUOUS
 10
-50.94741
 20
-35.55317
 11
-53.247395
 21
-37.85315
  0
ARC
  8
St
  6
CONTINUOUS
 10
-50.947412
 20
-73.329893
 40
2.3
 50
180.0
 51
270.0
  0
LINE
  8
St
  6
CONTINUOUS
 10
-50.94741
 20
-64.08438
 11
-53.247395
 21
-66.384365
  0
LINE
  8
St
  6
CONTINUOUS
 10
-50.94741
 20
-63.37728
 11
-53.247395
 21
-65.67726
  0
LINE
  8
St
  6
CONTINUOUS
 10
-50.94741
 20
-26.92695
 11
-50.94741
 21
-73.329895
  0
LINE
  8
St
  6
CONTINUOUS
 10
-53.24741
 20
-26.92695
 11
-53.24741
 21
-73.329895
  0
LINE
  8
St
  6
CONTINUOUS
 10
-33.74741
 20
-26.92695
 11
-50.94741
 21
-26.92695
  0
LINE
  8
St
  6
CONTINUOUS
 10
-33.74741
 20
-24.62695
 11
-50.94741
 21
-24.62695
  0
LINE
  8
St
  6
CONTINUOUS
 10
-33.74741
 20
-73.329895
 11
-50.94741
 21
-73.329895
  0
LINE
  8
St
  6
CONTINUOUS
 10
-33.74741
 20
-75.629895
 11
-50.94741
 21
-75.629895
  0
LINE
  8
St
  6
CONTINUOUS
 10
-23.743163
 20
41.773175
 11
-23.743163
 21
39.473175
  0
LINE
  8
St
  6
CONTINUOUS
 10
-23.743163
 20
39.473175
 11
-56.943163
 21
39.473175
  0
LINE
  8
St
  6
CONTINUOUS
 10
-23.743163
 20
41.773175
 11
-56.943163
 21
41.773175
  0
ARC
  8
St
  6
CONTINUOUS
 10
-56.943161
 20
39.473176
 40
2.3
 50
90.0
 51
180.0
  0
LINE
  8
St
  6
CONTINUOUS
 10
-59.243163
 20
39.473175
 11
-59.243163
 21
-8.326825
  0
ARC
  8
St
  6
CONTINUOUS
 10
-56.943161
 20
-8.326824
 40
2.3
 50
180.0
 51
270.0
  0
LINE
  8
St
  6
CONTINUOUS
 10
-56.943163
 20
39.473175
 11
-56.943163
 21
-8.326825
  0
LINE
  8
St
  6
CONTINUOUS
 10
-46.145415
 20
41.773175
 11
-48.445413
 21
39.473175
  0
LINE
  8
St
  6
CONTINUOUS
 10
-47.73831
 20
39.473175
 11
-45.43831
 21
41.773175
  0
LINE
  8
St
  6
CONTINUOUS
 10
-51.143465
 20
59.57114
 11
-48.143465
 21
59.57114
  0
LINE
  8
St
  6
CONTINUOUS
 10
-48.143465
 20
44.273175
 11
-48.143465
 21
59.57114
  0
LINE
  8
St
  6
CONTINUOUS
 10
-50.545413
 20
-10.626825
 11
-48.245413
 21
-8.326825
  0
LINE
  8
St
  6
CONTINUOUS
 10
-49.838307
 20
-10.626825
 11
-47.538307
 21
-8.326825
  0
LINE
  8
St
  6
CONTINUOUS
 10
-59.243163
 20
-0.527405
 11
-56.943163
 21
1.772597
  0
LINE
  8
St
  6
CONTINUOUS
 10
-59.243163
 20
-1.23451
 11
-56.943163
 21
1.065493
  0
LINE
  8
St
  6
CONTINUOUS
 10
-59.243163
 20
28.675423
 11
-56.943163
 21
30.975425
  0
LINE
  8
St
  6
CONTINUOUS
 10
-59.243163
 20
27.968318
 11
-56.943163
 21
30.26832
  0
LINE
  8
St
  6
CONTINUOUS
 10
-40.408558
 20
-24.62695
 11
-42.70856
 21
-26.92695
  0
LINE
  8
St
  6
CONTINUOUS
 10
-41.115662
 20
-24.62695
 11
-43.415665
 21
-26.92695
  0
LINE
  8
St
  6
CONTINUOUS
 10
-47.018655
 20
-75.62695
 11
-44.721598
 21
-73.329895
  0
LINE
  8
St
  6
CONTINUOUS
 10
-46.311553
 20
-75.62695
 11
-44.014492
 21
-73.329895
  0
LINE
  8
St
  6
CONTINUOUS
 10
-114.647412
 20
-92.027005
 11
-56.654832
 21
-92.027005
  0
ARC
  8
St
  6
CONTINUOUS
 10
-56.646405
 20
-92.027003
 40
1.6
 50
-90.0
 51
0.0
  0
LINE
  8
St
  6
CONTINUOUS
 10
-116.247412
 20
-93.627005
 11
-35.247412
 21
-93.627005
  0
LINE
  8
St
  6
DOT
 10
-56.654832
 20
-92.027005
 11
-35.247412
 21
-92.027005
  0
LINE
  8
St
  6
CONTINUOUS
 10
-87.680005
 20
-93.627005
 11
-86.08
 21
-92.027005
  0
LINE
  8
St
  6
CONTINUOUS
 10
-86.9729
 20
-93.627005
 11
-85.372895
 21
-92.027005
  0
LINE
  8
St
  6
CONTINUOUS
 10
-60.658727
 20
-93.627005
 11
-59.058723
 21
-92.027005
  0
LINE
  8
St
  6
CONTINUOUS
 10
-59.951623
 20
-93.627005
 11
-58.351617
 21
-92.027005
  0
LINE
  8
St
  6
CONTINUOUS
 10
-114.647412
 20
-93.627005
 11
-114.647412
 21
-86.610365
  0
LINE
  8
St
  6
CONTINUOUS
 10
-116.247412
 20
-93.627005
 11
-116.247412
 21
-86.610368
  0
ARC
  8
St
  6
CONTINUOUS
 10
-114.647412
 20
-86.610368
 40
1.6
 50
94.332724
 51
180.0
  0
LINE
  8
St
  6
CONTINUOUS
 10
-114.76829
 20
-85.01494
 11
-35.247412
 21
-78.990057
  0
LINE
  8
St
  6
CONTINUOUS
 10
-114.647412
 20
-86.610365
 11
-35.247412
 21
-80.594645
  0
LINE
  8
St
  6
CONTINUOUS
 10
-37.159297
 20
-79.13491
 11
-37.159297
 21
-80.739498
  0
LINE
  8
St
  6
CONTINUOUS
 10
-56.654832
 20
-92.027005
 11
-56.654832
 21
-82.216572
  0
LINE
  8
St
  6
CONTINUOUS
 10
-55.046403
 20
-93.627005
 11
-55.046403
 21
-82.09471
  0
LINE
  8
St
  6
CONTINUOUS
 10
-57.519607
 20
-80.677505
 11
-59.255735
 21
-82.41363
  0
LINE
  8
St
  6
CONTINUOUS
 10
-58.284678
 20
-80.73547
 11
-60.020807
 21
-82.471595
  0
LINE
  8
St
  6
CONTINUOUS
 10
-85.00422
 20
-82.759872
 11
-86.74035
 21
-84.495993
  0
LINE
  8
St
  6
CONTINUOUS
 10
-85.769295
 20
-82.817838
 11
-87.505422
 21
-84.55396
  0
LINE
  8
St
  6
CONTINUOUS
 10
-56.943163
 20
-8.326825
 11
-39.743163
 21
-8.326825
  0
LINE
  8
St
  6
CONTINUOUS
 10
-39.743163
 20
-8.326825
 11
-39.743163
 21
-10.626825
  0
LINE
  8
St
  6
CONTINUOUS
 10
-56.943163
 20
-10.626825
 11
-39.743163
 21
-10.626825
  0
INSERT
  2
*GRP_0039
  8
St
  6
DASHDOT
 62
    47
 10
0.0
 20
0.0
  0
INSERT
  2
*GRP_0040
  8
St
  6
DASHDOT
 62
    47
 10
0.0
 20
0.0
  0
INSERT
  2
*HAT_0005
  8
その他部品等
 10
0.0
 20
0.0
  0
INSERT
  2
*HAT_0006
  8
その他部品等
 10
0.0
 20
0.0
  0
ENDSEC
  0
EOF
