  0
SECTION
  2
HEADER
  9
$EXTMIN
 10
-210.0
 20
-148.5
  9
$EXTMAX
 10
210.0
 20
148.5
  9
$PDMODE
 70
    32
  9
$PDSIZE
 40
1.5
  9
$LTSCALE
 40
10.0
  0
ENDSEC
  0
SECTION
  2
TABLES
  0
TABLE
  2
LTYPE
 70
    15
  0
LTYPE
  2
CONTINUOUS
 70
    64
  3
実線
 72
    65
 73
     0
 40
0.0
  0
LTYPE
  2
DASHED
 70
    64
  3
破線A
 72
    65
 73
     2
 40
0.6
 49
0.4
 49
-0.2
  0
LTYPE
  2
DASHEDX2
 70
    64
  3
破線B
 72
    65
 73
     2
 40
1.3
 49
0.9
 49
-0.4
  0
LTYPE
  2
DASHDOT
 70
    64
  3
１点鎖線A
 72
    65
 73
     4
 40
0.5375
 49
0.375
 49
-0.05
 49
0.0625
 49
-0.05
  0
LTYPE
  2
DASHDOTX2
 70
    64
  3
１点鎖線B
 72
    65
 73
     4
 40
1.075
 49
0.75
 49
-0.1
 49
0.125
 49
-0.1
  0
LTYPE
  2
DIVIDE2
 70
    64
  3
２点鎖線A
 72
    65
 73
     6
 40
0.5125
 49
0.3
 49
-0.0375
 49
0.05
 49
-0.0375
 49
0.05
 49
-0.0375
  0
LTYPE
  2
DIVIDE
 70
    64
  3
２点鎖線B
 72
    65
 73
     6
 40
1.05
 49
0.55
 49
-0.1
 49
0.1
 49
-0.1
 49
0.1
 49
-0.1
  0
LTYPE
  2
DOT
 70
    64
  3
点線A
 72
    65
 73
     2
 40
0.1125
 49
0.0625
 49
-0.05
  0
LTYPE
  2
DOTX2
 70
    64
  3
点線B
 72
    65
 73
     2
 40
0.275
 49
0.15
 49
-0.125
  0
LTYPE
  2
CONTINUOUS
 70
    64
  3
実線
 72
    65
 73
     0
 40
0.0
  0
LTYPE
  2
CONTINUOUS
 70
    64
  3
実線
 72
    65
 73
     0
 40
0.0
  0
LTYPE
  2
CONTINUOUS
 70
    64
  3
実線
 72
    65
 73
     0
 40
0.0
  0
LTYPE
  2
CONTINUOUS
 70
    64
  3
実線
 72
    65
 73
     0
 40
0.0
  0
LTYPE
  2
CONTINUOUS
 70
    64
  3
実線
 72
    65
 73
     0
 40
0.0
  0
LTYPE
  2
CONTINUOUS
 70
    64
  3
実線
 72
    65
 73
     0
 40
0.0
  0
ENDTAB
  0
TABLE
  2
LAYER
 70
    34
  0
LAYER
  2
通り芯
 70
     0
 62
    15
  6
CONTINUOUS
  0
LAYER
  2
補助線
 70
     0
 62
    16
  6
DOT
  0
LAYER
  2
躯体
 70
     0
 62
    31
  6
CONTINUOUS
  0
LAYER
  2
型材
 70
     0
 62
    32
  6
CONTINUOUS
  0
LAYER
  2
型材断面
 70
     0
 62
    47
  6
CONTINUOUS
  0
LAYER
  2
ガラス
 70
     0
 62
    48
  6
CONTINUOUS
  0
LAYER
  2
ゴム等
 70
     0
 62
    63
  6
CONTINUOUS
  0
LAYER
  2
ボルト／ビス
 70
     0
 62
    64
  6
CONTINUOUS
  0
LAYER
  2
文字
 70
     0
 62
    79
  6
CONTINUOUS
  0
LAYER
  2
寸法
 70
     0
 62
    80
  6
CONTINUOUS
  0
LAYER
  2
ﾊｯﾁﾝｸﾞ
 70
     0
 62
    95
  6
CONTINUOUS
  0
LAYER
  2
別途部材
 70
     0
 62
    96
  6
CONTINUOUS
  0
LAYER
  2
曲げ物
 70
     0
 62
   111
  6
CONTINUOUS
  0
LAYER
  2
鉄骨等
 70
     0
 62
   112
  6
CONTINUOUS
  0
LAYER
  2
St
 70
     0
 62
   127
  6
CONTINUOUS
  0
LAYER
  2
その他部品等
 70
     0
 62
   128
  6
CONTINUOUS
  0
LAYER
  2
ｶﾞｽｹｯﾄ
 70
     0
 62
   143
  6
CONTINUOUS
  0
LAYER
  2
ｽｹｯﾁ
 70
     0
 62
    14
  6
CONTINUOUS
  0
LAYER
  2
0
 70
     0
 62
    17
  6
CONTINUOUS
  0
LAYER
  2
1
 70
     0
 62
    30
  6
CONTINUOUS
  0
LAYER
  2
4
 70
     0
 62
    33
  6
CONTINUOUS
  0
LAYER
  2
ﾚｲﾔ3
 70
     0
 62
    46
  6
CONTINUOUS
  0
LAYER
  2
外形線
 70
     0
 62
    49
  6
CONTINUOUS
  0
LAYER
  2
部品
 70
     0
 62
    14
  6
CONTINUOUS
  0
LAYER
  2
サッシ芯
 70
     0
 62
    17
  6
DASHDOTX2
  0
LAYER
  2
寸法線
 70
     0
 62
    62
  6
CONTINUOUS
  0
LAYER
  2
姿図外形線
 70
     0
 62
    65
  6
CONTINUOUS
  0
LAYER
  2
姿補助線
 70
     0
 62
    30
  6
CONTINUOUS
  0
LAYER
  2
透視線
 70
     0
 62
    78
  6
DOT
  0
LAYER
  2
用紙
 70
     0
 62
    81
  6
CONTINUOUS
  0
LAYER
  2
実線図枠
 70
     0
 62
    94
  6
CONTINUOUS
  0
LAYER
  2
補助図枠
 70
     0
 62
    97
  6
CONTINUOUS
  0
LAYER
  2
建具記号
 70
     0
 62
   110
  6
CONTINUOUS
  0
LAYER
  2
補助文字
 70
     0
 62
   113
  6
CONTINUOUS
  0
ENDTAB
  0
TABLE
  2
STYLE
 70
    10
  0
STYLE
  2
STANDARD
 70
     0
 40
1.0
 41
1.0
 42
1.0
 50
0.0
 71
     0
  3
TXT
  4
BIGFONT
  0
STYLE
  2
TATE
 70
     4
 40
1.0
 41
1.0
 42
1.0
 50
0.0
 71
     0
  3
TXT
  4
BIGFONT
  0
STYLE
  2
TextStyle03
 70
     0
 40
1.0
 41
1.0
 42
1.0
 50
0.0
 71
     0
  3
MONOTXT
  4
BIGFONT
  0
STYLE
  2
TextStyle04
 70
     0
 40
1.0
 41
1.0
 42
1.0
 50
0.0
 71
     0
  3
MONOTXT
  4
BIGFONT
  0
STYLE
  2
TextStyle05
 70
     0
 40
1.0
 41
1.0
 42
1.0
 50
0.0
 71
     0
  3
MONOTXT
  4
BIGFONT
  0
STYLE
  2
TextStyle06
 70
     0
 40
1.0
 41
1.0
 42
1.0
 50
0.0
 71
     0
  3
MONOTXT
  4
BIGFONT
  0
STYLE
  2
TextStyle07
 70
     0
 40
1.0
 41
1.0
 42
1.0
 50
0.0
 71
     0
  3
MONOTXT
  4
BIGFONT
  0
STYLE
  2
TextStyle08
 70
     0
 40
1.0
 41
1.0
 42
1.0
 50
0.0
 71
     0
  3
MONOTXT
  4
BIGFONT
  0
STYLE
  2
TextStyle09
 70
     0
 40
1.0
 41
1.0
 42
1.0
 50
0.0
 71
     0
  3
MONOTXT
  4
BIGFONT
  0
STYLE
  2
TextStyle10
 70
     0
 40
1.0
 41
1.0
 42
1.0
 50
0.0
 71
     0
  3
MONOTXT
  4
BIGFONT
  0
ENDTAB
  0
ENDSEC
  0
SECTION
  2
BLOCKS
  0
BLOCK
  2
*HAT_0001
 70
    65
 10
0.0
 20
0.0
  0
LINE
  8
ゴム等
 10
-53.175
 20
-11.125
 11
-51.625
 21
-9.625
  0
LINE
  8
ゴム等
 10
-54.825
 20
-11.125
 11
-51.625
 21
-7.925
  0
LINE
  8
ゴム等
 10
-56.525
 20
-11.125
 11
-51.625
 21
-6.225
  0
LINE
  8
ゴム等
 10
-58.225
 20
-11.125
 11
-52.225
 21
-5.125
  0
LINE
  8
ゴム等
 10
-59.925
 20
-11.125
 11
-53.925
 21
-5.125
  0
LINE
  8
ゴム等
 10
-61.625
 20
-11.125
 11
-55.625
 21
-5.125
  0
LINE
  8
ゴム等
 10
-63.325
 20
-11.125
 11
-57.325
 21
-5.125
  0
LINE
  8
ゴム等
 10
-65.025
 20
-11.125
 11
-59.025
 21
-5.125
  0
LINE
  8
ゴム等
 10
-66.625
 20
-11.075
 11
-60.725
 21
-5.125
  0
LINE
  8
ゴム等
 10
-66.625
 20
-9.375
 11
-62.425
 21
-5.125
  0
LINE
  8
ゴム等
 10
-66.625
 20
-7.675
 11
-64.125
 21
-5.125
  0
LINE
  8
ゴム等
 10
-66.625
 20
-5.975
 11
-65.775
 21
-5.125
  0
ENDBLK
  0
BLOCK
  2
*HAT_0002
 70
    65
 10
0.0
 20
0.0
  0
LINE
  8
ゴム等
 10
-27.325
 20
85.875
 11
-25.575
 21
87.625
  0
LINE
  8
ゴム等
 10
-29.025
 20
85.875
 11
-26.275
 21
88.625
  0
LINE
  8
ゴム等
 10
-30.725
 20
85.875
 11
-27.725
 21
88.875
  0
LINE
  8
ゴム等
 10
-32.425
 20
85.875
 11
-29.425
 21
88.875
  0
LINE
  8
ゴム等
 10
-34.125
 20
85.875
 11
-31.125
 21
88.875
  0
LINE
  8
ゴム等
 10
-35.825
 20
85.875
 11
-32.825
 21
88.875
  0
LINE
  8
ゴム等
 10
-37.525
 20
85.875
 11
-34.475
 21
88.875
  0
LINE
  8
ゴム等
 10
-39.175
 20
85.875
 11
-36.175
 21
88.875
  0
LINE
  8
ゴム等
 10
-40.875
 20
85.875
 11
-37.875
 21
88.875
  0
LINE
  8
ゴム等
 10
-42.575
 20
85.875
 11
-39.575
 21
88.875
  0
LINE
  8
ゴム等
 10
-44.275
 20
85.875
 11
-41.275
 21
88.875
  0
LINE
  8
ゴム等
 10
-45.975
 20
85.875
 11
-42.975
 21
88.875
  0
LINE
  8
ゴム等
 10
-47.675
 20
85.875
 11
-44.675
 21
88.875
  0
LINE
  8
ゴム等
 10
-49.375
 20
85.875
 11
-46.375
 21
88.875
  0
LINE
  8
ゴム等
 10
-51.075
 20
85.875
 11
-48.075
 21
88.875
  0
LINE
  8
ゴム等
 10
-52.725
 20
85.875
 11
-49.775
 21
88.875
  0
LINE
  8
ゴム等
 10
-54.425
 20
85.875
 11
-51.425
 21
88.875
  0
LINE
  8
ゴム等
 10
-55.375
 20
86.625
 11
-53.125
 21
88.875
  0
ENDBLK
  0
BLOCK
  2
*HAT_0003
 70
    65
 10
0.0
 20
0.0
  0
LINE
  8
ゴム等
 10
-82.675
 20
-11.1
 11
-81.525
 21
-9.95
  0
LINE
  8
ゴム等
 10
-81.175
 20
-9.65
 11
-80.025
 21
-8.5
  0
LINE
  8
ゴム等
 10
-84.375
 20
-11.1
 11
-83.375
 21
-10.1
  0
LINE
  8
ゴム等
 10
-81.025
 20
-7.8
 11
-80.075
 21
-6.8
  0
LINE
  8
ゴム等
 10
-86.075
 20
-11.1
 11
-85.075
 21
-10.1
  0
LINE
  8
ゴム等
 10
-81.325
 20
-6.4
 11
-80.625
 21
-5.7
  0
LINE
  8
ゴム等
 10
-87.725
 20
-11.1
 11
-86.725
 21
-10.1
  0
LINE
  8
ゴム等
 10
-82.725
 20
-6.1
 11
-81.775
 21
-5.15
  0
LINE
  8
ゴム等
 10
-89.425
 20
-11.1
 11
-88.425
 21
-10.1
  0
LINE
  8
ゴム等
 10
-84.425
 20
-6.1
 11
-83.425
 21
-5.1
  0
LINE
  8
ゴム等
 10
-90.925
 20
-10.9
 11
-90.125
 21
-10.1
  0
LINE
  8
ゴム等
 10
-86.125
 20
-6.1
 11
-82.925
 21
-2.9
  0
LINE
  8
ゴム等
 10
-91.775
 20
-10.1
 11
-91.025
 21
-9.3
  0
LINE
  8
ゴム等
 10
-87.825
 20
-6.1
 11
-83.825
 21
-2.1
  0
LINE
  8
ゴム等
 10
-92.025
 20
-8.65
 11
-91.025
 21
-7.65
  0
LINE
  8
ゴム等
 10
-89.525
 20
-6.1
 11
-88.525
 21
-5.1
  0
LINE
  8
ゴム等
 10
-88.175
 20
-4.8
 11
-85.525
 21
-2.1
  0
LINE
  8
ゴム等
 10
-92.025
 20
-6.95
 11
-90.225
 21
-5.15
  0
LINE
  8
ゴム等
 10
-88.775
 20
-3.65
 11
-87.225
 21
-2.1
  0
LINE
  8
ゴム等
 10
-89.325
 20
-2.55
 11
-88.925
 21
-2.1
  0
ENDBLK
  0
BLOCK
  2
*HAT_0004
 70
    65
 10
0.0
 20
0.0
  0
LINE
  8
その他部品等
 10
-31.975
 20
-68.45
 11
-31.875
 21
-68.35
  0
LINE
  8
その他部品等
 10
-33.5
 20
-68.575
 11
-32.0
 21
-67.075
  0
LINE
  8
その他部品等
 10
-35.025
 20
-68.675
 11
-33.425
 21
-67.075
  0
LINE
  8
その他部品等
 10
-36.55
 20
-68.8
 11
-34.825
 21
-67.075
  0
LINE
  8
その他部品等
 10
-38.075
 20
-68.925
 11
-36.25
 21
-67.075
  0
LINE
  8
その他部品等
 10
-39.6
 20
-69.025
 11
-37.65
 21
-67.075
  0
LINE
  8
その他部品等
 10
-41.125
 20
-69.15
 11
-39.075
 21
-67.075
  0
LINE
  8
その他部品等
 10
-42.65
 20
-69.275
 11
-40.475
 21
-67.075
  0
LINE
  8
その他部品等
 10
-44.175
 20
-69.375
 11
-41.9
 21
-67.075
  0
LINE
  8
その他部品等
 10
-45.725
 20
-69.5
 11
-43.3
 21
-67.075
  0
LINE
  8
その他部品等
 10
-47.25
 20
-69.6
 11
-44.725
 21
-67.075
  0
LINE
  8
その他部品等
 10
-48.775
 20
-69.725
 11
-46.125
 21
-67.075
  0
LINE
  8
その他部品等
 10
-50.3
 20
-69.85
 11
-47.55
 21
-67.075
  0
LINE
  8
その他部品等
 10
-51.825
 20
-69.95
 11
-48.95
 21
-67.075
  0
LINE
  8
その他部品等
 10
-53.35
 20
-70.075
 11
-50.35
 21
-67.075
  0
LINE
  8
その他部品等
 10
-54.875
 20
-70.2
 11
-51.775
 21
-67.075
  0
LINE
  8
その他部品等
 10
-56.4
 20
-70.3
 11
-53.3
 21
-67.2
  0
LINE
  8
その他部品等
 10
-57.925
 20
-70.425
 11
-54.825
 21
-67.3
  0
LINE
  8
その他部品等
 10
-59.475
 20
-70.525
 11
-56.35
 21
-67.425
  0
LINE
  8
その他部品等
 10
-61.0
 20
-70.65
 11
-57.875
 21
-67.55
  0
LINE
  8
その他部品等
 10
-62.525
 20
-70.775
 11
-59.4
 21
-67.65
  0
LINE
  8
その他部品等
 10
-64.05
 20
-70.875
 11
-60.95
 21
-67.775
  0
LINE
  8
その他部品等
 10
-65.575
 20
-71.0
 11
-62.475
 21
-67.9
  0
LINE
  8
その他部品等
 10
-67.1
 20
-71.125
 11
-64.0
 21
-68.0
  0
LINE
  8
その他部品等
 10
-68.625
 20
-71.225
 11
-65.525
 21
-68.125
  0
LINE
  8
その他部品等
 10
-70.15
 20
-71.35
 11
-67.05
 21
-68.225
  0
LINE
  8
その他部品等
 10
-71.675
 20
-71.45
 11
-68.575
 21
-68.35
  0
LINE
  8
その他部品等
 10
-73.225
 20
-71.575
 11
-70.1
 21
-68.475
  0
LINE
  8
その他部品等
 10
-74.75
 20
-71.7
 11
-71.625
 21
-68.575
  0
LINE
  8
その他部品等
 10
-76.275
 20
-71.8
 11
-73.15
 21
-68.7
  0
LINE
  8
その他部品等
 10
-77.8
 20
-71.925
 11
-74.675
 21
-68.825
  0
LINE
  8
その他部品等
 10
-79.325
 20
-72.05
 11
-76.225
 21
-68.925
  0
LINE
  8
その他部品等
 10
-80.85
 20
-72.15
 11
-77.75
 21
-69.05
  0
LINE
  8
その他部品等
 10
-82.375
 20
-72.275
 11
-79.275
 21
-69.175
  0
LINE
  8
その他部品等
 10
-83.9
 20
-72.375
 11
-80.8
 21
-69.275
  0
LINE
  8
その他部品等
 10
-85.425
 20
-72.5
 11
-82.325
 21
-69.4
  0
LINE
  8
その他部品等
 10
-86.95
 20
-72.625
 11
-83.85
 21
-69.5
  0
LINE
  8
その他部品等
 10
-88.5
 20
-72.725
 11
-85.375
 21
-69.625
  0
LINE
  8
その他部品等
 10
-90.025
 20
-72.85
 11
-86.9
 21
-69.75
  0
LINE
  8
その他部品等
 10
-91.55
 20
-72.975
 11
-88.425
 21
-69.85
  0
LINE
  8
その他部品等
 10
-93.075
 20
-73.075
 11
-89.975
 21
-69.975
  0
LINE
  8
その他部品等
 10
-94.6
 20
-73.2
 11
-91.5
 21
-70.1
  0
LINE
  8
その他部品等
 10
-96.125
 20
-73.325
 11
-93.025
 21
-70.2
  0
LINE
  8
その他部品等
 10
-97.65
 20
-73.425
 11
-94.55
 21
-70.325
  0
LINE
  8
その他部品等
 10
-99.175
 20
-73.55
 11
-96.075
 21
-70.425
  0
LINE
  8
その他部品等
 10
-100.7
 20
-73.65
 11
-97.6
 21
-70.55
  0
LINE
  8
その他部品等
 10
-102.25
 20
-73.775
 11
-99.125
 21
-70.675
  0
LINE
  8
その他部品等
 10
-112.95
 20
-83.075
 11
-112.875
 21
-83.0
  0
LINE
  8
その他部品等
 10
-114.375
 20
-83.075
 11
-112.875
 21
-81.575
  0
LINE
  8
その他部品等
 10
-115.775
 20
-83.075
 11
-112.875
 21
-80.175
  0
LINE
  8
その他部品等
 10
-103.775
 20
-73.9
 11
-100.65
 21
-70.775
  0
LINE
  8
その他部品等
 10
-105.3
 20
-74.0
 11
-102.175
 21
-70.9
  0
LINE
  8
その他部品等
 10
-106.825
 20
-74.125
 11
-103.725
 21
-71.025
  0
LINE
  8
その他部品等
 10
-115.875
 20
-81.75
 11
-112.875
 21
-78.75
  0
LINE
  8
その他部品等
 10
-115.875
 20
-80.35
 11
-112.875
 21
-77.35
  0
LINE
  8
その他部品等
 10
-108.35
 20
-74.25
 11
-105.25
 21
-71.125
  0
LINE
  8
その他部品等
 10
-109.875
 20
-74.35
 11
-106.775
 21
-71.25
  0
LINE
  8
その他部品等
 10
-115.875
 20
-78.95
 11
-112.8
 21
-75.85
  0
LINE
  8
その他部品等
 10
-111.425
 20
-74.475
 11
-108.3
 21
-71.375
  0
LINE
  8
その他部品等
 10
-115.875
 20
-77.525
 11
-109.825
 21
-71.475
  0
LINE
  8
その他部品等
 10
-115.875
 20
-76.125
 11
-111.35
 21
-71.6
  0
LINE
  8
その他部品等
 10
-115.875
 20
-74.7
 11
-112.875
 21
-71.7
  0
LINE
  8
その他部品等
 10
-115.875
 20
-73.3
 11
-114.4
 21
-71.825
  0
LINE
  8
その他部品等
 10
-115.875
 20
-82.275
 11
-115.075
 21
-83.075
  0
LINE
  8
その他部品等
 10
-115.875
 20
-80.875
 11
-113.675
 21
-83.075
  0
LINE
  8
その他部品等
 10
-115.875
 20
-79.475
 11
-112.875
 21
-82.475
  0
LINE
  8
その他部品等
 10
-115.875
 20
-78.05
 11
-112.875
 21
-81.05
  0
LINE
  8
その他部品等
 10
-115.875
 20
-76.65
 11
-112.875
 21
-79.65
  0
LINE
  8
その他部品等
 10
-115.875
 20
-75.225
 11
-112.875
 21
-78.225
  0
LINE
  8
その他部品等
 10
-115.875
 20
-73.825
 11
-112.875
 21
-76.825
  0
LINE
  8
その他部品等
 10
-115.875
 20
-72.4
 11
-112.675
 21
-75.6
  0
LINE
  8
その他部品等
 10
-115.0
 20
-71.875
 11
-112.075
 21
-74.775
  0
LINE
  8
その他部品等
 10
-113.7
 20
-71.775
 11
-111.025
 21
-74.425
  0
LINE
  8
その他部品等
 10
-112.375
 20
-71.675
 11
-109.7
 21
-74.35
  0
LINE
  8
その他部品等
 10
-111.075
 20
-71.575
 11
-108.4
 21
-74.25
  0
LINE
  8
その他部品等
 10
-109.75
 20
-71.475
 11
-107.075
 21
-74.15
  0
LINE
  8
その他部品等
 10
-108.45
 20
-71.375
 11
-105.775
 21
-74.05
  0
LINE
  8
その他部品等
 10
-107.125
 20
-71.275
 11
-104.45
 21
-73.95
  0
LINE
  8
その他部品等
 10
-105.825
 20
-71.175
 11
-103.15
 21
-73.85
  0
LINE
  8
その他部品等
 10
-104.5
 20
-71.075
 11
-101.825
 21
-73.75
  0
LINE
  8
その他部品等
 10
-103.2
 20
-70.975
 11
-100.525
 21
-73.65
  0
LINE
  8
その他部品等
 10
-101.875
 20
-70.875
 11
-99.2
 21
-73.55
  0
LINE
  8
その他部品等
 10
-100.575
 20
-70.775
 11
-97.9
 21
-73.45
  0
LINE
  8
その他部品等
 10
-99.25
 20
-70.675
 11
-96.575
 21
-73.35
  0
LINE
  8
その他部品等
 10
-97.925
 20
-70.575
 11
-95.275
 21
-73.25
  0
LINE
  8
その他部品等
 10
-96.625
 20
-70.475
 11
-93.95
 21
-73.15
  0
LINE
  8
その他部品等
 10
-95.325
 20
-70.375
 11
-92.65
 21
-73.05
  0
LINE
  8
その他部品等
 10
-94.0
 20
-70.275
 11
-91.325
 21
-72.95
  0
LINE
  8
その他部品等
 10
-92.7
 20
-70.175
 11
-90.025
 21
-72.85
  0
LINE
  8
その他部品等
 10
-91.375
 20
-70.075
 11
-88.7
 21
-72.75
  0
LINE
  8
その他部品等
 10
-90.075
 20
-69.975
 11
-87.4
 21
-72.65
  0
LINE
  8
その他部品等
 10
-88.75
 20
-69.875
 11
-86.075
 21
-72.55
  0
LINE
  8
その他部品等
 10
-87.45
 20
-69.775
 11
-84.775
 21
-72.45
  0
LINE
  8
その他部品等
 10
-86.125
 20
-69.675
 11
-83.45
 21
-72.35
  0
LINE
  8
その他部品等
 10
-84.825
 20
-69.575
 11
-82.15
 21
-72.25
  0
LINE
  8
その他部品等
 10
-83.5
 20
-69.475
 11
-80.825
 21
-72.15
  0
LINE
  8
その他部品等
 10
-82.2
 20
-69.375
 11
-79.525
 21
-72.05
  0
LINE
  8
その他部品等
 10
-80.875
 20
-69.275
 11
-78.2
 21
-71.95
  0
LINE
  8
その他部品等
 10
-79.575
 20
-69.175
 11
-76.9
 21
-71.85
  0
LINE
  8
その他部品等
 10
-78.25
 20
-69.075
 11
-75.575
 21
-71.75
  0
LINE
  8
その他部品等
 10
-76.95
 20
-68.975
 11
-74.275
 21
-71.65
  0
LINE
  8
その他部品等
 10
-75.625
 20
-68.875
 11
-72.95
 21
-71.55
  0
LINE
  8
その他部品等
 10
-74.325
 20
-68.775
 11
-71.65
 21
-71.45
  0
LINE
  8
その他部品等
 10
-73.0
 20
-68.675
 11
-70.325
 21
-71.35
  0
LINE
  8
その他部品等
 10
-71.7
 20
-68.575
 11
-69.025
 21
-71.25
  0
LINE
  8
その他部品等
 10
-70.375
 20
-68.475
 11
-67.7
 21
-71.15
  0
LINE
  8
その他部品等
 10
-69.075
 20
-68.4
 11
-66.4
 21
-71.05
  0
LINE
  8
その他部品等
 10
-67.75
 20
-68.3
 11
-65.075
 21
-70.95
  0
LINE
  8
その他部品等
 10
-66.45
 20
-68.2
 11
-63.775
 21
-70.85
  0
LINE
  8
その他部品等
 10
-65.125
 20
-68.1
 11
-62.45
 21
-70.75
  0
LINE
  8
その他部品等
 10
-63.825
 20
-68.0
 11
-61.15
 21
-70.65
  0
LINE
  8
その他部品等
 10
-62.5
 20
-67.9
 11
-59.825
 21
-70.55
  0
LINE
  8
その他部品等
 10
-61.2
 20
-67.8
 11
-58.525
 21
-70.45
  0
LINE
  8
その他部品等
 10
-59.875
 20
-67.7
 11
-57.2
 21
-70.35
  0
LINE
  8
その他部品等
 10
-58.55
 20
-67.6
 11
-55.9
 21
-70.25
  0
LINE
  8
その他部品等
 10
-57.25
 20
-67.5
 11
-54.575
 21
-70.15
  0
LINE
  8
その他部品等
 10
-55.95
 20
-67.4
 11
-53.275
 21
-70.05
  0
LINE
  8
その他部品等
 10
-54.625
 20
-67.3
 11
-51.95
 21
-69.975
  0
LINE
  8
その他部品等
 10
-53.325
 20
-67.2
 11
-50.65
 21
-69.875
  0
LINE
  8
その他部品等
 10
-52.0
 20
-67.1
 11
-49.325
 21
-69.775
  0
LINE
  8
その他部品等
 10
-50.6
 20
-67.075
 11
-48.025
 21
-69.675
  0
LINE
  8
その他部品等
 10
-49.2
 20
-67.075
 11
-46.7
 21
-69.575
  0
LINE
  8
その他部品等
 10
-47.775
 20
-67.075
 11
-45.4
 21
-69.475
  0
LINE
  8
その他部品等
 10
-46.375
 20
-67.075
 11
-44.075
 21
-69.375
  0
LINE
  8
その他部品等
 10
-44.95
 20
-67.075
 11
-42.775
 21
-69.275
  0
LINE
  8
その他部品等
 10
-43.55
 20
-67.075
 11
-41.45
 21
-69.175
  0
LINE
  8
その他部品等
 10
-42.125
 20
-67.075
 11
-40.15
 21
-69.075
  0
LINE
  8
その他部品等
 10
-40.725
 20
-67.075
 11
-38.825
 21
-68.975
  0
LINE
  8
その他部品等
 10
-39.3
 20
-67.075
 11
-37.525
 21
-68.875
  0
LINE
  8
その他部品等
 10
-37.9
 20
-67.075
 11
-36.2
 21
-68.775
  0
LINE
  8
その他部品等
 10
-36.475
 20
-67.075
 11
-34.9
 21
-68.675
  0
LINE
  8
その他部品等
 10
-35.075
 20
-67.075
 11
-33.575
 21
-68.575
  0
LINE
  8
その他部品等
 10
-33.65
 20
-67.075
 11
-32.275
 21
-68.475
  0
LINE
  8
その他部品等
 10
-32.25
 20
-67.075
 11
-31.875
 21
-67.45
  0
ENDBLK
  0
BLOCK
  2
*HAT_0005
 70
    65
 10
0.0
 20
0.0
  0
LINE
  8
その他部品等
 10
-32.3
 20
-81.475
 11
-31.875
 21
-81.075
  0
LINE
  8
その他部品等
 10
-33.7
 20
-81.475
 11
-31.875
 21
-79.65
  0
LINE
  8
その他部品等
 10
-35.1
 20
-81.475
 11
-31.875
 21
-78.25
  0
LINE
  8
その他部品等
 10
-36.525
 20
-81.475
 11
-31.875
 21
-76.825
  0
LINE
  8
その他部品等
 10
-37.925
 20
-81.475
 11
-31.875
 21
-75.425
  0
LINE
  8
その他部品等
 10
-39.35
 20
-81.475
 11
-31.875
 21
-74.0
  0
LINE
  8
その他部品等
 10
-40.75
 20
-81.475
 11
-31.875
 21
-72.6
  0
LINE
  8
その他部品等
 10
-42.175
 20
-81.475
 11
-31.875
 21
-71.175
  0
LINE
  8
その他部品等
 10
-43.575
 20
-81.475
 11
-32.175
 21
-70.075
  0
LINE
  8
その他部品等
 10
-45.0
 20
-81.475
 11
-33.7
 21
-70.2
  0
LINE
  8
その他部品等
 10
-46.4
 20
-81.475
 11
-35.225
 21
-70.3
  0
LINE
  8
その他部品等
 10
-47.825
 20
-81.475
 11
-36.75
 21
-70.425
  0
LINE
  8
その他部品等
 10
-49.225
 20
-81.475
 11
-38.275
 21
-70.525
  0
LINE
  8
その他部品等
 10
-50.65
 20
-81.475
 11
-39.8
 21
-70.65
  0
LINE
  8
その他部品等
 10
-51.675
 20
-81.1
 11
-41.35
 21
-70.775
  0
LINE
  8
その他部品等
 10
-51.675
 20
-79.675
 11
-42.875
 21
-70.875
  0
LINE
  8
その他部品等
 10
-51.675
 20
-78.275
 11
-44.4
 21
-71.0
  0
LINE
  8
その他部品等
 10
-51.675
 20
-76.85
 11
-45.925
 21
-71.125
  0
LINE
  8
その他部品等
 10
-51.675
 20
-75.45
 11
-47.45
 21
-71.225
  0
LINE
  8
その他部品等
 10
-51.675
 20
-74.05
 11
-48.975
 21
-71.35
  0
LINE
  8
その他部品等
 10
-51.675
 20
-72.625
 11
-50.5
 21
-71.475
  0
LINE
  8
その他部品等
 10
-51.675
 20
-80.125
 11
-50.325
 21
-81.475
  0
LINE
  8
その他部品等
 10
-51.675
 20
-78.725
 11
-48.9
 21
-81.475
  0
LINE
  8
その他部品等
 10
-51.675
 20
-77.3
 11
-47.5
 21
-81.475
  0
LINE
  8
その他部品等
 10
-51.675
 20
-75.9
 11
-46.075
 21
-81.475
  0
LINE
  8
その他部品等
 10
-51.675
 20
-74.475
 11
-44.675
 21
-81.475
  0
LINE
  8
その他部品等
 10
-51.675
 20
-73.075
 11
-43.275
 21
-81.475
  0
LINE
  8
その他部品等
 10
-51.675
 20
-71.65
 11
-41.85
 21
-81.475
  0
LINE
  8
その他部品等
 10
-50.45
 20
-71.45
 11
-40.45
 21
-81.475
  0
LINE
  8
その他部品等
 10
-49.15
 20
-71.35
 11
-39.025
 21
-81.475
  0
LINE
  8
その他部品等
 10
-47.85
 20
-71.25
 11
-37.625
 21
-81.475
  0
LINE
  8
その他部品等
 10
-46.525
 20
-71.15
 11
-36.2
 21
-81.475
  0
LINE
  8
その他部品等
 10
-45.225
 20
-71.05
 11
-34.8
 21
-81.475
  0
LINE
  8
その他部品等
 10
-43.9
 20
-70.95
 11
-33.375
 21
-81.475
  0
LINE
  8
その他部品等
 10
-42.575
 20
-70.85
 11
-31.975
 21
-81.475
  0
LINE
  8
その他部品等
 10
-41.275
 20
-70.75
 11
-31.875
 21
-80.15
  0
LINE
  8
その他部品等
 10
-39.95
 20
-70.65
 11
-31.875
 21
-78.75
  0
LINE
  8
その他部品等
 10
-38.65
 20
-70.575
 11
-31.875
 21
-77.325
  0
LINE
  8
その他部品等
 10
-37.325
 20
-70.475
 11
-31.875
 21
-75.925
  0
LINE
  8
その他部品等
 10
-36.025
 20
-70.375
 11
-31.875
 21
-74.5
  0
LINE
  8
その他部品等
 10
-34.725
 20
-70.275
 11
-31.875
 21
-73.1
  0
LINE
  8
その他部品等
 10
-33.4
 20
-70.175
 11
-31.875
 21
-71.675
  0
LINE
  8
その他部品等
 10
-32.075
 20
-70.075
 11
-31.875
 21
-70.275
  0
ENDBLK
  0
BLOCK
  2
*GRP_0001
 70
    65
 10
0.0
 20
0.0
  0
LINE
  8
型材断面
  6
CONTINUOUS
 10
195.0
 20
133.5
 11
195.0
 21
-133.5
  0
LINE
  8
型材断面
  6
CONTINUOUS
 10
195.0
 20
-133.5
 11
-185.0
 21
-133.5
  0
LINE
  8
型材断面
  6
CONTINUOUS
 10
-185.0
 20
-133.5
 11
-185.0
 21
133.5
  0
LINE
  8
型材断面
  6
CONTINUOUS
 10
195.0
 20
133.5
 11
-185.0
 21
133.5
  0
LINE
  8
型材断面
  6
CONTINUOUS
 10
145.0
 20
-133.5
 11
145.0
 21
-118.5
  0
LINE
  8
型材断面
  6
CONTINUOUS
 10
195.0
 20
-118.5
 11
145.0
 21
-118.5
  0
ENDBLK
  0
BLOCK
  2
*GRP_0002
 70
    65
 10
0.0
 20
0.0
  0
LINE
  8
別途部材
  6
CONTINUOUS
 62
    47
 10
-38.952663
 20
-83.084418
 11
-96.452638
 21
-83.084418
  0
LINE
  8
別途部材
  6
CONTINUOUS
 62
    47
 10
-38.952663
 20
-81.484418
 11
-96.452638
 21
-81.484418
  0
LINE
  8
別途部材
  6
CONTINUOUS
 62
    47
 10
-81.952663
 20
-83.084418
 11
-88.188037
 21
-86.684418
  0
LINE
  8
別途部材
  6
CONTINUOUS
 62
    47
 10
-96.452638
 20
-86.684418
 11
-88.188037
 21
-86.684418
  0
LINE
  8
別途部材
  6
CONTINUOUS
 62
    47
 10
-96.452638
 20
-85.084418
 11
-88.616763
 21
-85.084418
  0
LINE
  8
別途部材
  6
CONTINUOUS
 62
    47
 10
-85.152663
 20
-83.084418
 11
-88.616763
 21
-85.084418
  0
LINE
  8
別途部材
  6
CONTINUOUS
 62
    47
 10
-96.452638
 20
-83.084418
 11
-96.452638
 21
-81.484418
  0
LINE
  8
別途部材
  6
CONTINUOUS
 62
    47
 10
-96.452638
 20
-85.084418
 11
-96.452638
 21
-86.684418
  0
LINE
  8
別途部材
  6
CONTINUOUS
 62
    47
 10
-53.452663
 20
-83.084418
 11
-47.217288
 21
-86.684418
  0
LINE
  8
別途部材
  6
CONTINUOUS
 62
    47
 10
-38.952663
 20
-86.684418
 11
-47.217288
 21
-86.684418
  0
LINE
  8
別途部材
  6
CONTINUOUS
 62
    47
 10
-38.952663
 20
-85.084418
 11
-46.788537
 21
-85.084418
  0
LINE
  8
別途部材
  6
CONTINUOUS
 62
    47
 10
-50.252638
 20
-83.084418
 11
-46.788537
 21
-85.084418
  0
LINE
  8
別途部材
  6
CONTINUOUS
 62
    47
 10
-38.952663
 20
-85.084418
 11
-38.952663
 21
-86.684418
  0
LINE
  8
別途部材
  6
CONTINUOUS
 62
    47
 10
-75.452638
 20
-99.484418
 11
-75.452638
 21
-83.084418
  0
LINE
  8
別途部材
  6
CONTINUOUS
 62
    47
 10
-73.852663
 20
-99.484418
 11
-73.852663
 21
-83.084418
  0
LINE
  8
別途部材
  6
CONTINUOUS
 62
    47
 10
-75.452638
 20
-99.484418
 11
-73.852663
 21
-99.484418
  0
LINE
  8
別途部材
  6
CONTINUOUS
 62
    47
 10
-38.952663
 20
-81.484418
 11
-38.952663
 21
-83.084418
  0
ENDBLK
  0
BLOCK
  2
*GRP_0003
 70
    65
 10
0.0
 20
0.0
  0
INSERT
  2
*HAT_0001
  8
ゴム等
 10
0.0
 20
0.0
  0
LINE
  8
ゴム等
  6
CONTINUOUS
 10
-51.498638
 20
-5.083798
 11
-51.498638
 21
-11.083798
  0
LINE
  8
ゴム等
  6
CONTINUOUS
 10
-51.498638
 20
-11.083798
 11
-66.498638
 21
-11.083798
  0
LINE
  8
ゴム等
  6
CONTINUOUS
 10
-66.498638
 20
-11.083798
 11
-66.498638
 21
-5.083798
  0
LINE
  8
ゴム等
  6
CONTINUOUS
 10
-51.498638
 20
-5.083798
 11
-66.498638
 21
-5.083798
  0
ENDBLK
  0
BLOCK
  2
*GRP_0004
 70
    65
 10
0.0
 20
0.0
  0
ARC
  8
ゴム等
  6
CONTINUOUS
 62
    63
 10
-26.932574
 20
87.41567
 40
1.5
 50
0.0
 51
90.0
  0
LINE
  8
ゴム等
  6
CONTINUOUS
 62
    63
 10
-25.432588
 20
87.415653
 11
-25.432588
 21
87.415653
  0
ARC
  8
ゴム等
  6
CONTINUOUS
 62
    63
 10
-26.932574
 20
87.41567
 40
1.5
 50
-90.0
 51
0.0
  0
LINE
  8
ゴム等
  6
CONTINUOUS
 62
    63
 10
-53.932588
 20
88.915653
 11
-26.932588
 21
88.915653
  0
ARC
  8
ゴム等
  6
CONTINUOUS
 62
    63
 10
-53.932574
 20
87.41567
 40
1.5
 50
90.0
 51
180.0
  0
LINE
  8
ゴム等
  6
CONTINUOUS
 62
    63
 10
-55.432588
 20
87.415653
 11
-55.432588
 21
87.415653
  0
LINE
  8
ゴム等
  6
CONTINUOUS
 62
    63
 10
-53.932588
 20
85.915653
 11
-26.932588
 21
85.915653
  0
ARC
  8
ゴム等
  6
CONTINUOUS
 62
    63
 10
-53.932574
 20
87.41567
 40
1.5
 50
180.0
 51
270.0
  0
INSERT
  2
*HAT_0002
  8
ゴム等
 10
0.0
 20
0.0
  0
ENDBLK
  0
BLOCK
  2
*GRP_0005
 70
    65
 10
0.0
 20
0.0
  0
INSERT
  2
*HAT_0003
  8
ゴム等
 10
0.0
 20
0.0
  0
LINE
  8
ゴム等
  6
CONTINUOUS
 10
-89.49327
 20
-2.084173
 11
-82.494195
 21
-2.084173
  0
LINE
  8
ゴム等
  6
CONTINUOUS
 10
-82.494195
 20
-2.084173
 11
-83.99417
 21
-5.084173
  0
LINE
  8
ゴム等
  6
CONTINUOUS
 10
-89.49327
 20
-2.084173
 11
-87.99347
 21
-5.083798
  0
LINE
  8
ゴム等
  6
CONTINUOUS
 10
-89.99372
 20
-5.083798
 11
-87.99347
 21
-5.083798
  0
ARC
  8
ゴム等
  6
CONTINUOUS
 10
-89.993716
 20
-7.08377
 40
2.0
 50
90.0
 51
180.0
  0
LINE
  8
ゴム等
  6
CONTINUOUS
 10
-91.993745
 20
-9.083773
 11
-91.993745
 21
-7.083773
  0
ARC
  8
ゴム等
  6
CONTINUOUS
 10
-89.993716
 20
-9.08377
 40
2.0
 50
180.0
 51
270.0
  0
LINE
  8
ゴム等
  6
CONTINUOUS
 10
-89.99372
 20
-11.083798
 11
-81.99372
 21
-11.083798
  0
ARC
  8
ゴム等
  6
CONTINUOUS
 10
-81.993716
 20
-9.08377
 40
2.0
 50
270.0
 51
360.0
  0
LINE
  8
ゴム等
  6
CONTINUOUS
 10
-79.993745
 20
-9.083773
 11
-79.993745
 21
-7.084173
  0
LINE
  8
ゴム等
  6
CONTINUOUS
 10
-81.99372
 20
-5.084173
 11
-83.99417
 21
-5.084173
  0
ARC
  8
ゴム等
  6
CONTINUOUS
 10
-81.993716
 20
-7.08416
 40
2.0
 50
0.0
 51
90.0
  0
ARC
  8
ゴム等
  6
CONTINUOUS
 10
-89.993719
 20
-7.083768
 40
1.0
 50
90.0
 51
180.0
  0
LINE
  8
ゴム等
  6
CONTINUOUS
 10
-90.99372
 20
-9.083798
 11
-90.99372
 21
-7.083773
  0
ARC
  8
ゴム等
  6
CONTINUOUS
 10
-89.993719
 20
-9.083773
 40
1.0
 50
180.0
 51
270.0
  0
LINE
  8
ゴム等
  6
CONTINUOUS
 10
-81.99372
 20
-10.083773
 11
-89.993745
 21
-10.083773
  0
ARC
  8
ゴム等
  6
CONTINUOUS
 10
-81.993714
 20
-9.083773
 40
1.0
 50
270.0
 51
360.0
  0
LINE
  8
ゴム等
  6
CONTINUOUS
 10
-80.99372
 20
-7.083773
 11
-80.99372
 21
-9.083798
  0
LINE
  8
ゴム等
  6
CONTINUOUS
 10
-81.99372
 20
-6.083773
 11
-89.993745
 21
-6.083773
  0
ARC
  8
ゴム等
  6
CONTINUOUS
 10
-81.993714
 20
-7.083768
 40
1.0
 50
0.0
 51
90.0
  0
ENDBLK
  0
BLOCK
  2
*GRP_0006
 70
    65
 10
0.0
 20
0.0
  0
LINE
  8
ボルト／ビス
  6
CONTINUOUS
 62
    64
 10
-42.202668
 20
-83.284353
 11
-38.202668
 21
-83.284353
  0
LINE
  8
ボルト／ビス
  6
CONTINUOUS
 62
    64
 10
-43.202668
 20
-85.084353
 11
-42.202668
 21
-83.284353
  0
LINE
  8
ボルト／ビス
  6
CONTINUOUS
 62
    64
 10
-43.202668
 20
-85.084353
 11
-37.202668
 21
-85.084353
  0
LINE
  8
ボルト／ビス
  6
CONTINUOUS
 62
    64
 10
-37.202668
 20
-85.084353
 11
-38.202668
 21
-83.284353
  0
LINE
  8
ボルト／ビス
  6
CONTINUOUS
 62
    64
 10
-40.202668
 20
-86.567885
 11
-40.202668
 21
-76.205325
  0
LINE
  8
ボルト／ビス
  6
CONTINUOUS
 62
    64
 10
-42.202668
 20
-77.584353
 11
-41.702668
 21
-77.084353
  0
LINE
  8
ボルト／ビス
  6
CONTINUOUS
 62
    64
 10
-38.202668
 20
-77.584353
 11
-38.702668
 21
-77.084353
  0
LINE
  8
ボルト／ビス
  6
CONTINUOUS
 62
    64
 10
-41.702668
 20
-77.084353
 11
-38.702668
 21
-77.084353
  0
LINE
  8
ボルト／ビス
  6
CONTINUOUS
 62
    64
 10
-42.202668
 20
-77.584353
 11
-38.202668
 21
-77.584353
  0
LINE
  8
ボルト／ビス
  6
CONTINUOUS
 62
    64
 10
-41.702668
 20
-83.284353
 11
-41.702668
 21
-77.084353
  0
LINE
  8
ボルト／ビス
  6
CONTINUOUS
 62
    64
 10
-38.702668
 20
-83.284353
 11
-38.702668
 21
-77.084353
  0
LINE
  8
ボルト／ビス
  6
CONTINUOUS
 62
    64
 10
-38.202668
 20
-83.284353
 11
-38.202668
 21
-77.584353
  0
LINE
  8
ボルト／ビス
  6
CONTINUOUS
 62
    64
 10
-42.202668
 20
-83.284353
 11
-42.202668
 21
-77.584353
  0
ENDBLK
  0
BLOCK
  2
*GRP_0007
 70
    65
 10
0.0
 20
0.0
  0
LINE
  8
ボルト／ビス
  6
CONTINUOUS
 62
    64
 10
-49.698355
 20
59.214812
 11
-50.74652
 21
59.306517
  0
ARC
  8
ボルト／ビス
  6
CONTINUOUS
 62
    64
 10
-50.598353
 20
61.00005
 40
1.7
 50
180.0
 51
265.000011
  0
LINE
  8
ボルト／ビス
  6
CONTINUOUS
 62
    64
 10
-52.298355
 20
61.000048
 11
-52.298355
 21
62.714812
  0
LINE
  8
ボルト／ビス
  6
CONTINUOUS
 62
    64
 10
-49.698355
 20
66.214812
 11
-50.74652
 21
66.123113
  0
ARC
  8
ボルト／ビス
  6
CONTINUOUS
 62
    64
 10
-50.598353
 20
64.429583
 40
1.7
 50
94.999989
 51
180.0
  0
LINE
  8
ボルト／ビス
  6
CONTINUOUS
 62
    64
 10
-52.298355
 20
64.429582
 11
-52.298355
 21
62.714812
  0
LINE
  8
ボルト／ビス
  6
CONTINUOUS
 62
    64
 10
-51.91345
 20
60.318173
 11
-52.15561
 21
60.318173
  0
LINE
  8
ボルト／ビス
  6
CONTINUOUS
 62
    64
 10
-51.263365
 20
62.014812
 11
-51.263365
 21
62.714812
  0
LINE
  8
ボルト／ビス
  6
CONTINUOUS
 62
    64
 10
-51.91345
 20
61.614812
 11
-51.91345
 21
60.318173
  0
LINE
  8
ボルト／ビス
  6
CONTINUOUS
 62
    64
 10
-51.263365
 20
62.014812
 11
-51.51345
 21
62.014812
  0
ARC
  8
ボルト／ビス
  6
CONTINUOUS
 62
    64
 10
-51.513448
 20
61.614816
 40
0.4
 50
90.0
 51
180.0
  0
LINE
  8
ボルト／ビス
  6
CONTINUOUS
 62
    64
 10
-51.91345
 20
65.111453
 11
-52.15561
 21
65.111453
  0
LINE
  8
ボルト／ビス
  6
CONTINUOUS
 62
    64
 10
-51.263365
 20
63.414812
 11
-51.263365
 21
62.714812
  0
LINE
  8
ボルト／ビス
  6
CONTINUOUS
 62
    64
 10
-51.91345
 20
63.814812
 11
-51.91345
 21
65.111453
  0
LINE
  8
ボルト／ビス
  6
CONTINUOUS
 62
    64
 10
-51.263365
 20
63.414812
 11
-51.51345
 21
63.414812
  0
ARC
  8
ボルト／ビス
  6
CONTINUOUS
 62
    64
 10
-51.513448
 20
63.814816
 40
0.4
 50
180.0
 51
270.0
  0
LINE
  8
ボルト／ビス
  6
CONTINUOUS
 62
    64
 10
-49.698355
 20
59.214812
 11
-49.698355
 21
66.214812
  0
LINE
  8
ボルト／ビス
  6
CONTINUOUS
 62
    64
 10
-40.198355
 20
60.714812
 11
-39.698355
 21
61.214812
  0
LINE
  8
ボルト／ビス
  6
CONTINUOUS
 62
    64
 10
-40.198355
 20
64.714812
 11
-39.698355
 21
64.214812
  0
LINE
  8
ボルト／ビス
  6
CONTINUOUS
 62
    64
 10
-40.198355
 20
60.714812
 11
-40.198355
 21
64.714812
  0
LINE
  8
ボルト／ビス
  6
CONTINUOUS
 62
    64
 10
-39.698355
 20
61.214812
 11
-39.698355
 21
64.214812
  0
LINE
  8
ボルト／ビス
  6
CONTINUOUS
 62
    64
 10
-54.26974
 20
62.714812
 11
-38.12348
 21
62.714812
  0
LINE
  8
ボルト／ビス
  6
CONTINUOUS
 62
    64
 10
-49.698355
 20
60.714812
 11
-40.198355
 21
60.714812
  0
LINE
  8
ボルト／ビス
  6
CONTINUOUS
 62
    64
 10
-49.698355
 20
64.714812
 11
-40.198355
 21
64.714812
  0
LINE
  8
ボルト／ビス
  6
CONTINUOUS
 62
    64
 10
-49.698355
 20
64.214812
 11
-39.698355
 21
64.214812
  0
LINE
  8
ボルト／ビス
  6
CONTINUOUS
 62
    64
 10
-49.698355
 20
61.214812
 11
-39.698355
 21
61.214812
  0
ENDBLK
  0
BLOCK
  2
*GRP_0008
 70
    65
 10
0.0
 20
0.0
  0
LINE
  8
ボルト／ビス
  6
CONTINUOUS
 62
    64
 10
-110.802427
 20
-83.284477
 11
-106.802427
 21
-83.284477
  0
LINE
  8
ボルト／ビス
  6
CONTINUOUS
 62
    64
 10
-111.802427
 20
-85.084477
 11
-110.802427
 21
-83.284477
  0
LINE
  8
ボルト／ビス
  6
CONTINUOUS
 62
    64
 10
-111.802427
 20
-85.084477
 11
-105.802427
 21
-85.084477
  0
LINE
  8
ボルト／ビス
  6
CONTINUOUS
 62
    64
 10
-105.802427
 20
-85.084477
 11
-106.802427
 21
-83.284477
  0
LINE
  8
ボルト／ビス
  6
CONTINUOUS
 62
    64
 10
-108.802427
 20
-86.56801
 11
-108.802427
 21
-76.20545
  0
LINE
  8
ボルト／ビス
  6
CONTINUOUS
 62
    64
 10
-110.802427
 20
-77.584477
 11
-110.302427
 21
-77.084477
  0
LINE
  8
ボルト／ビス
  6
CONTINUOUS
 62
    64
 10
-106.802427
 20
-77.584477
 11
-107.302427
 21
-77.084477
  0
LINE
  8
ボルト／ビス
  6
CONTINUOUS
 62
    64
 10
-110.302427
 20
-77.084477
 11
-107.302427
 21
-77.084477
  0
LINE
  8
ボルト／ビス
  6
CONTINUOUS
 62
    64
 10
-110.802427
 20
-77.584477
 11
-106.802427
 21
-77.584477
  0
LINE
  8
ボルト／ビス
  6
CONTINUOUS
 62
    64
 10
-110.302427
 20
-83.284477
 11
-110.302427
 21
-77.084477
  0
LINE
  8
ボルト／ビス
  6
CONTINUOUS
 62
    64
 10
-107.302427
 20
-83.284477
 11
-107.302427
 21
-77.084477
  0
LINE
  8
ボルト／ビス
  6
CONTINUOUS
 62
    64
 10
-106.802427
 20
-83.284477
 11
-106.802427
 21
-77.584477
  0
LINE
  8
ボルト／ビス
  6
CONTINUOUS
 62
    64
 10
-110.802427
 20
-83.284477
 11
-110.802427
 21
-77.584477
  0
ENDBLK
  0
BLOCK
  2
*DIM_0009
 70
    65
 10
0.0
 20
0.0
  0
LINE
  8
寸法
  6
BYBLOCK
 62
     0
 10
-118.802427
 20
-85.084353
 11
-150.040915
 21
-85.084353
  0
LINE
  8
寸法
  6
BYBLOCK
 62
     0
 10
-54.79818
 20
85.912068
 11
-150.040915
 21
85.912068
  0
LINE
  8
寸法
  6
BYBLOCK
 62
     0
 10
-150.040915
 20
-85.084353
 11
-150.040915
 21
85.912068
  0
POINT
  8
寸法
 62
     0
 10
-150.040915
 20
-85.084353
  0
POINT
  8
寸法
 62
     0
 10
-150.040915
 20
85.912068
  0
TEXT
  7
TextStyle03
  8
寸法
  6
CONTINUOUS
 62
     0
 10
-150.425
 20
-2.0125
  1
171
 40
3.0
 50
90.0
 72
     5
 11
-150.425
 21
2.8625
  0
ENDBLK
  0
BLOCK
  2
*DIM_0010
 70
    65
 10
0.0
 20
0.0
  0
LINE
  8
寸法
  6
BYBLOCK
 62
     0
 10
-68.798178
 20
91.919223
 11
-150.040915
 21
91.919223
  0
LINE
  8
寸法
  6
BYBLOCK
 62
     0
 10
-150.040915
 20
85.912068
 11
-150.040915
 21
91.919223
  0
POINT
  8
寸法
 62
     0
 10
-150.040915
 20
91.919223
  0
TEXT
  7
TextStyle03
  8
寸法
  6
CONTINUOUS
 62
     0
 10
-150.425
 20
88.175
  1
6
 40
3.0
 50
90.0
 72
     5
 11
-150.425
 21
89.675
  0
ENDBLK
  0
BLOCK
  2
*DIM_0011
 70
    65
 10
0.0
 20
0.0
  0
LINE
  8
寸法
  6
BYBLOCK
 62
     0
 10
-97.002448
 20
-0.084952
 11
-140.477307
 21
-0.084952
  0
LINE
  8
寸法
  6
BYBLOCK
 62
     0
 10
-140.477307
 20
1.915263
 11
-140.477307
 21
-0.084952
  0
POINT
  8
寸法
 62
     0
 10
-140.477307
 20
-0.084952
  0
TEXT
  7
TextStyle03
  8
寸法
  6
CONTINUOUS
 62
     0
 10
-140.85
 20
0.175
  1
2
 40
3.0
 50
90.0
 72
     5
 11
-140.85
 21
1.675
  0
ENDBLK
  0
BLOCK
  2
*DIM_0012
 70
    65
 10
0.0
 20
0.0
  0
LINE
  8
寸法
  6
BYBLOCK
 62
     0
 10
-97.002417
 20
-13.084047
 11
-140.477307
 21
-13.084047
  0
LINE
  8
寸法
  6
BYBLOCK
 62
     0
 10
-140.477307
 20
-0.084952
 11
-140.477307
 21
-13.084047
  0
POINT
  8
寸法
 62
     0
 10
-140.477307
 20
-13.084047
  0
TEXT
  7
TextStyle03
  8
寸法
  6
CONTINUOUS
 62
     0
 10
-140.85
 20
-8.16875
  1
13
 40
3.0
 50
90.0
 72
     5
 11
-140.85
 21
-4.98125
  0
ENDBLK
  0
BLOCK
  2
*DIM_0013
 70
    65
 10
0.0
 20
0.0
  0
LINE
  8
寸法
  6
BYBLOCK
 62
     0
 10
-52.802425
 20
-65.084297
 11
-140.477307
 21
-65.084297
  0
LINE
  8
寸法
  6
BYBLOCK
 62
     0
 10
-140.477307
 20
-13.084047
 11
-140.477307
 21
-65.084297
  0
POINT
  8
寸法
 62
     0
 10
-140.477307
 20
-65.084297
  0
TEXT
  7
TextStyle03
  8
寸法
  6
CONTINUOUS
 62
     0
 10
-140.85
 20
-40.66875
  1
52
 40
3.0
 50
90.0
 72
     5
 11
-140.85
 21
-37.48125
  0
ENDBLK
  0
BLOCK
  2
*DIM_0014
 70
    65
 10
0.0
 20
0.0
  0
LINE
  8
寸法
  6
BYBLOCK
 62
     0
 10
-118.802427
 20
-70.084297
 11
-140.477307
 21
-70.084297
  0
LINE
  8
寸法
  6
BYBLOCK
 62
     0
 10
-140.477307
 20
-65.084297
 11
-140.477307
 21
-70.084297
  0
POINT
  8
寸法
 62
     0
 10
-140.477307
 20
-70.084297
  0
TEXT
  7
TextStyle03
  8
寸法
  6
CONTINUOUS
 62
     0
 10
-140.85
 20
-68.325
  1
5
 40
3.0
 50
90.0
 72
     5
 11
-140.85
 21
-66.825
  0
ENDBLK
  0
BLOCK
  2
*DIM_0015
 70
    65
 10
0.0
 20
0.0
  0
LINE
  8
寸法
  6
BYBLOCK
 62
     0
 10
-118.802427
 20
-85.084353
 11
-140.477307
 21
-85.084353
  0
LINE
  8
寸法
  6
BYBLOCK
 62
     0
 10
-140.477307
 20
-70.084297
 11
-140.477307
 21
-85.084353
  0
POINT
  8
寸法
 62
     0
 10
-140.477307
 20
-85.084353
  0
TEXT
  7
TextStyle03
  8
寸法
  6
CONTINUOUS
 62
     0
 10
-140.85
 20
-79.16875
  1
15
 40
3.0
 50
90.0
 72
     5
 11
-140.85
 21
-75.98125
  0
ENDBLK
  0
BLOCK
  2
*DIM_0016
 70
    65
 10
0.0
 20
0.0
  0
LINE
  8
寸法
  6
BYBLOCK
 62
     0
 10
-131.44851
 20
-0.084952
 11
-132.34408
 21
-0.084952
  0
LINE
  8
寸法
  6
BYBLOCK
 62
     0
 10
-96.702455
 20
-5.083767
 11
-132.34408
 21
-5.083767
  0
LINE
  8
寸法
  6
BYBLOCK
 62
     0
 10
-132.34408
 20
-0.084952
 11
-132.34408
 21
-5.083767
  0
POINT
  8
寸法
 62
     0
 10
-132.34408
 20
-0.084952
  0
POINT
  8
寸法
 62
     0
 10
-132.34408
 20
-5.083767
  0
TEXT
  7
TextStyle03
  8
寸法
  6
CONTINUOUS
 62
     0
 10
-132.725
 20
-3.325
  1
5
 40
3.0
 50
90.0
 72
     5
 11
-132.725
 21
-1.825
  0
ENDBLK
  0
BLOCK
  2
*DIM_0017
 70
    65
 10
0.0
 20
0.0
  0
LINE
  8
寸法
  6
BYBLOCK
 62
     0
 10
-96.702417
 20
-9.084555
 11
-132.34408
 21
-9.084555
  0
LINE
  8
寸法
  6
BYBLOCK
 62
     0
 10
-132.34408
 20
-5.083767
 11
-132.34408
 21
-9.084555
  0
POINT
  8
寸法
 62
     0
 10
-132.34408
 20
-9.084555
  0
TEXT
  7
TextStyle03
  8
寸法
  6
CONTINUOUS
 62
     0
 10
-132.725
 20
-7.825
  1
4
 40
3.0
 50
90.0
 72
     5
 11
-132.725
 21
-6.325
  0
ENDBLK
  0
BLOCK
  2
*DIM_0018
 70
    65
 10
0.0
 20
0.0
  0
LINE
  8
寸法
  6
BYBLOCK
 62
     0
 10
-98.002417
 20
-13.084047
 11
-132.34408
 21
-13.084047
  0
LINE
  8
寸法
  6
BYBLOCK
 62
     0
 10
-132.34408
 20
-9.084555
 11
-132.34408
 21
-13.084047
  0
POINT
  8
寸法
 62
     0
 10
-132.34408
 20
-13.084047
  0
TEXT
  7
TextStyle03
  8
寸法
  6
CONTINUOUS
 62
     0
 10
-132.725
 20
-11.825
  1
4
 40
3.0
 50
90.0
 72
     5
 11
-132.725
 21
-10.325
  0
ENDBLK
  0
BLOCK
  2
*DIM_0019
 70
    65
 10
0.0
 20
0.0
  0
LINE
  8
寸法
  6
BYBLOCK
 62
     0
 10
-117.802427
 20
-69.084297
 11
-117.802427
 21
128.95056
  0
LINE
  8
寸法
  6
BYBLOCK
 62
     0
 10
-17.798178
 20
128.95056
 11
-117.802427
 21
128.95056
  0
POINT
  8
寸法
 62
     0
 10
-17.798178
 20
128.95056
  0
POINT
  8
寸法
 62
     0
 10
-117.802427
 20
128.95056
  0
TEXT
  7
TextStyle03
  8
寸法
  6
CONTINUOUS
 62
     0
 10
-70.2375
 20
129.3
  1
100
 40
3.0
 72
     5
 11
-65.3625
 21
129.3
  0
ENDBLK
  0
BLOCK
  2
*DIM_0020
 70
    65
 10
0.0
 20
0.0
  0
LINE
  8
寸法
  6
BYBLOCK
 62
     0
 10
-117.802427
 20
122.664168
 11
-117.802427
 21
122.443323
  0
LINE
  8
寸法
  6
BYBLOCK
 62
     0
 10
-2.798178
 20
-58.084297
 11
-2.798178
 21
122.443323
  0
LINE
  8
寸法
  6
BYBLOCK
 62
     0
 10
-117.802427
 20
122.443323
 11
-2.798178
 21
122.443323
  0
POINT
  8
寸法
 62
     0
 10
-117.802427
 20
122.443323
  0
POINT
  8
寸法
 62
     0
 10
-2.798178
 20
122.443323
  0
TEXT
  7
TextStyle03
  8
寸法
  6
CONTINUOUS
 62
     0
 10
-62.7375
 20
122.8
  1
115
 40
3.0
 72
     5
 11
-57.8625
 21
122.8
  0
ENDBLK
  0
BLOCK
  2
*DIM_0021
 70
    65
 10
0.0
 20
0.0
  0
LINE
  8
寸法
  6
BYBLOCK
 62
     0
 10
-2.798178
 20
115.261635
 11
-2.798178
 21
115.948345
  0
LINE
  8
寸法
  6
BYBLOCK
 62
     0
 10
-17.798178
 20
115.261635
 11
-17.798178
 21
115.948345
  0
LINE
  8
寸法
  6
BYBLOCK
 62
     0
 10
-2.798178
 20
115.948345
 11
-17.798178
 21
115.948345
  0
POINT
  8
寸法
 62
     0
 10
-2.798178
 20
115.948345
  0
POINT
  8
寸法
 62
     0
 10
-17.798178
 20
115.948345
  0
TEXT
  7
TextStyle03
  8
寸法
  6
CONTINUOUS
 62
     0
 10
-11.89375
 20
116.3
  1
15
 40
3.0
 72
     5
 11
-8.70625
 21
116.3
  0
ENDBLK
  0
BLOCK
  2
*DIM_0022
 70
    65
 10
0.0
 20
0.0
  0
LINE
  8
寸法
  6
BYBLOCK
 62
     0
 10
-27.098178
 20
-9.084548
 11
57.116995
 21
-9.084548
  0
LINE
  8
寸法
  6
BYBLOCK
 62
     0
 10
57.116995
 20
-5.083798
 11
57.116995
 21
-9.084548
  0
POINT
  8
寸法
 62
     0
 10
57.116995
 20
-9.084548
  0
TEXT
  7
TextStyle03
  8
寸法
  6
CONTINUOUS
 62
     0
 10
56.75
 20
-7.85
  1
4
 40
3.0
 50
90.0
 72
     5
 11
56.75
 21
-6.35
  0
ENDBLK
  0
BLOCK
  2
*DIM_0023
 70
    65
 10
0.0
 20
0.0
  0
LINE
  8
寸法
  6
BYBLOCK
 62
     0
 10
-1.798178
 20
-67.084297
 11
57.116995
 21
-67.084297
  0
LINE
  8
寸法
  6
BYBLOCK
 62
     0
 10
57.116995
 20
-9.084548
 11
57.116995
 21
-67.084297
  0
POINT
  8
寸法
 62
     0
 10
57.116995
 20
-67.084297
  0
TEXT
  7
TextStyle03
  8
寸法
  6
CONTINUOUS
 62
     0
 10
56.75
 20
-39.69375
  1
58
 40
3.0
 50
90.0
 72
     5
 11
56.75
 21
-36.50625
  0
ENDBLK
  0
BLOCK
  2
*DIM_0024
 70
    65
 10
0.0
 20
0.0
  0
LINE
  8
寸法
  6
BYBLOCK
 62
     0
 10
-16.798178
 20
45.915827
 11
57.116995
 21
45.915827
  0
LINE
  8
寸法
  6
BYBLOCK
 62
     0
 10
57.116995
 20
55.915827
 11
57.116995
 21
45.915827
  0
POINT
  8
寸法
 62
     0
 10
57.116995
 20
45.915827
  0
TEXT
  7
TextStyle03
  8
寸法
  6
CONTINUOUS
 62
     0
 10
56.725
 20
49.30625
  1
10
 40
3.0
 50
90.0
 72
     5
 11
56.725
 21
52.49375
  0
ENDBLK
  0
BLOCK
  2
*DIM_0025
 70
    65
 10
0.0
 20
0.0
  0
LINE
  8
寸法
  6
BYBLOCK
 62
     0
 10
-27.098178
 20
-5.083798
 11
57.116995
 21
-5.083798
  0
LINE
  8
寸法
  6
BYBLOCK
 62
     0
 10
57.116995
 20
45.915827
 11
57.116995
 21
-5.083798
  0
POINT
  8
寸法
 62
     0
 10
57.116995
 20
-5.083798
  0
TEXT
  7
TextStyle03
  8
寸法
  6
CONTINUOUS
 62
     0
 10
56.725
 20
18.80625
  1
51
 40
3.0
 50
90.0
 72
     5
 11
56.725
 21
21.99375
  0
ENDBLK
  0
BLOCK
  2
*DIM_0026
 70
    65
 10
0.0
 20
0.0
  0
LINE
  8
寸法
  6
BYBLOCK
 62
     0
 10
-95.802448
 20
0.925518
 11
-95.802448
 21
115.948345
  0
LINE
  8
寸法
  6
BYBLOCK
 62
     0
 10
-67.798178
 20
115.948345
 11
-95.802448
 21
115.948345
  0
POINT
  8
寸法
 62
     0
 10
-67.798178
 20
115.948345
  0
POINT
  8
寸法
 62
     0
 10
-95.802448
 20
115.948345
  0
TEXT
  7
TextStyle03
  8
寸法
  6
CONTINUOUS
 62
     0
 10
-83.41875
 20
116.3
  1
28
 40
3.0
 72
     5
 11
-80.23125
 21
116.3
  0
ENDBLK
  0
BLOCK
  2
*DIM_0027
 70
    65
 10
0.0
 20
0.0
  0
LINE
  8
寸法
  6
BYBLOCK
 62
     0
 10
-117.802427
 20
2.915263
 11
-117.802427
 21
115.948345
  0
LINE
  8
寸法
  6
BYBLOCK
 62
     0
 10
-95.802448
 20
115.948345
 11
-117.802427
 21
115.948345
  0
POINT
  8
寸法
 62
     0
 10
-117.802427
 20
115.948345
  0
TEXT
  7
TextStyle03
  8
寸法
  6
CONTINUOUS
 62
     0
 10
-108.41875
 20
116.3
  1
22
 40
3.0
 72
     5
 11
-105.23125
 21
116.3
  0
ENDBLK
  0
BLOCK
  2
*DIM_0028
 70
    65
 10
0.0
 20
0.0
  0
LINE
  8
寸法
  6
BYBLOCK
 62
     0
 10
-58.798178
 20
1.915263
 11
-140.477307
 21
1.915263
  0
LINE
  8
寸法
  6
BYBLOCK
 62
     0
 10
-58.798178
 20
54.915827
 11
-140.477307
 21
54.915827
  0
LINE
  8
寸法
  6
BYBLOCK
 62
     0
 10
-140.477307
 20
1.915263
 11
-140.477307
 21
54.915827
  0
POINT
  8
寸法
 62
     0
 10
-140.477307
 20
1.915263
  0
POINT
  8
寸法
 62
     0
 10
-140.477307
 20
54.915827
  0
TEXT
  7
TextStyle03
  8
寸法
  6
CONTINUOUS
 62
     0
 10
-140.875
 20
26.80625
  1
53
 40
3.0
 50
90.0
 72
     5
 11
-140.875
 21
29.99375
  0
ENDBLK
  0
BLOCK
  2
*DIM_0029
 70
    65
 10
0.0
 20
0.0
  0
LINE
  8
寸法
  6
BYBLOCK
 62
     0
 10
-96.802448
 20
85.912068
 11
-140.477307
 21
85.912068
  0
LINE
  8
寸法
  6
BYBLOCK
 62
     0
 10
-140.477307
 20
54.915827
 11
-140.477307
 21
85.912068
  0
POINT
  8
寸法
 62
     0
 10
-140.477307
 20
85.912068
  0
TEXT
  7
TextStyle03
  8
寸法
  6
CONTINUOUS
 62
     0
 10
-140.875
 20
68.80625
  1
31
 40
3.0
 50
90.0
 72
     5
 11
-140.875
 21
71.99375
  0
ENDBLK
  0
BLOCK
  2
*GRP_0030
 70
    65
 10
0.0
 20
0.0
  0
POLYLINE
  8
寸法
  6
BYBLOCK
 62
     0
 66
     1
  0
VERTEX
  8
寸法
 10
-22.834495
 20
85.915673
  0
VERTEX
  8
寸法
 10
-25.43257
 20
87.415673
  0
VERTEX
  8
寸法
 10
-23.93257
 20
84.817598
  0
SEQEND
  0
POLYLINE
  8
寸法
  6
BYBLOCK
 62
     0
 66
     1
  0
VERTEX
  8
寸法
 10
-25.43257
 20
87.415673
  0
VERTEX
  8
寸法
 10
-20.730295
 20
82.713398
  0
VERTEX
  8
寸法
 10
2.81662
 20
82.713398
  0
SEQEND
  0
ENDBLK
  0
BLOCK
  2
*GRP_0031
 70
    65
 10
0.0
 20
0.0
  0
POLYLINE
  8
寸法
  6
BYBLOCK
 62
     0
 66
     1
  0
VERTEX
  8
寸法
 10
-6.705012
 20
72.09073
  0
VERTEX
  8
寸法
 10
-8.205012
 20
69.492655
  0
VERTEX
  8
寸法
 10
-5.606938
 20
70.992655
  0
SEQEND
  0
POLYLINE
  8
寸法
  6
BYBLOCK
 62
     0
 66
     1
  0
VERTEX
  8
寸法
 10
-8.205012
 20
69.492655
  0
VERTEX
  8
寸法
 10
-4.532503
 20
73.165165
  0
VERTEX
  8
寸法
 10
2.940135
 20
73.165165
  0
SEQEND
  0
ENDBLK
  0
BLOCK
  2
*GRP_0032
 70
    65
 10
0.0
 20
0.0
  0
POLYLINE
  8
寸法
  6
BYBLOCK
 62
     0
 66
     1
  0
VERTEX
  8
寸法
 10
-15.2001
 20
57.547755
  0
VERTEX
  8
寸法
 10
-17.798175
 20
59.047755
  0
VERTEX
  8
寸法
 10
-16.298175
 20
56.449677
  0
SEQEND
  0
POLYLINE
  8
寸法
  6
BYBLOCK
 62
     0
 66
     1
  0
VERTEX
  8
寸法
 10
-17.798175
 20
59.047755
  0
VERTEX
  8
寸法
 10
-9.909933
 20
51.15951
  0
VERTEX
  8
寸法
 10
2.105057
 20
51.15951
  0
SEQEND
  0
ENDBLK
  0
BLOCK
  2
*GRP_0033
 70
    65
 10
0.0
 20
0.0
  0
POLYLINE
  8
寸法
  6
BYBLOCK
 62
     0
 66
     1
  0
VERTEX
  8
寸法
 10
-60.647533
 20
-68.00993
  0
VERTEX
  8
寸法
 10
-58.984592
 20
-70.506852
  0
VERTEX
  8
寸法
 10
-59.17628
 20
-67.512985
  0
SEQEND
  0
POLYLINE
  8
寸法
  6
BYBLOCK
 62
     0
 66
     1
  0
VERTEX
  8
寸法
 10
-58.984592
 20
-70.506852
  0
VERTEX
  8
寸法
 10
-66.563965
 20
-48.06743
  0
VERTEX
  8
寸法
 10
-69.740082
 20
-48.06743
  0
SEQEND
  0
ENDBLK
  0
BLOCK
  2
*GRP_0034
 70
    65
 10
0.0
 20
0.0
  0
POLYLINE
  8
寸法
  6
BYBLOCK
 62
     0
 66
     1
  0
VERTEX
  8
寸法
 10
-69.022272
 20
-67.482333
  0
VERTEX
  8
寸法
 10
-67.409825
 20
-70.012158
  0
VERTEX
  8
寸法
 10
-67.541335
 20
-67.01504
  0
SEQEND
  0
POLYLINE
  8
寸法
  6
BYBLOCK
 62
     0
 66
     1
  0
VERTEX
  8
寸法
 10
-67.409825
 20
-70.012158
  0
VERTEX
  8
寸法
 10
-71.40949
 20
-57.336455
  0
VERTEX
  8
寸法
 10
-75.087097
 20
-57.336455
  0
SEQEND
  0
ENDBLK
  0
BLOCK
  2
*GRP_0035
 70
    65
 10
0.0
 20
0.0
  0
POLYLINE
  8
寸法
  6
BYBLOCK
 62
     0
 66
     1
  0
VERTEX
  8
寸法
 10
-34.498178
 20
28.469935
  0
VERTEX
  8
寸法
 10
-32.998178
 20
31.068013
  0
VERTEX
  8
寸法
 10
-35.596252
 20
29.568013
  0
SEQEND
  0
POLYLINE
  8
寸法
  6
BYBLOCK
 62
     0
 66
     1
  0
VERTEX
  8
寸法
 10
-32.998178
 20
31.068013
  0
VERTEX
  8
寸法
 10
-40.726828
 20
23.339363
  0
VERTEX
  8
寸法
 10
-72.278243
 20
23.339363
  0
SEQEND
  0
ENDBLK
  0
BLOCK
  2
*GRP_0036
 70
    65
 10
0.0
 20
0.0
  0
POLYLINE
  8
寸法
  6
BYBLOCK
 62
     0
 66
     1
  0
VERTEX
  8
寸法
 10
-32.929013
 20
-27.600888
  0
VERTEX
  8
寸法
 10
-31.429013
 20
-25.00281
  0
VERTEX
  8
寸法
 10
-34.027088
 20
-26.50281
  0
SEQEND
  0
POLYLINE
  8
寸法
  6
BYBLOCK
 62
     0
 66
     1
  0
VERTEX
  8
寸法
 10
-31.429013
 20
-25.00281
  0
VERTEX
  8
寸法
 10
-39.157662
 20
-32.73146
  0
VERTEX
  8
寸法
 10
-70.709077
 20
-32.73146
  0
SEQEND
  0
ENDBLK
  0
BLOCK
  2
*GRP_0037
 70
    65
 10
0.0
 20
0.0
  0
POLYLINE
  8
寸法
  6
BYBLOCK
 62
     0
 66
     1
  0
VERTEX
  8
寸法
 10
32.999902
 20
-39.621037
  0
VERTEX
  8
寸法
 10
30.401828
 20
-38.121037
  0
VERTEX
  8
寸法
 10
31.901828
 20
-40.719113
  0
SEQEND
  0
POLYLINE
  8
寸法
  6
BYBLOCK
 62
     0
 66
     1
  0
VERTEX
  8
寸法
 10
30.401828
 20
-38.121037
  0
VERTEX
  8
寸法
 10
41.257543
 20
-48.976753
  0
VERTEX
  8
寸法
 10
99.605907
 20
-48.976753
  0
SEQEND
  0
ENDBLK
  0
BLOCK
  2
*DIM_0038
 70
    65
 10
0.0
 20
0.0
  0
LINE
  8
寸法
  6
BYBLOCK
 62
     0
 10
-28.802425
 20
-85.084227
 11
57.116995
 21
-85.084227
  0
LINE
  8
寸法
  6
BYBLOCK
 62
     0
 10
57.116995
 20
-67.084297
 11
57.116995
 21
-85.084227
  0
POINT
  8
寸法
 62
     0
 10
57.116995
 20
-67.084297
  0
POINT
  8
寸法
 62
     0
 10
57.116995
 20
-85.084227
  0
TEXT
  7
TextStyle03
  8
寸法
  6
CONTINUOUS
 62
     0
 10
56.725
 20
-77.69375
  1
18
 40
3.0
 50
90.0
 72
     5
 11
56.725
 21
-74.50625
  0
ENDBLK
  0
BLOCK
  2
*DIM_0039
 70
    65
 10
0.0
 20
0.0
  0
LINE
  8
寸法
  6
BYBLOCK
 62
     0
 10
-100.302672
 20
-95.084332
 11
57.116995
 21
-95.084332
  0
LINE
  8
寸法
  6
BYBLOCK
 62
     0
 10
57.116995
 20
-85.084227
 11
57.116995
 21
-95.084332
  0
POINT
  8
寸法
 62
     0
 10
57.116995
 20
-95.084332
  0
TEXT
  7
TextStyle03
  8
寸法
  6
CONTINUOUS
 62
     0
 10
56.725
 20
-91.69375
  1
10
 40
3.0
 50
90.0
 72
     5
 11
56.725
 21
-88.50625
  0
ENDBLK
  0
BLOCK
  2
*DIM_0040
 70
    65
 10
0.0
 20
0.0
  0
LINE
  8
寸法
  6
BYBLOCK
 62
     0
 10
-103.802672
 20
-95.084332
 11
-150.040915
 21
-95.084332
  0
LINE
  8
寸法
  6
BYBLOCK
 62
     0
 10
-150.040915
 20
-85.084353
 11
-150.040915
 21
-95.084332
  0
POINT
  8
寸法
 62
     0
 10
-150.040915
 20
-85.084353
  0
POINT
  8
寸法
 62
     0
 10
-150.040915
 20
-95.084332
  0
TEXT
  7
TextStyle03
  8
寸法
  6
CONTINUOUS
 62
     0
 10
-150.425
 20
-91.69375
  1
10
 40
3.0
 50
90.0
 72
     5
 11
-150.425
 21
-88.50625
  0
ENDBLK
  0
BLOCK
  2
*DIM_0041
 70
    65
 10
0.0
 20
0.0
  0
LINE
  8
寸法
  6
BYBLOCK
 62
     0
 10
-117.802427
 20
-86.084353
 11
-117.802427
 21
-106.048875
  0
LINE
  8
寸法
  6
BYBLOCK
 62
     0
 10
-102.802672
 20
-96.084332
 11
-102.802672
 21
-106.048875
  0
LINE
  8
寸法
  6
BYBLOCK
 62
     0
 10
-117.802427
 20
-106.048875
 11
-102.802672
 21
-106.048875
  0
POINT
  8
寸法
 62
     0
 10
-117.802427
 20
-106.048875
  0
POINT
  8
寸法
 62
     0
 10
-102.802672
 20
-106.048875
  0
TEXT
  7
TextStyle03
  8
寸法
  6
CONTINUOUS
 62
     0
 10
-111.91875
 20
-105.675
  1
15
 40
3.0
 72
     5
 11
-108.73125
 21
-105.675
  0
ENDBLK
  0
BLOCK
  2
*DIM_0042
 70
    65
 10
0.0
 20
0.0
  0
LINE
  8
寸法
  6
BYBLOCK
 62
     0
 10
-37.798178
 20
105.619223
 11
-37.798178
 21
115.948345
  0
LINE
  8
寸法
  6
BYBLOCK
 62
     0
 10
-17.798178
 20
115.948345
 11
-37.798178
 21
115.948345
  0
POINT
  8
寸法
 62
     0
 10
-17.798178
 20
115.948345
  0
POINT
  8
寸法
 62
     0
 10
-37.798178
 20
115.948345
  0
TEXT
  7
TextStyle03
  8
寸法
  6
CONTINUOUS
 62
     0
 10
-29.39375
 20
116.3
  1
20
 40
3.0
 72
     5
 11
-26.20625
 21
116.3
  0
ENDBLK
  0
BLOCK
  2
*DIM_0043
 70
    65
 10
0.0
 20
0.0
  0
LINE
  8
寸法
  6
BYBLOCK
 62
     0
 10
-67.798178
 20
92.919223
 11
-67.798178
 21
115.948345
  0
LINE
  8
寸法
  6
BYBLOCK
 62
     0
 10
-37.798178
 20
115.948345
 11
-67.798178
 21
115.948345
  0
POINT
  8
寸法
 62
     0
 10
-67.798178
 20
115.948345
  0
TEXT
  7
TextStyle03
  8
寸法
  6
CONTINUOUS
 62
     0
 10
-54.39375
 20
116.3
  1
30
 40
3.0
 72
     5
 11
-51.20625
 21
116.3
  0
ENDBLK
  0
BLOCK
  2
*GRP_0044
 70
    65
 10
0.0
 20
0.0
  0
LINE
  8
ボルト／ビス
  6
CONTINUOUS
 62
    64
 10
-68.281418
 20
-21.794045
 11
-67.319168
 21
-21.443818
  0
ARC
  8
ボルト／ビス
  6
CONTINUOUS
 62
    64
 10
-68.762549
 20
-18.644689
 40
3.149353
 50
242.721967
 51
270.0
  0
ARC
  8
ボルト／ビス
  6
CONTINUOUS
 62
    64
 10
-73.092676
 20
-9.721974
 40
12.072067
 50
256.165002
 51
283.834985
  0
LINE
  8
ボルト／ビス
  6
CONTINUOUS
 62
    64
 10
-77.903932
 20
-21.794045
 11
-78.866183
 21
-21.443818
  0
ARC
  8
ボルト／ビス
  6
CONTINUOUS
 62
    64
 10
-77.422804
 20
-18.644689
 40
3.149353
 50
270.0
 51
297.278033
  0
LINE
  8
ボルト／ビス
  6
CONTINUOUS
 62
    64
 10
-68.281418
 20
-21.794045
 11
-77.903932
 21
-21.794045
  0
LINE
  8
ボルト／ビス
  6
CONTINUOUS
 62
    64
 10
-78.866183
 20
-21.443818
 11
-78.866183
 21
-17.794048
  0
LINE
  8
ボルト／ビス
  6
CONTINUOUS
 62
    64
 10
-75.979432
 20
-21.443818
 11
-75.979432
 21
-17.794048
  0
LINE
  8
ボルト／ビス
  6
CONTINUOUS
 62
    64
 10
-67.319168
 20
-21.443818
 11
-67.319168
 21
-17.794048
  0
LINE
  8
ボルト／ビス
  6
CONTINUOUS
 62
    64
 10
-70.205933
 20
-21.443818
 11
-70.205933
 21
-17.794048
  0
LINE
  8
ボルト／ビス
  6
CONTINUOUS
 62
    64
 10
-79.26618
 20
-16.294048
 11
-79.26618
 21
-17.794048
  0
LINE
  8
ボルト／ビス
  6
CONTINUOUS
 62
    64
 10
-80.09268
 20
-15.394048
 11
-80.09268
 21
-16.294048
  0
LINE
  8
ボルト／ビス
  6
CONTINUOUS
 62
    64
 10
-66.919178
 20
-16.294048
 11
-66.919178
 21
-17.794048
  0
LINE
  8
ボルト／ビス
  6
CONTINUOUS
 62
    64
 10
-66.092677
 20
-15.394048
 11
-66.092677
 21
-16.294048
  0
LINE
  8
ボルト／ビス
  6
CONTINUOUS
 62
    64
 10
-80.09268
 20
-16.294048
 11
-66.092677
 21
-16.294048
  0
LINE
  8
ボルト／ビス
  6
CONTINUOUS
 62
    64
 10
-80.09268
 20
-15.394048
 11
-66.092677
 21
-15.394048
  0
LINE
  8
ボルト／ビス
  6
CONTINUOUS
 62
    64
 10
-79.26618
 20
-17.794048
 11
-66.919178
 21
-17.794048
  0
LINE
  8
ボルト／ビス
  6
CONTINUOUS
 62
    64
 10
-73.092682
 20
-16.294048
 11
-73.092682
 21
-17.794048
  0
LINE
  8
ボルト／ビス
  6
CONTINUOUS
 62
    64
 10
-76.092682
 20
-8.794048
 11
-75.392677
 21
-7.794042
  0
LINE
  8
ボルト／ビス
  6
CONTINUOUS
 62
    64
 10
-70.092682
 20
-8.794048
 11
-70.79268
 21
-7.794042
  0
LINE
  8
ボルト／ビス
  6
CONTINUOUS
 62
    64
 10
-70.092682
 20
-8.794048
 11
-76.092682
 21
-8.794048
  0
LINE
  8
ボルト／ビス
  6
CONTINUOUS
 62
    64
 10
-70.79268
 20
-7.794042
 11
-75.392677
 21
-7.794042
  0
LINE
  8
ボルト／ビス
  6
CONTINUOUS
 62
    64
 10
-73.092682
 20
-26.794048
 11
-73.092682
 21
-4.547232
  0
LINE
  8
ボルト／ビス
  6
CONTINUOUS
 62
    64
 10
-76.092682
 20
-8.794048
 11
-76.092682
 21
-15.394048
  0
LINE
  8
ボルト／ビス
  6
CONTINUOUS
 62
    64
 10
-75.392677
 20
-7.794042
 11
-75.392677
 21
-15.394048
  0
LINE
  8
ボルト／ビス
  6
CONTINUOUS
 62
    64
 10
-70.79268
 20
-7.794042
 11
-70.79268
 21
-15.394048
  0
LINE
  8
ボルト／ビス
  6
CONTINUOUS
 62
    64
 10
-70.092682
 20
-8.794048
 11
-70.092682
 21
-15.394048
  0
ENDBLK
  0
BLOCK
  2
*GRP_0045
 70
    65
 10
0.0
 20
0.0
  0
ARC
  8
型材断面
  6
CONTINUOUS
 62
    47
 10
-83.670423
 20
-4.883791
 40
0.199974
 50
153.434949
 51
270.0
  0
ARC
  8
型材断面
  6
CONTINUOUS
 62
    47
 10
-88.317035
 20
-4.883791
 40
0.199974
 50
270.0
 51
386.565051
  0
LINE
  8
型材断面
  6
CONTINUOUS
 62
    47
 10
-90.693142
 20
-5.083798
 11
-88.31706
 21
-5.083798
  0
ARC
  8
型材断面
  6
CONTINUOUS
 62
    47
 10
-90.693121
 20
-4.783804
 40
0.299961
 50
180.0
 51
270.0
  0
LINE
  8
型材断面
  6
CONTINUOUS
 62
    47
 10
-80.994412
 20
-3.884173
 11
-78.994417
 21
-3.884173
  0
LINE
  8
型材断面
  6
CONTINUOUS
 62
    47
 10
-59.298195
 20
-4.583795
 11
-59.298195
 21
-3.884173
  0
ARC
  8
型材断面
  6
CONTINUOUS
 62
    47
 10
-58.798193
 20
-4.583792
 40
0.5
 50
180.0
 51
270.0
  0
LINE
  8
型材断面
  6
CONTINUOUS
 62
    47
 10
-56.298195
 20
-5.083798
 11
-58.798193
 21
-5.083798
  0
LINE
  8
型材断面
  6
CONTINUOUS
 62
    47
 10
-55.798193
 20
-2.084173
 11
-55.798193
 21
-4.583795
  0
ARC
  8
型材断面
  6
CONTINUOUS
 62
    47
 10
-56.298193
 20
-4.583792
 40
0.5
 50
270.0
 51
360.0
  0
LINE
  8
型材断面
  6
CONTINUOUS
 62
    47
 10
-83.670435
 20
-5.083798
 11
-79.494412
 21
-5.083798
  0
LINE
  8
型材断面
  6
CONTINUOUS
 62
    47
 10
-78.994417
 20
-4.583795
 11
-78.994417
 21
-3.884173
  0
ARC
  8
型材断面
  6
CONTINUOUS
 62
    47
 10
-79.494413
 20
-4.583792
 40
0.5
 50
270.0
 51
360.0
  0
LINE
  8
型材断面
  6
CONTINUOUS
 62
    47
 10
-78.994417
 20
-1.19723
 11
-78.994417
 21
-2.084173
  0
LINE
  8
型材断面
  6
CONTINUOUS
 62
    47
 10
-80.994412
 20
-2.084173
 11
-78.994417
 21
-2.084173
  0
LINE
  8
型材断面
  6
CONTINUOUS
 62
    47
 10
-59.298195
 20
-0.16601
 11
-59.298195
 21
-2.084173
  0
LINE
  8
型材断面
  6
CONTINUOUS
 62
    47
 10
-80.994412
 20
-3.884173
 11
-80.994412
 21
-2.084173
  0
LINE
  8
型材断面
  6
CONTINUOUS
 62
    47
 10
-70.1463
 20
-2.084173
 11
-68.146305
 21
-2.084173
  0
LINE
  8
型材断面
  6
CONTINUOUS
 62
    47
 10
-70.1463
 20
-2.084173
 11
-70.1463
 21
-0.733978
  0
LINE
  8
型材断面
  6
CONTINUOUS
 62
    47
 10
-68.146305
 20
-2.084173
 11
-68.146305
 21
-0.629263
  0
LINE
  8
型材断面
  6
CONTINUOUS
 62
    47
 10
-59.298195
 20
-0.16601
 11
-68.146305
 21
-0.629263
  0
LINE
  8
型材断面
  6
CONTINUOUS
 62
    47
 10
-90.993113
 20
-4.78382
 11
-90.993113
 21
-1.82543
  0
LINE
  8
型材断面
  6
CONTINUOUS
 62
    47
 10
-70.1463
 20
-0.733978
 11
-78.994417
 21
-1.19723
  0
LINE
  8
型材断面
  6
CONTINUOUS
 62
    47
 10
-89.511247
 20
-2.048255
 11
-82.287135
 21
-1.67003
  0
LINE
  8
型材断面
  6
CONTINUOUS
 62
    47
 10
-83.84931
 20
-4.794373
 11
-82.287135
 21
-1.67003
  0
LINE
  8
型材断面
  6
CONTINUOUS
 62
    47
 10
-88.138185
 20
-4.794373
 11
-89.511247
 21
-2.048255
  0
LINE
  8
型材断面
  6
CONTINUOUS
 62
    47
 10
-59.298195
 20
-2.084173
 11
-57.298193
 21
-2.084173
  0
LINE
  8
型材断面
  6
CONTINUOUS
 62
    47
 10
-57.298193
 20
-2.084173
 11
-57.298193
 21
-3.884173
  0
LINE
  8
型材断面
  6
CONTINUOUS
 62
    47
 10
-59.298195
 20
-3.884173
 11
-57.298193
 21
-3.884173
  0
LINE
  8
型材断面
  6
CONTINUOUS
 62
    47
 10
-86.29005
 20
0.123137
 11
-86.006145
 21
0.438415
  0
LINE
  8
型材断面
  6
CONTINUOUS
 62
    47
 10
-86.29005
 20
0.123137
 11
-86.60532
 21
0.407042
  0
LINE
  8
型材断面
  6
CONTINUOUS
 62
    47
 10
-57.798195
 20
1.915263
 11
-86.006145
 21
0.438415
  0
LINE
  8
型材断面
  6
CONTINUOUS
 62
    47
 10
-29.298195
 20
-4.783798
 11
-29.298195
 21
-2.084173
  0
ARC
  8
型材断面
  6
CONTINUOUS
 62
    47
 10
-28.998193
 20
-4.783792
 40
0.3
 50
180.0
 51
270.0
  0
LINE
  8
型材断面
  6
CONTINUOUS
 62
    47
 10
-28.098195
 20
-5.083798
 11
-28.998195
 21
-5.083798
  0
ARC
  8
型材断面
  6
CONTINUOUS
 62
    47
 10
-28.098193
 20
-4.783792
 40
0.3
 50
270.0
 51
360.0
  0
LINE
  8
型材断面
  6
CONTINUOUS
 62
    47
 10
-55.798193
 20
-2.084173
 11
-29.298195
 21
-2.084173
  0
LINE
  8
型材断面
  6
CONTINUOUS
 62
    47
 10
-57.498195
 20
33.715285
 11
-57.798195
 21
34.015285
  0
LINE
  8
型材断面
  6
CONTINUOUS
 62
    47
 10
-57.498195
 20
33.715285
 11
-57.798195
 21
33.415285
  0
LINE
  8
型材断面
  6
CONTINUOUS
 62
    47
 10
-57.498195
 20
14.448355
 11
-57.798195
 21
14.748355
  0
LINE
  8
型材断面
  6
CONTINUOUS
 62
    47
 10
-57.498195
 20
14.448355
 11
-57.798195
 21
14.148355
  0
LINE
  8
型材断面
  6
CONTINUOUS
 62
    47
 10
-57.798195
 20
1.915263
 11
-57.798195
 21
14.148355
  0
LINE
  8
型材断面
  6
CONTINUOUS
 62
    47
 10
-57.798195
 20
14.748355
 11
-57.798195
 21
33.415285
  0
LINE
  8
型材断面
  6
CONTINUOUS
 62
    47
 10
-29.798197
 20
47.91583
 11
-19.798193
 21
47.91583
  0
LINE
  8
型材断面
  6
CONTINUOUS
 62
    47
 10
-27.798195
 20
45.915827
 11
-17.798197
 21
45.915827
  0
LINE
  8
型材断面
  6
CONTINUOUS
 62
    47
 10
-19.798193
 20
52.815827
 11
-19.798193
 21
47.91583
  0
LINE
  8
型材断面
  6
CONTINUOUS
 62
    47
 10
-55.798193
 20
52.815827
 11
-19.798193
 21
52.815827
  0
LINE
  8
型材断面
  6
CONTINUOUS
 62
    47
 10
-42.698498
 20
55.815302
 11
-42.698498
 21
54.81583
  0
LINE
  8
型材断面
  6
CONTINUOUS
 62
    47
 10
-37.7982
 20
85.612075
 11
-37.4982
 21
85.912075
  0
LINE
  8
型材断面
  6
CONTINUOUS
 62
    47
 10
-37.7982
 20
85.612075
 11
-38.0982
 21
85.912075
  0
LINE
  8
型材断面
  6
CONTINUOUS
 62
    47
 10
-37.494622
 20
85.915645
 11
-27.798195
 21
85.915645
  0
LINE
  8
型材断面
  6
CONTINUOUS
 62
    47
 10
-28.298197
 20
84.412045
 11
-27.798195
 21
84.912047
  0
LINE
  8
型材断面
  6
CONTINUOUS
 62
    47
 10
-33.298193
 20
82.915645
 11
-31.801793
 21
84.412045
  0
LINE
  8
型材断面
  6
CONTINUOUS
 62
    47
 10
-28.298197
 20
84.412045
 11
-31.801793
 21
84.412045
  0
LINE
  8
型材断面
  6
CONTINUOUS
 62
    47
 10
-27.798195
 20
85.915645
 11
-27.798195
 21
84.912047
  0
LINE
  8
型材断面
  6
CONTINUOUS
 62
    47
 10
-27.598545
 20
54.81583
 11
-18.798195
 21
54.81583
  0
LINE
  8
型材断面
  6
CONTINUOUS
 62
    47
 10
-26.6985
 20
54.81583
 11
-18.798195
 21
54.81583
  0
LINE
  8
型材断面
  6
CONTINUOUS
 62
    47
 10
-49.698495
 20
64.364523
 11
-49.698495
 21
84.415645
  0
LINE
  8
型材断面
  6
CONTINUOUS
 62
    47
 10
-44.198498
 20
54.81583
 11
-44.198498
 21
56.815825
  0
LINE
  8
型材断面
  6
CONTINUOUS
 62
    47
 10
-42.698498
 20
54.81583
 11
-42.698498
 21
56.815825
  0
LINE
  8
型材断面
  6
CONTINUOUS
 62
    47
 10
-44.198498
 20
56.815825
 11
-42.698498
 21
56.815825
  0
LINE
  8
型材断面
  6
CONTINUOUS
 62
    47
 10
-44.198498
 20
68.61379
 11
-42.698498
 21
68.61379
  0
LINE
  8
型材断面
  6
CONTINUOUS
 62
    47
 10
-47.6985
 20
54.81583
 11
-44.198498
 21
54.81583
  0
LINE
  8
型材断面
  6
CONTINUOUS
 62
    47
 10
-29.098545
 20
54.81583
 11
-42.698498
 21
54.81583
  0
LINE
  8
型材断面
  6
CONTINUOUS
 62
    47
 10
-33.298193
 20
82.915645
 11
-47.6985
 21
82.915645
  0
LINE
  8
型材断面
  6
CONTINUOUS
 62
    47
 10
-47.6985
 20
72.113793
 11
-47.6985
 21
82.915645
  0
LINE
  8
型材断面
  6
CONTINUOUS
 62
    47
 10
-49.398495
 20
62.714815
 11
-49.698495
 21
63.014815
  0
LINE
  8
型材断面
  6
CONTINUOUS
 62
    47
 10
-49.398495
 20
62.714815
 11
-49.698495
 21
62.414815
  0
LINE
  8
型材断面
  6
CONTINUOUS
 62
    47
 10
-49.698495
 20
65.315305
 11
-49.698495
 21
63.014815
  0
LINE
  8
型材断面
  6
CONTINUOUS
 62
    47
 10
-53.798197
 20
85.912068
 11
-53.798197
 21
84.415645
  0
LINE
  8
型材断面
  6
CONTINUOUS
 62
    47
 10
-49.698495
 20
84.415645
 11
-53.798197
 21
84.415645
  0
LINE
  8
型材断面
  6
CONTINUOUS
 62
    47
 10
-27.798195
 20
-4.783798
 11
-27.798195
 21
45.915827
  0
LINE
  8
型材断面
  6
CONTINUOUS
 62
    47
 10
-29.798197
 20
46.41583
 11
-29.798197
 21
-0.08417
  0
LINE
  8
型材断面
  6
CONTINUOUS
 62
    47
 10
-55.798193
 20
52.815827
 11
-55.798193
 21
-0.08417
  0
LINE
  8
型材断面
  6
CONTINUOUS
 62
    47
 10
-16.798193
 20
53.815825
 11
-17.798197
 21
53.815825
  0
LINE
  8
型材断面
  6
CONTINUOUS
 62
    47
 10
-17.798197
 20
45.915827
 11
-17.798197
 21
53.815825
  0
LINE
  8
型材断面
  6
CONTINUOUS
 62
    47
 10
-18.798195
 20
54.81583
 11
-17.798197
 21
54.81583
  0
LINE
  8
型材断面
  6
CONTINUOUS
 62
    47
 10
-49.698495
 20
62.414815
 11
-49.698495
 21
54.915827
  0
LINE
  8
型材断面
  6
CONTINUOUS
 62
    47
 10
-49.698495
 20
54.915827
 11
-57.798195
 21
54.915827
  0
LINE
  8
型材断面
  6
CONTINUOUS
 62
    47
 10
-57.798195
 20
34.015285
 11
-57.798195
 21
54.915827
  0
LINE
  8
型材断面
  6
CONTINUOUS
 62
    47
 10
-16.798193
 20
53.815825
 11
-16.798193
 21
55.915825
  0
LINE
  8
型材断面
  6
CONTINUOUS
 62
    47
 10
-16.798193
 20
55.915825
 11
-17.798197
 21
55.915825
  0
LINE
  8
型材断面
  6
CONTINUOUS
 62
    47
 10
-17.798197
 20
54.81583
 11
-17.798197
 21
55.915825
  0
ARC
  8
型材断面
  6
CONTINUOUS
 62
    47
 10
-95.502473
 20
-4.773334
 40
0.299961
 50
180.0
 51
270.0
  0
LINE
  8
型材断面
  6
CONTINUOUS
 62
    47
 10
-94.102687
 20
-5.073327
 11
-95.502488
 21
-5.073327
  0
ARC
  8
型材断面
  6
CONTINUOUS
 62
    47
 10
-94.102654
 20
-4.773334
 40
0.299961
 50
270.0
 51
360.0
  0
LINE
  8
型材断面
  6
CONTINUOUS
 62
    47
 10
-95.802465
 20
-4.77335
 11
-95.802465
 21
-0.07448
  0
LINE
  8
型材断面
  6
CONTINUOUS
 62
    47
 10
-93.80271
 20
-4.77335
 11
-93.80271
 21
-1.972535
  0
LINE
  8
型材断面
  6
CONTINUOUS
 62
    47
 10
-86.60532
 20
0.407042
 11
-95.802465
 21
-0.07448
  0
LINE
  8
型材断面
  6
CONTINUOUS
 62
    47
 10
-90.993113
 20
-1.82543
 11
-93.80271
 21
-1.972535
  0
LINE
  8
型材断面
  6
CONTINUOUS
 62
    47
 10
-37.097707
 20
70.313793
 11
-42.698498
 21
70.313793
  0
LINE
  8
型材断面
  6
CONTINUOUS
 62
    47
 10
-47.6985
 20
70.313793
 11
-44.198498
 21
70.313793
  0
LINE
  8
型材断面
  6
CONTINUOUS
 62
    47
 10
-47.6985
 20
54.81583
 11
-47.6985
 21
70.313793
  0
LINE
  8
型材断面
  6
CONTINUOUS
 62
    47
 10
-44.198498
 20
68.61379
 11
-44.198498
 21
70.313793
  0
LINE
  8
型材断面
  6
CONTINUOUS
 62
    47
 10
-42.698498
 20
68.61379
 11
-42.698498
 21
70.313793
  0
ARC
  8
型材断面
  6
CONTINUOUS
 62
    47
 10
-34.397709
 20
70.713794
 40
0.1
 50
-90.0
 51
45.0
  0
LINE
  8
型材断面
  6
CONTINUOUS
 62
    47
 10
-35.597707
 20
70.613793
 11
-34.397707
 21
70.613793
  0
LINE
  8
型材断面
  6
CONTINUOUS
 62
    47
 10
-34.326998
 20
70.7845
 11
-35.656282
 21
72.113793
  0
LINE
  8
型材断面
  6
CONTINUOUS
 62
    47
 10
-35.597707
 20
70.613793
 11
-34.397707
 21
70.613793
  0
LINE
  8
型材断面
  6
CONTINUOUS
 62
    47
 10
-47.6985
 20
72.113793
 11
-35.656282
 21
72.113793
  0
LINE
  8
型材断面
  6
CONTINUOUS
 62
    47
 10
-37.097707
 20
70.313793
 11
-37.097663
 21
62.31379
  0
LINE
  8
型材断面
  6
CONTINUOUS
 62
    47
 10
-35.597707
 20
70.6138
 11
-35.597663
 21
62.31379
  0
LINE
  8
型材断面
  6
CONTINUOUS
 62
    47
 10
-35.597663
 20
62.31379
 11
-37.097663
 21
62.31379
  0
LINE
  8
型材断面
  6
CONTINUOUS
 62
    47
 10
-29.098545
 20
54.81583
 11
-29.098545
 21
57.115825
  0
ARC
  8
型材断面
  6
CONTINUOUS
 62
    47
 10
-30.498549
 20
57.215829
 40
0.1
 50
135.0
 51
270.0
  0
LINE
  8
型材断面
  6
CONTINUOUS
 62
    47
 10
-29.098545
 20
57.115825
 11
-30.498548
 21
57.115825
  0
LINE
  8
型材断面
  6
CONTINUOUS
 62
    47
 10
-30.569258
 20
57.28654
 11
-29.239965
 21
58.615825
  0
LINE
  8
型材断面
  6
CONTINUOUS
 62
    47
 10
-29.239965
 20
58.615825
 11
-27.598545
 21
58.615825
  0
LINE
  8
型材断面
  6
CONTINUOUS
 62
    47
 10
-27.598545
 20
54.81583
 11
-27.598545
 21
58.615825
  0
LINE
  8
型材断面
  6
CONTINUOUS
 62
    47
 10
-20.298195
 20
47.91583
 11
-35.798197
 21
47.91583
  0
LINE
  8
型材断面
  6
CONTINUOUS
 62
    47
 10
-35.798197
 20
47.91583
 11
-35.798197
 21
44.415827
  0
LINE
  8
型材断面
  6
CONTINUOUS
 62
    47
 10
-35.798197
 20
44.415827
 11
-34.298197
 21
44.415827
  0
LINE
  8
型材断面
  6
CONTINUOUS
 62
    47
 10
-34.298197
 20
44.415827
 11
-34.298197
 21
46.41583
  0
LINE
  8
型材断面
  6
CONTINUOUS
 62
    47
 10
-29.798197
 20
46.41583
 11
-34.298197
 21
46.41583
  0
LINE
  8
型材断面
  6
CONTINUOUS
 62
    47
 10
-35.798197
 20
-0.08417
 11
-35.798197
 21
1.41583
  0
LINE
  8
型材断面
  6
CONTINUOUS
 62
    47
 10
-34.298197
 20
-0.08417
 11
-34.298197
 21
1.41583
  0
LINE
  8
型材断面
  6
CONTINUOUS
 62
    47
 10
-55.798193
 20
-0.08417
 11
-35.798197
 21
-0.08417
  0
LINE
  8
型材断面
  6
CONTINUOUS
 62
    47
 10
-29.798197
 20
-0.08417
 11
-34.298197
 21
-0.08417
  0
LINE
  8
型材断面
  6
CONTINUOUS
 62
    47
 10
-53.798197
 20
85.912068
 11
-38.098193
 21
85.912068
  0
LINE
  8
寸法
  6
CONTINUOUS
 62
    47
 10
-35.798197
 20
1.41583
 11
-34.298197
 21
1.41583
  0
ENDBLK
  0
BLOCK
  2
*GRP_0046
 70
    65
 10
0.0
 20
0.0
  0
LINE
  8
型材断面
  6
CONTINUOUS
 62
    47
 10
-62.201775
 20
-11.08433
 11
-81.899227
 21
-11.08433
  0
LINE
  8
型材断面
  6
CONTINUOUS
 62
    47
 10
-62.201775
 20
-11.08433
 11
-81.899227
 21
-11.08433
  0
LINE
  8
型材断面
  6
CONTINUOUS
 62
    47
 10
-57.702818
 20
-11.08433
 11
-53.90304
 21
-11.08433
  0
ARC
  8
型材断面
  6
CONTINUOUS
 62
    47
 10
-51.202275
 20
-9.384489
 40
0.299961
 50
90.0
 51
180.0
  0
LINE
  8
型材断面
  6
CONTINUOUS
 62
    47
 10
-50.602387
 20
-9.084552
 11
-51.202312
 21
-9.084552
  0
ARC
  8
型材断面
  6
CONTINUOUS
 62
    47
 10
-50.602353
 20
-9.384489
 40
0.299961
 50
0.0
 51
90.0
  0
LINE
  8
型材断面
  6
CONTINUOUS
 62
    47
 10
-51.502268
 20
-9.3845
 11
-51.502268
 21
-11.0843
  0
LINE
  8
型材断面
  6
CONTINUOUS
 62
    47
 10
-50.30244
 20
-9.3845
 11
-50.30244
 21
-11.0843
  0
LINE
  8
型材断面
  6
CONTINUOUS
 62
    47
 10
-67.106167
 20
-11.0843
 11
-51.502268
 21
-11.0843
  0
LINE
  8
型材断面
  6
CONTINUOUS
 62
    47
 10
-53.60157
 20
-11.0843
 11
-51.502268
 21
-11.0843
  0
ARC
  8
型材断面
  6
CONTINUOUS
 62
    47
 10
-28.998188
 20
-9.384546
 40
0.3
 50
90.0
 51
180.0
  0
LINE
  8
型材断面
  6
CONTINUOUS
 62
    47
 10
-28.098188
 20
-9.084552
 11
-28.998188
 21
-9.084552
  0
ARC
  8
型材断面
  6
CONTINUOUS
 62
    47
 10
-28.098188
 20
-9.384546
 40
0.3
 50
0.0
 51
90.0
  0
LINE
  8
型材断面
  6
CONTINUOUS
 62
    47
 10
-29.298188
 20
-11.0843
 11
-29.298188
 21
-9.384552
  0
LINE
  8
型材断面
  6
CONTINUOUS
 62
    47
 10
-50.30244
 20
-11.0843
 11
-29.298188
 21
-11.0843
  0
LINE
  8
型材断面
  6
CONTINUOUS
 62
    47
 10
-51.50244
 20
-32.0846
 11
-51.80244
 21
-31.7846
  0
LINE
  8
型材断面
  6
CONTINUOUS
 62
    47
 10
-51.50244
 20
-32.0846
 11
-51.80244
 21
-32.3846
  0
LINE
  8
型材断面
  6
CONTINUOUS
 62
    47
 10
-51.50244
 20
-46.08482
 11
-51.80244
 21
-45.78482
  0
LINE
  8
型材断面
  6
CONTINUOUS
 62
    47
 10
-51.50244
 20
-46.08482
 11
-51.80244
 21
-46.38482
  0
LINE
  8
型材断面
  6
CONTINUOUS
 62
    47
 10
-51.80244
 20
-13.084055
 11
-51.80244
 21
-31.7846
  0
LINE
  8
型材断面
  6
CONTINUOUS
 62
    47
 10
-51.80244
 20
-32.3846
 11
-51.80244
 21
-45.78482
  0
LINE
  8
型材断面
  6
CONTINUOUS
 62
    47
 10
-86.002433
 20
-11.38433
 11
-85.702433
 21
-11.08433
  0
LINE
  8
型材断面
  6
CONTINUOUS
 62
    47
 10
-86.002433
 20
-11.38433
 11
-86.302433
 21
-11.08433
  0
LINE
  8
型材断面
  6
CONTINUOUS
 62
    47
 10
-75.099413
 20
-11.08433
 11
-85.702433
 21
-11.08433
  0
LINE
  8
型材断面
  6
CONTINUOUS
 62
    47
 10
-27.798188
 20
-65.0843
 11
-4.29819
 21
-65.0843
  0
LINE
  8
型材断面
  6
CONTINUOUS
 62
    47
 10
-102.802687
 20
-95.084338
 11
-101.302687
 21
-95.084338
  0
LINE
  8
型材断面
  6
CONTINUOUS
 62
    47
 10
-101.302687
 20
-95.084338
 11
-101.302687
 21
-85.084235
  0
LINE
  8
型材断面
  6
CONTINUOUS
 62
    47
 10
-117.80244
 20
-70.084303
 11
-117.80244
 21
-85.084355
  0
LINE
  8
型材断面
  6
CONTINUOUS
 62
    47
 10
-102.802687
 20
-95.084338
 11
-102.802687
 21
-85.084355
  0
ARC
  8
型材断面
  6
CONTINUOUS
 62
    47
 10
-43.698416
 20
-83.584353
 40
0.5
 50
90.0
 51
180.0
  0
LINE
  8
型材断面
  6
CONTINUOUS
 62
    47
 10
-44.198415
 20
-83.584355
 11
-44.198415
 21
-84.584232
  0
ARC
  8
型材断面
  6
CONTINUOUS
 62
    47
 10
-43.698416
 20
-84.584228
 40
0.5
 50
180.0
 51
270.0
  0
LINE
  8
型材断面
  6
CONTINUOUS
 62
    47
 10
-115.802438
 20
-83.08436
 11
-115.802438
 21
-71.93852
  0
LINE
  8
型材断面
  6
CONTINUOUS
 62
    47
 10
-31.802437
 20
-83.08436
 11
-31.802437
 21
-67.084303
  0
LINE
  8
型材断面
  6
CONTINUOUS
 62
    47
 10
-43.698412
 20
-83.08436
 11
-31.802437
 21
-83.08436
  0
LINE
  8
型材断面
  6
CONTINUOUS
 62
    47
 10
-117.80244
 20
-70.084303
 11
-51.80244
 21
-65.0843
  0
LINE
  8
型材断面
  6
CONTINUOUS
 62
    47
 10
-29.79819
 20
-65.0843
 11
-49.802437
 21
-65.0843
  0
ARC
  8
型材断面
  6
CONTINUOUS
 62
    47
 10
-91.698416
 20
-83.584353
 40
0.5
 50
0.0
 51
90.0
  0
LINE
  8
型材断面
  6
CONTINUOUS
 62
    47
 10
-91.19841
 20
-83.584355
 11
-91.19841
 21
-84.584232
  0
ARC
  8
型材断面
  6
CONTINUOUS
 62
    47
 10
-91.698416
 20
-84.584228
 40
0.5
 50
270.0
 51
360.0
  0
LINE
  8
型材断面
  6
CONTINUOUS
 62
    47
 10
-101.302687
 20
-85.084235
 11
-91.698412
 21
-85.084235
  0
LINE
  8
型材断面
  6
CONTINUOUS
 62
    47
 10
-115.802438
 20
-83.08436
 11
-91.698412
 21
-83.08436
  0
LINE
  8
型材断面
  6
CONTINUOUS
 62
    47
 10
-51.50244
 20
-62.0843
 11
-51.80244
 21
-61.7843
  0
LINE
  8
型材断面
  6
CONTINUOUS
 62
    47
 10
-51.50244
 20
-62.0843
 11
-51.80244
 21
-62.3843
  0
LINE
  8
型材断面
  6
CONTINUOUS
 62
    47
 10
-51.80244
 20
-65.0843
 11
-51.80244
 21
-62.3843
  0
LINE
  8
型材断面
  6
CONTINUOUS
 62
    47
 10
-115.802438
 20
-71.93852
 11
-51.726795
 21
-67.084303
  0
LINE
  8
型材断面
  6
CONTINUOUS
 62
    47
 10
-27.798188
 20
-9.384545
 11
-27.798188
 21
-65.0843
  0
LINE
  8
型材断面
  6
CONTINUOUS
 62
    47
 10
-51.80244
 20
-46.38482
 11
-51.80244
 21
-61.7843
  0
LINE
  8
型材断面
  6
CONTINUOUS
 62
    47
 10
-49.802437
 20
-13.084303
 11
-29.79819
 21
-13.084303
  0
LINE
  8
型材断面
  6
CONTINUOUS
 62
    47
 10
-49.802437
 20
-65.0843
 11
-49.802437
 21
-13.084303
  0
LINE
  8
型材断面
  6
CONTINUOUS
 62
    47
 10
-29.79819
 20
-65.0843
 11
-29.79819
 21
-13.084303
  0
LINE
  8
型材断面
  6
CONTINUOUS
 62
    47
 10
-51.726795
 20
-67.084303
 11
-31.802437
 21
-67.084303
  0
LINE
  8
型材断面
  6
CONTINUOUS
 62
    47
 10
-29.802435
 20
-67.084303
 11
-2.79819
 21
-67.084303
  0
LINE
  8
型材断面
  6
CONTINUOUS
 62
    47
 10
-29.802435
 20
-85.084235
 11
-29.802435
 21
-67.084303
  0
LINE
  8
型材断面
  6
CONTINUOUS
 62
    47
 10
-40.202678
 20
-84.784235
 11
-39.902678
 21
-85.084235
  0
LINE
  8
型材断面
  6
CONTINUOUS
 62
    47
 10
-40.202678
 20
-84.784235
 11
-40.502678
 21
-85.084235
  0
LINE
  8
型材断面
  6
CONTINUOUS
 62
    47
 10
-43.698412
 20
-85.084235
 11
-40.502678
 21
-85.084235
  0
LINE
  8
型材断面
  6
CONTINUOUS
 62
    47
 10
-29.802435
 20
-85.084235
 11
-39.902678
 21
-85.084235
  0
LINE
  8
型材断面
  6
CONTINUOUS
 62
    47
 10
-108.80244
 20
-84.784355
 11
-108.50244
 21
-85.084355
  0
LINE
  8
型材断面
  6
CONTINUOUS
 62
    47
 10
-108.80244
 20
-84.784355
 11
-109.10244
 21
-85.084355
  0
LINE
  8
型材断面
  6
CONTINUOUS
 62
    47
 10
-102.802687
 20
-85.084355
 11
-108.50244
 21
-85.084355
  0
LINE
  8
型材断面
  6
CONTINUOUS
 62
    47
 10
-117.80244
 20
-85.084355
 11
-109.10244
 21
-85.084355
  0
ARC
  8
型材断面
  6
CONTINUOUS
 62
    47
 10
-95.502431
 20
-9.384519
 40
0.299961
 50
90.0
 51
180.0
  0
LINE
  8
型材断面
  6
CONTINUOUS
 62
    47
 10
-94.902525
 20
-9.084583
 11
-95.50245
 21
-9.084583
  0
ARC
  8
型材断面
  6
CONTINUOUS
 62
    47
 10
-94.902509
 20
-9.384519
 40
0.299961
 50
0.0
 51
90.0
  0
LINE
  8
型材断面
  6
CONTINUOUS
 62
    47
 10
-94.602578
 20
-9.38453
 11
-94.602578
 21
-11.08433
  0
LINE
  8
型材断面
  6
CONTINUOUS
 62
    47
 10
-95.802427
 20
-9.38453
 11
-95.802427
 21
-13.084055
  0
LINE
  8
型材断面
  6
CONTINUOUS
 62
    47
 10
-51.80244
 20
-13.084055
 11
-95.802427
 21
-13.084055
  0
LINE
  8
型材断面
  6
CONTINUOUS
 62
    47
 10
-86.302433
 20
-11.08433
 11
-94.602578
 21
-11.08433
  0
LINE
  8
型材断面
  6
CONTINUOUS
 62
    47
 10
-4.29819
 20
-65.0843
 11
-4.29819
 21
-57.084305
  0
LINE
  8
型材断面
  6
CONTINUOUS
 62
    47
 10
-2.79819
 20
-67.084303
 11
-2.79819
 21
-57.084305
  0
LINE
  8
St
  6
DASHDOT
 62
    47
 10
-4.29819
 20
-57.084305
 11
-2.79819
 21
-57.084305
  0
ENDBLK
  0
BLOCK
  2
*DIM_0047
 70
    65
 10
0.0
 20
0.0
  0
LINE
  8
寸法
  6
BYBLOCK
 62
     0
 10
40.351817
 20
33.915827
 11
71.772015
 21
33.915827
  0
LINE
  8
寸法
  6
BYBLOCK
 62
     0
 10
40.351817
 20
-107.084518
 11
71.772015
 21
-107.084518
  0
LINE
  8
寸法
  6
BYBLOCK
 62
     0
 10
71.772015
 20
33.915827
 11
71.772015
 21
-107.084518
  0
POINT
  8
寸法
 62
     0
 10
71.772015
 20
33.915827
  0
POINT
  8
寸法
 62
     0
 10
71.772015
 20
-107.084518
  0
TEXT
  7
TextStyle03
  8
寸法
  6
CONTINUOUS
 62
     0
 10
71.375
 20
-39.0375
  1
141
 40
3.0
 50
90.0
 72
     5
 11
71.375
 21
-34.1625
  0
ENDBLK
  0
BLOCK
  2
*GRP_0048
 70
    65
 10
0.0
 20
0.0
  0
POLYLINE
  8
寸法
  6
BYBLOCK
 62
     0
 66
     1
  0
VERTEX
  8
寸法
 10
-83.57065
 20
-15.394528
  0
VERTEX
  8
寸法
 10
-91.386992
 20
-23.21087
  0
VERTEX
  8
寸法
 10
-94.113183
 20
-23.21087
  0
SEQEND
  0
ENDBLK
  0
BLOCK
  2
*DIM_0049
 70
    65
 10
0.0
 20
0.0
  0
LINE
  8
寸法
  6
BYBLOCK
 62
     0
 10
46.214922
 20
-9.084548
 11
47.047758
 21
-9.084548
  0
LINE
  8
寸法
  6
BYBLOCK
 62
     0
 10
0.201813
 20
-57.083773
 11
47.047758
 21
-57.083773
  0
LINE
  8
寸法
  6
BYBLOCK
 62
     0
 10
47.047758
 20
-9.084548
 11
47.047758
 21
-57.083773
  0
POINT
  8
寸法
 62
     0
 10
47.047758
 20
-9.084548
  0
POINT
  8
寸法
 62
     0
 10
47.047758
 20
-57.083773
  0
TEXT
  7
TextStyle03
  8
寸法
  6
CONTINUOUS
 62
     0
 10
46.65
 20
-34.69375
  1
48
 40
3.0
 50
90.0
 72
     5
 11
46.65
 21
-31.50625
  0
ENDBLK
  0
BLOCK
  2
*DIM_0050
 70
    65
 10
0.0
 20
0.0
  0
LINE
  8
寸法
  6
BYBLOCK
 62
     0
 10
3.201813
 20
-67.084297
 11
47.047758
 21
-67.084297
  0
LINE
  8
寸法
  6
BYBLOCK
 62
     0
 10
47.047758
 20
-57.083773
 11
47.047758
 21
-67.084297
  0
POINT
  8
寸法
 62
     0
 10
47.047758
 20
-67.084297
  0
TEXT
  7
TextStyle03
  8
寸法
  6
CONTINUOUS
 62
     0
 10
46.65
 20
-63.69375
  1
10
 40
3.0
 50
90.0
 72
     5
 11
46.65
 21
-60.50625
  0
ENDBLK
  0
BLOCK
  2
*DIM_0051
 70
    65
 10
0.0
 20
0.0
  0
LINE
  8
寸法
  6
BYBLOCK
 62
     0
 10
-29.802435
 20
-86.084235
 11
-29.802435
 21
-106.048875
  0
LINE
  8
寸法
  6
BYBLOCK
 62
     0
 10
-102.802672
 20
-106.048875
 11
-29.802435
 21
-106.048875
  0
POINT
  8
寸法
 62
     0
 10
-102.802672
 20
-106.048875
  0
POINT
  8
寸法
 62
     0
 10
-29.802435
 20
-106.048875
  0
TEXT
  7
TextStyle03
  8
寸法
  6
CONTINUOUS
 62
     0
 10
-67.91875
 20
-105.675
  1
73
 40
3.0
 72
     5
 11
-64.73125
 21
-105.675
  0
ENDBLK
  0
BLOCK
  2
*DIM_0052
 70
    65
 10
0.0
 20
0.0
  0
LINE
  8
寸法
  6
BYBLOCK
 62
     0
 10
-2.79819
 20
-68.084303
 11
-2.79819
 21
-106.048875
  0
LINE
  8
寸法
  6
BYBLOCK
 62
     0
 10
-29.802435
 20
-106.048875
 11
-2.79819
 21
-106.048875
  0
POINT
  8
寸法
 62
     0
 10
-2.79819
 20
-106.048875
  0
TEXT
  7
TextStyle03
  8
寸法
  6
CONTINUOUS
 62
     0
 10
-17.91875
 20
-105.675
  1
27
 40
3.0
 72
     5
 11
-14.73125
 21
-105.675
  0
ENDBLK
  0
BLOCK
  2
*GRP_0053
 70
    65
 10
0.0
 20
0.0
  0
LINE
  8
ボルト／ビス
  6
CONTINUOUS
 10
-48.798172
 20
91.919223
 11
-48.798172
 21
93.919225
  0
LINE
  8
ボルト／ビス
  6
CONTINUOUS
 10
-48.798172
 20
93.919225
 11
-26.798167
 21
93.919225
  0
LINE
  8
ボルト／ビス
  6
CONTINUOUS
 10
-26.798167
 20
93.919225
 11
-26.798167
 21
91.919223
  0
LINE
  8
ボルト／ビス
  6
CONTINUOUS
 10
-48.798172
 20
91.919223
 11
-26.798167
 21
91.919223
  0
LINE
  8
ボルト／ビス
  6
CONTINUOUS
 10
-46.79817
 20
94.919223
 11
-46.79817
 21
93.919225
  0
LINE
  8
ボルト／ビス
  6
CONTINUOUS
 10
-46.79817
 20
94.919223
 11
-28.79817
 21
94.919223
  0
LINE
  8
ボルト／ビス
  6
CONTINUOUS
 10
-28.79817
 20
94.919223
 11
-28.79817
 21
93.919225
  0
LINE
  8
ボルト／ビス
  6
CONTINUOUS
 62
    64
 10
-42.60942
 20
100.919223
 11
-43.57167
 21
100.568995
  0
ARC
  8
ボルト／ビス
  6
CONTINUOUS
 62
    64
 10
-42.128294
 20
97.769869
 40
3.149352
 50
62.721967
 51
90.0
  0
ARC
  8
ボルト／ビス
  6
CONTINUOUS
 62
    64
 10
-37.798167
 20
88.847154
 40
12.072067
 50
76.165002
 51
103.834985
  0
LINE
  8
ボルト／ビス
  6
CONTINUOUS
 62
    64
 10
-32.98692
 20
100.919223
 11
-32.02467
 21
100.568995
  0
ARC
  8
ボルト／ビス
  6
CONTINUOUS
 62
    64
 10
-33.468039
 20
97.769869
 40
3.149352
 50
90.0
 51
117.278033
  0
LINE
  8
ボルト／ビス
  6
CONTINUOUS
 62
    64
 10
-42.60942
 20
100.919223
 11
-32.98692
 21
100.919223
  0
LINE
  8
ボルト／ビス
  6
CONTINUOUS
 62
    64
 10
-32.02467
 20
100.568995
 11
-32.02467
 21
96.919225
  0
LINE
  8
ボルト／ビス
  6
CONTINUOUS
 62
    64
 10
-34.91142
 20
100.568995
 11
-34.91142
 21
96.919225
  0
LINE
  8
ボルト／ビス
  6
CONTINUOUS
 62
    64
 10
-43.57167
 20
100.568995
 11
-43.57167
 21
96.919225
  0
LINE
  8
ボルト／ビス
  6
CONTINUOUS
 62
    64
 10
-40.68492
 20
100.568995
 11
-40.68492
 21
96.919225
  0
LINE
  8
ボルト／ビス
  6
CONTINUOUS
 10
-43.57167
 20
96.919225
 11
-32.02467
 21
96.919225
  0
LINE
  8
ボルト／ビス
  6
CONTINUOUS
 10
-43.79817
 20
96.919225
 11
-43.79817
 21
94.919223
  0
LINE
  8
ボルト／ビス
  6
CONTINUOUS
 10
-43.79817
 20
96.919225
 11
-31.79817
 21
96.919225
  0
LINE
  8
ボルト／ビス
  6
CONTINUOUS
 10
-31.79817
 20
96.919225
 11
-31.79817
 21
94.919223
  0
LINE
  8
ボルト／ビス
  6
CONTINUOUS
 62
    64
 10
-40.098172
 20
91.919223
 11
-40.098172
 21
71.919227
  0
LINE
  8
ボルト／ビス
  6
CONTINUOUS
 62
    64
 10
-35.498168
 20
91.919223
 11
-35.498168
 21
71.919227
  0
LINE
  8
ボルト／ビス
  6
CONTINUOUS
 62
    64
 10
-40.098172
 20
71.919227
 11
-35.498168
 21
71.919227
  0
LINE
  8
ボルト／ビス
  6
CONTINUOUS
 62
    64
 10
-34.79817
 20
72.919225
 11
-35.498168
 21
71.919227
  0
LINE
  8
ボルト／ビス
  6
CONTINUOUS
 62
    64
 10
-40.79817
 20
72.919225
 11
-40.098172
 21
71.919227
  0
LINE
  8
ボルト／ビス
  6
CONTINUOUS
 62
    64
 10
-40.79817
 20
72.919225
 11
-34.79817
 21
72.919225
  0
LINE
  8
ボルト／ビス
  6
CONTINUOUS
 62
    64
 10
-40.098172
 20
71.919227
 11
-35.498168
 21
71.919227
  0
LINE
  8
ボルト／ビス
  6
CONTINUOUS
 62
    64
 10
-34.79817
 20
91.919223
 11
-34.79817
 21
72.919225
  0
LINE
  8
ボルト／ビス
  6
CONTINUOUS
 62
    64
 10
-40.79817
 20
91.919223
 11
-40.79817
 21
72.919225
  0
ENDBLK
  0
BLOCK
  2
*GRP_0054
 70
    65
 10
0.0
 20
0.0
  0
LINE
  8
通り芯
  6
CONTINUOUS
 10
-24.798188
 20
-12.58376
 11
-27.798188
 21
-12.58376
  0
ARC
  8
通り芯
  6
CONTINUOUS
 10
-24.798189
 20
44.915832
 40
3.0
 50
90.0
 51
180.0
  0
LINE
  8
通り芯
  6
CONTINUOUS
 10
-27.798188
 20
44.91583
 11
-27.798188
 21
-2.084173
  0
LINE
  8
通り芯
  6
CONTINUOUS
 10
-24.798188
 20
44.91583
 11
-24.798188
 21
-2.084173
  0
LINE
  8
通り芯
  6
CONTINUOUS
 10
-27.798188
 20
-2.084173
 11
-24.798188
 21
-2.084173
  0
ARC
  8
通り芯
  6
CONTINUOUS
 10
-24.798177
 20
-54.083762
 40
3.0
 50
180.0
 51
270.0
  0
LINE
  8
通り芯
  6
CONTINUOUS
 10
-24.798188
 20
-49.08377
 11
-19.798193
 21
-54.083773
  0
LINE
  8
通り芯
  6
CONTINUOUS
 10
-24.798188
 20
-12.58376
 11
-24.798188
 21
-54.083773
  0
LINE
  8
通り芯
  6
CONTINUOUS
 10
-27.798188
 20
-12.58376
 11
-27.798188
 21
-57.083773
  0
ARC
  8
通り芯
  6
CONTINUOUS
 10
20.201826
 20
44.915833
 40
3.0
 50
0.0
 51
90.0
  0
LINE
  8
通り芯
  6
CONTINUOUS
 10
23.201813
 20
47.91583
 11
23.201813
 21
23.91583
  0
LINE
  8
通り芯
  6
CONTINUOUS
 10
2.201813
 20
-124.084175
 11
20.201813
 21
-124.084175
  0
ARC
  8
通り芯
  6
CONTINUOUS
 10
20.201826
 20
-124.084172
 40
3.0
 50
270.0
 51
360.0
  0
LINE
  8
通り芯
  6
CONTINUOUS
 10
20.201813
 20
-124.084175
 11
20.201813
 21
-97.084175
  0
ARC
  8
通り芯
  6
CONTINUOUS
 10
2.201826
 20
-124.084172
 40
3.0
 50
180.0
 51
270.0
  0
LINE
  8
通り芯
  6
CONTINUOUS
 10
23.201813
 20
-127.084175
 11
-0.798188
 21
-127.084175
  0
LINE
  8
通り芯
  6
CONTINUOUS
 10
23.201813
 20
-96.72452
 11
23.201813
 21
-127.084175
  0
LINE
  8
通り芯
  6
CONTINUOUS
 10
20.201813
 20
-119.084173
 11
15.20181
 21
-124.084175
  0
LINE
  8
通り芯
  6
CONTINUOUS
 10
7.201815
 20
-124.084175
 11
2.201813
 21
-119.084173
  0
LINE
  8
通り芯
  6
CONTINUOUS
 10
20.201813
 20
-97.084175
 11
23.201813
 21
-97.084175
  0
LINE
  8
通り芯
  6
CONTINUOUS
 10
20.201813
 20
44.91583
 11
20.201813
 21
25.915825
  0
LINE
  8
通り芯
  6
CONTINUOUS
 10
20.201813
 20
25.915825
 11
23.201813
 21
25.915825
  0
ARC
  8
通り芯
  6
CONTINUOUS
 10
-0.798174
 20
-57.083762
 40
3.0
 50
0.0
 51
90.0
  0
LINE
  8
通り芯
  6
CONTINUOUS
 10
-0.798188
 20
-127.084175
 11
-0.798188
 21
-57.083773
  0
LINE
  8
通り芯
  6
CONTINUOUS
 10
2.201813
 20
-124.084175
 11
2.201813
 21
-54.083773
  0
LINE
  8
通り芯
  6
CONTINUOUS
 10
-27.798188
 20
-57.083773
 11
-0.798188
 21
-57.083773
  0
LINE
  8
通り芯
  6
CONTINUOUS
 10
-24.798188
 20
-54.083773
 11
2.201813
 21
-54.083773
  0
LINE
  8
通り芯
  6
CONTINUOUS
 10
-24.798188
 20
-12.58376
 11
23.201813
 21
-34.768648
  0
LINE
  8
通り芯
  6
CONTINUOUS
 10
23.201813
 20
-91.584177
 11
23.201813
 21
-34.768648
  0
LINE
  8
通り芯
  6
CONTINUOUS
 10
20.201813
 20
25.915825
 11
-24.798188
 21
-2.084173
  0
LINE
  8
通り芯
  6
CONTINUOUS
 10
-24.798188
 20
47.91583
 11
23.201813
 21
47.91583
  0
LINE
  8
通り芯
  6
CONTINUOUS
 10
-24.798188
 20
44.91583
 11
20.201813
 21
44.91583
  0
LINE
  8
ボルト／ビス
  6
CONTINUOUS
 10
34.351815
 20
29.661197
 11
33.89652
 21
28.410273
  0
ARC
  8
ボルト／ビス
  6
CONTINUOUS
 10
30.25766
 20
30.286662
 40
4.09417
 50
0.0
 51
27.277966
  0
LINE
  8
ボルト／ビス
  6
CONTINUOUS
 10
34.351815
 20
42.170463
 11
33.89652
 21
43.421387
  0
ARC
  8
ボルト／ビス
  6
CONTINUOUS
 10
30.25766
 20
41.544997
 40
4.09417
 50
332.722034
 51
360.0
  0
ARC
  8
ボルト／ビス
  6
CONTINUOUS
 10
18.658097
 20
35.91583
 40
15.693733
 50
346.165046
 51
373.834954
  0
LINE
  8
ボルト／ビス
  6
CONTINUOUS
 10
29.201813
 20
28.410273
 11
33.89652
 21
28.410273
  0
LINE
  8
ボルト／ビス
  6
CONTINUOUS
 10
29.201813
 20
43.421387
 11
33.89652
 21
43.421387
  0
LINE
  8
ボルト／ビス
  6
CONTINUOUS
 10
34.351815
 20
42.170463
 11
34.351815
 21
29.661197
  0
LINE
  8
ボルト／ビス
  6
CONTINUOUS
 10
33.89652
 20
39.668605
 11
29.201813
 21
39.668605
  0
LINE
  8
ボルト／ビス
  6
CONTINUOUS
 10
33.89652
 20
32.163055
 11
29.201813
 21
32.163055
  0
LINE
  8
ボルト／ビス
  6
CONTINUOUS
 10
29.201813
 20
43.421387
 11
29.201813
 21
28.410273
  0
LINE
  8
ボルト／ビス
  6
CONTINUOUS
 10
27.401813
 20
27.165827
 11
26.401815
 21
27.165827
  0
LINE
  8
ボルト／ビス
  6
CONTINUOUS
 10
27.401813
 20
44.665833
 11
26.401815
 21
44.665833
  0
LINE
  8
ボルト／ビス
  6
CONTINUOUS
 10
27.401813
 20
27.165827
 11
27.401813
 21
44.665833
  0
LINE
  8
ボルト／ビス
  6
CONTINUOUS
 10
26.401815
 20
27.165827
 11
26.401815
 21
44.665833
  0
LINE
  8
ボルト／ビス
  6
CONTINUOUS
 10
29.201813
 20
35.91583
 11
27.401813
 21
35.91583
  0
LINE
  8
ボルト／ビス
  6
CONTINUOUS
 10
29.201813
 20
43.815827
 11
27.401813
 21
43.815827
  0
LINE
  8
ボルト／ビス
  6
CONTINUOUS
 10
29.201813
 20
28.015833
 11
27.401813
 21
28.015833
  0
LINE
  8
ボルト／ビス
  6
CONTINUOUS
 10
29.201813
 20
43.815827
 11
29.201813
 21
28.015833
  0
LINE
  8
ボルト／ビス
  6
CONTINUOUS
 10
10.401817
 20
39.915827
 11
9.201817
 21
39.115833
  0
LINE
  8
ボルト／ビス
  6
CONTINUOUS
 10
10.401817
 20
31.915833
 11
9.201817
 21
32.715827
  0
LINE
  8
ボルト／ビス
  6
CONTINUOUS
 10
9.201817
 20
39.115833
 11
9.201817
 21
32.715827
  0
LINE
  8
ボルト／ビス
  6
CONTINUOUS
 10
10.401817
 20
39.915827
 11
10.401817
 21
31.915833
  0
LINE
  8
ボルト／ビス
  6
CONTINUOUS
 10
26.401815
 20
39.915827
 11
10.401817
 21
39.915827
  0
LINE
  8
ボルト／ビス
  6
CONTINUOUS
 10
26.401815
 20
31.915833
 11
10.401817
 21
31.915833
  0
LINE
  8
ボルト／ビス
  6
CONTINUOUS
 10
26.401815
 20
39.115833
 11
9.201817
 21
39.115833
  0
LINE
  8
ボルト／ビス
  6
CONTINUOUS
 10
26.401815
 20
32.715827
 11
9.201817
 21
32.715827
  0
LINE
  8
ボルト／ビス
  6
CONTINUOUS
 10
39.351817
 20
35.91583
 11
4.201815
 21
35.91583
  0
LINE
  8
ボルト／ビス
  6
CONTINUOUS
 10
12.251813
 20
29.661197
 11
12.707107
 21
28.410273
  0
ARC
  8
ボルト／ビス
  6
CONTINUOUS
 10
16.345994
 20
30.286664
 40
4.09417
 50
152.722034
 51
180.0
  0
LINE
  8
ボルト／ビス
  6
CONTINUOUS
 10
12.251813
 20
42.170463
 11
12.707107
 21
43.421387
  0
ARC
  8
ボルト／ビス
  6
CONTINUOUS
 10
16.345994
 20
41.544999
 40
4.09417
 50
180.0
 51
207.277966
  0
ARC
  8
ボルト／ビス
  6
CONTINUOUS
 10
27.945556
 20
35.915831
 40
15.693733
 50
166.165046
 51
193.834954
  0
LINE
  8
ボルト／ビス
  6
CONTINUOUS
 10
17.401815
 20
28.410273
 11
12.707107
 21
28.410273
  0
LINE
  8
ボルト／ビス
  6
CONTINUOUS
 10
17.401815
 20
43.421387
 11
12.707107
 21
43.421387
  0
LINE
  8
ボルト／ビス
  6
CONTINUOUS
 10
12.251813
 20
42.170463
 11
12.251813
 21
29.661197
  0
LINE
  8
ボルト／ビス
  6
CONTINUOUS
 10
12.707107
 20
39.668605
 11
17.401815
 21
39.668605
  0
LINE
  8
ボルト／ビス
  6
CONTINUOUS
 10
12.707107
 20
32.163055
 11
17.401815
 21
32.163055
  0
LINE
  8
ボルト／ビス
  6
CONTINUOUS
 10
17.401815
 20
43.421387
 11
17.401815
 21
28.410273
  0
LINE
  8
ボルト／ビス
  6
CONTINUOUS
 10
19.201815
 20
27.165827
 11
20.201813
 21
27.165827
  0
LINE
  8
ボルト／ビス
  6
CONTINUOUS
 10
19.201815
 20
44.665833
 11
20.201813
 21
44.665833
  0
LINE
  8
ボルト／ビス
  6
CONTINUOUS
 10
19.201815
 20
27.165827
 11
19.201815
 21
44.665833
  0
LINE
  8
ボルト／ビス
  6
CONTINUOUS
 10
20.201813
 20
27.165827
 11
20.201813
 21
44.665833
  0
LINE
  8
ボルト／ビス
  6
CONTINUOUS
 10
17.401815
 20
35.91583
 11
19.201815
 21
35.91583
  0
LINE
  8
ボルト／ビス
  6
CONTINUOUS
 10
17.401815
 20
43.815827
 11
19.201815
 21
43.815827
  0
LINE
  8
ボルト／ビス
  6
CONTINUOUS
 10
17.401815
 20
28.015833
 11
19.201815
 21
28.015833
  0
LINE
  8
ボルト／ビス
  6
CONTINUOUS
 10
17.401815
 20
43.815827
 11
17.401815
 21
28.015833
  0
LINE
  8
ボルト／ビス
  6
CONTINUOUS
 10
34.351815
 20
-113.33915
 11
33.89652
 21
-114.590075
  0
ARC
  8
ボルト／ビス
  6
CONTINUOUS
 10
30.25766
 20
-112.713685
 40
4.09417
 50
0.0
 51
27.277966
  0
LINE
  8
ボルト／ビス
  6
CONTINUOUS
 10
34.351815
 20
-100.829885
 11
33.89652
 21
-99.57896
  0
ARC
  8
ボルト／ビス
  6
CONTINUOUS
 10
30.25766
 20
-101.45535
 40
4.09417
 50
332.722034
 51
360.0
  0
ARC
  8
ボルト／ビス
  6
CONTINUOUS
 10
18.658097
 20
-107.084518
 40
15.693733
 50
346.165046
 51
373.834954
  0
LINE
  8
ボルト／ビス
  6
CONTINUOUS
 10
29.201813
 20
-114.590075
 11
33.89652
 21
-114.590075
  0
LINE
  8
ボルト／ビス
  6
CONTINUOUS
 10
29.201813
 20
-99.57896
 11
33.89652
 21
-99.57896
  0
LINE
  8
ボルト／ビス
  6
CONTINUOUS
 10
34.351815
 20
-100.829885
 11
34.351815
 21
-113.33915
  0
LINE
  8
ボルト／ビス
  6
CONTINUOUS
 10
33.89652
 20
-103.331743
 11
29.201813
 21
-103.331743
  0
LINE
  8
ボルト／ビス
  6
CONTINUOUS
 10
33.89652
 20
-110.837292
 11
29.201813
 21
-110.837292
  0
LINE
  8
ボルト／ビス
  6
CONTINUOUS
 10
29.201813
 20
-99.57896
 11
29.201813
 21
-114.590075
  0
LINE
  8
ボルト／ビス
  6
CONTINUOUS
 10
27.401813
 20
-115.83452
 11
26.401815
 21
-115.83452
  0
LINE
  8
ボルト／ビス
  6
CONTINUOUS
 10
27.401813
 20
-98.334515
 11
26.401815
 21
-98.334515
  0
LINE
  8
ボルト／ビス
  6
CONTINUOUS
 10
27.401813
 20
-115.83452
 11
27.401813
 21
-98.334515
  0
LINE
  8
ボルト／ビス
  6
CONTINUOUS
 10
26.401815
 20
-115.83452
 11
26.401815
 21
-98.334515
  0
LINE
  8
ボルト／ビス
  6
CONTINUOUS
 10
29.201813
 20
-107.084518
 11
27.401813
 21
-107.084518
  0
LINE
  8
ボルト／ビス
  6
CONTINUOUS
 10
29.201813
 20
-99.18452
 11
27.401813
 21
-99.18452
  0
LINE
  8
ボルト／ビス
  6
CONTINUOUS
 10
29.201813
 20
-114.984515
 11
27.401813
 21
-114.984515
  0
LINE
  8
ボルト／ビス
  6
CONTINUOUS
 10
29.201813
 20
-99.18452
 11
29.201813
 21
-114.984515
  0
LINE
  8
ボルト／ビス
  6
CONTINUOUS
 10
10.401817
 20
-103.08452
 11
9.201817
 21
-103.884515
  0
LINE
  8
ボルト／ビス
  6
CONTINUOUS
 10
10.401817
 20
-111.084515
 11
9.201817
 21
-110.28452
  0
LINE
  8
ボルト／ビス
  6
CONTINUOUS
 10
9.201817
 20
-103.884515
 11
9.201817
 21
-110.28452
  0
LINE
  8
ボルト／ビス
  6
CONTINUOUS
 10
10.401817
 20
-103.08452
 11
10.401817
 21
-111.084515
  0
LINE
  8
ボルト／ビス
  6
CONTINUOUS
 10
26.401815
 20
-103.08452
 11
10.401817
 21
-103.08452
  0
LINE
  8
ボルト／ビス
  6
CONTINUOUS
 10
26.401815
 20
-111.084515
 11
10.401817
 21
-111.084515
  0
LINE
  8
ボルト／ビス
  6
CONTINUOUS
 10
26.401815
 20
-103.884515
 11
9.201817
 21
-103.884515
  0
LINE
  8
ボルト／ビス
  6
CONTINUOUS
 10
26.401815
 20
-110.28452
 11
9.201817
 21
-110.28452
  0
LINE
  8
ボルト／ビス
  6
CONTINUOUS
 10
39.351817
 20
-107.084518
 11
4.201815
 21
-107.084518
  0
LINE
  8
ボルト／ビス
  6
CONTINUOUS
 10
12.251813
 20
-113.33915
 11
12.707107
 21
-114.590075
  0
ARC
  8
ボルト／ビス
  6
CONTINUOUS
 10
16.345994
 20
-112.713684
 40
4.09417
 50
152.722034
 51
180.0
  0
LINE
  8
ボルト／ビス
  6
CONTINUOUS
 10
12.251813
 20
-100.829885
 11
12.707107
 21
-99.57896
  0
ARC
  8
ボルト／ビス
  6
CONTINUOUS
 10
16.345994
 20
-101.455349
 40
4.09417
 50
180.0
 51
207.277966
  0
ARC
  8
ボルト／ビス
  6
CONTINUOUS
 10
27.945556
 20
-107.084516
 40
15.693733
 50
166.165046
 51
193.834954
  0
LINE
  8
ボルト／ビス
  6
CONTINUOUS
 10
17.401815
 20
-114.590075
 11
12.707107
 21
-114.590075
  0
LINE
  8
ボルト／ビス
  6
CONTINUOUS
 10
17.401815
 20
-99.57896
 11
12.707107
 21
-99.57896
  0
LINE
  8
ボルト／ビス
  6
CONTINUOUS
 10
12.251813
 20
-100.829885
 11
12.251813
 21
-113.33915
  0
LINE
  8
ボルト／ビス
  6
CONTINUOUS
 10
12.707107
 20
-103.331743
 11
17.401815
 21
-103.331743
  0
LINE
  8
ボルト／ビス
  6
CONTINUOUS
 10
12.707107
 20
-110.837292
 11
17.401815
 21
-110.837292
  0
LINE
  8
ボルト／ビス
  6
CONTINUOUS
 10
17.401815
 20
-99.57896
 11
17.401815
 21
-114.590075
  0
LINE
  8
ボルト／ビス
  6
CONTINUOUS
 10
19.201815
 20
-115.83452
 11
20.201813
 21
-115.83452
  0
LINE
  8
ボルト／ビス
  6
CONTINUOUS
 10
19.201815
 20
-98.334515
 11
20.201813
 21
-98.334515
  0
LINE
  8
ボルト／ビス
  6
CONTINUOUS
 10
19.201815
 20
-115.83452
 11
19.201815
 21
-98.334515
  0
LINE
  8
ボルト／ビス
  6
CONTINUOUS
 10
20.201813
 20
-115.83452
 11
20.201813
 21
-98.334515
  0
LINE
  8
ボルト／ビス
  6
CONTINUOUS
 10
17.401815
 20
-107.084518
 11
19.201815
 21
-107.084518
  0
LINE
  8
ボルト／ビス
  6
CONTINUOUS
 10
17.401815
 20
-99.18452
 11
19.201815
 21
-99.18452
  0
LINE
  8
ボルト／ビス
  6
CONTINUOUS
 10
17.401815
 20
-114.984515
 11
19.201815
 21
-114.984515
  0
LINE
  8
ボルト／ビス
  6
CONTINUOUS
 10
17.401815
 20
-99.18452
 11
17.401815
 21
-114.984515
  0
LINE
  8
別途部材
  6
DASHDOT
 10
21.401813
 20
34.2619
 11
21.401813
 21
-124.085045
  0
LINE
  8
別途部材
  6
DASHDOT
 10
21.401813
 20
-71.81546
 11
21.401813
 21
46.915825
  0
LINE
  8
別途部材
  6
CONTINUOUS
 10
10.40181
 20
-51.17597
 11
32.401815
 21
-51.17597
  0
LINE
  8
別途部材
  6
CONTINUOUS
 10
10.40181
 20
-49.67597
 11
32.401815
 21
-49.67597
  0
LINE
  8
別途部材
  6
CONTINUOUS
 10
31.40181
 20
-52.67597
 11
31.40181
 21
-51.17597
  0
LINE
  8
別途部材
  6
CONTINUOUS
 10
31.40181
 20
-52.67597
 11
11.401815
 21
-52.67597
  0
LINE
  8
別途部材
  6
CONTINUOUS
 10
11.401815
 20
-52.67597
 11
11.401815
 21
-51.17597
  0
LINE
  8
別途部材
  6
CONTINUOUS
 10
28.40181
 20
-55.67597
 11
28.40181
 21
-52.67597
  0
LINE
  8
別途部材
  6
CONTINUOUS
 10
14.401815
 20
-55.67597
 11
28.40181
 21
-55.67597
  0
LINE
  8
別途部材
  6
CONTINUOUS
 10
14.401815
 20
-52.67597
 11
14.401815
 21
-55.67597
  0
LINE
  8
別途部材
  6
CONTINUOUS
 10
26.401815
 20
-55.67597
 11
26.401815
 21
-82.724518
  0
LINE
  8
別途部材
  6
CONTINUOUS
 10
16.40181
 20
-85.92452
 11
23.201813
 21
-85.92452
  0
LINE
  8
別途部材
  6
CONTINUOUS
 10
16.40181
 20
-55.67597
 11
16.40181
 21
-85.92452
  0
ARC
  8
別途部材
  6
CONTINUOUS
 10
23.201821
 20
-85.924512
 40
3.2
 50
0.0
 51
90.0
  0
LINE
  8
別途部材
  6
CONTINUOUS
 10
16.40181
 20
-82.724518
 11
26.401815
 21
-82.724518
  0
LINE
  8
別途部材
  6
CONTINUOUS
 10
10.40181
 20
3.915827
 11
32.401815
 21
3.915827
  0
LINE
  8
別途部材
  6
CONTINUOUS
 10
10.40181
 20
4.915833
 11
32.401815
 21
4.915833
  0
ARC
  8
別途部材
  6
CONTINUOUS
 10
15.40182
 20
4.915836
 40
5.0
 50
90.0
 51
180.0
  0
LINE
  8
別途部材
  6
CONTINUOUS
 10
15.401813
 20
9.915827
 11
27.401813
 21
9.915827
  0
ARC
  8
別途部材
  6
CONTINUOUS
 10
27.40182
 20
4.915836
 40
5.0
 50
0.0
 51
90.0
  0
LINE
  8
別途部材
  6
CONTINUOUS
 10
27.401813
 20
9.915827
 11
27.401813
 21
11.91583
  0
LINE
  8
別途部材
  6
CONTINUOUS
 10
15.401813
 20
9.915827
 11
15.401813
 21
11.91583
  0
LINE
  8
別途部材
  6
CONTINUOUS
 10
23.201813
 20
44.91583
 11
23.201813
 21
15.115833
  0
LINE
  8
別途部材
  6
CONTINUOUS
 10
23.201813
 20
15.115833
 11
16.40181
 21
15.115833
  0
LINE
  8
別途部材
  6
CONTINUOUS
 10
16.40181
 20
15.115833
 11
16.40181
 21
11.91583
  0
LINE
  8
別途部材
  6
CONTINUOUS
 10
26.401815
 20
44.91583
 11
26.401815
 21
15.115833
  0
ARC
  8
別途部材
  6
CONTINUOUS
 10
23.20182
 20
15.115836
 40
3.2
 50
-90.0
 51
0.0
  0
LINE
  8
別途部材
  6
CONTINUOUS
 10
15.401813
 20
11.91583
 11
27.401813
 21
11.91583
  0
LINE
  8
別途部材
  6
CONTINUOUS
 10
23.201813
 20
44.91583
 11
26.401815
 21
44.91583
  0
LINE
  8
別途部材
  6
CONTINUOUS
 10
23.201813
 20
31.41583
 11
26.401815
 21
31.41583
  0
LINE
  8
別途部材
  6
CONTINUOUS
 10
23.201813
 20
40.41583
 11
26.401815
 21
40.41583
  0
LINE
  8
別途部材
  6
CONTINUOUS
 10
21.401813
 20
35.91583
 11
28.817595
 21
35.91583
  0
LINE
  8
別途部材
  6
CONTINUOUS
 10
10.40181
 20
4.915833
 11
10.40181
 21
-51.17597
  0
LINE
  8
別途部材
  6
CONTINUOUS
 10
32.401815
 20
4.915833
 11
32.401815
 21
-51.17597
  0
LINE
  8
別途部材
  6
CONTINUOUS
 10
26.401815
 20
-116.084518
 11
23.201813
 21
-116.084518
  0
LINE
  8
別途部材
  6
CONTINUOUS
 10
26.401815
 20
-111.584518
 11
23.201813
 21
-111.584518
  0
LINE
  8
別途部材
  6
CONTINUOUS
 10
26.401815
 20
-102.584518
 11
23.201813
 21
-102.584518
  0
LINE
  8
別途部材
  6
CONTINUOUS
 10
28.515352
 20
-107.084518
 11
21.401813
 21
-107.084518
  0
LINE
  8
別途部材
  6
CONTINUOUS
 10
26.401815
 20
-82.724518
 11
26.401815
 21
-116.084518
  0
LINE
  8
別途部材
  6
CONTINUOUS
 10
23.201813
 20
-85.92452
 11
23.201813
 21
-116.084518
  0
ENDBLK
  0
BLOCK
  2
*GRP_0055
 70
    65
 10
0.0
 20
0.0
  0
POLYLINE
  8
寸法
  6
BYBLOCK
 62
     0
 66
     1
  0
VERTEX
  8
寸法
 10
-0.798188
 20
-101.779177
  0
VERTEX
  8
寸法
 10
-24.22544
 20
-125.206427
  0
VERTEX
  8
寸法
 10
-29.96393
 20
-125.206427
  0
SEQEND
  0
ENDBLK
  0
BLOCK
  2
*GRP_0056
 70
    65
 10
0.0
 20
0.0
  0
POLYLINE
  8
寸法
  6
BYBLOCK
 62
     0
 66
     1
  0
VERTEX
  8
寸法
 10
4.92867
 20
24.59854
  0
VERTEX
  8
寸法
 10
12.280875
 20
17.246335
  0
VERTEX
  8
寸法
 10
102.043375
 20
17.246335
  0
SEQEND
  0
ENDBLK
  0
BLOCK
  2
*GRP_0057
 70
    65
 10
0.0
 20
0.0
  0
POLYLINE
  8
寸法
  6
BYBLOCK
 62
     0
 66
     1
  0
VERTEX
  8
寸法
 10
-75.452638
 20
-91.284418
  0
VERTEX
  8
寸法
 10
-95.645097
 20
-111.476877
  0
VERTEX
  8
寸法
 10
-101.815258
 20
-111.476877
  0
SEQEND
  0
ENDBLK
  0
BLOCK
  2
*GRP_0058
 70
    65
 10
0.0
 20
0.0
  0
SPLINE
  5
1400000
100
AcDbEntity
  8
ガラス
100
AcDbSpline
  6
CONTINUOUS
 70
     0
 71
     3
 74
     3
 44
0.0
 11
-11.338437
 21
-63.104007
 11
-9.51962
 21
-63.173908
 11
-8.248672
 21
-64.272665
  0
SPLINE
  5
1400001
100
AcDbEntity
  8
ガラス
100
AcDbSpline
  6
CONTINUOUS
 70
     0
 71
     3
 74
     3
 44
0.0
 11
-8.248672
 21
-64.272665
 11
-9.550782
 21
-64.48194
 11
-10.614667
 21
-64.871857
  0
ARC
  8
ガラス
  6
CONTINUOUS
 10
-10.976552
 20
-63.987931
 40
0.955135
 50
112.264588
 51
292.264588
  0
ENDBLK
  0
BLOCK
  2
*GRP_0059
 70
    65
 10
0.0
 20
0.0
  0
SPLINE
  5
1400002
100
AcDbEntity
  8
ガラス
100
AcDbSpline
  6
CONTINUOUS
 70
     0
 71
     3
 74
     3
 44
0.0
 11
-25.658825
 21
-63.104007
 11
-23.840007
 21
-63.173908
 11
-22.56906
 21
-64.272665
  0
SPLINE
  5
1400003
100
AcDbEntity
  8
ガラス
100
AcDbSpline
  6
CONTINUOUS
 70
     0
 71
     3
 74
     3
 44
0.0
 11
-22.56906
 21
-64.272665
 11
-23.87117
 21
-64.48194
 11
-24.935055
 21
-64.871857
  0
ARC
  8
ガラス
  6
CONTINUOUS
 10
-25.29694
 20
-63.987931
 40
0.955135
 50
112.264588
 51
292.264588
  0
ENDBLK
  0
BLOCK
  2
*GRP_0060
 70
    65
 10
0.0
 20
0.0
  0
SPLINE
  5
1400004
100
AcDbEntity
  8
ガラス
100
AcDbSpline
  6
CONTINUOUS
 70
     0
 71
     3
 74
     3
 44
0.0
 11
-43.15533
 21
-63.104007
 11
-41.336513
 21
-63.173908
 11
-40.065565
 21
-64.272665
  0
SPLINE
  5
1400005
100
AcDbEntity
  8
ガラス
100
AcDbSpline
  6
CONTINUOUS
 70
     0
 71
     3
 74
     3
 44
0.0
 11
-40.065565
 21
-64.272665
 11
-41.367675
 21
-64.48194
 11
-42.43156
 21
-64.871857
  0
ARC
  8
ガラス
  6
CONTINUOUS
 10
-42.793445
 20
-63.987931
 40
0.955135
 50
112.264588
 51
292.264588
  0
ENDBLK
  0
BLOCK
  2
*GRP_0061
 70
    65
 10
0.0
 20
0.0
  0
SPLINE
  5
1400006
100
AcDbEntity
  8
ガラス
100
AcDbSpline
  6
CONTINUOUS
 70
     0
 71
     3
 74
     3
 44
0.0
 11
-57.14139
 21
-63.104007
 11
-55.322573
 21
-63.173908
 11
-54.051625
 21
-64.272665
  0
SPLINE
  5
1400007
100
AcDbEntity
  8
ガラス
100
AcDbSpline
  6
CONTINUOUS
 70
     0
 71
     3
 74
     3
 44
0.0
 11
-54.051625
 21
-64.272665
 11
-55.353735
 21
-64.48194
 11
-56.41762
 21
-64.871857
  0
ARC
  8
ガラス
  6
CONTINUOUS
 10
-56.779505
 20
-63.987931
 40
0.955135
 50
112.264588
 51
292.264588
  0
ENDBLK
  0
BLOCK
  2
*GRP_0062
 70
    65
 10
0.0
 20
0.0
  0
LINE
  8
型材断面
  6
CONTINUOUS
 62
    47
 10
-8.201242
 20
72.813467
 11
-31.798185
 21
72.813467
  0
LINE
  8
型材断面
  6
CONTINUOUS
 62
    47
 10
-31.798185
 20
72.813467
 11
-31.79817
 21
56.81557
  0
LINE
  8
型材断面
  6
CONTINUOUS
 62
    47
 10
-8.201242
 20
72.113567
 11
-8.201242
 21
72.813467
  0
ARC
  8
型材断面
  6
CONTINUOUS
 62
    47
 10
-7.901283
 20
72.113587
 40
0.299961
 50
180.0
 51
270.0
  0
LINE
  8
型材断面
  6
CONTINUOUS
 62
    47
 10
-7.301362
 20
71.813628
 11
-7.90128
 21
71.81362
  0
ARC
  8
型材断面
  6
CONTINUOUS
 62
    47
 10
-7.30136
 20
72.113587
 40
0.299961
 50
270.0
 51
360.0
  0
LINE
  8
型材断面
  6
CONTINUOUS
 62
    47
 10
-7.001408
 20
74.51326
 11
-7.001408
 21
72.113575
  0
ARC
  8
型材断面
  6
CONTINUOUS
 62
    47
 10
-7.30136
 20
74.513277
 40
0.299961
 50
360.0
 51
450.0
  0
LINE
  8
型材断面
  6
CONTINUOUS
 62
    47
 10
-33.79794
 20
74.513275
 11
-33.797925
 21
70.313793
  0
LINE
  8
型材断面
  6
CONTINUOUS
 62
    47
 10
-33.497985
 20
74.813222
 11
-7.301355
 21
74.813222
  0
ARC
  8
型材断面
  6
CONTINUOUS
 62
    47
 10
-33.497968
 20
74.513277
 40
0.299961
 50
90.0
 51
180.0
  0
LINE
  8
型材断面
  6
CONTINUOUS
 62
    47
 10
-35.297738
 20
70.313793
 11
-33.797925
 21
70.313793
  0
ARC
  8
型材断面
  6
CONTINUOUS
 62
    47
 10
-35.297735
 20
70.013859
 40
0.299961
 50
90.0
 51
180.0
  0
LINE
  8
型材断面
  6
CONTINUOUS
 62
    47
 10
-35.297738
 20
68.813995
 11
-33.797933
 21
68.813995
  0
LINE
  8
型材断面
  6
CONTINUOUS
 62
    47
 10
-35.597685
 20
69.113973
 11
-35.597692
 21
70.013853
  0
ARC
  8
型材断面
  6
CONTINUOUS
 62
    47
 10
-35.297735
 20
69.113976
 40
0.299961
 50
180.0
 51
270.0
  0
LINE
  8
型材断面
  6
CONTINUOUS
 62
    47
 10
-33.797933
 20
55.115777
 11
-33.797933
 21
68.813995
  0
ARC
  8
型材断面
  6
CONTINUOUS
 62
    47
 10
-33.497968
 20
55.115788
 40
0.299961
 50
180.0
 51
270.0
  0
LINE
  8
型材断面
  6
CONTINUOUS
 62
    47
 10
-29.398515
 20
56.81557
 11
-31.79817
 21
56.81557
  0
ARC
  8
型材断面
  6
CONTINUOUS
 62
    47
 10
-29.398499
 20
56.515607
 40
0.299961
 50
360.0
 51
450.0
  0
ARC
  8
型材断面
  6
CONTINUOUS
 62
    47
 10
-29.398499
 20
55.115788
 40
0.299961
 50
270.0
 51
360.0
  0
LINE
  8
型材断面
  6
CONTINUOUS
 62
    47
 10
-29.098545
 20
56.515592
 11
-29.09853
 21
54.81583
  0
LINE
  8
型材断面
  6
CONTINUOUS
 62
    47
 10
-33.497985
 20
54.815822
 11
-29.09853
 21
54.81583
  0
ENDBLK
  0
BLOCK
  2
*GRP_0063
 70
    65
 10
0.0
 20
0.0
  0
LINE
  8
ゴム等
  6
CONTINUOUS
 10
-17.798197
 20
59.815825
 11
-17.798197
 21
54.81583
  0
LINE
  8
ゴム等
  6
CONTINUOUS
 10
-17.798197
 20
59.815825
 11
-27.798195
 21
59.815825
  0
LINE
  8
ゴム等
  6
CONTINUOUS
 10
-27.798195
 20
59.815825
 11
-27.798195
 21
54.81583
  0
LINE
  8
ゴム等
  6
CONTINUOUS
 10
-17.798197
 20
54.81583
 11
-27.798195
 21
54.81583
  0
LINE
  8
ゴム等
  6
CONTINUOUS
 10
-27.798195
 20
56.145947
 11
-26.468077
 21
54.81583
  0
LINE
  8
ゴム等
  6
CONTINUOUS
 10
-27.798195
 20
57.560162
 11
-25.053863
 21
54.81583
  0
LINE
  8
ゴム等
  6
CONTINUOUS
 10
-27.798195
 20
58.974378
 11
-23.639647
 21
54.81583
  0
LINE
  8
ゴム等
  6
CONTINUOUS
 10
-24.397005
 20
59.815825
 11
-19.39701
 21
54.81583
  0
LINE
  8
ゴム等
  6
CONTINUOUS
 10
-25.81122
 20
59.815825
 11
-20.811218
 21
54.81583
  0
LINE
  8
ゴム等
  6
CONTINUOUS
 10
-27.225435
 20
59.815825
 11
-22.225432
 21
54.81583
  0
LINE
  8
ゴム等
  6
CONTINUOUS
 10
-22.98279
 20
59.815825
 11
-17.982795
 21
54.81583
  0
LINE
  8
ゴム等
  6
CONTINUOUS
 10
-21.568575
 20
59.815825
 11
-17.798197
 21
56.045448
  0
LINE
  8
ゴム等
  6
CONTINUOUS
 10
-20.154367
 20
59.815825
 11
-17.798197
 21
57.459655
  0
LINE
  8
ゴム等
  6
CONTINUOUS
 10
-18.740153
 20
59.815825
 11
-17.798197
 21
58.87387
  0
ENDBLK
  0
BLOCK
  2
*GRP_0064
 70
    65
 10
0.0
 20
0.0
  0
LINE
  8
ゴム等
  6
CONTINUOUS
 10
-18.20124
 20
72.813467
 11
-8.201242
 21
72.813467
  0
LINE
  8
ゴム等
  6
CONTINUOUS
 10
-18.20124
 20
66.615827
 11
-8.201242
 21
66.615827
  0
LINE
  8
ゴム等
  6
CONTINUOUS
 10
-18.20124
 20
72.813467
 11
-18.20124
 21
66.615827
  0
LINE
  8
ゴム等
  6
CONTINUOUS
 10
-8.201242
 20
72.813467
 11
-8.201242
 21
66.615827
  0
LINE
  8
ゴム等
  6
CONTINUOUS
 10
-17.114475
 20
66.615827
 11
-18.20124
 21
67.702592
  0
LINE
  8
ゴム等
  6
CONTINUOUS
 10
-15.70026
 20
66.615827
 11
-18.20124
 21
69.116807
  0
LINE
  8
ゴム等
  6
CONTINUOUS
 10
-14.286045
 20
66.615827
 11
-18.20124
 21
70.531022
  0
LINE
  8
ゴム等
  6
CONTINUOUS
 10
-12.87183
 20
66.615827
 11
-18.20124
 21
71.94523
  0
LINE
  8
ゴム等
  6
CONTINUOUS
 10
-11.457615
 20
66.615827
 11
-17.655263
 21
72.813467
  0
LINE
  8
ゴム等
  6
CONTINUOUS
 10
-10.043408
 20
66.615827
 11
-16.241047
 21
72.813467
  0
LINE
  8
ゴム等
  6
CONTINUOUS
 10
-8.629193
 20
66.615827
 11
-14.826833
 21
72.813467
  0
LINE
  8
ゴム等
  6
CONTINUOUS
 10
-8.201242
 20
67.602093
 11
-13.412618
 21
72.813467
  0
LINE
  8
ゴム等
  6
CONTINUOUS
 10
-8.201242
 20
69.0163
 11
-11.99841
 21
72.813467
  0
LINE
  8
ゴム等
  6
CONTINUOUS
 10
-8.201242
 20
70.430515
 11
-10.584195
 21
72.813467
  0
LINE
  8
ゴム等
  6
CONTINUOUS
 10
-9.169988
 20
72.813467
 11
-8.201242
 21
71.844722
  0
ENDBLK
  0
BLOCK
  2
*DIM_0065
 70
    65
 10
0.0
 20
0.0
  0
LINE
  8
寸法
  6
CONTINUOUS
 10
-11.798193
 20
55.915825
 11
57.116995
 21
55.915825
  0
LINE
  8
寸法
  6
CONTINUOUS
 10
24.594505
 20
59.815825
 11
57.116995
 21
59.815825
  0
LINE
  8
寸法
  6
CONTINUOUS
 10
57.116995
 20
55.915825
 11
57.116995
 21
59.815825
  0
POINT
  8
寸法
 10
57.116995
 20
55.915825
  0
POINT
  8
寸法
 10
57.116995
 20
59.815825
  0
TEXT
  7
TextStyle03
  8
寸法
  6
CONTINUOUS
 10
60.1
 20
55.4125
  1
3.9
 40
3.0
 50
90.0
 72
     5
 11
60.1
 21
60.2875
  0
ENDBLK
  0
BLOCK
  2
*DIM_0066
 70
    65
 10
0.0
 20
0.0
  0
LINE
  8
寸法
  6
CONTINUOUS
 10
24.594505
 20
66.615825
 11
57.116995
 21
66.615825
  0
LINE
  8
寸法
  6
CONTINUOUS
 10
57.116995
 20
59.815825
 11
57.116995
 21
66.615825
  0
POINT
  8
寸法
 10
57.116995
 20
66.615825
  0
TEXT
  7
TextStyle03
  8
寸法
  6
CONTINUOUS
 10
56.725
 20
60.7625
  1
6.8
 40
3.0
 50
90.0
 72
     5
 11
56.725
 21
65.6375
  0
ENDBLK
  0
ENDSEC
  0
SECTION
  2
ENTITIES
  0
POLYLINE
  8
通り芯
  6
CONTINUOUS
 66
     1
 70
     1
  0
VERTEX
  8
通り芯
 10
-210.0
 20
-148.5
  0
VERTEX
  8
通り芯
 10
210.0
 20
-148.5
  0
VERTEX
  8
通り芯
 10
210.0
 20
148.5
  0
VERTEX
  8
通り芯
 10
-210.0
 20
148.5
  0
SEQEND
  0
INSERT
  2
*GRP_0001
  8
型材断面
  6
CONTINUOUS
 10
0.0
 20
0.0
  0
INSERT
  2
*GRP_0002
  8
型材断面
  6
CONTINUOUS
 62
    47
 10
0.0
 20
0.0
  0
LINE
  8
型材断面
  6
DASHDOT
 10
-17.798178
 20
91.919223
 11
-17.798178
 21
128.95056
  0
LINE
  8
型材断面
  6
DOT
 10
-49.802425
 20
-59.084297
 11
-51.802425
 21
-59.084297
  0
LINE
  8
型材断面
  6
DOT
 10
-49.802425
 20
-65.084297
 11
-51.802425
 21
-65.084297
  0
LINE
  8
型材断面
  6
DOT
 10
-51.302425
 20
-65.084297
 11
-51.302425
 21
-59.084297
  0
LINE
  8
型材断面
  6
DOT
 10
-50.802425
 20
-65.084297
 11
-50.802425
 21
-59.084297
  0
LINE
  8
型材断面
  6
DOT
 10
-50.302425
 20
-65.084297
 11
-50.302425
 21
-59.084297
  0
LINE
  8
型材断面
  6
DOT
 10
-27.798178
 20
-59.084297
 11
-29.798178
 21
-59.084297
  0
LINE
  8
型材断面
  6
DOT
 10
-27.798178
 20
-65.084297
 11
-29.798178
 21
-65.084297
  0
LINE
  8
型材断面
  6
DOT
 10
-29.298178
 20
-65.084297
 11
-29.298178
 21
-59.084297
  0
LINE
  8
型材断面
  6
DOT
 10
-28.798178
 20
-65.084297
 11
-28.798178
 21
-59.084297
  0
LINE
  8
型材断面
  6
DOT
 10
-28.298178
 20
-65.084297
 11
-28.298178
 21
-59.084297
  0
INSERT
  2
*GRP_0062
  8
型材断面
  6
CONTINUOUS
 10
0.0
 20
0.0
  0
INSERT
  2
*GRP_0058
  8
ガラス
  6
CONTINUOUS
 10
0.0
 20
0.0
  0
INSERT
  2
*GRP_0059
  8
ガラス
  6
CONTINUOUS
 10
0.0
 20
0.0
  0
INSERT
  2
*GRP_0060
  8
ガラス
  6
CONTINUOUS
 10
0.0
 20
0.0
  0
INSERT
  2
*GRP_0061
  8
ガラス
  6
CONTINUOUS
 10
0.0
 20
0.0
  0
INSERT
  2
*GRP_0003
  8
ゴム等
  6
CONTINUOUS
 10
0.0
 20
0.0
  0
INSERT
  2
*GRP_0004
  8
ゴム等
  6
CONTINUOUS
 10
0.0
 20
0.0
  0
INSERT
  2
*GRP_0005
  8
ゴム等
  6
CONTINUOUS
 10
0.0
 20
0.0
  0
INSERT
  2
*GRP_0063
  8
ゴム等
  6
CONTINUOUS
 10
0.0
 20
0.0
  0
INSERT
  2
*GRP_0006
  8
ボルト／ビス
  6
CONTINUOUS
 62
    64
 10
0.0
 20
0.0
  0
INSERT
  2
*GRP_0007
  8
ボルト／ビス
  6
CONTINUOUS
 62
    64
 10
0.0
 20
0.0
  0
INSERT
  2
*GRP_0008
  8
ボルト／ビス
  6
CONTINUOUS
 62
    64
 10
0.0
 20
0.0
  0
INSERT
  2
*GRP_0044
  8
ボルト／ビス
  6
CONTINUOUS
 62
    64
 10
0.0
 20
0.0
  0
INSERT
  2
*GRP_0053
  8
ボルト／ビス
  6
CONTINUOUS
 10
0.0
 20
0.0
  0
TEXT
  7
TextStyle03
  8
文字
  6
CONTINUOUS
 10
-150.675
 20
96.525
  1
ドーム高さ
 40
3.0
 50
90.0
 72
     5
 11
-150.675
 21
113.025
  0
TEXT
  7
TextStyle03
  8
文字
  6
CONTINUOUS
 10
40.625
 20
128.95
  1
呼称寸法
 40
3.0
 72
     5
 11
53.75
 21
128.95
  0
TEXT
  7
TextStyle03
  8
文字
  6
CONTINUOUS
 10
35.625
 20
122.45
  1
有効開口寸法
 40
3.0
 72
     5
 11
55.5
 21
122.45
  0
TEXT
  7
TextStyle03
  8
文字
  6
CONTINUOUS
 10
4.825
 20
80.175
  1
TKR-1701
 40
4.0
 72
     5
 11
22.575
 21
80.175
  0
TEXT
  7
TextStyle03
  8
文字
  6
CONTINUOUS
 10
5.85
 20
71.025
  1
TKR-1303
 40
4.0
 72
     5
 11
23.6
 21
71.025
  0
TEXT
  7
TextStyle03
  8
文字
  6
CONTINUOUS
 10
3.95
 20
49.15
  1
TKR-1204
 40
4.0
 72
     5
 11
21.7
 21
49.15
  0
TEXT
  7
TextStyle03
  8
文字
  6
CONTINUOUS
 10
-99.1
 20
-57.425
  1
コーナーシール
 40
3.0
 72
     5
 11
-75.85
 21
-57.425
  0
TEXT
  7
TextStyle03
  8
文字
  6
CONTINUOUS
 10
-99.1
 20
-60.8
  1
（工場）
 40
3.0
 72
     5
 11
-85.975
 21
-60.8
  0
TEXT
  7
TextStyle03
  8
文字
  6
CONTINUOUS
 10
-107.925
 20
-48.4
  1
コーナージョイント金物
 40
3.0
 72
     5
 11
-71.175
 21
-48.4
  0
TEXT
  7
TextStyle03
  8
文字
  6
CONTINUOUS
 10
-107.925
 20
-51.775
  1
St-1.6t
 40
3.0
 72
     5
 11
-96.3
 21
-51.775
  0
TEXT
  7
TextStyle03
  8
文字
  6
CONTINUOUS
 10
-111.875
 20
-34.45
  1
滑車・ダンパー裏板
 40
4.0
 72
     5
 11
-71.875
 21
-34.45
  0
TEXT
  7
TextStyle03
  8
文字
  6
CONTINUOUS
 10
-111.875
 20
-38.95
  1
St-2.3t
 40
4.0
 72
     5
 11
-96.375
 21
-38.95
  0
TEXT
  7
TextStyle03
  8
文字
  6
CONTINUOUS
 10
-128.175
 20
-24.275
  1
St-2.3t（電気メッキ）
 40
3.0
 72
     5
 11
-93.1125
 21
-24.275
  0
TEXT
  7
TextStyle03
  8
文字
  6
CONTINUOUS
 10
-128.175
 20
-27.65
  1
Ｌ＝60
 40
3.0
 72
     5
 11
-118.2375
 21
-27.65
  0
TEXT
  7
TextStyle03
  8
文字
  6
CONTINUOUS
 10
-137.775
 20
-113.175
  1
KA-50C　末栄金属
 40
4.0
 72
     5
 11
-102.275
 21
-113.175
  0
TEXT
  7
TextStyle03
  8
文字
  6
CONTINUOUS
 10
101.375
 20
-50.75
  1
ガスダンパー
 40
4.0
 72
     5
 11
127.875
 21
-50.75
  0
TEXT
  7
TextStyle03
  8
文字
  6
CONTINUOUS
 10
103.05
 20
15.1
  1
ダンパーブラケット：St-3.2t
 40
4.0
 72
     5
 11
163.55
 21
15.1
  0
TEXT
  7
TextStyle03
  8
文字
  6
CONTINUOUS
 10
103.05
 20
10.6
  1
　　　　　　　　　(メッキ＋塗装)
 40
4.0
 72
     5
 11
174.8
 21
10.6
  0
TEXT
  7
TextStyle03
  8
文字
  6
CONTINUOUS
 10
-103.55
 20
-123.625
  1
ダンパーブラケット：St-3.2t
 40
4.0
 72
     5
 11
-43.05
 21
-123.625
  0
TEXT
  7
TextStyle03
  8
文字
  6
CONTINUOUS
 10
-103.55
 20
-128.125
  1
　　　　　　　　　(メッキ＋塗装)
 40
4.0
 72
     5
 11
-31.8
 21
-128.125
  0
TEXT
  7
TextStyle03
  8
文字
  6
CONTINUOUS
 10
85.625
 20
85.425
  1
ＮＳコード：ＮＳＨＺ
 40
5.0
 72
     5
 11
141.25
 21
85.425
  0
TEXT
  7
TextStyle03
  8
文字
  6
CONTINUOUS
 10
-113.425
 20
21.6
  1
滑車・ダンパー裏板
 40
4.0
 72
     5
 11
-73.425
 21
21.6
  0
TEXT
  7
TextStyle03
  8
文字
  6
CONTINUOUS
 10
-113.425
 20
17.1
  1
St-3.2t
 40
4.0
 72
     5
 11
-97.925
 21
17.1
  0
TEXT
  7
TextStyle03
  8
文字
  6
CONTINUOUS
 10
86.25
 20
106.45
  1
シリーズ：ＴＤ２Ｈ
 40
5.0
 72
     5
 11
136.25
 21
106.45
  0
TEXT
  7
TextStyle03
  8
文字
  6
CONTINUOUS
 10
86.25
 20
100.825
  1
　　　　　（片側開閉）　　
 40
5.0
 72
     5
 11
158.75
 21
100.825
  0
TEXT
  7
TextStyle03
  8
文字
  6
CONTINUOUS
 10
86.25
 20
95.2
  1
図面名　：下枠断面詳細図　ダンパー側
 40
5.0
 72
     5
 11
186.875
 21
95.2
  0
INSERT
  2
*DIM_0009
  8
寸法
  6
CONTINUOUS
 10
0.0
 20
0.0
  0
INSERT
  2
*DIM_0010
  8
寸法
  6
CONTINUOUS
 10
0.0
 20
0.0
  0
INSERT
  2
*DIM_0011
  8
寸法
  6
CONTINUOUS
 10
0.0
 20
0.0
  0
INSERT
  2
*DIM_0012
  8
寸法
  6
CONTINUOUS
 10
0.0
 20
0.0
  0
INSERT
  2
*DIM_0013
  8
寸法
  6
CONTINUOUS
 10
0.0
 20
0.0
  0
INSERT
  2
*DIM_0014
  8
寸法
  6
CONTINUOUS
 10
0.0
 20
0.0
  0
INSERT
  2
*DIM_0015
  8
寸法
  6
CONTINUOUS
 10
0.0
 20
0.0
  0
INSERT
  2
*DIM_0016
  8
寸法
  6
CONTINUOUS
 10
0.0
 20
0.0
  0
INSERT
  2
*DIM_0017
  8
寸法
  6
CONTINUOUS
 10
0.0
 20
0.0
  0
INSERT
  2
*DIM_0018
  8
寸法
  6
CONTINUOUS
 10
0.0
 20
0.0
  0
LINE
  8
寸法
  6
CONTINUOUS
 10
-150.040915
 20
91.919223
 11
-150.040915
 21
127.101507
  0
POLYLINE
  8
寸法
  6
CONTINUOUS
 66
     1
  0
VERTEX
  8
寸法
 10
-150.040915
 20
127.101507
  0
VERTEX
  8
寸法
 10
-152.608677
 20
118.511375
  0
VERTEX
  8
寸法
 10
-150.040915
 20
118.511375
  0
SEQEND
  0
POLYLINE
  8
寸法
  6
CONTINUOUS
 66
     1
  0
VERTEX
  8
寸法
 10
-150.040915
 20
125.509403
  0
VERTEX
  8
寸法
 10
-152.608677
 20
116.91927
  0
VERTEX
  8
寸法
 10
-150.040915
 20
116.91927
  0
SEQEND
  0
LINE
  8
寸法
  6
CONTINUOUS
 10
-17.798178
 20
128.95056
 11
81.073007
 21
128.95056
  0
POLYLINE
  8
寸法
  6
CONTINUOUS
 66
     1
  0
VERTEX
  8
寸法
 10
81.073007
 20
128.95056
  0
VERTEX
  8
寸法
 10
72.482875
 20
126.382798
  0
VERTEX
  8
寸法
 10
72.482875
 20
128.95056
  0
SEQEND
  0
POLYLINE
  8
寸法
  6
CONTINUOUS
 66
     1
  0
VERTEX
  8
寸法
 10
79.480903
 20
128.95056
  0
VERTEX
  8
寸法
 10
70.89077
 20
126.382798
  0
VERTEX
  8
寸法
 10
70.89077
 20
128.95056
  0
SEQEND
  0
POLYLINE
  8
寸法
  6
CONTINUOUS
 66
     1
  0
VERTEX
  8
寸法
 10
81.073007
 20
128.95056
  0
VERTEX
  8
寸法
 10
72.482875
 20
131.518323
  0
VERTEX
  8
寸法
 10
72.482875
 20
128.95056
  0
SEQEND
  0
POLYLINE
  8
寸法
  6
CONTINUOUS
 66
     1
  0
VERTEX
  8
寸法
 10
79.480903
 20
128.95056
  0
VERTEX
  8
寸法
 10
70.89077
 20
131.518323
  0
VERTEX
  8
寸法
 10
70.89077
 20
128.95056
  0
SEQEND
  0
POLYLINE
  8
寸法
  6
CONTINUOUS
 66
     1
  0
VERTEX
  8
寸法
 10
81.073007
 20
122.443323
  0
VERTEX
  8
寸法
 10
72.482875
 20
125.011085
  0
VERTEX
  8
寸法
 10
72.482875
 20
122.443323
  0
SEQEND
  0
POLYLINE
  8
寸法
  6
CONTINUOUS
 66
     1
  0
VERTEX
  8
寸法
 10
79.480903
 20
122.443323
  0
VERTEX
  8
寸法
 10
70.89077
 20
125.011085
  0
VERTEX
  8
寸法
 10
70.89077
 20
122.443323
  0
SEQEND
  0
INSERT
  2
*DIM_0019
  8
寸法
  6
CONTINUOUS
 10
0.0
 20
0.0
  0
INSERT
  2
*DIM_0020
  8
寸法
  6
CONTINUOUS
 10
0.0
 20
0.0
  0
LINE
  8
寸法
  6
CONTINUOUS
 10
81.073007
 20
122.443323
 11
-2.798178
 21
122.443323
  0
INSERT
  2
*DIM_0021
  8
寸法
  6
CONTINUOUS
 10
0.0
 20
0.0
  0
INSERT
  2
*DIM_0022
  8
寸法
  6
CONTINUOUS
 10
0.0
 20
0.0
  0
INSERT
  2
*DIM_0023
  8
寸法
  6
CONTINUOUS
 10
0.0
 20
0.0
  0
INSERT
  2
*DIM_0024
  8
寸法
  6
CONTINUOUS
 10
0.0
 20
0.0
  0
INSERT
  2
*DIM_0025
  8
寸法
  6
CONTINUOUS
 10
0.0
 20
0.0
  0
INSERT
  2
*DIM_0026
  8
寸法
  6
CONTINUOUS
 10
0.0
 20
0.0
  0
INSERT
  2
*DIM_0027
  8
寸法
  6
CONTINUOUS
 10
0.0
 20
0.0
  0
INSERT
  2
*DIM_0028
  8
寸法
  6
CONTINUOUS
 10
0.0
 20
0.0
  0
INSERT
  2
*DIM_0029
  8
寸法
  6
CONTINUOUS
 10
0.0
 20
0.0
  0
INSERT
  2
*GRP_0030
  8
寸法
  6
CONTINUOUS
 10
0.0
 20
0.0
  0
INSERT
  2
*GRP_0031
  8
寸法
  6
CONTINUOUS
 10
0.0
 20
0.0
  0
INSERT
  2
*GRP_0032
  8
寸法
  6
CONTINUOUS
 10
0.0
 20
0.0
  0
INSERT
  2
*GRP_0033
  8
寸法
  6
CONTINUOUS
 10
0.0
 20
0.0
  0
INSERT
  2
*GRP_0034
  8
寸法
  6
CONTINUOUS
 10
0.0
 20
0.0
  0
INSERT
  2
*GRP_0035
  8
寸法
  6
CONTINUOUS
 10
0.0
 20
0.0
  0
INSERT
  2
*GRP_0036
  8
寸法
  6
CONTINUOUS
 10
0.0
 20
0.0
  0
INSERT
  2
*GRP_0037
  8
寸法
  6
CONTINUOUS
 10
0.0
 20
0.0
  0
INSERT
  2
*DIM_0038
  8
寸法
  6
CONTINUOUS
 10
0.0
 20
0.0
  0
INSERT
  2
*DIM_0039
  8
寸法
  6
CONTINUOUS
 10
0.0
 20
0.0
  0
INSERT
  2
*DIM_0040
  8
寸法
  6
CONTINUOUS
 10
0.0
 20
0.0
  0
INSERT
  2
*DIM_0041
  8
寸法
  6
CONTINUOUS
 10
0.0
 20
0.0
  0
INSERT
  2
*DIM_0042
  8
寸法
  6
CONTINUOUS
 10
0.0
 20
0.0
  0
INSERT
  2
*DIM_0043
  8
寸法
  6
CONTINUOUS
 10
0.0
 20
0.0
  0
INSERT
  2
*DIM_0047
  8
寸法
  6
CONTINUOUS
 10
0.0
 20
0.0
  0
INSERT
  2
*GRP_0048
  8
寸法
  6
CONTINUOUS
 10
0.0
 20
0.0
  0
INSERT
  2
*DIM_0049
  8
寸法
  6
CONTINUOUS
 10
0.0
 20
0.0
  0
INSERT
  2
*DIM_0050
  8
寸法
  6
CONTINUOUS
 10
0.0
 20
0.0
  0
INSERT
  2
*DIM_0051
  8
寸法
  6
CONTINUOUS
 10
0.0
 20
0.0
  0
INSERT
  2
*DIM_0052
  8
寸法
  6
CONTINUOUS
 10
0.0
 20
0.0
  0
INSERT
  2
*GRP_0055
  8
寸法
  6
CONTINUOUS
 10
0.0
 20
0.0
  0
INSERT
  2
*GRP_0056
  8
寸法
  6
CONTINUOUS
 10
0.0
 20
0.0
  0
INSERT
  2
*GRP_0057
  8
寸法
  6
CONTINUOUS
 10
0.0
 20
0.0
  0
INSERT
  2
*DIM_0065
  8
寸法
  6
CONTINUOUS
 10
0.0
 20
0.0
  0
INSERT
  2
*DIM_0066
  8
寸法
  6
CONTINUOUS
 10
0.0
 20
0.0
  0
ARC
  8
別途部材
  6
CONTINUOUS
 62
    96
 10
-62.375401
 20
83.909731
 40
5.005952
 50
90.001373
 51
158.200992
  0
LINE
  8
別途部材
  6
CONTINUOUS
 62
    96
 10
-67.798178
 20
91.919223
 11
-17.798178
 21
91.919223
  0
LINE
  8
別途部材
  6
CONTINUOUS
 62
    96
 10
-79.79815
 20
61.919223
 11
-76.5632
 21
61.919223
  0
LINE
  8
別途部材
  6
CONTINUOUS
 62
    96
 10
-67.798178
 20
91.919223
 11
-79.79815
 21
61.919223
  0
LINE
  8
別途部材
  6
CONTINUOUS
 62
    96
 10
-67.02335
 20
85.768848
 11
-76.5632
 21
61.919223
  0
ARC
  8
別途部材
  6
CONTINUOUS
 62
    96
 10
216.958886
 20
-47.072549
 40
272.817885
 50
140.880649
 51
149.371644
  0
ARC
  8
別途部材
  6
CONTINUOUS
 62
    96
 10
216.958886
 20
-47.072549
 40
269.860905
 50
140.368216
 51
149.74034
  0
LINE
  8
別途部材
  6
CONTINUOUS
 62
    96
 10
-16.13362
 20
88.915647
 11
-62.35805
 21
88.915647
  0
INSERT
  2
*GRP_0054
  8
別途部材
  6
CONTINUOUS
 10
0.0
 20
0.0
  0
INSERT
  2
*GRP_0064
  8
別途部材
  6
DASHDOT
 10
0.0
 20
0.0
  0
LINE
  8
曲げ物
  6
CONTINUOUS
 10
-25.798178
 20
66.615825
 11
-25.798178
 21
59.815825
  0
LINE
  8
曲げ物
  6
CONTINUOUS
 10
19.594505
 20
65.615825
 11
-25.798178
 21
65.615825
  0
LINE
  8
曲げ物
  6
CONTINUOUS
 10
19.594505
 20
66.615825
 11
-25.798178
 21
66.615825
  0
LINE
  8
曲げ物
  6
CONTINUOUS
 10
19.594505
 20
59.815825
 11
-25.798178
 21
59.815825
  0
LINE
  8
曲げ物
  6
CONTINUOUS
 10
19.594505
 20
60.815825
 11
-25.798178
 21
60.815825
  0
LINE
  8
St
  6
CONTINUOUS
 10
-47.69848
 20
70.113793
 11
-44.69848
 21
70.113793
  0
LINE
  8
St
  6
CONTINUOUS
 10
-44.69848
 20
54.815827
 11
-44.69848
 21
70.113793
  0
LINE
  8
St
  6
CONTINUOUS
 10
-32.998178
 20
-0.084173
 11
-29.798178
 21
-0.084173
  0
LINE
  8
St
  6
CONTINUOUS
 10
-32.998178
 20
-0.084173
 11
-32.998178
 21
45.915827
  0
LINE
  8
St
  6
CONTINUOUS
 10
-32.998178
 20
45.915827
 11
-29.798178
 21
45.915827
  0
LINE
  8
St
  6
CONTINUOUS
 10
-29.798178
 20
-0.084173
 11
-29.798178
 21
45.915827
  0
LINE
  8
St
  6
CONTINUOUS
 10
-32.998178
 20
35.657863
 11
-29.798178
 21
38.857865
  0
LINE
  8
St
  6
CONTINUOUS
 10
-32.998178
 20
34.950757
 11
-29.798178
 21
38.15076
  0
LINE
  8
St
  6
CONTINUOUS
 10
-32.998178
 20
8.00564
 11
-29.798178
 21
11.205643
  0
LINE
  8
St
  6
CONTINUOUS
 10
-32.998178
 20
7.298535
 11
-29.798178
 21
10.498538
  0
LINE
  8
St
  6
CONTINUOUS
 10
-49.298178
 20
-14.084297
 11
-49.298178
 21
-16.384297
  0
LINE
  8
St
  6
CONTINUOUS
 10
-49.298178
 20
-62.787242
 11
-49.298178
 21
-65.087242
  0
ARC
  8
St
  6
CONTINUOUS
 10
-32.098174
 20
-16.384295
 40
2.3
 50
0.0
 51
90.0
  0
LINE
  8
St
  6
CONTINUOUS
 10
-32.098178
 20
-25.717617
 11
-29.798193
 21
-28.017602
  0
LINE
  8
St
  6
CONTINUOUS
 10
-32.098178
 20
-25.010517
 11
-29.798193
 21
-27.310498
  0
ARC
  8
St
  6
CONTINUOUS
 10
-32.098174
 20
-62.78724
 40
2.3
 50
270.0
 51
360.0
  0
LINE
  8
St
  6
CONTINUOUS
 10
-32.098178
 20
-53.541727
 11
-29.798193
 21
-55.841712
  0
LINE
  8
St
  6
CONTINUOUS
 10
-32.098178
 20
-52.834627
 11
-29.798193
 21
-55.134608
  0
LINE
  8
St
  6
CONTINUOUS
 10
-32.098178
 20
-16.384297
 11
-32.098178
 21
-62.787242
  0
LINE
  8
St
  6
CONTINUOUS
 10
-29.798178
 20
-16.384297
 11
-29.798178
 21
-62.787242
  0
LINE
  8
St
  6
CONTINUOUS
 10
-49.298178
 20
-16.384297
 11
-32.098178
 21
-16.384297
  0
LINE
  8
St
  6
CONTINUOUS
 10
-49.298178
 20
-14.084297
 11
-32.098178
 21
-14.084297
  0
LINE
  8
St
  6
CONTINUOUS
 10
-49.298178
 20
-62.787242
 11
-32.098178
 21
-62.787242
  0
LINE
  8
St
  6
CONTINUOUS
 10
-49.298178
 20
-65.087242
 11
-32.098178
 21
-65.087242
  0
LINE
  8
St
  6
CONTINUOUS
 10
-36.026933
 20
-65.084297
 11
-38.32399
 21
-62.787242
  0
LINE
  8
St
  6
CONTINUOUS
 10
-36.734035
 20
-65.084297
 11
-39.031095
 21
-62.787242
  0
LINE
  8
St
  6
CONTINUOUS
 10
-42.63703
 20
-14.084297
 11
-40.337028
 21
-16.384297
  0
LINE
  8
St
  6
CONTINUOUS
 10
-41.929925
 20
-14.084297
 11
-39.629922
 21
-16.384297
  0
LINE
  8
St
  6
CONTINUOUS
 10
-111.202427
 20
-81.484353
 11
-53.209847
 21
-81.484353
  0
ARC
  8
St
  6
CONTINUOUS
 10
-53.20142
 20
-81.484351
 40
1.6
 50
-90.0
 51
0.0
  0
LINE
  8
St
  6
CONTINUOUS
 10
-112.802427
 20
-83.084353
 11
-31.802427
 21
-83.084353
  0
LINE
  8
St
  6
DOT
 10
-53.209847
 20
-81.484353
 11
-31.802427
 21
-81.484353
  0
LINE
  8
St
  6
CONTINUOUS
 10
-84.23502
 20
-83.084353
 11
-82.635015
 21
-81.484353
  0
LINE
  8
St
  6
CONTINUOUS
 10
-83.527915
 20
-83.084353
 11
-81.92791
 21
-81.484353
  0
LINE
  8
St
  6
CONTINUOUS
 10
-57.213742
 20
-83.084353
 11
-55.613738
 21
-81.484353
  0
LINE
  8
St
  6
CONTINUOUS
 10
-56.506638
 20
-83.084353
 11
-54.906632
 21
-81.484353
  0
LINE
  8
St
  6
CONTINUOUS
 10
-111.202427
 20
-83.084353
 11
-111.202427
 21
-76.067713
  0
LINE
  8
St
  6
CONTINUOUS
 10
-112.802427
 20
-83.084353
 11
-112.802427
 21
-76.067715
  0
ARC
  8
St
  6
CONTINUOUS
 10
-111.202427
 20
-76.067715
 40
1.6
 50
94.332724
 51
180.0
  0
LINE
  8
St
  6
CONTINUOUS
 10
-111.323305
 20
-74.472288
 11
-31.802427
 21
-68.447405
  0
LINE
  8
St
  6
CONTINUOUS
 10
-111.202427
 20
-76.067713
 11
-31.802427
 21
-70.051992
  0
LINE
  8
St
  6
CONTINUOUS
 10
-33.714312
 20
-68.592257
 11
-33.714312
 21
-70.196845
  0
LINE
  8
St
  6
CONTINUOUS
 10
-53.209847
 20
-81.484353
 11
-53.209847
 21
-71.67392
  0
LINE
  8
St
  6
CONTINUOUS
 10
-51.601418
 20
-83.084353
 11
-51.601418
 21
-71.552057
  0
LINE
  8
St
  6
CONTINUOUS
 10
-54.074622
 20
-70.134853
 11
-55.81075
 21
-71.870978
  0
LINE
  8
St
  6
CONTINUOUS
 10
-54.839692
 20
-70.192818
 11
-56.575822
 21
-71.928942
  0
LINE
  8
St
  6
CONTINUOUS
 10
-81.559235
 20
-72.21722
 11
-83.295365
 21
-73.95334
  0
LINE
  8
St
  6
CONTINUOUS
 10
-82.32431
 20
-72.275185
 11
-84.060437
 21
-74.011308
  0
INSERT
  2
*GRP_0045
  8
St
  6
DASHDOT
 62
    47
 10
0.0
 20
0.0
  0
INSERT
  2
*GRP_0046
  8
St
  6
DASHDOT
 62
    47
 10
0.0
 20
0.0
  0
LINE
  8
St
  6
CONTINUOUS
 62
   127
 10
-95.792677
 20
-13.094525
 11
-95.792677
 21
0.916427
  0
ARC
  8
St
  6
CONTINUOUS
 62
   127
 10
-95.792678
 20
0.91642
 40
2.3
 50
92.997019
 51
180.0
  0
ARC
  8
St
  6
CONTINUOUS
 62
   127
 10
-95.792678
 20
-13.09452
 40
2.3
 50
180.0
 51
270.0
  0
LINE
  8
St
  6
CONTINUOUS
 62
   127
 10
-95.792677
 20
0.916427
 11
-82.992945
 21
1.586552
  0
LINE
  8
St
  6
CONTINUOUS
 62
   127
 10
-82.992945
 20
1.586552
 11
-83.1132
 21
3.883412
  0
LINE
  8
St
  6
CONTINUOUS
 62
   127
 10
-98.09268
 20
3.099152
 11
-83.1132
 21
3.883412
  0
LINE
  8
St
  6
CONTINUOUS
 62
   127
 10
-98.09268
 20
3.099152
 11
-98.09268
 21
-15.394528
  0
LINE
  8
St
  6
CONTINUOUS
 62
   127
 10
-51.802417
 20
-15.394528
 11
-98.09268
 21
-15.394528
  0
LINE
  8
St
  6
CONTINUOUS
 10
-90.60294
 20
3.491282
 11
-88.414372
 21
1.302715
  0
LINE
  8
St
  6
CONTINUOUS
 10
-89.086298
 20
1.26754
 11
-91.274857
 21
3.4561
  0
LINE
  8
St
  6
CONTINUOUS
 10
-95.792677
 20
-10.03016
 11
-98.09268
 21
-7.730158
  0
LINE
  8
St
  6
CONTINUOUS
 10
-95.792677
 20
-9.32306
 11
-98.09268
 21
-7.023057
  0
LINE
  8
St
  6
CONTINUOUS
 10
-85.256603
 20
-13.084055
 11
-82.94613
 21
-15.394528
  0
LINE
  8
St
  6
CONTINUOUS
 10
-85.963702
 20
-13.084055
 11
-83.65323
 21
-15.394528
  0
INSERT
  2
*HAT_0004
  8
その他部品等
 10
0.0
 20
0.0
  0
INSERT
  2
*HAT_0005
  8
その他部品等
 10
0.0
 20
0.0
  0
ENDSEC
  0
EOF
