  0
SECTION
  2
HEADER
  9
$EXTMIN
 10
-210.0
 20
-148.5
  9
$EXTMAX
 10
210.0
 20
148.5
  9
$PDMODE
 70
    32
  9
$PDSIZE
 40
1.5
  9
$LTSCALE
 40
10.0
  0
ENDSEC
  0
SECTION
  2
TABLES
  0
TABLE
  2
LTYPE
 70
    15
  0
LTYPE
  2
CONTINUOUS
 70
    64
  3
実線
 72
    65
 73
     0
 40
0.0
  0
LTYPE
  2
DASHED
 70
    64
  3
破線A
 72
    65
 73
     2
 40
0.6
 49
0.4
 49
-0.2
  0
LTYPE
  2
DASHEDX2
 70
    64
  3
破線B
 72
    65
 73
     2
 40
1.3
 49
0.9
 49
-0.4
  0
LTYPE
  2
DASHDOT
 70
    64
  3
１点鎖線A
 72
    65
 73
     4
 40
0.5375
 49
0.375
 49
-0.05
 49
0.0625
 49
-0.05
  0
LTYPE
  2
DASHDOTX2
 70
    64
  3
１点鎖線B
 72
    65
 73
     4
 40
1.075
 49
0.75
 49
-0.1
 49
0.125
 49
-0.1
  0
LTYPE
  2
DIVIDE2
 70
    64
  3
２点鎖線A
 72
    65
 73
     6
 40
0.5125
 49
0.3
 49
-0.0375
 49
0.05
 49
-0.0375
 49
0.05
 49
-0.0375
  0
LTYPE
  2
DIVIDE
 70
    64
  3
２点鎖線B
 72
    65
 73
     6
 40
1.05
 49
0.55
 49
-0.1
 49
0.1
 49
-0.1
 49
0.1
 49
-0.1
  0
LTYPE
  2
DOT
 70
    64
  3
点線A
 72
    65
 73
     2
 40
0.1125
 49
0.0625
 49
-0.05
  0
LTYPE
  2
DOTX2
 70
    64
  3
点線B
 72
    65
 73
     2
 40
0.275
 49
0.15
 49
-0.125
  0
LTYPE
  2
CONTINUOUS
 70
    64
  3
実線
 72
    65
 73
     0
 40
0.0
  0
LTYPE
  2
CONTINUOUS
 70
    64
  3
実線
 72
    65
 73
     0
 40
0.0
  0
LTYPE
  2
CONTINUOUS
 70
    64
  3
実線
 72
    65
 73
     0
 40
0.0
  0
LTYPE
  2
CONTINUOUS
 70
    64
  3
実線
 72
    65
 73
     0
 40
0.0
  0
LTYPE
  2
CONTINUOUS
 70
    64
  3
実線
 72
    65
 73
     0
 40
0.0
  0
LTYPE
  2
CONTINUOUS
 70
    64
  3
実線
 72
    65
 73
     0
 40
0.0
  0
ENDTAB
  0
TABLE
  2
LAYER
 70
    34
  0
LAYER
  2
通り芯
 70
     0
 62
    15
  6
CONTINUOUS
  0
LAYER
  2
補助線
 70
     0
 62
    16
  6
DOT
  0
LAYER
  2
躯体
 70
     0
 62
    31
  6
CONTINUOUS
  0
LAYER
  2
型材
 70
     0
 62
    32
  6
CONTINUOUS
  0
LAYER
  2
型材断面
 70
     0
 62
    47
  6
CONTINUOUS
  0
LAYER
  2
ガラス
 70
     0
 62
    48
  6
CONTINUOUS
  0
LAYER
  2
ゴム等
 70
     0
 62
    63
  6
CONTINUOUS
  0
LAYER
  2
ボルト／ビス
 70
     0
 62
    64
  6
CONTINUOUS
  0
LAYER
  2
文字
 70
     0
 62
    79
  6
CONTINUOUS
  0
LAYER
  2
寸法
 70
     0
 62
    80
  6
CONTINUOUS
  0
LAYER
  2
ﾊｯﾁﾝｸﾞ
 70
     0
 62
    95
  6
CONTINUOUS
  0
LAYER
  2
別途部材
 70
     0
 62
    96
  6
CONTINUOUS
  0
LAYER
  2
曲げ物
 70
     0
 62
   111
  6
CONTINUOUS
  0
LAYER
  2
鉄骨等
 70
     0
 62
   112
  6
CONTINUOUS
  0
LAYER
  2
St
 70
     0
 62
   127
  6
CONTINUOUS
  0
LAYER
  2
その他部品等
 70
     0
 62
   128
  6
CONTINUOUS
  0
LAYER
  2
ｶﾞｽｹｯﾄ
 70
     0
 62
   143
  6
CONTINUOUS
  0
LAYER
  2
ｽｹｯﾁ
 70
     0
 62
    14
  6
CONTINUOUS
  0
LAYER
  2
0
 70
     0
 62
    17
  6
CONTINUOUS
  0
LAYER
  2
1
 70
     0
 62
    30
  6
CONTINUOUS
  0
LAYER
  2
4
 70
     0
 62
    33
  6
CONTINUOUS
  0
LAYER
  2
ﾚｲﾔ3
 70
     0
 62
    46
  6
CONTINUOUS
  0
LAYER
  2
外形線
 70
     0
 62
    49
  6
CONTINUOUS
  0
LAYER
  2
部品
 70
     0
 62
    14
  6
CONTINUOUS
  0
LAYER
  2
サッシ芯
 70
     0
 62
    17
  6
DASHDOTX2
  0
LAYER
  2
寸法線
 70
     0
 62
    62
  6
CONTINUOUS
  0
LAYER
  2
姿図外形線
 70
     0
 62
    65
  6
CONTINUOUS
  0
LAYER
  2
姿補助線
 70
     0
 62
    30
  6
CONTINUOUS
  0
LAYER
  2
透視線
 70
     0
 62
    78
  6
DOT
  0
LAYER
  2
用紙
 70
     0
 62
    81
  6
CONTINUOUS
  0
LAYER
  2
実線図枠
 70
     0
 62
    94
  6
CONTINUOUS
  0
LAYER
  2
補助図枠
 70
     0
 62
    97
  6
CONTINUOUS
  0
LAYER
  2
建具記号
 70
     0
 62
   110
  6
CONTINUOUS
  0
LAYER
  2
補助文字
 70
     0
 62
   113
  6
CONTINUOUS
  0
ENDTAB
  0
TABLE
  2
STYLE
 70
    10
  0
STYLE
  2
STANDARD
 70
     0
 40
1.0
 41
1.0
 42
1.0
 50
0.0
 71
     0
  3
TXT
  4
BIGFONT
  0
STYLE
  2
TATE
 70
     4
 40
1.0
 41
1.0
 42
1.0
 50
0.0
 71
     0
  3
TXT
  4
BIGFONT
  0
STYLE
  2
TextStyle03
 70
     0
 40
1.0
 41
1.0
 42
1.0
 50
0.0
 71
     0
  3
MONOTXT
  4
BIGFONT
  0
STYLE
  2
TextStyle04
 70
     0
 40
1.0
 41
1.0
 42
1.0
 50
0.0
 71
     0
  3
MONOTXT
  4
BIGFONT
  0
STYLE
  2
TextStyle05
 70
     0
 40
1.0
 41
1.0
 42
1.0
 50
0.0
 71
     0
  3
MONOTXT
  4
BIGFONT
  0
STYLE
  2
TextStyle06
 70
     0
 40
1.0
 41
1.0
 42
1.0
 50
0.0
 71
     0
  3
MONOTXT
  4
BIGFONT
  0
STYLE
  2
TextStyle07
 70
     0
 40
1.0
 41
1.0
 42
1.0
 50
0.0
 71
     0
  3
MONOTXT
  4
BIGFONT
  0
STYLE
  2
TextStyle08
 70
     0
 40
1.0
 41
1.0
 42
1.0
 50
0.0
 71
     0
  3
MONOTXT
  4
BIGFONT
  0
STYLE
  2
TextStyle09
 70
     0
 40
1.0
 41
1.0
 42
1.0
 50
0.0
 71
     0
  3
MONOTXT
  4
BIGFONT
  0
STYLE
  2
TextStyle10
 70
     0
 40
1.0
 41
1.0
 42
1.0
 50
0.0
 71
     0
  3
MONOTXT
  4
BIGFONT
  0
ENDTAB
  0
ENDSEC
  0
SECTION
  2
BLOCKS
  0
BLOCK
  2
*GRP_0001
 70
    65
 10
0.0
 20
0.0
  0
LINE
  8
型材断面
  6
CONTINUOUS
 10
195.0
 20
133.5
 11
195.0
 21
-133.5
  0
LINE
  8
型材断面
  6
CONTINUOUS
 10
195.0
 20
-133.5
 11
-185.0
 21
-133.5
  0
LINE
  8
型材断面
  6
CONTINUOUS
 10
-185.0
 20
-133.5
 11
-185.0
 21
133.5
  0
LINE
  8
型材断面
  6
CONTINUOUS
 10
195.0
 20
133.5
 11
-185.0
 21
133.5
  0
LINE
  8
型材断面
  6
CONTINUOUS
 10
145.0
 20
-133.5
 11
145.0
 21
-118.5
  0
LINE
  8
型材断面
  6
CONTINUOUS
 10
195.0
 20
-118.5
 11
145.0
 21
-118.5
  0
ENDBLK
  0
BLOCK
  2
*GRP_0002
 70
    65
 10
0.0
 20
0.0
  0
INSERT
  2
*GRP_0016
  8
補助線
  6
CONTINUOUS
 10
0.0
 20
0.0
  0
LINE
  8
ボルト／ビス
  6
CONTINUOUS
 10
-84.935405
 20
10.371595
 11
-84.685405
 21
10.515933
  0
LINE
  8
ボルト／ビス
  6
CONTINUOUS
 10
-84.935405
 20
10.371595
 11
-85.185405
 21
10.515933
  0
LINE
  8
ボルト／ビス
  6
CONTINUOUS
 10
-84.685405
 20
10.804608
 11
-84.935405
 21
10.948945
  0
LINE
  8
ボルト／ビス
  6
CONTINUOUS
 10
-85.185405
 20
10.804608
 11
-84.935405
 21
10.948945
  0
CIRCLE
  8
ボルト／ビス
  6
CONTINUOUS
 10
-84.935405
 20
10.66027
 40
0.25
  0
LINE
  8
ボルト／ビス
  6
CONTINUOUS
 10
-85.185405
 20
10.515933
 11
-85.185405
 21
10.804608
  0
LINE
  8
ボルト／ビス
  6
CONTINUOUS
 10
-84.685405
 20
10.804608
 11
-84.685405
 21
10.515933
  0
ENDBLK
  0
BLOCK
  2
*GRP_0003
 70
    65
 10
0.0
 20
0.0
  0
INSERT
  2
*GRP_0017
  8
補助線
  6
CONTINUOUS
 10
0.0
 20
0.0
  0
LINE
  8
ボルト／ビス
  6
CONTINUOUS
 10
-69.935405
 20
10.371595
 11
-69.685405
 21
10.515933
  0
LINE
  8
ボルト／ビス
  6
CONTINUOUS
 10
-69.935405
 20
10.371595
 11
-70.185405
 21
10.515933
  0
LINE
  8
ボルト／ビス
  6
CONTINUOUS
 10
-69.685405
 20
10.804608
 11
-69.935405
 21
10.948945
  0
LINE
  8
ボルト／ビス
  6
CONTINUOUS
 10
-70.185405
 20
10.804608
 11
-69.935405
 21
10.948945
  0
CIRCLE
  8
ボルト／ビス
  6
CONTINUOUS
 10
-69.935405
 20
10.66027
 40
0.25
  0
LINE
  8
ボルト／ビス
  6
CONTINUOUS
 10
-70.185405
 20
10.515933
 11
-70.185405
 21
10.804608
  0
LINE
  8
ボルト／ビス
  6
CONTINUOUS
 10
-69.685405
 20
10.804608
 11
-69.685405
 21
10.515933
  0
ENDBLK
  0
BLOCK
  2
*GRP_0004
 70
    65
 10
0.0
 20
0.0
  0
INSERT
  2
*GRP_0018
  8
補助線
  6
CONTINUOUS
 10
0.0
 20
0.0
  0
LINE
  8
ボルト／ビス
  6
CONTINUOUS
 10
-93.72408
 20
19.16027
 11
-93.579742
 21
19.41027
  0
LINE
  8
ボルト／ビス
  6
CONTINUOUS
 10
-93.72408
 20
19.16027
 11
-93.579742
 21
18.91027
  0
LINE
  8
ボルト／ビス
  6
CONTINUOUS
 10
-93.291068
 20
19.41027
 11
-93.14673
 21
19.16027
  0
LINE
  8
ボルト／ビス
  6
CONTINUOUS
 10
-93.291068
 20
18.91027
 11
-93.14673
 21
19.16027
  0
CIRCLE
  8
ボルト／ビス
  6
CONTINUOUS
 10
-93.435405
 20
19.16027
 40
0.25
  0
LINE
  8
ボルト／ビス
  6
CONTINUOUS
 10
-93.579742
 20
18.91027
 11
-93.291068
 21
18.91027
  0
LINE
  8
ボルト／ビス
  6
CONTINUOUS
 10
-93.291068
 20
19.41027
 11
-93.579742
 21
19.41027
  0
ENDBLK
  0
BLOCK
  2
*GRP_0005
 70
    65
 10
0.0
 20
0.0
  0
INSERT
  2
*GRP_0019
  8
補助線
  6
CONTINUOUS
 10
0.0
 20
0.0
  0
LINE
  8
ボルト／ビス
  6
CONTINUOUS
 10
-93.72408
 20
34.16027
 11
-93.579742
 21
34.41027
  0
LINE
  8
ボルト／ビス
  6
CONTINUOUS
 10
-93.72408
 20
34.16027
 11
-93.579742
 21
33.91027
  0
LINE
  8
ボルト／ビス
  6
CONTINUOUS
 10
-93.291068
 20
34.41027
 11
-93.14673
 21
34.16027
  0
LINE
  8
ボルト／ビス
  6
CONTINUOUS
 10
-93.291068
 20
33.91027
 11
-93.14673
 21
34.16027
  0
CIRCLE
  8
ボルト／ビス
  6
CONTINUOUS
 10
-93.435405
 20
34.16027
 40
0.25
  0
LINE
  8
ボルト／ビス
  6
CONTINUOUS
 10
-93.579742
 20
33.91027
 11
-93.291068
 21
33.91027
  0
LINE
  8
ボルト／ビス
  6
CONTINUOUS
 10
-93.291068
 20
34.41027
 11
-93.579742
 21
34.41027
  0
ENDBLK
  0
BLOCK
  2
*GRP_0006
 70
    65
 10
0.0
 20
0.0
  0
INSERT
  2
*GRP_0020
  8
補助線
  6
CONTINUOUS
 10
0.0
 20
0.0
  0
LINE
  8
ボルト／ビス
  6
CONTINUOUS
 10
-54.935405
 20
10.371595
 11
-55.185405
 21
10.515933
  0
LINE
  8
ボルト／ビス
  6
CONTINUOUS
 10
-54.935405
 20
10.371595
 11
-54.685405
 21
10.515933
  0
LINE
  8
ボルト／ビス
  6
CONTINUOUS
 10
-55.185405
 20
10.804608
 11
-54.935405
 21
10.948945
  0
LINE
  8
ボルト／ビス
  6
CONTINUOUS
 10
-54.685405
 20
10.804608
 11
-54.935405
 21
10.948945
  0
CIRCLE
  8
ボルト／ビス
  6
CONTINUOUS
 10
-54.935405
 20
10.66027
 40
0.25
  0
LINE
  8
ボルト／ビス
  6
CONTINUOUS
 10
-54.685405
 20
10.515933
 11
-54.685405
 21
10.804608
  0
LINE
  8
ボルト／ビス
  6
CONTINUOUS
 10
-55.185405
 20
10.804608
 11
-55.185405
 21
10.515933
  0
ENDBLK
  0
BLOCK
  2
*GRP_0007
 70
    65
 10
0.0
 20
0.0
  0
INSERT
  2
*GRP_0021
  8
補助線
  6
CONTINUOUS
 10
0.0
 20
0.0
  0
LINE
  8
ボルト／ビス
  6
CONTINUOUS
 10
-46.14673
 20
19.16027
 11
-46.291068
 21
19.41027
  0
LINE
  8
ボルト／ビス
  6
CONTINUOUS
 10
-46.14673
 20
19.16027
 11
-46.291068
 21
18.91027
  0
LINE
  8
ボルト／ビス
  6
CONTINUOUS
 10
-46.579742
 20
19.41027
 11
-46.72408
 21
19.16027
  0
LINE
  8
ボルト／ビス
  6
CONTINUOUS
 10
-46.579742
 20
18.91027
 11
-46.72408
 21
19.16027
  0
CIRCLE
  8
ボルト／ビス
  6
CONTINUOUS
 10
-46.435405
 20
19.16027
 40
0.25
  0
LINE
  8
ボルト／ビス
  6
CONTINUOUS
 10
-46.291068
 20
18.91027
 11
-46.579742
 21
18.91027
  0
LINE
  8
ボルト／ビス
  6
CONTINUOUS
 10
-46.579742
 20
19.41027
 11
-46.291068
 21
19.41027
  0
ENDBLK
  0
BLOCK
  2
*GRP_0008
 70
    65
 10
0.0
 20
0.0
  0
INSERT
  2
*GRP_0022
  8
補助線
  6
CONTINUOUS
 10
0.0
 20
0.0
  0
LINE
  8
ボルト／ビス
  6
CONTINUOUS
 10
-46.14673
 20
34.16027
 11
-46.291068
 21
34.41027
  0
LINE
  8
ボルト／ビス
  6
CONTINUOUS
 10
-46.14673
 20
34.16027
 11
-46.291068
 21
33.91027
  0
LINE
  8
ボルト／ビス
  6
CONTINUOUS
 10
-46.579742
 20
34.41027
 11
-46.72408
 21
34.16027
  0
LINE
  8
ボルト／ビス
  6
CONTINUOUS
 10
-46.579742
 20
33.91027
 11
-46.72408
 21
34.16027
  0
CIRCLE
  8
ボルト／ビス
  6
CONTINUOUS
 10
-46.435405
 20
34.16027
 40
0.25
  0
LINE
  8
ボルト／ビス
  6
CONTINUOUS
 10
-46.291068
 20
33.91027
 11
-46.579742
 21
33.91027
  0
LINE
  8
ボルト／ビス
  6
CONTINUOUS
 10
-46.579742
 20
34.41027
 11
-46.291068
 21
34.41027
  0
ENDBLK
  0
BLOCK
  2
*GRP_0009
 70
    65
 10
0.0
 20
0.0
  0
INSERT
  2
*GRP_0023
  8
補助線
  6
CONTINUOUS
 10
0.0
 20
0.0
  0
LINE
  8
ボルト／ビス
  6
CONTINUOUS
 10
-84.935405
 20
57.948945
 11
-84.685405
 21
57.804608
  0
LINE
  8
ボルト／ビス
  6
CONTINUOUS
 10
-84.935405
 20
57.948945
 11
-85.185405
 21
57.804608
  0
LINE
  8
ボルト／ビス
  6
CONTINUOUS
 10
-84.685405
 20
57.515933
 11
-84.935405
 21
57.371595
  0
LINE
  8
ボルト／ビス
  6
CONTINUOUS
 10
-85.185405
 20
57.515933
 11
-84.935405
 21
57.371595
  0
CIRCLE
  8
ボルト／ビス
  6
CONTINUOUS
 10
-84.935405
 20
57.66027
 40
0.25
  0
LINE
  8
ボルト／ビス
  6
CONTINUOUS
 10
-85.185405
 20
57.804608
 11
-85.185405
 21
57.515933
  0
LINE
  8
ボルト／ビス
  6
CONTINUOUS
 10
-84.685405
 20
57.515933
 11
-84.685405
 21
57.804608
  0
ENDBLK
  0
BLOCK
  2
*GRP_0010
 70
    65
 10
0.0
 20
0.0
  0
INSERT
  2
*GRP_0024
  8
補助線
  6
CONTINUOUS
 10
0.0
 20
0.0
  0
LINE
  8
ボルト／ビス
  6
CONTINUOUS
 10
-69.935405
 20
57.948945
 11
-69.685405
 21
57.804608
  0
LINE
  8
ボルト／ビス
  6
CONTINUOUS
 10
-69.935405
 20
57.948945
 11
-70.185405
 21
57.804608
  0
LINE
  8
ボルト／ビス
  6
CONTINUOUS
 10
-69.685405
 20
57.515933
 11
-69.935405
 21
57.371595
  0
LINE
  8
ボルト／ビス
  6
CONTINUOUS
 10
-70.185405
 20
57.515933
 11
-69.935405
 21
57.371595
  0
CIRCLE
  8
ボルト／ビス
  6
CONTINUOUS
 10
-69.935405
 20
57.66027
 40
0.25
  0
LINE
  8
ボルト／ビス
  6
CONTINUOUS
 10
-70.185405
 20
57.804608
 11
-70.185405
 21
57.515933
  0
LINE
  8
ボルト／ビス
  6
CONTINUOUS
 10
-69.685405
 20
57.515933
 11
-69.685405
 21
57.804608
  0
ENDBLK
  0
BLOCK
  2
*GRP_0011
 70
    65
 10
0.0
 20
0.0
  0
INSERT
  2
*GRP_0025
  8
補助線
  6
CONTINUOUS
 10
0.0
 20
0.0
  0
LINE
  8
ボルト／ビス
  6
CONTINUOUS
 10
-93.72408
 20
49.16027
 11
-93.579742
 21
48.91027
  0
LINE
  8
ボルト／ビス
  6
CONTINUOUS
 10
-93.72408
 20
49.16027
 11
-93.579742
 21
49.41027
  0
LINE
  8
ボルト／ビス
  6
CONTINUOUS
 10
-93.291068
 20
48.91027
 11
-93.14673
 21
49.16027
  0
LINE
  8
ボルト／ビス
  6
CONTINUOUS
 10
-93.291068
 20
49.41027
 11
-93.14673
 21
49.16027
  0
CIRCLE
  8
ボルト／ビス
  6
CONTINUOUS
 10
-93.435405
 20
49.16027
 40
0.25
  0
LINE
  8
ボルト／ビス
  6
CONTINUOUS
 10
-93.579742
 20
49.41027
 11
-93.291068
 21
49.41027
  0
LINE
  8
ボルト／ビス
  6
CONTINUOUS
 10
-93.291068
 20
48.91027
 11
-93.579742
 21
48.91027
  0
ENDBLK
  0
BLOCK
  2
*GRP_0012
 70
    65
 10
0.0
 20
0.0
  0
INSERT
  2
*GRP_0026
  8
補助線
  6
CONTINUOUS
 10
0.0
 20
0.0
  0
LINE
  8
ボルト／ビス
  6
CONTINUOUS
 10
-54.935405
 20
57.948945
 11
-55.185405
 21
57.804608
  0
LINE
  8
ボルト／ビス
  6
CONTINUOUS
 10
-54.935405
 20
57.948945
 11
-54.685405
 21
57.804608
  0
LINE
  8
ボルト／ビス
  6
CONTINUOUS
 10
-55.185405
 20
57.515933
 11
-54.935405
 21
57.371595
  0
LINE
  8
ボルト／ビス
  6
CONTINUOUS
 10
-54.685405
 20
57.515933
 11
-54.935405
 21
57.371595
  0
CIRCLE
  8
ボルト／ビス
  6
CONTINUOUS
 10
-54.935405
 20
57.66027
 40
0.25
  0
LINE
  8
ボルト／ビス
  6
CONTINUOUS
 10
-54.685405
 20
57.804608
 11
-54.685405
 21
57.515933
  0
LINE
  8
ボルト／ビス
  6
CONTINUOUS
 10
-55.185405
 20
57.515933
 11
-55.185405
 21
57.804608
  0
ENDBLK
  0
BLOCK
  2
*GRP_0013
 70
    65
 10
0.0
 20
0.0
  0
INSERT
  2
*GRP_0027
  8
補助線
  6
CONTINUOUS
 10
0.0
 20
0.0
  0
LINE
  8
ボルト／ビス
  6
CONTINUOUS
 10
-46.14673
 20
49.16027
 11
-46.291068
 21
48.91027
  0
LINE
  8
ボルト／ビス
  6
CONTINUOUS
 10
-46.14673
 20
49.16027
 11
-46.291068
 21
49.41027
  0
LINE
  8
ボルト／ビス
  6
CONTINUOUS
 10
-46.579742
 20
48.91027
 11
-46.72408
 21
49.16027
  0
LINE
  8
ボルト／ビス
  6
CONTINUOUS
 10
-46.579742
 20
49.41027
 11
-46.72408
 21
49.16027
  0
CIRCLE
  8
ボルト／ビス
  6
CONTINUOUS
 10
-46.435405
 20
49.16027
 40
0.25
  0
LINE
  8
ボルト／ビス
  6
CONTINUOUS
 10
-46.291068
 20
49.41027
 11
-46.579742
 21
49.41027
  0
LINE
  8
ボルト／ビス
  6
CONTINUOUS
 10
-46.579742
 20
48.91027
 11
-46.291068
 21
48.91027
  0
ENDBLK
  0
BLOCK
  2
*DIM_0014
 70
    65
 10
0.0
 20
0.0
  0
LINE
  8
寸法
  6
BYBLOCK
 62
     0
 10
-68.935405
 20
-39.779985
 11
-25.043632
 21
-39.779985
  0
LINE
  8
寸法
  6
BYBLOCK
 62
     0
 10
-25.043632
 20
-52.279985
 11
-25.043632
 21
-39.779985
  0
POINT
  8
寸法
 62
     0
 10
-25.043632
 20
-52.279985
  0
POINT
  8
寸法
 62
     0
 10
-25.043632
 20
-39.779985
  0
TEXT
  7
TextStyle03
  8
寸法
  6
CONTINUOUS
 62
     0
 10
-25.45
 20
-48.4875
  1
250
 40
3.0
 50
90.0
 72
     5
 11
-25.45
 21
-43.6125
  0
ENDBLK
  0
BLOCK
  2
*DIM_0015
 70
    65
 10
0.0
 20
0.0
  0
LINE
  8
寸法
  6
BYBLOCK
 62
     0
 10
-92.435405
 20
-16.126177
 11
-47.435405
 21
-16.126177
  0
POINT
  8
寸法
 62
     0
 10
-92.435405
 20
-16.126177
  0
POINT
  8
寸法
 62
     0
 10
-47.435405
 20
-16.126177
  0
TEXT
  7
TextStyle03
  8
寸法
  6
CONTINUOUS
 62
     0
 10
-80.85
 20
-15.775
  1
呼称寸法　900
 40
3.0
 72
     5
 11
-59.1
 21
-15.775
  0
ENDBLK
  0
BLOCK
  2
*GRP_0016
 70
    65
 10
0.0
 20
0.0
  0
LINE
  8
補助線
  6
BYBLOCK
 62
     0
 10
-85.060405
 20
10.66027
 11
-84.810405
 21
10.66027
  0
LINE
  8
補助線
  6
BYBLOCK
 62
     0
 10
-84.935405
 20
10.53527
 11
-84.935405
 21
10.78527
  0
ENDBLK
  0
BLOCK
  2
*GRP_0017
 70
    65
 10
0.0
 20
0.0
  0
LINE
  8
補助線
  6
BYBLOCK
 62
     0
 10
-70.060405
 20
10.66027
 11
-69.810405
 21
10.66027
  0
LINE
  8
補助線
  6
BYBLOCK
 62
     0
 10
-69.935405
 20
10.53527
 11
-69.935405
 21
10.78527
  0
ENDBLK
  0
BLOCK
  2
*GRP_0018
 70
    65
 10
0.0
 20
0.0
  0
LINE
  8
補助線
  6
BYBLOCK
 62
     0
 10
-93.435405
 20
19.03527
 11
-93.435405
 21
19.28527
  0
LINE
  8
補助線
  6
BYBLOCK
 62
     0
 10
-93.560405
 20
19.16027
 11
-93.310405
 21
19.16027
  0
ENDBLK
  0
BLOCK
  2
*GRP_0019
 70
    65
 10
0.0
 20
0.0
  0
LINE
  8
補助線
  6
BYBLOCK
 62
     0
 10
-93.435405
 20
34.03527
 11
-93.435405
 21
34.28527
  0
LINE
  8
補助線
  6
BYBLOCK
 62
     0
 10
-93.560405
 20
34.16027
 11
-93.310405
 21
34.16027
  0
ENDBLK
  0
BLOCK
  2
*GRP_0020
 70
    65
 10
0.0
 20
0.0
  0
LINE
  8
補助線
  6
BYBLOCK
 62
     0
 10
-54.810405
 20
10.66027
 11
-55.060405
 21
10.66027
  0
LINE
  8
補助線
  6
BYBLOCK
 62
     0
 10
-54.935405
 20
10.53527
 11
-54.935405
 21
10.78527
  0
ENDBLK
  0
BLOCK
  2
*GRP_0021
 70
    65
 10
0.0
 20
0.0
  0
LINE
  8
補助線
  6
BYBLOCK
 62
     0
 10
-46.435405
 20
19.03527
 11
-46.435405
 21
19.28527
  0
LINE
  8
補助線
  6
BYBLOCK
 62
     0
 10
-46.310405
 20
19.16027
 11
-46.560405
 21
19.16027
  0
ENDBLK
  0
BLOCK
  2
*GRP_0022
 70
    65
 10
0.0
 20
0.0
  0
LINE
  8
補助線
  6
BYBLOCK
 62
     0
 10
-46.435405
 20
34.03527
 11
-46.435405
 21
34.28527
  0
LINE
  8
補助線
  6
BYBLOCK
 62
     0
 10
-46.310405
 20
34.16027
 11
-46.560405
 21
34.16027
  0
ENDBLK
  0
BLOCK
  2
*GRP_0023
 70
    65
 10
0.0
 20
0.0
  0
LINE
  8
補助線
  6
BYBLOCK
 62
     0
 10
-85.060405
 20
57.66027
 11
-84.810405
 21
57.66027
  0
LINE
  8
補助線
  6
BYBLOCK
 62
     0
 10
-84.935405
 20
57.78527
 11
-84.935405
 21
57.53527
  0
ENDBLK
  0
BLOCK
  2
*GRP_0024
 70
    65
 10
0.0
 20
0.0
  0
LINE
  8
補助線
  6
BYBLOCK
 62
     0
 10
-70.060405
 20
57.66027
 11
-69.810405
 21
57.66027
  0
LINE
  8
補助線
  6
BYBLOCK
 62
     0
 10
-69.935405
 20
57.78527
 11
-69.935405
 21
57.53527
  0
ENDBLK
  0
BLOCK
  2
*GRP_0025
 70
    65
 10
0.0
 20
0.0
  0
LINE
  8
補助線
  6
BYBLOCK
 62
     0
 10
-93.435405
 20
49.28527
 11
-93.435405
 21
49.03527
  0
LINE
  8
補助線
  6
BYBLOCK
 62
     0
 10
-93.560405
 20
49.16027
 11
-93.310405
 21
49.16027
  0
ENDBLK
  0
BLOCK
  2
*GRP_0026
 70
    65
 10
0.0
 20
0.0
  0
LINE
  8
補助線
  6
BYBLOCK
 62
     0
 10
-54.810405
 20
57.66027
 11
-55.060405
 21
57.66027
  0
LINE
  8
補助線
  6
BYBLOCK
 62
     0
 10
-54.935405
 20
57.78527
 11
-54.935405
 21
57.53527
  0
ENDBLK
  0
BLOCK
  2
*GRP_0027
 70
    65
 10
0.0
 20
0.0
  0
LINE
  8
補助線
  6
BYBLOCK
 62
     0
 10
-46.435405
 20
49.28527
 11
-46.435405
 21
49.03527
  0
LINE
  8
補助線
  6
BYBLOCK
 62
     0
 10
-46.310405
 20
49.16027
 11
-46.560405
 21
49.16027
  0
ENDBLK
  0
BLOCK
  2
*DIM_0028
 70
    65
 10
0.0
 20
0.0
  0
LINE
  8
寸法
  6
BYBLOCK
 62
     0
 10
-84.935405
 20
57.66027
 11
-84.935405
 21
75.599285
  0
LINE
  8
寸法
  6
BYBLOCK
 62
     0
 10
-54.935405
 20
57.66027
 11
-54.935405
 21
75.599285
  0
LINE
  8
寸法
  6
BYBLOCK
 62
     0
 10
-84.935405
 20
75.599285
 11
-54.935405
 21
75.599285
  0
POINT
  8
寸法
 62
     0
 10
-84.935405
 20
75.599285
  0
POINT
  8
寸法
 62
     0
 10
-54.935405
 20
75.599285
  0
TEXT
  7
TextStyle03
  8
寸法
  6
CONTINUOUS
 62
     0
 10
-72.3875
 20
75.95
  1
600
 40
3.0
 72
     5
 11
-67.5125
 21
75.95
  0
ENDBLK
  0
BLOCK
  2
*DIM_0029
 70
    65
 10
0.0
 20
0.0
  0
LINE
  8
寸法
  6
BYBLOCK
 62
     0
 10
-93.435405
 20
56.66027
 11
-116.343648
 21
56.66027
  0
LINE
  8
寸法
  6
BYBLOCK
 62
     0
 10
-93.435405
 20
34.16027
 11
-116.343648
 21
34.16027
  0
LINE
  8
寸法
  6
BYBLOCK
 62
     0
 10
-116.343648
 20
56.66027
 11
-116.343648
 21
34.16027
  0
POINT
  8
寸法
 62
     0
 10
-116.343648
 20
56.66027
  0
POINT
  8
寸法
 62
     0
 10
-116.343648
 20
34.16027
  0
TEXT
  7
TextStyle03
  8
寸法
  6
CONTINUOUS
 62
     0
 10
-116.725
 20
42.9375
  1
450
 40
3.0
 50
90.0
 72
     5
 11
-116.725
 21
47.8125
  0
ENDBLK
  0
BLOCK
  2
*DIM_0030
 70
    65
 10
0.0
 20
0.0
  0
LINE
  8
寸法
  6
BYBLOCK
 62
     0
 10
-93.435405
 20
11.66027
 11
-116.343648
 21
11.66027
  0
LINE
  8
寸法
  6
BYBLOCK
 62
     0
 10
-116.343648
 20
34.16027
 11
-116.343648
 21
11.66027
  0
POINT
  8
寸法
 62
     0
 10
-116.343648
 20
11.66027
  0
TEXT
  7
TextStyle03
  8
寸法
  6
CONTINUOUS
 62
     0
 10
-116.725
 20
20.4375
  1
450
 40
3.0
 50
90.0
 72
     5
 11
-116.725
 21
25.3125
  0
ENDBLK
  0
BLOCK
  2
*DIM_0031
 70
    65
 10
0.0
 20
0.0
  0
LINE
  8
寸法
  6
BYBLOCK
 62
     0
 10
-46.435405
 20
56.66027
 11
-31.752115
 21
56.66027
  0
LINE
  8
寸法
  6
BYBLOCK
 62
     0
 10
-38.411528
 20
53.66027
 11
-31.752115
 21
53.66027
  0
LINE
  8
寸法
  6
BYBLOCK
 62
     0
 10
-31.752115
 20
56.66027
 11
-31.752115
 21
53.66027
  0
POINT
  8
寸法
 62
     0
 10
-31.752115
 20
56.66027
  0
POINT
  8
寸法
 62
     0
 10
-31.752115
 20
53.66027
  0
TEXT
  7
TextStyle03
  8
寸法
  6
CONTINUOUS
 62
     0
 10
-28.775
 20
53.53125
  1
60
 40
3.0
 50
90.0
 72
     5
 11
-28.775
 21
56.71875
  0
ENDBLK
  0
BLOCK
  2
*DIM_0032
 70
    65
 10
0.0
 20
0.0
  0
LINE
  8
寸法
  6
BYBLOCK
 62
     0
 10
-46.435405
 20
11.66027
 11
-31.752115
 21
11.66027
  0
LINE
  8
寸法
  6
BYBLOCK
 62
     0
 10
-38.411528
 20
14.66027
 11
-31.752115
 21
14.66027
  0
LINE
  8
寸法
  6
BYBLOCK
 62
     0
 10
-31.752115
 20
11.66027
 11
-31.752115
 21
14.66027
  0
POINT
  8
寸法
 62
     0
 10
-31.752115
 20
11.66027
  0
POINT
  8
寸法
 62
     0
 10
-31.752115
 20
14.66027
  0
TEXT
  7
TextStyle03
  8
寸法
  6
CONTINUOUS
 62
     0
 10
-28.775
 20
11.55625
  1
60
 40
3.0
 50
90.0
 72
     5
 11
-28.775
 21
14.74375
  0
ENDBLK
  0
BLOCK
  2
*GRP_0033
 70
    65
 10
0.0
 20
0.0
  0
LINE
  8
別途部材
  6
CONTINUOUS
 62
    96
 10
-94.28589
 20
-59.90515
 11
-94.13589
 21
-59.90515
  0
LINE
  8
別途部材
  6
CONTINUOUS
 62
    96
 10
-94.43589
 20
-56.75353
 11
-96.432097
 21
-56.85804
  0
LINE
  8
別途部材
  6
CONTINUOUS
 62
    96
 10
-96.44589
 20
-57.68015
 11
-96.84589
 21
-57.50515
  0
LINE
  8
別途部材
  6
CONTINUOUS
 62
    96
 10
-96.414515
 20
-57.53015
 11
-96.646015
 21
-57.42887
  0
LINE
  8
別途部材
  6
CONTINUOUS
 62
    96
 10
-96.471273
 20
-56.709885
 11
-96.861575
 21
-56.90556
  0
LINE
  8
別途部材
  6
CONTINUOUS
 62
    96
 10
-96.432097
 20
-56.85804
 11
-96.827515
 21
-57.05628
  0
LINE
  8
別途部材
  6
CONTINUOUS
 62
    96
 10
-96.730192
 20
-57.109682
 11
-96.614498
 21
-57.014213
  0
LINE
  8
別途部材
  6
DASHDOTX2
 62
    96
 10
-96.84589
 20
-57.20515
 11
-96.84589
 21
-56.734922
  0
LINE
  8
別途部材
  6
DASHDOTX2
 62
    96
 10
-96.84589
 20
-57.20515
 11
-96.84589
 21
-57.70084
  0
LINE
  8
別途部材
  6
DASHDOTX2
 62
    96
 10
-96.84589
 20
-57.20515
 11
-96.450683
 21
-57.20515
  0
LINE
  8
別途部材
  6
DASHDOTX2
 62
    96
 10
-96.84589
 20
-57.20515
 11
-97.263355
 21
-57.20515
  0
LINE
  8
別途部材
  6
CONTINUOUS
 62
    96
 10
-94.13589
 20
-57.53015
 11
-96.414515
 21
-57.53015
  0
LINE
  8
別途部材
  6
CONTINUOUS
 62
    96
 10
-94.28589
 20
-57.68015
 11
-96.44589
 21
-57.68015
  0
LINE
  8
別途部材
  6
CONTINUOUS
 62
    96
 10
-94.585893
 20
-54.90353
 11
-94.585893
 21
-56.611178
  0
LINE
  8
別途部材
  6
CONTINUOUS
 62
    96
 10
-94.43589
 20
-54.90353
 11
-94.585893
 21
-54.90353
  0
LINE
  8
別途部材
  6
CONTINUOUS
 62
    96
 10
-94.43589
 20
-54.90353
 11
-94.43589
 21
-56.75353
  0
CIRCLE
  8
別途部材
  6
CONTINUOUS
 62
    96
 10
-96.84589
 20
-57.20515
 40
0.15
  0
ARC
  8
別途部材
  6
CONTINUOUS
 62
    96
 10
-96.845891
 20
-57.205148
 40
0.3
 50
92.998444
 51
411.219394
  0
LINE
  8
別途部材
  6
CONTINUOUS
 62
    96
 10
-94.13589
 20
-57.53015
 11
-94.13589
 21
-59.90515
  0
LINE
  8
別途部材
  6
CONTINUOUS
 62
    96
 10
-94.28589
 20
-57.68015
 11
-94.28589
 21
-59.90515
  0
LINE
  8
別途部材
  6
CONTINUOUS
 62
    96
 10
-96.471273
 20
-56.709885
 11
-94.585893
 21
-56.611178
  0
ENDBLK
  0
BLOCK
  2
*DIM_0034
 70
    65
 10
0.0
 20
0.0
  0
LINE
  8
寸法
  6
BYBLOCK
 62
     0
 10
-43.935405
 20
-52.279985
 11
-25.043632
 21
-52.279985
  0
LINE
  8
寸法
  6
BYBLOCK
 62
     0
 10
-41.435195
 20
-61.130165
 11
-25.043632
 21
-61.130165
  0
LINE
  8
寸法
  6
BYBLOCK
 62
     0
 10
-25.043632
 20
-52.279985
 11
-25.043632
 21
-61.130165
  0
POINT
  8
寸法
 62
     0
 10
-25.043632
 20
-52.279985
  0
POINT
  8
寸法
 62
     0
 10
-25.043632
 20
-61.130165
  0
TEXT
  7
TextStyle03
  8
寸法
  6
CONTINUOUS
 62
     0
 10
-25.425
 20
-59.1625
  1
177
 40
3.0
 50
90.0
 72
     5
 11
-25.425
 21
-54.2875
  0
ENDBLK
  0
BLOCK
  2
*DIM_0035
 70
    65
 10
0.0
 20
0.0
  0
LINE
  8
寸法
  6
BYBLOCK
 62
     0
 10
-97.435615
 20
-59.380163
 11
-97.435615
 21
-16.126177
  0
LINE
  8
寸法
  6
BYBLOCK
 62
     0
 10
-92.435405
 20
-16.126177
 11
-97.435615
 21
-16.126177
  0
POINT
  8
寸法
 62
     0
 10
-92.435405
 20
-16.126177
  0
POINT
  8
寸法
 62
     0
 10
-97.435615
 20
-16.126177
  0
TEXT
  7
TextStyle03
  8
寸法
  6
CONTINUOUS
 62
     0
 10
-102.4375
 20
-15.775
  1
100
 40
3.0
 72
     5
 11
-97.5625
 21
-15.775
  0
ENDBLK
  0
BLOCK
  2
*DIM_0036
 70
    65
 10
0.0
 20
0.0
  0
LINE
  8
寸法
  6
BYBLOCK
 62
     0
 10
-42.435195
 20
-59.380163
 11
-42.435195
 21
-16.126177
  0
LINE
  8
寸法
  6
BYBLOCK
 62
     0
 10
-47.435405
 20
-16.126177
 11
-42.435195
 21
-16.126177
  0
POINT
  8
寸法
 62
     0
 10
-47.435405
 20
-16.126177
  0
POINT
  8
寸法
 62
     0
 10
-42.435195
 20
-16.126177
  0
TEXT
  7
TextStyle03
  8
寸法
  6
CONTINUOUS
 62
     0
 10
-42.3375
 20
-15.775
  1
100
 40
3.0
 72
     5
 11
-37.4625
 21
-15.775
  0
ENDBLK
  0
BLOCK
  2
*GRP_0037
 70
    65
 10
0.0
 20
0.0
  0
LINE
  8
別途部材
  6
CONTINUOUS
 62
    96
 10
35.357365
 20
-59.90515
 11
35.507365
 21
-59.90515
  0
LINE
  8
別途部材
  6
CONTINUOUS
 62
    96
 10
35.207365
 20
-56.75353
 11
33.211158
 21
-56.85804
  0
LINE
  8
別途部材
  6
CONTINUOUS
 62
    96
 10
33.197365
 20
-57.68015
 11
32.797365
 21
-57.50515
  0
LINE
  8
別途部材
  6
CONTINUOUS
 62
    96
 10
33.22874
 20
-57.53015
 11
32.99724
 21
-57.42887
  0
LINE
  8
別途部材
  6
CONTINUOUS
 62
    96
 10
33.171983
 20
-56.709885
 11
32.78168
 21
-56.90556
  0
LINE
  8
別途部材
  6
CONTINUOUS
 62
    96
 10
33.211158
 20
-56.85804
 11
32.81574
 21
-57.05628
  0
LINE
  8
別途部材
  6
CONTINUOUS
 62
    96
 10
32.913062
 20
-57.109682
 11
33.028758
 21
-57.014213
  0
LINE
  8
別途部材
  6
DASHDOTX2
 62
    96
 10
32.797365
 20
-57.20515
 11
32.797365
 21
-56.734922
  0
LINE
  8
別途部材
  6
DASHDOTX2
 62
    96
 10
32.797365
 20
-57.20515
 11
32.797365
 21
-57.70084
  0
LINE
  8
別途部材
  6
DASHDOTX2
 62
    96
 10
32.797365
 20
-57.20515
 11
33.192572
 21
-57.20515
  0
LINE
  8
別途部材
  6
DASHDOTX2
 62
    96
 10
32.797365
 20
-57.20515
 11
32.3799
 21
-57.20515
  0
LINE
  8
別途部材
  6
CONTINUOUS
 62
    96
 10
35.507365
 20
-57.53015
 11
33.22874
 21
-57.53015
  0
LINE
  8
別途部材
  6
CONTINUOUS
 62
    96
 10
35.357365
 20
-57.68015
 11
33.197365
 21
-57.68015
  0
LINE
  8
別途部材
  6
CONTINUOUS
 62
    96
 10
35.057363
 20
-54.90353
 11
35.057363
 21
-56.611178
  0
LINE
  8
別途部材
  6
CONTINUOUS
 62
    96
 10
35.207365
 20
-54.90353
 11
35.057363
 21
-54.90353
  0
LINE
  8
別途部材
  6
CONTINUOUS
 62
    96
 10
35.207365
 20
-54.90353
 11
35.207365
 21
-56.75353
  0
CIRCLE
  8
別途部材
  6
CONTINUOUS
 62
    96
 10
32.797365
 20
-57.20515
 40
0.15
  0
ARC
  8
別途部材
  6
CONTINUOUS
 62
    96
 10
32.797365
 20
-57.205148
 40
0.3
 50
92.998444
 51
411.219394
  0
LINE
  8
別途部材
  6
CONTINUOUS
 62
    96
 10
35.507365
 20
-57.53015
 11
35.507365
 21
-59.90515
  0
LINE
  8
別途部材
  6
CONTINUOUS
 62
    96
 10
35.357365
 20
-57.68015
 11
35.357365
 21
-59.90515
  0
LINE
  8
別途部材
  6
CONTINUOUS
 62
    96
 10
33.171983
 20
-56.709885
 11
35.057363
 21
-56.611178
  0
ENDBLK
  0
BLOCK
  2
*DIM_0038
 70
    65
 10
0.0
 20
0.0
  0
LINE
  8
寸法
  6
BYBLOCK
 62
     0
 10
121.504785
 20
77.557477
 11
121.504785
 21
85.37054
  0
LINE
  8
寸法
  6
BYBLOCK
 62
     0
 10
167.304785
 20
77.557477
 11
167.304785
 21
85.37054
  0
LINE
  8
寸法
  6
BYBLOCK
 62
     0
 10
121.504785
 20
85.37054
 11
167.304785
 21
85.37054
  0
POINT
  8
寸法
 62
     0
 10
121.504785
 20
85.37054
  0
POINT
  8
寸法
 62
     0
 10
167.304785
 20
85.37054
  0
TEXT
  7
TextStyle03
  8
寸法
  6
CONTINUOUS
 62
     0
 10
141.9625
 20
85.725
  1
916
 40
3.0
 72
     5
 11
146.8375
 21
85.725
  0
ENDBLK
  0
BLOCK
  2
*DIM_0039
 70
    65
 10
0.0
 20
0.0
  0
LINE
  8
寸法
  6
BYBLOCK
 62
     0
 10
170.304785
 20
74.557477
 11
179.009588
 21
74.557477
  0
LINE
  8
寸法
  6
BYBLOCK
 62
     0
 10
170.304785
 20
28.757477
 11
179.009588
 21
28.757477
  0
LINE
  8
寸法
  6
BYBLOCK
 62
     0
 10
179.009588
 20
74.557477
 11
179.009588
 21
28.757477
  0
POINT
  8
寸法
 62
     0
 10
179.009588
 20
74.557477
  0
POINT
  8
寸法
 62
     0
 10
179.009588
 20
28.757477
  0
TEXT
  7
TextStyle03
  8
寸法
  6
CONTINUOUS
 62
     0
 10
178.625
 20
49.2125
  1
916
 40
3.0
 50
90.0
 72
     5
 11
178.625
 21
54.0875
  0
ENDBLK
  0
BLOCK
  2
*GRP_0040
 70
    65
 10
0.0
 20
0.0
  0
LINE
  8
ボルト／ビス
  6
CONTINUOUS
 10
-93.435405
 20
-52.279987
 11
-93.435405
 21
-51.579985
  0
LINE
  8
ボルト／ビス
  6
CONTINUOUS
 10
-92.885402
 20
-52.279987
 11
-92.885402
 21
-52.179985
  0
LINE
  8
ボルト／ビス
  6
CONTINUOUS
 10
-92.885402
 20
-52.179985
 11
-93.985405
 21
-52.179985
  0
LINE
  8
ボルト／ビス
  6
CONTINUOUS
 10
-93.985405
 20
-52.179985
 11
-93.985405
 21
-52.279987
  0
LINE
  8
ボルト／ビス
  6
CONTINUOUS
 10
-92.885402
 20
-52.279987
 11
-93.985405
 21
-52.279987
  0
LINE
  8
ボルト／ビス
  6
CONTINUOUS
 10
-92.985405
 20
-52.129987
 11
-92.985405
 21
-52.179985
  0
LINE
  8
ボルト／ビス
  6
CONTINUOUS
 10
-92.985405
 20
-52.129987
 11
-93.885405
 21
-52.129987
  0
LINE
  8
ボルト／ビス
  6
CONTINUOUS
 10
-93.885405
 20
-52.129987
 11
-93.885405
 21
-52.179985
  0
LINE
  8
ボルト／ビス
  6
CONTINUOUS
 62
    64
 10
-93.194842
 20
-51.829987
 11
-93.14673
 21
-51.8475
  0
ARC
  8
ボルト／ビス
  6
CONTINUOUS
 62
    64
 10
-93.218899
 20
-51.987456
 40
0.157468
 50
90.0
 51
117.278033
  0
ARC
  8
ボルト／ビス
  6
CONTINUOUS
 62
    64
 10
-93.435405
 20
-52.433592
 40
0.603603
 50
76.165015
 51
103.834998
  0
LINE
  8
ボルト／ビス
  6
CONTINUOUS
 62
    64
 10
-93.675968
 20
-51.829987
 11
-93.72408
 21
-51.8475
  0
ARC
  8
ボルト／ビス
  6
CONTINUOUS
 62
    64
 10
-93.651911
 20
-51.987456
 40
0.157468
 50
62.721967
 51
90.0
  0
LINE
  8
ボルト／ビス
  6
CONTINUOUS
 62
    64
 10
-93.194842
 20
-51.829987
 11
-93.675968
 21
-51.829987
  0
LINE
  8
ボルト／ビス
  6
CONTINUOUS
 62
    64
 10
-93.72408
 20
-51.8475
 11
-93.72408
 21
-52.029985
  0
LINE
  8
ボルト／ビス
  6
CONTINUOUS
 62
    64
 10
-93.579742
 20
-51.8475
 11
-93.579742
 21
-52.029985
  0
LINE
  8
ボルト／ビス
  6
CONTINUOUS
 62
    64
 10
-93.14673
 20
-51.8475
 11
-93.14673
 21
-52.029985
  0
LINE
  8
ボルト／ビス
  6
CONTINUOUS
 62
    64
 10
-93.291068
 20
-51.8475
 11
-93.291068
 21
-52.029985
  0
LINE
  8
ボルト／ビス
  6
CONTINUOUS
 10
-93.14673
 20
-52.029985
 11
-93.72408
 21
-52.029985
  0
LINE
  8
ボルト／ビス
  6
CONTINUOUS
 10
-93.135405
 20
-52.029985
 11
-93.135405
 21
-52.129987
  0
LINE
  8
ボルト／ビス
  6
CONTINUOUS
 10
-93.135405
 20
-52.029985
 11
-93.735405
 21
-52.029985
  0
LINE
  8
ボルト／ビス
  6
CONTINUOUS
 10
-93.735405
 20
-52.029985
 11
-93.735405
 21
-52.129987
  0
ENDBLK
  0
BLOCK
  2
*GRP_0041
 70
    65
 10
0.0
 20
0.0
  0
LINE
  8
ボルト／ビス
  6
CONTINUOUS
 10
-46.435405
 20
-52.279987
 11
-46.435405
 21
-51.579985
  0
LINE
  8
ボルト／ビス
  6
CONTINUOUS
 10
-45.885402
 20
-52.279987
 11
-45.885402
 21
-52.179985
  0
LINE
  8
ボルト／ビス
  6
CONTINUOUS
 10
-45.885402
 20
-52.179985
 11
-46.985405
 21
-52.179985
  0
LINE
  8
ボルト／ビス
  6
CONTINUOUS
 10
-46.985405
 20
-52.179985
 11
-46.985405
 21
-52.279987
  0
LINE
  8
ボルト／ビス
  6
CONTINUOUS
 10
-45.885402
 20
-52.279987
 11
-46.985405
 21
-52.279987
  0
LINE
  8
ボルト／ビス
  6
CONTINUOUS
 10
-45.985405
 20
-52.129987
 11
-45.985405
 21
-52.179985
  0
LINE
  8
ボルト／ビス
  6
CONTINUOUS
 10
-45.985405
 20
-52.129987
 11
-46.885405
 21
-52.129987
  0
LINE
  8
ボルト／ビス
  6
CONTINUOUS
 10
-46.885405
 20
-52.129987
 11
-46.885405
 21
-52.179985
  0
LINE
  8
ボルト／ビス
  6
CONTINUOUS
 62
    64
 10
-46.194842
 20
-51.829987
 11
-46.14673
 21
-51.8475
  0
ARC
  8
ボルト／ビス
  6
CONTINUOUS
 62
    64
 10
-46.218899
 20
-51.987456
 40
0.157468
 50
90.0
 51
117.278033
  0
ARC
  8
ボルト／ビス
  6
CONTINUOUS
 62
    64
 10
-46.435405
 20
-52.433592
 40
0.603603
 50
76.165015
 51
103.834998
  0
LINE
  8
ボルト／ビス
  6
CONTINUOUS
 62
    64
 10
-46.675968
 20
-51.829987
 11
-46.72408
 21
-51.8475
  0
ARC
  8
ボルト／ビス
  6
CONTINUOUS
 62
    64
 10
-46.651911
 20
-51.987456
 40
0.157468
 50
62.721967
 51
90.0
  0
LINE
  8
ボルト／ビス
  6
CONTINUOUS
 62
    64
 10
-46.194842
 20
-51.829987
 11
-46.675968
 21
-51.829987
  0
LINE
  8
ボルト／ビス
  6
CONTINUOUS
 62
    64
 10
-46.72408
 20
-51.8475
 11
-46.72408
 21
-52.029985
  0
LINE
  8
ボルト／ビス
  6
CONTINUOUS
 62
    64
 10
-46.579742
 20
-51.8475
 11
-46.579742
 21
-52.029985
  0
LINE
  8
ボルト／ビス
  6
CONTINUOUS
 62
    64
 10
-46.14673
 20
-51.8475
 11
-46.14673
 21
-52.029985
  0
LINE
  8
ボルト／ビス
  6
CONTINUOUS
 62
    64
 10
-46.291068
 20
-51.8475
 11
-46.291068
 21
-52.029985
  0
LINE
  8
ボルト／ビス
  6
CONTINUOUS
 10
-46.14673
 20
-52.029985
 11
-46.72408
 21
-52.029985
  0
LINE
  8
ボルト／ビス
  6
CONTINUOUS
 10
-46.135405
 20
-52.029985
 11
-46.135405
 21
-52.129987
  0
LINE
  8
ボルト／ビス
  6
CONTINUOUS
 10
-46.135405
 20
-52.029985
 11
-46.735405
 21
-52.029985
  0
LINE
  8
ボルト／ビス
  6
CONTINUOUS
 10
-46.735405
 20
-52.029985
 11
-46.735405
 21
-52.129987
  0
ENDBLK
  0
BLOCK
  2
*GRP_0042
 70
    65
 10
0.0
 20
0.0
  0
LINE
  8
ボルト／ビス
  6
CONTINUOUS
 10
36.20785
 20
-52.279987
 11
36.20785
 21
-51.579985
  0
LINE
  8
ボルト／ビス
  6
CONTINUOUS
 10
36.757853
 20
-52.279987
 11
36.757853
 21
-52.179985
  0
LINE
  8
ボルト／ビス
  6
CONTINUOUS
 10
36.757853
 20
-52.179985
 11
35.65785
 21
-52.179985
  0
LINE
  8
ボルト／ビス
  6
CONTINUOUS
 10
35.65785
 20
-52.179985
 11
35.65785
 21
-52.279987
  0
LINE
  8
ボルト／ビス
  6
CONTINUOUS
 10
36.757853
 20
-52.279987
 11
35.65785
 21
-52.279987
  0
LINE
  8
ボルト／ビス
  6
CONTINUOUS
 10
36.65785
 20
-52.129987
 11
36.65785
 21
-52.179985
  0
LINE
  8
ボルト／ビス
  6
CONTINUOUS
 10
36.65785
 20
-52.129987
 11
35.75785
 21
-52.129987
  0
LINE
  8
ボルト／ビス
  6
CONTINUOUS
 10
35.75785
 20
-52.129987
 11
35.75785
 21
-52.179985
  0
LINE
  8
ボルト／ビス
  6
CONTINUOUS
 62
    64
 10
36.448413
 20
-51.829987
 11
36.496525
 21
-51.8475
  0
ARC
  8
ボルト／ビス
  6
CONTINUOUS
 62
    64
 10
36.424356
 20
-51.987457
 40
0.157468
 50
90.0
 51
117.278033
  0
ARC
  8
ボルト／ビス
  6
CONTINUOUS
 62
    64
 10
36.207849
 20
-52.433593
 40
0.603603
 50
76.165015
 51
103.834998
  0
LINE
  8
ボルト／ビス
  6
CONTINUOUS
 62
    64
 10
35.967288
 20
-51.829987
 11
35.919175
 21
-51.8475
  0
ARC
  8
ボルト／ビス
  6
CONTINUOUS
 62
    64
 10
35.991343
 20
-51.987457
 40
0.157468
 50
62.721967
 51
90.0
  0
LINE
  8
ボルト／ビス
  6
CONTINUOUS
 62
    64
 10
36.448413
 20
-51.829987
 11
35.967288
 21
-51.829987
  0
LINE
  8
ボルト／ビス
  6
CONTINUOUS
 62
    64
 10
35.919175
 20
-51.8475
 11
35.919175
 21
-52.029985
  0
LINE
  8
ボルト／ビス
  6
CONTINUOUS
 62
    64
 10
36.063513
 20
-51.8475
 11
36.063513
 21
-52.029985
  0
LINE
  8
ボルト／ビス
  6
CONTINUOUS
 62
    64
 10
36.496525
 20
-51.8475
 11
36.496525
 21
-52.029985
  0
LINE
  8
ボルト／ビス
  6
CONTINUOUS
 62
    64
 10
36.352188
 20
-51.8475
 11
36.352188
 21
-52.029985
  0
LINE
  8
ボルト／ビス
  6
CONTINUOUS
 10
36.496525
 20
-52.029985
 11
35.919175
 21
-52.029985
  0
LINE
  8
ボルト／ビス
  6
CONTINUOUS
 10
36.50785
 20
-52.029985
 11
36.50785
 21
-52.129987
  0
LINE
  8
ボルト／ビス
  6
CONTINUOUS
 10
36.50785
 20
-52.029985
 11
35.90785
 21
-52.029985
  0
LINE
  8
ボルト／ビス
  6
CONTINUOUS
 10
35.90785
 20
-52.029985
 11
35.90785
 21
-52.129987
  0
ENDBLK
  0
BLOCK
  2
*GRP_0043
 70
    65
 10
0.0
 20
0.0
  0
LINE
  8
ボルト／ビス
  6
CONTINUOUS
 10
83.20785
 20
-52.279987
 11
83.20785
 21
-51.579985
  0
LINE
  8
ボルト／ビス
  6
CONTINUOUS
 10
83.757853
 20
-52.279987
 11
83.757853
 21
-52.179985
  0
LINE
  8
ボルト／ビス
  6
CONTINUOUS
 10
83.757853
 20
-52.179985
 11
82.65785
 21
-52.179985
  0
LINE
  8
ボルト／ビス
  6
CONTINUOUS
 10
82.65785
 20
-52.179985
 11
82.65785
 21
-52.279987
  0
LINE
  8
ボルト／ビス
  6
CONTINUOUS
 10
83.757853
 20
-52.279987
 11
82.65785
 21
-52.279987
  0
LINE
  8
ボルト／ビス
  6
CONTINUOUS
 10
83.65785
 20
-52.129987
 11
83.65785
 21
-52.179985
  0
LINE
  8
ボルト／ビス
  6
CONTINUOUS
 10
83.65785
 20
-52.129987
 11
82.75785
 21
-52.129987
  0
LINE
  8
ボルト／ビス
  6
CONTINUOUS
 10
82.75785
 20
-52.129987
 11
82.75785
 21
-52.179985
  0
LINE
  8
ボルト／ビス
  6
CONTINUOUS
 62
    64
 10
83.448413
 20
-51.829987
 11
83.496525
 21
-51.8475
  0
ARC
  8
ボルト／ビス
  6
CONTINUOUS
 62
    64
 10
83.424355
 20
-51.987458
 40
0.157468
 50
90.0
 51
117.278033
  0
ARC
  8
ボルト／ビス
  6
CONTINUOUS
 62
    64
 10
83.207849
 20
-52.433593
 40
0.603603
 50
76.165015
 51
103.834998
  0
LINE
  8
ボルト／ビス
  6
CONTINUOUS
 62
    64
 10
82.967288
 20
-51.829987
 11
82.919175
 21
-51.8475
  0
ARC
  8
ボルト／ビス
  6
CONTINUOUS
 62
    64
 10
82.991342
 20
-51.987458
 40
0.157468
 50
62.721967
 51
90.0
  0
LINE
  8
ボルト／ビス
  6
CONTINUOUS
 62
    64
 10
83.448413
 20
-51.829987
 11
82.967288
 21
-51.829987
  0
LINE
  8
ボルト／ビス
  6
CONTINUOUS
 62
    64
 10
82.919175
 20
-51.8475
 11
82.919175
 21
-52.029985
  0
LINE
  8
ボルト／ビス
  6
CONTINUOUS
 62
    64
 10
83.063513
 20
-51.8475
 11
83.063513
 21
-52.029985
  0
LINE
  8
ボルト／ビス
  6
CONTINUOUS
 62
    64
 10
83.496525
 20
-51.8475
 11
83.496525
 21
-52.029985
  0
LINE
  8
ボルト／ビス
  6
CONTINUOUS
 62
    64
 10
83.352188
 20
-51.8475
 11
83.352188
 21
-52.029985
  0
LINE
  8
ボルト／ビス
  6
CONTINUOUS
 10
83.496525
 20
-52.029985
 11
82.919175
 21
-52.029985
  0
LINE
  8
ボルト／ビス
  6
CONTINUOUS
 10
83.50785
 20
-52.029985
 11
83.50785
 21
-52.129987
  0
LINE
  8
ボルト／ビス
  6
CONTINUOUS
 10
83.50785
 20
-52.029985
 11
82.90785
 21
-52.029985
  0
LINE
  8
ボルト／ビス
  6
CONTINUOUS
 10
82.90785
 20
-52.029985
 11
82.90785
 21
-52.129987
  0
ENDBLK
  0
BLOCK
  2
*GRP_0044
 70
    65
 10
0.0
 20
0.0
  0
LINE
  8
ボルト／ビス
  6
DOT
 10
31.726325
 20
-51.310958
 11
31.23135
 21
-50.81598
  0
LINE
  8
ボルト／ビス
  6
DOT
 10
32.115237
 20
-50.922048
 11
32.044525
 21
-50.851335
  0
LINE
  8
ボルト／ビス
  6
DOT
 10
32.044525
 20
-50.851335
 11
31.266705
 21
-51.629152
  0
LINE
  8
ボルト／ビス
  6
DOT
 10
31.266705
 20
-51.629152
 11
31.337418
 21
-51.699865
  0
LINE
  8
ボルト／ビス
  6
DOT
 10
32.115237
 20
-50.922048
 11
31.337418
 21
-51.699865
  0
LINE
  8
ボルト／ビス
  6
DOT
 10
31.938458
 20
-50.886693
 11
31.973812
 21
-50.922048
  0
LINE
  8
ボルト／ビス
  6
DOT
 10
31.938458
 20
-50.886693
 11
31.302062
 21
-51.52309
  0
LINE
  8
ボルト／ビス
  6
DOT
 10
31.302062
 20
-51.52309
 11
31.337415
 21
-51.558442
  0
LINE
  8
ボルト／ビス
  6
DOT
 62
    64
 10
31.57823
 20
-50.822655
 11
31.624635
 21
-50.801018
  0
ARC
  8
ボルト／ビス
  6
DOT
 62
    64
 10
31.672568
 20
-50.951014
 40
0.157468
 50
135.0
 51
162.278033
  0
ARC
  8
ボルト／ビス
  6
DOT
 62
    64
 10
31.834941
 20
-51.419573
 40
0.603603
 50
121.165015
 51
148.834998
  0
LINE
  8
ボルト／ビス
  6
DOT
 62
    64
 10
31.238025
 20
-51.162863
 11
31.216388
 21
-51.209267
  0
ARC
  8
ボルト／ビス
  6
DOT
 62
    64
 10
31.366382
 20
-51.257201
 40
0.157468
 50
107.721967
 51
135.0
  0
LINE
  8
ボルト／ビス
  6
DOT
 62
    64
 10
31.57823
 20
-50.822655
 11
31.238025
 21
-51.162863
  0
LINE
  8
ボルト／ビス
  6
DOT
 62
    64
 10
31.216388
 20
-51.209267
 11
31.345422
 21
-51.338303
  0
LINE
  8
ボルト／ビス
  6
DOT
 62
    64
 10
31.31845
 20
-51.107205
 11
31.447485
 21
-51.23624
  0
LINE
  8
ボルト／ビス
  6
DOT
 62
    64
 10
31.624635
 20
-50.801018
 11
31.753672
 21
-50.930055
  0
LINE
  8
ボルト／ビス
  6
DOT
 62
    64
 10
31.522573
 20
-50.90308
 11
31.65161
 21
-51.032118
  0
LINE
  8
ボルト／ビス
  6
DOT
 10
31.753672
 20
-50.930055
 11
31.345422
 21
-51.338303
  0
LINE
  8
ボルト／ビス
  6
DOT
 10
31.76168
 20
-50.922048
 11
31.832393
 21
-50.99276
  0
LINE
  8
ボルト／ビス
  6
DOT
 10
31.76168
 20
-50.922048
 11
31.337415
 21
-51.34631
  0
LINE
  8
ボルト／ビス
  6
DOT
 10
31.337415
 20
-51.34631
 11
31.408128
 21
-51.417022
  0
ENDBLK
  0
BLOCK
  2
*GRP_0045
 70
    65
 10
0.0
 20
0.0
  0
LINE
  8
ボルト／ビス
  6
DOT
 10
64.960345
 20
-18.076937
 11
64.46537
 21
-17.58196
  0
LINE
  8
ボルト／ビス
  6
DOT
 10
65.349258
 20
-17.688028
 11
65.278545
 21
-17.617315
  0
LINE
  8
ボルト／ビス
  6
DOT
 10
65.278545
 20
-17.617315
 11
64.500725
 21
-18.395132
  0
LINE
  8
ボルト／ビス
  6
DOT
 10
64.500725
 20
-18.395132
 11
64.571437
 21
-18.465845
  0
LINE
  8
ボルト／ビス
  6
DOT
 10
65.349258
 20
-17.688028
 11
64.571437
 21
-18.465845
  0
LINE
  8
ボルト／ビス
  6
DOT
 10
65.172478
 20
-17.652672
 11
65.207833
 21
-17.688028
  0
LINE
  8
ボルト／ビス
  6
DOT
 10
65.172478
 20
-17.652672
 11
64.536082
 21
-18.28907
  0
LINE
  8
ボルト／ビス
  6
DOT
 10
64.536082
 20
-18.28907
 11
64.571435
 21
-18.324423
  0
LINE
  8
ボルト／ビス
  6
DOT
 62
    64
 10
64.81225
 20
-17.588635
 11
64.858655
 21
-17.566997
  0
ARC
  8
ボルト／ビス
  6
DOT
 62
    64
 10
64.906587
 20
-17.716995
 40
0.157468
 50
135.0
 51
162.278033
  0
ARC
  8
ボルト／ビス
  6
DOT
 62
    64
 10
65.06896
 20
-18.185554
 40
0.603603
 50
121.165015
 51
148.834998
  0
LINE
  8
ボルト／ビス
  6
DOT
 62
    64
 10
64.472045
 20
-17.928842
 11
64.450408
 21
-17.975248
  0
ARC
  8
ボルト／ビス
  6
DOT
 62
    64
 10
64.600401
 20
-18.023181
 40
0.157468
 50
107.721967
 51
135.0
  0
LINE
  8
ボルト／ビス
  6
DOT
 62
    64
 10
64.81225
 20
-17.588635
 11
64.472045
 21
-17.928842
  0
LINE
  8
ボルト／ビス
  6
DOT
 62
    64
 10
64.450408
 20
-17.975248
 11
64.579442
 21
-18.104283
  0
LINE
  8
ボルト／ビス
  6
DOT
 62
    64
 10
64.55247
 20
-17.873185
 11
64.681505
 21
-18.00222
  0
LINE
  8
ボルト／ビス
  6
DOT
 62
    64
 10
64.858655
 20
-17.566997
 11
64.987693
 21
-17.696035
  0
LINE
  8
ボルト／ビス
  6
DOT
 62
    64
 10
64.756593
 20
-17.66906
 11
64.88563
 21
-17.798098
  0
LINE
  8
ボルト／ビス
  6
DOT
 10
64.987693
 20
-17.696035
 11
64.579442
 21
-18.104283
  0
LINE
  8
ボルト／ビス
  6
DOT
 10
64.9957
 20
-17.688028
 11
65.066412
 21
-17.75874
  0
LINE
  8
ボルト／ビス
  6
DOT
 10
64.9957
 20
-17.688028
 11
64.571435
 21
-18.11229
  0
LINE
  8
ボルト／ビス
  6
DOT
 10
64.571435
 20
-18.11229
 11
64.642147
 21
-18.183003
  0
ENDBLK
  0
ENDSEC
  0
SECTION
  2
ENTITIES
  0
POLYLINE
  8
通り芯
  6
CONTINUOUS
 66
     1
 70
     1
  0
VERTEX
  8
通り芯
 10
-210.0
 20
-148.5
  0
VERTEX
  8
通り芯
 10
210.0
 20
-148.5
  0
VERTEX
  8
通り芯
 10
210.0
 20
148.5
  0
VERTEX
  8
通り芯
 10
-210.0
 20
148.5
  0
SEQEND
  0
INSERT
  2
*GRP_0001
  8
型材断面
  6
CONTINUOUS
 10
0.0
 20
0.0
  0
LINE
  8
型材断面
  6
DASHDOT
 10
-69.935405
 20
-67.794
 11
-69.935405
 21
56.66027
  0
LINE
  8
型材断面
  6
DASHDOT
 10
-92.435405
 20
-67.794
 11
-92.435405
 21
56.66027
  0
LINE
  8
型材断面
  6
DASHDOT
 10
-47.435405
 20
-67.794
 11
-47.435405
 21
56.66027
  0
LINE
  8
型材断面
  6
DASHDOT
 10
-92.435405
 20
56.66027
 11
-47.435405
 21
56.66027
  0
LINE
  8
型材断面
  6
DASHDOT
 10
-92.435405
 20
34.16027
 11
-47.435405
 21
34.16027
  0
LINE
  8
型材断面
  6
DASHDOT
 10
-92.435405
 20
11.66027
 11
-47.435405
 21
11.66027
  0
LINE
  8
型材断面
  6
CONTINUOUS
 10
-69.935405
 20
64.684145
 11
-72.17885
 21
68.569905
  0
LINE
  8
型材断面
  6
CONTINUOUS
 10
-69.935405
 20
64.684145
 11
-67.69196
 21
68.569905
  0
LINE
  8
型材断面
  6
CONTINUOUS
 10
-67.69196
 20
68.569905
 11
-72.17885
 21
68.569905
  0
LINE
  8
型材断面
  6
CONTINUOUS
 10
-69.935405
 20
3.636395
 11
-72.17885
 21
-0.249365
  0
LINE
  8
型材断面
  6
CONTINUOUS
 10
-69.935405
 20
3.636395
 11
-67.69196
 21
-0.249365
  0
LINE
  8
型材断面
  6
CONTINUOUS
 10
-67.69196
 20
-0.249365
 11
-72.17885
 21
-0.249365
  0
LINE
  8
型材断面
  6
CONTINUOUS
 10
-39.41153
 20
34.16027
 11
-35.52577
 21
36.403715
  0
LINE
  8
型材断面
  6
CONTINUOUS
 10
-39.41153
 20
34.16027
 11
-35.52577
 21
31.916825
  0
LINE
  8
型材断面
  6
CONTINUOUS
 10
-35.52577
 20
31.916825
 11
-35.52577
 21
36.403715
  0
LINE
  8
型材断面
  6
CONTINUOUS
 10
-100.45928
 20
34.16027
 11
-104.34504
 21
36.403715
  0
LINE
  8
型材断面
  6
CONTINUOUS
 10
-100.45928
 20
34.16027
 11
-104.34504
 21
31.916825
  0
LINE
  8
型材断面
  6
CONTINUOUS
 10
-104.34504
 20
31.916825
 11
-104.34504
 21
36.403715
  0
LINE
  8
型材断面
  6
CONTINUOUS
 10
-7.342083
 20
5.196457
 11
-9.585527
 21
1.310698
  0
LINE
  8
型材断面
  6
CONTINUOUS
 10
-7.342083
 20
5.196457
 11
-5.098638
 21
1.310698
  0
LINE
  8
型材断面
  6
CONTINUOUS
 10
-5.098638
 20
1.310698
 11
-9.585527
 21
1.310698
  0
LINE
  8
型材断面
  6
CONTINUOUS
 10
-7.342083
 20
-2.49309
 11
-6.447998
 21
-6.37885
  0
LINE
  8
型材断面
  6
CONTINUOUS
 10
-7.342083
 20
-2.49309
 11
-8.236168
 21
-6.37885
  0
LINE
  8
型材断面
  6
CONTINUOUS
 10
-8.236168
 20
-6.37885
 11
-6.447998
 21
-6.37885
  0
LINE
  8
型材断面
  6
CONTINUOUS
 10
-16.375962
 20
-0.097195
 11
36.280717
 21
-0.097195
  0
LINE
  8
型材断面
  6
CONTINUOUS
 10
-16.375962
 20
-11.297188
 11
36.280717
 21
-11.297188
  0
LINE
  8
型材断面
  6
CONTINUOUS
 10
-16.375962
 20
-18.137133
 11
36.280717
 21
-18.137133
  0
LINE
  8
型材断面
  6
CONTINUOUS
 10
-39.411528
 20
53.66027
 11
-35.525767
 21
52.766185
  0
LINE
  8
型材断面
  6
CONTINUOUS
 10
-39.411528
 20
53.66027
 11
-35.525767
 21
54.554355
  0
LINE
  8
型材断面
  6
CONTINUOUS
 10
-35.525767
 20
54.554355
 11
-35.525767
 21
52.766185
  0
LINE
  8
型材断面
  6
CONTINUOUS
 10
-39.411528
 20
14.66027
 11
-35.525767
 21
15.554355
  0
LINE
  8
型材断面
  6
CONTINUOUS
 10
-39.411528
 20
14.66027
 11
-35.525767
 21
13.766185
  0
LINE
  8
型材断面
  6
CONTINUOUS
 10
-35.525767
 20
13.766185
 11
-35.525767
 21
15.554355
  0
POLYLINE
  8
型材断面
  6
CONTINUOUS
 66
     1
 70
     1
  0
VERTEX
  8
型材断面
 10
-103.31
 20
-54.880725
  0
VERTEX
  8
型材断面
 10
-116.90601
 20
-54.880725
  0
VERTEX
  8
型材断面
 10
-116.90601
 20
-60.174252
  0
VERTEX
  8
型材断面
 10
-103.31
 20
-60.174252
  0
SEQEND
  0
LINE
  8
型材断面
  6
CONTINUOUS
 10
-43.535192
 20
7.760058
 11
-69.935405
 21
7.760058
  0
LINE
  8
型材断面
  6
CONTINUOUS
 10
-42.435195
 20
6.66006
 11
-69.935405
 21
6.66006
  0
LINE
  8
型材断面
  6
CONTINUOUS
 10
-43.535192
 20
7.760058
 11
-43.535192
 21
34.16027
  0
LINE
  8
型材断面
  6
CONTINUOUS
 10
-42.435195
 20
6.66006
 11
-42.435195
 21
34.16027
  0
LINE
  8
型材断面
  6
CONTINUOUS
 10
-44.335405
 20
8.56027
 11
-42.435195
 21
6.66006
  0
LINE
  8
型材断面
  6
CONTINUOUS
 10
-96.335617
 20
7.760058
 11
-69.935405
 21
7.760058
  0
LINE
  8
型材断面
  6
CONTINUOUS
 10
-97.435615
 20
6.66006
 11
-69.935405
 21
6.66006
  0
LINE
  8
型材断面
  6
CONTINUOUS
 10
-96.335617
 20
7.760058
 11
-96.335617
 21
34.16027
  0
LINE
  8
型材断面
  6
CONTINUOUS
 10
-97.435615
 20
6.66006
 11
-97.435615
 21
34.16027
  0
LINE
  8
型材断面
  6
CONTINUOUS
 10
-95.535405
 20
8.56027
 11
-97.435615
 21
6.66006
  0
LINE
  8
型材断面
  6
CONTINUOUS
 10
-96.335617
 20
60.560483
 11
-69.935405
 21
60.560483
  0
LINE
  8
型材断面
  6
CONTINUOUS
 10
-97.435615
 20
61.66048
 11
-69.935405
 21
61.66048
  0
LINE
  8
型材断面
  6
CONTINUOUS
 10
-96.335617
 20
60.560483
 11
-96.335617
 21
34.16027
  0
LINE
  8
型材断面
  6
CONTINUOUS
 10
-97.435615
 20
61.66048
 11
-97.435615
 21
34.16027
  0
LINE
  8
型材断面
  6
CONTINUOUS
 10
-95.535405
 20
59.76027
 11
-97.435615
 21
61.66048
  0
LINE
  8
型材断面
  6
CONTINUOUS
 10
-43.535192
 20
60.560483
 11
-69.935405
 21
60.560483
  0
LINE
  8
型材断面
  6
CONTINUOUS
 10
-42.435195
 20
61.66048
 11
-69.935405
 21
61.66048
  0
LINE
  8
型材断面
  6
CONTINUOUS
 10
-43.535192
 20
60.560483
 11
-43.535192
 21
34.16027
  0
LINE
  8
型材断面
  6
CONTINUOUS
 10
-42.435195
 20
61.66048
 11
-42.435195
 21
34.16027
  0
LINE
  8
型材断面
  6
CONTINUOUS
 10
-44.335405
 20
59.76027
 11
-42.435195
 21
61.66048
  0
LINE
  8
型材断面
  6
CONTINUOUS
 62
    47
 10
-94.420405
 20
-55.190182
 11
-94.435405
 21
-55.175183
  0
LINE
  8
型材断面
  6
CONTINUOUS
 62
    47
 10
-94.420405
 20
-55.190182
 11
-94.435405
 21
-55.205182
  0
LINE
  8
型材断面
  6
CONTINUOUS
 62
    47
 10
-94.420405
 20
-56.15353
 11
-94.435405
 21
-56.13853
  0
LINE
  8
型材断面
  6
CONTINUOUS
 62
    47
 10
-94.420405
 20
-56.15353
 11
-94.435405
 21
-56.16853
  0
LINE
  8
型材断面
  6
CONTINUOUS
 62
    47
 10
-94.435405
 20
-56.780182
 11
-94.435405
 21
-56.16853
  0
LINE
  8
型材断面
  6
CONTINUOUS
 62
    47
 10
-94.435405
 20
-56.13853
 11
-94.435405
 21
-55.205182
  0
LINE
  8
型材断面
  6
CONTINUOUS
 62
    47
 10
-94.435405
 20
-55.175183
 11
-94.435405
 21
-54.130155
  0
LINE
  8
型材断面
  6
CONTINUOUS
 62
    47
 10
-96.335617
 20
-56.87967
 11
-96.335617
 21
-57.129612
  0
LINE
  8
型材断面
  6
CONTINUOUS
 62
    47
 10
-94.120615
 20
-58.480177
 11
-94.135615
 21
-58.465178
  0
LINE
  8
型材断面
  6
CONTINUOUS
 62
    47
 10
-94.120615
 20
-58.480177
 11
-94.135615
 21
-58.495178
  0
LINE
  8
型材断面
  6
CONTINUOUS
 62
    47
 10
-94.120615
 20
-59.180188
 11
-94.135615
 21
-59.165187
  0
LINE
  8
型材断面
  6
CONTINUOUS
 62
    47
 10
-94.120615
 20
-59.180188
 11
-94.135615
 21
-59.195187
  0
LINE
  8
型材断面
  6
CONTINUOUS
 62
    47
 10
-94.135615
 20
-57.53015
 11
-94.135615
 21
-58.465178
  0
LINE
  8
型材断面
  6
CONTINUOUS
 62
    47
 10
-94.135615
 20
-58.495178
 11
-94.135615
 21
-59.165187
  0
LINE
  8
型材断面
  6
CONTINUOUS
 62
    47
 10
-97.435615
 20
-60.380163
 11
-97.435615
 21
-61.130165
  0
LINE
  8
型材断面
  6
CONTINUOUS
 62
    47
 10
-96.685628
 20
-61.630163
 11
-96.685628
 21
-61.130165
  0
LINE
  8
型材断面
  6
CONTINUOUS
 62
    47
 10
-97.435615
 20
-60.380163
 11
-94.135615
 21
-60.130163
  0
LINE
  8
型材断面
  6
CONTINUOUS
 62
    47
 10
-93.035402
 20
-60.130163
 11
-94.035615
 21
-60.130163
  0
LINE
  8
型材断面
  6
CONTINUOUS
 62
    47
 10
-94.120615
 20
-59.980163
 11
-94.135615
 21
-59.965163
  0
LINE
  8
型材断面
  6
CONTINUOUS
 62
    47
 10
-94.120615
 20
-59.980163
 11
-94.135615
 21
-59.995162
  0
LINE
  8
型材断面
  6
CONTINUOUS
 62
    47
 10
-94.135615
 20
-60.130163
 11
-94.135615
 21
-59.995162
  0
LINE
  8
型材断面
  6
CONTINUOUS
 62
    47
 10
-94.135615
 20
-59.195187
 11
-94.135615
 21
-59.965163
  0
LINE
  8
型材断面
  6
CONTINUOUS
 62
    47
 10
-96.335615
 20
-57.53015
 11
-96.335615
 21
-57.330175
  0
LINE
  8
型材断面
  6
CONTINUOUS
 62
    47
 10
-94.435405
 20
-56.780182
 11
-96.335617
 21
-56.87967
  0
LINE
  8
型材断面
  6
CONTINUOUS
 62
    47
 10
-94.03042
 20
-54.130155
 11
-94.03042
 21
-53.779985
  0
LINE
  8
型材断面
  6
CONTINUOUS
 62
    47
 10
-94.435405
 20
-54.130155
 11
-69.935405
 21
-54.130155
  0
LINE
  8
型材断面
  6
CONTINUOUS
 62
    47
 10
-96.335615
 20
-57.330175
 11
-69.935405
 21
-57.330175
  0
LINE
  8
型材断面
  6
CONTINUOUS
 62
    47
 10
-96.335615
 20
-57.53015
 11
-69.935405
 21
-57.53015
  0
LINE
  8
型材断面
  6
CONTINUOUS
 62
    47
 10
-96.335617
 20
-57.129612
 11
-69.935405
 21
-57.129612
  0
LINE
  8
型材断面
  6
CONTINUOUS
 10
-94.435405
 20
-56.780182
 11
-69.935405
 21
-56.780182
  0
LINE
  8
型材断面
  6
CONTINUOUS
 10
-96.335617
 20
-56.87967
 11
-69.935405
 21
-56.87967
  0
LINE
  8
型材断面
  6
CONTINUOUS
 10
-94.135615
 20
-60.130163
 11
-69.935405
 21
-60.130163
  0
LINE
  8
型材断面
  6
CONTINUOUS
 10
-97.435615
 20
-60.380163
 11
-69.935405
 21
-60.380163
  0
LINE
  8
型材断面
  6
CONTINUOUS
 62
    47
 10
-97.435615
 20
-61.130165
 11
-69.935405
 21
-61.130165
  0
LINE
  8
型材断面
  6
CONTINUOUS
 62
    47
 10
-96.685628
 20
-61.630163
 11
-69.935405
 21
-61.630163
  0
LINE
  8
型材断面
  6
CONTINUOUS
 62
    47
 10
-45.450405
 20
-55.190182
 11
-45.435405
 21
-55.175183
  0
LINE
  8
型材断面
  6
CONTINUOUS
 62
    47
 10
-45.450405
 20
-55.190182
 11
-45.435405
 21
-55.205182
  0
LINE
  8
型材断面
  6
CONTINUOUS
 62
    47
 10
-45.450405
 20
-56.15353
 11
-45.435405
 21
-56.13853
  0
LINE
  8
型材断面
  6
CONTINUOUS
 62
    47
 10
-45.450405
 20
-56.15353
 11
-45.435405
 21
-56.16853
  0
LINE
  8
型材断面
  6
CONTINUOUS
 62
    47
 10
-45.435405
 20
-56.780182
 11
-45.435405
 21
-56.16853
  0
LINE
  8
型材断面
  6
CONTINUOUS
 62
    47
 10
-45.435405
 20
-56.13853
 11
-45.435405
 21
-55.205182
  0
LINE
  8
型材断面
  6
CONTINUOUS
 62
    47
 10
-45.435405
 20
-55.175183
 11
-45.435405
 21
-54.130155
  0
LINE
  8
型材断面
  6
CONTINUOUS
 62
    47
 10
-43.535192
 20
-56.87967
 11
-43.535192
 21
-57.129612
  0
LINE
  8
型材断面
  6
CONTINUOUS
 62
    47
 10
-45.750195
 20
-58.480177
 11
-45.735195
 21
-58.465178
  0
LINE
  8
型材断面
  6
CONTINUOUS
 62
    47
 10
-45.750195
 20
-58.480177
 11
-45.735195
 21
-58.495178
  0
LINE
  8
型材断面
  6
CONTINUOUS
 62
    47
 10
-45.750195
 20
-59.180188
 11
-45.735195
 21
-59.165187
  0
LINE
  8
型材断面
  6
CONTINUOUS
 62
    47
 10
-45.750195
 20
-59.180188
 11
-45.735195
 21
-59.195187
  0
LINE
  8
型材断面
  6
CONTINUOUS
 62
    47
 10
-45.735195
 20
-57.53015
 11
-45.735195
 21
-58.465178
  0
LINE
  8
型材断面
  6
CONTINUOUS
 62
    47
 10
-45.735195
 20
-58.495178
 11
-45.735195
 21
-59.165187
  0
LINE
  8
型材断面
  6
CONTINUOUS
 62
    47
 10
-42.435195
 20
-60.380163
 11
-42.435195
 21
-61.130165
  0
LINE
  8
型材断面
  6
CONTINUOUS
 62
    47
 10
-43.185182
 20
-61.630163
 11
-43.185182
 21
-61.130165
  0
LINE
  8
型材断面
  6
CONTINUOUS
 62
    47
 10
-42.435195
 20
-60.380163
 11
-45.735195
 21
-60.130163
  0
LINE
  8
型材断面
  6
CONTINUOUS
 62
    47
 10
-46.835408
 20
-60.130163
 11
-45.835195
 21
-60.130163
  0
LINE
  8
型材断面
  6
CONTINUOUS
 62
    47
 10
-45.750195
 20
-59.980163
 11
-45.735195
 21
-59.965163
  0
LINE
  8
型材断面
  6
CONTINUOUS
 62
    47
 10
-45.750195
 20
-59.980163
 11
-45.735195
 21
-59.995162
  0
LINE
  8
型材断面
  6
CONTINUOUS
 62
    47
 10
-45.735195
 20
-60.130163
 11
-45.735195
 21
-59.995162
  0
LINE
  8
型材断面
  6
CONTINUOUS
 62
    47
 10
-45.735195
 20
-59.195187
 11
-45.735195
 21
-59.965163
  0
LINE
  8
型材断面
  6
CONTINUOUS
 62
    47
 10
-43.535195
 20
-57.53015
 11
-43.535195
 21
-57.330175
  0
LINE
  8
型材断面
  6
CONTINUOUS
 62
    47
 10
-45.435405
 20
-56.780182
 11
-43.535192
 21
-56.87967
  0
LINE
  8
型材断面
  6
CONTINUOUS
 62
    47
 10
-45.84039
 20
-54.130155
 11
-45.84039
 21
-53.779985
  0
LINE
  8
型材断面
  6
CONTINUOUS
 62
    47
 10
-45.435405
 20
-54.130155
 11
-69.935405
 21
-54.130155
  0
LINE
  8
型材断面
  6
CONTINUOUS
 62
    47
 10
-43.535195
 20
-57.330175
 11
-69.935405
 21
-57.330175
  0
LINE
  8
型材断面
  6
CONTINUOUS
 62
    47
 10
-43.535195
 20
-57.53015
 11
-69.935405
 21
-57.53015
  0
LINE
  8
型材断面
  6
CONTINUOUS
 62
    47
 10
-43.535192
 20
-57.129612
 11
-69.935405
 21
-57.129612
  0
LINE
  8
型材断面
  6
CONTINUOUS
 10
-45.435405
 20
-56.780182
 11
-69.935405
 21
-56.780182
  0
LINE
  8
型材断面
  6
CONTINUOUS
 10
-43.535192
 20
-56.87967
 11
-69.935405
 21
-56.87967
  0
LINE
  8
型材断面
  6
CONTINUOUS
 10
-45.735195
 20
-60.130163
 11
-69.935405
 21
-60.130163
  0
LINE
  8
型材断面
  6
CONTINUOUS
 10
-42.435195
 20
-60.380163
 11
-69.935405
 21
-60.380163
  0
LINE
  8
型材断面
  6
CONTINUOUS
 62
    47
 10
-42.435195
 20
-61.130165
 11
-69.935405
 21
-61.130165
  0
LINE
  8
型材断面
  6
CONTINUOUS
 62
    47
 10
-43.185182
 20
-61.630163
 11
-69.935405
 21
-61.630163
  0
LINE
  8
型材断面
  6
CONTINUOUS
 62
    47
 10
35.22285
 20
-55.190182
 11
35.20785
 21
-55.175183
  0
LINE
  8
型材断面
  6
CONTINUOUS
 62
    47
 10
35.22285
 20
-55.190182
 11
35.20785
 21
-55.205182
  0
LINE
  8
型材断面
  6
CONTINUOUS
 62
    47
 10
35.22285
 20
-56.15353
 11
35.20785
 21
-56.13853
  0
LINE
  8
型材断面
  6
CONTINUOUS
 62
    47
 10
35.22285
 20
-56.15353
 11
35.20785
 21
-56.16853
  0
LINE
  8
型材断面
  6
CONTINUOUS
 62
    47
 10
35.20785
 20
-56.780182
 11
35.20785
 21
-56.16853
  0
LINE
  8
型材断面
  6
CONTINUOUS
 62
    47
 10
35.20785
 20
-56.13853
 11
35.20785
 21
-55.205182
  0
LINE
  8
型材断面
  6
CONTINUOUS
 62
    47
 10
35.20785
 20
-55.175183
 11
35.20785
 21
-54.130155
  0
LINE
  8
型材断面
  6
CONTINUOUS
 62
    47
 10
33.307638
 20
-56.87967
 11
33.307638
 21
-57.129612
  0
LINE
  8
型材断面
  6
CONTINUOUS
 62
    47
 10
35.52264
 20
-58.480177
 11
35.50764
 21
-58.465178
  0
LINE
  8
型材断面
  6
CONTINUOUS
 62
    47
 10
35.52264
 20
-58.480177
 11
35.50764
 21
-58.495178
  0
LINE
  8
型材断面
  6
CONTINUOUS
 62
    47
 10
35.52264
 20
-59.180188
 11
35.50764
 21
-59.165187
  0
LINE
  8
型材断面
  6
CONTINUOUS
 62
    47
 10
35.52264
 20
-59.180188
 11
35.50764
 21
-59.195187
  0
LINE
  8
型材断面
  6
CONTINUOUS
 62
    47
 10
35.50764
 20
-57.53015
 11
35.50764
 21
-58.465178
  0
LINE
  8
型材断面
  6
CONTINUOUS
 62
    47
 10
35.50764
 20
-58.495178
 11
35.50764
 21
-59.165187
  0
LINE
  8
型材断面
  6
CONTINUOUS
 62
    47
 10
32.20764
 20
-60.380163
 11
32.20764
 21
-61.130165
  0
LINE
  8
型材断面
  6
CONTINUOUS
 62
    47
 10
32.957627
 20
-61.630163
 11
32.957627
 21
-61.130165
  0
LINE
  8
型材断面
  6
CONTINUOUS
 62
    47
 10
32.20764
 20
-60.380163
 11
35.50764
 21
-60.130163
  0
LINE
  8
型材断面
  6
CONTINUOUS
 62
    47
 10
36.607853
 20
-60.130163
 11
35.60764
 21
-60.130163
  0
LINE
  8
型材断面
  6
CONTINUOUS
 62
    47
 10
35.52264
 20
-59.980163
 11
35.50764
 21
-59.965163
  0
LINE
  8
型材断面
  6
CONTINUOUS
 62
    47
 10
35.52264
 20
-59.980163
 11
35.50764
 21
-59.995162
  0
LINE
  8
型材断面
  6
CONTINUOUS
 62
    47
 10
35.50764
 20
-60.130163
 11
35.50764
 21
-59.995162
  0
LINE
  8
型材断面
  6
CONTINUOUS
 62
    47
 10
35.50764
 20
-59.195187
 11
35.50764
 21
-59.965163
  0
LINE
  8
型材断面
  6
CONTINUOUS
 62
    47
 10
33.30764
 20
-57.53015
 11
33.30764
 21
-57.330175
  0
LINE
  8
型材断面
  6
CONTINUOUS
 62
    47
 10
35.20785
 20
-56.780182
 11
33.307638
 21
-56.87967
  0
LINE
  8
型材断面
  6
CONTINUOUS
 62
    47
 10
35.612835
 20
-54.130155
 11
35.612835
 21
-53.779985
  0
LINE
  8
型材断面
  6
CONTINUOUS
 62
    47
 10
35.20785
 20
-54.130155
 11
59.70785
 21
-54.130155
  0
LINE
  8
型材断面
  6
CONTINUOUS
 62
    47
 10
33.30764
 20
-57.330175
 11
59.70785
 21
-57.330175
  0
LINE
  8
型材断面
  6
CONTINUOUS
 62
    47
 10
33.30764
 20
-57.53015
 11
59.70785
 21
-57.53015
  0
LINE
  8
型材断面
  6
CONTINUOUS
 62
    47
 10
33.307638
 20
-57.129612
 11
59.70785
 21
-57.129612
  0
LINE
  8
型材断面
  6
CONTINUOUS
 10
35.20785
 20
-56.780182
 11
59.70785
 21
-56.780182
  0
LINE
  8
型材断面
  6
CONTINUOUS
 10
33.307638
 20
-56.87967
 11
59.70785
 21
-56.87967
  0
LINE
  8
型材断面
  6
CONTINUOUS
 10
35.50764
 20
-60.130163
 11
59.70785
 21
-60.130163
  0
LINE
  8
型材断面
  6
CONTINUOUS
 10
32.20764
 20
-60.380163
 11
59.70785
 21
-60.380163
  0
LINE
  8
型材断面
  6
CONTINUOUS
 62
    47
 10
32.20764
 20
-61.130165
 11
59.70785
 21
-61.130165
  0
LINE
  8
型材断面
  6
CONTINUOUS
 62
    47
 10
32.957627
 20
-61.630163
 11
59.70785
 21
-61.630163
  0
LINE
  8
型材断面
  6
CONTINUOUS
 62
    47
 10
84.19285
 20
-55.190182
 11
84.20785
 21
-55.175183
  0
LINE
  8
型材断面
  6
CONTINUOUS
 62
    47
 10
84.19285
 20
-55.190182
 11
84.20785
 21
-55.205182
  0
LINE
  8
型材断面
  6
CONTINUOUS
 62
    47
 10
84.19285
 20
-56.15353
 11
84.20785
 21
-56.13853
  0
LINE
  8
型材断面
  6
CONTINUOUS
 62
    47
 10
84.19285
 20
-56.15353
 11
84.20785
 21
-56.16853
  0
LINE
  8
型材断面
  6
CONTINUOUS
 62
    47
 10
84.20785
 20
-56.780182
 11
84.20785
 21
-56.16853
  0
LINE
  8
型材断面
  6
CONTINUOUS
 62
    47
 10
84.20785
 20
-56.13853
 11
84.20785
 21
-55.205182
  0
LINE
  8
型材断面
  6
CONTINUOUS
 62
    47
 10
84.20785
 20
-55.175183
 11
84.20785
 21
-54.130155
  0
LINE
  8
型材断面
  6
CONTINUOUS
 62
    47
 10
86.108063
 20
-56.87967
 11
86.108063
 21
-57.129612
  0
LINE
  8
型材断面
  6
CONTINUOUS
 62
    47
 10
83.89306
 20
-58.480177
 11
83.90806
 21
-58.465178
  0
LINE
  8
型材断面
  6
CONTINUOUS
 62
    47
 10
83.89306
 20
-58.480177
 11
83.90806
 21
-58.495178
  0
LINE
  8
型材断面
  6
CONTINUOUS
 62
    47
 10
83.89306
 20
-59.180188
 11
83.90806
 21
-59.165187
  0
LINE
  8
型材断面
  6
CONTINUOUS
 62
    47
 10
83.89306
 20
-59.180188
 11
83.90806
 21
-59.195187
  0
LINE
  8
型材断面
  6
CONTINUOUS
 62
    47
 10
83.90806
 20
-57.53015
 11
83.90806
 21
-58.465178
  0
LINE
  8
型材断面
  6
CONTINUOUS
 62
    47
 10
83.90806
 20
-58.495178
 11
83.90806
 21
-59.165187
  0
LINE
  8
型材断面
  6
CONTINUOUS
 62
    47
 10
87.20806
 20
-60.380163
 11
87.20806
 21
-61.130165
  0
LINE
  8
型材断面
  6
CONTINUOUS
 62
    47
 10
86.458072
 20
-61.630163
 11
86.458072
 21
-61.130165
  0
LINE
  8
型材断面
  6
CONTINUOUS
 62
    47
 10
87.20806
 20
-60.380163
 11
83.90806
 21
-60.130163
  0
LINE
  8
型材断面
  6
CONTINUOUS
 62
    47
 10
82.807848
 20
-60.130163
 11
83.80806
 21
-60.130163
  0
LINE
  8
型材断面
  6
CONTINUOUS
 62
    47
 10
83.89306
 20
-59.980163
 11
83.90806
 21
-59.965163
  0
LINE
  8
型材断面
  6
CONTINUOUS
 62
    47
 10
83.89306
 20
-59.980163
 11
83.90806
 21
-59.995162
  0
LINE
  8
型材断面
  6
CONTINUOUS
 62
    47
 10
83.90806
 20
-60.130163
 11
83.90806
 21
-59.995162
  0
LINE
  8
型材断面
  6
CONTINUOUS
 62
    47
 10
83.90806
 20
-59.195187
 11
83.90806
 21
-59.965163
  0
LINE
  8
型材断面
  6
CONTINUOUS
 62
    47
 10
86.10806
 20
-57.53015
 11
86.10806
 21
-57.330175
  0
LINE
  8
型材断面
  6
CONTINUOUS
 62
    47
 10
84.20785
 20
-56.780182
 11
86.108063
 21
-56.87967
  0
LINE
  8
型材断面
  6
CONTINUOUS
 62
    47
 10
83.802865
 20
-54.130155
 11
83.802865
 21
-53.779985
  0
LINE
  8
型材断面
  6
CONTINUOUS
 62
    47
 10
84.20785
 20
-54.130155
 11
59.70785
 21
-54.130155
  0
LINE
  8
型材断面
  6
CONTINUOUS
 62
    47
 10
86.10806
 20
-57.330175
 11
59.70785
 21
-57.330175
  0
LINE
  8
型材断面
  6
CONTINUOUS
 62
    47
 10
86.10806
 20
-57.53015
 11
59.70785
 21
-57.53015
  0
LINE
  8
型材断面
  6
CONTINUOUS
 62
    47
 10
86.108063
 20
-57.129612
 11
59.70785
 21
-57.129612
  0
LINE
  8
型材断面
  6
CONTINUOUS
 10
84.20785
 20
-56.780182
 11
59.70785
 21
-56.780182
  0
LINE
  8
型材断面
  6
CONTINUOUS
 10
86.108063
 20
-56.87967
 11
59.70785
 21
-56.87967
  0
LINE
  8
型材断面
  6
CONTINUOUS
 10
83.90806
 20
-60.130163
 11
59.70785
 21
-60.130163
  0
LINE
  8
型材断面
  6
CONTINUOUS
 10
87.20806
 20
-60.380163
 11
59.70785
 21
-60.380163
  0
LINE
  8
型材断面
  6
CONTINUOUS
 62
    47
 10
87.20806
 20
-61.130165
 11
59.70785
 21
-61.130165
  0
LINE
  8
型材断面
  6
CONTINUOUS
 62
    47
 10
86.458072
 20
-61.630163
 11
59.70785
 21
-61.630163
  0
LINE
  8
型材断面
  6
DOT
 62
    47
 10
33.087645
 20
-54.065275
 11
33.066432
 21
-54.065275
  0
LINE
  8
型材断面
  6
DOT
 62
    47
 10
33.087645
 20
-54.065275
 11
33.087645
 21
-54.08649
  0
LINE
  8
型材断面
  6
DOT
 62
    47
 10
33.768835
 20
-54.746465
 11
33.74762
 21
-54.746465
  0
LINE
  8
型材断面
  6
DOT
 62
    47
 10
33.768835
 20
-54.746465
 11
33.768835
 21
-54.767677
  0
LINE
  8
型材断面
  6
DOT
 62
    47
 10
34.201338
 20
-55.200183
 11
33.768835
 21
-54.767677
  0
LINE
  8
型材断面
  6
DOT
 62
    47
 10
33.74762
 20
-54.746465
 11
33.087645
 21
-54.08649
  0
LINE
  8
型材断面
  6
DOT
 62
    47
 10
33.066432
 20
-54.065275
 11
32.327485
 21
-53.32633
  0
LINE
  8
型材断面
  6
DOT
 62
    47
 10
32.928032
 20
-56.614182
 11
33.10477
 21
-56.79092
  0
LINE
  8
型材断面
  6
DOT
 62
    47
 10
34.201338
 20
-55.200183
 11
32.928032
 21
-56.614182
  0
LINE
  8
型材断面
  6
DOT
 62
    47
 10
32.613853
 20
-53.039963
 11
32.366245
 21
-52.792355
  0
LINE
  8
型材断面
  6
DOT
 62
    47
 10
32.327485
 20
-53.32633
 11
49.651603
 21
-36.002215
  0
LINE
  8
型材断面
  6
DOT
 62
    47
 10
33.10477
 20
-56.79092
 11
51.772537
 21
-38.12315
  0
LINE
  8
型材断面
  6
DOT
 10
34.201338
 20
-55.200183
 11
51.525455
 21
-37.876065
  0
LINE
  8
型材断面
  6
DOT
 10
32.928032
 20
-56.614182
 11
51.595802
 21
-37.946415
  0
LINE
  8
型材断面
  6
DOT
 62
    47
 10
67.714665
 20
-19.438257
 11
67.714665
 21
-19.417043
  0
LINE
  8
型材断面
  6
DOT
 62
    47
 10
67.714665
 20
-19.438257
 11
67.735878
 21
-19.438257
  0
LINE
  8
型材断面
  6
DOT
 62
    47
 10
68.395853
 20
-20.119448
 11
68.395853
 21
-20.098232
  0
LINE
  8
型材断面
  6
DOT
 62
    47
 10
68.395853
 20
-20.119448
 11
68.417067
 21
-20.119448
  0
LINE
  8
型材断面
  6
DOT
 62
    47
 10
68.84957
 20
-20.55195
 11
68.417067
 21
-20.119448
  0
LINE
  8
型材断面
  6
DOT
 62
    47
 10
68.395853
 20
-20.098232
 11
67.735878
 21
-19.438257
  0
LINE
  8
型材断面
  6
DOT
 62
    47
 10
67.714665
 20
-19.417043
 11
66.975718
 21
-18.678097
  0
LINE
  8
型材断面
  6
DOT
 62
    47
 10
70.263573
 20
-19.278645
 11
70.440308
 21
-19.45538
  0
LINE
  8
型材断面
  6
DOT
 62
    47
 10
68.84957
 20
-20.55195
 11
70.263573
 21
-19.278645
  0
LINE
  8
型材断面
  6
DOT
 62
    47
 10
66.68935
 20
-18.964465
 11
66.441742
 21
-18.716857
  0
LINE
  8
型材断面
  6
DOT
 62
    47
 10
66.975718
 20
-18.678097
 11
49.651603
 21
-36.002215
  0
LINE
  8
型材断面
  6
DOT
 62
    47
 10
70.440308
 20
-19.45538
 11
51.772537
 21
-38.12315
  0
LINE
  8
型材断面
  6
DOT
 10
68.84957
 20
-20.55195
 11
51.525455
 21
-37.876065
  0
LINE
  8
型材断面
  6
DOT
 10
70.263573
 20
-19.278645
 11
51.595802
 21
-37.946415
  0
ARC
  8
型材断面
  6
DASHDOT
 10
32.797365
 20
-57.20515
 40
53.310753
 50
360.081184
 51
405.0
  0
LINE
  8
ガラス
  6
CONTINUOUS
 10
121.504785
 20
28.757477
 11
167.304785
 21
28.757477
  0
LINE
  8
ガラス
  6
CONTINUOUS
 10
167.304785
 20
74.557477
 11
167.304785
 21
28.757477
  0
LINE
  8
ガラス
  6
CONTINUOUS
 10
167.304785
 20
74.557477
 11
121.504785
 21
74.557477
  0
LINE
  8
ガラス
  6
CONTINUOUS
 10
121.504785
 20
28.757477
 11
121.504785
 21
74.557477
  0
CIRCLE
  8
ボルト／ビス
  6
CONTINUOUS
 10
-84.935405
 20
10.66027
 40
0.288675
  0
CIRCLE
  8
ボルト／ビス
  6
CONTINUOUS
 10
-84.935405
 20
10.66027
 40
0.455885
  0
CIRCLE
  8
ボルト／ビス
  6
CONTINUOUS
 10
-69.935405
 20
10.66027
 40
0.288675
  0
CIRCLE
  8
ボルト／ビス
  6
CONTINUOUS
 10
-69.935405
 20
10.66027
 40
0.455885
  0
CIRCLE
  8
ボルト／ビス
  6
CONTINUOUS
 10
-93.435405
 20
19.16027
 40
0.288675
  0
CIRCLE
  8
ボルト／ビス
  6
CONTINUOUS
 10
-93.435405
 20
19.16027
 40
0.455885
  0
CIRCLE
  8
ボルト／ビス
  6
CONTINUOUS
 10
-93.435405
 20
34.16027
 40
0.288675
  0
CIRCLE
  8
ボルト／ビス
  6
CONTINUOUS
 10
-93.435405
 20
34.16027
 40
0.455885
  0
CIRCLE
  8
ボルト／ビス
  6
CONTINUOUS
 10
-54.935405
 20
10.66027
 40
0.288675
  0
CIRCLE
  8
ボルト／ビス
  6
CONTINUOUS
 10
-54.935405
 20
10.66027
 40
0.455885
  0
CIRCLE
  8
ボルト／ビス
  6
CONTINUOUS
 10
-46.435405
 20
19.16027
 40
0.288675
  0
CIRCLE
  8
ボルト／ビス
  6
CONTINUOUS
 10
-46.435405
 20
19.16027
 40
0.455885
  0
CIRCLE
  8
ボルト／ビス
  6
CONTINUOUS
 10
-46.435405
 20
34.16027
 40
0.288675
  0
CIRCLE
  8
ボルト／ビス
  6
CONTINUOUS
 10
-46.435405
 20
34.16027
 40
0.455885
  0
CIRCLE
  8
ボルト／ビス
  6
CONTINUOUS
 10
-84.935405
 20
57.66027
 40
0.288675
  0
CIRCLE
  8
ボルト／ビス
  6
CONTINUOUS
 10
-84.935405
 20
57.66027
 40
0.455885
  0
CIRCLE
  8
ボルト／ビス
  6
CONTINUOUS
 10
-69.935405
 20
57.66027
 40
0.288675
  0
CIRCLE
  8
ボルト／ビス
  6
CONTINUOUS
 10
-69.935405
 20
57.66027
 40
0.455885
  0
CIRCLE
  8
ボルト／ビス
  6
CONTINUOUS
 10
-93.435405
 20
49.16027
 40
0.288675
  0
CIRCLE
  8
ボルト／ビス
  6
CONTINUOUS
 10
-93.435405
 20
49.16027
 40
0.455885
  0
CIRCLE
  8
ボルト／ビス
  6
CONTINUOUS
 10
-54.935405
 20
57.66027
 40
0.288675
  0
CIRCLE
  8
ボルト／ビス
  6
CONTINUOUS
 10
-54.935405
 20
57.66027
 40
0.455885
  0
CIRCLE
  8
ボルト／ビス
  6
CONTINUOUS
 10
-46.435405
 20
49.16027
 40
0.288675
  0
CIRCLE
  8
ボルト／ビス
  6
CONTINUOUS
 10
-46.435405
 20
49.16027
 40
0.455885
  0
INSERT
  2
*GRP_0002
  8
文字
  6
CONTINUOUS
 10
0.0
 20
0.0
  0
INSERT
  2
*GRP_0003
  8
文字
  6
CONTINUOUS
 10
0.0
 20
0.0
  0
INSERT
  2
*GRP_0004
  8
文字
  6
CONTINUOUS
 10
0.0
 20
0.0
  0
INSERT
  2
*GRP_0005
  8
文字
  6
CONTINUOUS
 10
0.0
 20
0.0
  0
INSERT
  2
*GRP_0006
  8
文字
  6
CONTINUOUS
 10
0.0
 20
0.0
  0
INSERT
  2
*GRP_0007
  8
文字
  6
CONTINUOUS
 10
0.0
 20
0.0
  0
INSERT
  2
*GRP_0008
  8
文字
  6
CONTINUOUS
 10
0.0
 20
0.0
  0
INSERT
  2
*GRP_0009
  8
文字
  6
CONTINUOUS
 10
0.0
 20
0.0
  0
INSERT
  2
*GRP_0010
  8
文字
  6
CONTINUOUS
 10
0.0
 20
0.0
  0
INSERT
  2
*GRP_0011
  8
文字
  6
CONTINUOUS
 10
0.0
 20
0.0
  0
INSERT
  2
*GRP_0012
  8
文字
  6
CONTINUOUS
 10
0.0
 20
0.0
  0
INSERT
  2
*GRP_0013
  8
文字
  6
CONTINUOUS
 10
0.0
 20
0.0
  0
TEXT
  7
TextStyle03
  8
文字
  6
CONTINUOUS
 10
-3.075
 20
1.625
  1
は排水穴位置を示す
 40
3.0
 72
     5
 11
26.925
 21
1.625
  0
TEXT
  7
TextStyle03
  8
文字
  6
CONTINUOUS
 10
-8.675
 20
-16.75
  1
アンカー数量　６ヶ所
 40
3.0
 72
     5
 11
24.7
 21
-16.75
  0
TEXT
  7
TextStyle03
  8
文字
  6
CONTINUOUS
 10
-3.075
 20
-6.225
  1
はケーシング位置を示す
 40
3.0
 72
     5
 11
33.675
 21
-6.225
  0
TEXT
  7
TextStyle03
  8
文字
  6
CONTINUOUS
 10
-3.075
 20
-9.6
  1
２ヶ所中1ヶ所に設定
 40
3.0
 72
     5
 11
28.6125
 21
-9.6
  0
TEXT
  7
TextStyle03
  8
文字
  6
CONTINUOUS
 10
-98.825
 20
79.85
  1
アンカーピッチ
 40
3.0
 72
     5
 11
-75.575
 21
79.85
  0
TEXT
  7
TextStyle03
  8
文字
  6
CONTINUOUS
 10
-122.475
 20
1.75
  1
アンカーピッチ
 40
3.0
 50
90.0
 72
     5
 11
-122.475
 21
25.0
  0
TEXT
  7
TextStyle03
  8
文字
  6
CONTINUOUS
 10
-115.275
 20
-58.9
  1
丁番側
 40
3.0
 72
     5
 11
-105.525
 21
-58.9
  0
TEXT
  7
TextStyle03
  8
文字
  6
CONTINUOUS
 10
84.725
 20
-39.4
  1
45°
 40
3.0
 72
     5
 11
91.1
 21
-39.4
  0
TEXT
  7
TextStyle03
  8
文字
  6
CONTINUOUS
 10
92.15
 20
99.075
  1
ＮＳコード：ＮＳＨＺ
 40
5.0
 72
     5
 11
147.775
 21
99.075
  0
TEXT
  7
TextStyle03
  8
文字
  6
CONTINUOUS
 10
146.1
 20
38.8
  1
網入り6.8t
 40
3.0
 72
     5
 11
162.7875
 21
38.8
  0
TEXT
  7
TextStyle03
  8
文字
  6
CONTINUOUS
 10
152.725
 20
33.55
  1
×１枚
 40
3.0
 72
     5
 11
162.475
 21
33.55
  0
TEXT
  7
TextStyle03
  8
文字
  6
CONTINUOUS
 10
93.075
 20
121.425
  1
シリーズ：ＴＤ２Ｈ
 40
5.0
 72
     5
 11
143.075
 21
121.425
  0
TEXT
  7
TextStyle03
  8
文字
  6
CONTINUOUS
 10
93.075
 20
115.8
  1
　　　　　（片側開閉）900×900タイプ
 40
5.0
 72
     5
 11
193.7
 21
115.8
  0
TEXT
  7
TextStyle03
  8
文字
  6
CONTINUOUS
 10
93.075
 20
110.175
  1
図面名　：外観姿図
 40
5.0
 72
     5
 11
143.075
 21
110.175
  0
TEXT
  7
TextStyle03
  8
文字
  6
CONTINUOUS
 10
93.075
 20
104.55
  1
　　　　　　
 40
5.0
 72
     5
 11
126.2
 21
104.55
  0
INSERT
  2
*DIM_0014
  8
寸法
  6
CONTINUOUS
 10
0.0
 20
0.0
  0
INSERT
  2
*DIM_0015
  8
寸法
  6
CONTINUOUS
 10
0.0
 20
0.0
  0
INSERT
  2
*DIM_0028
  8
寸法
  6
CONTINUOUS
 10
0.0
 20
0.0
  0
INSERT
  2
*DIM_0029
  8
寸法
  6
CONTINUOUS
 10
0.0
 20
0.0
  0
INSERT
  2
*DIM_0030
  8
寸法
  6
CONTINUOUS
 10
0.0
 20
0.0
  0
INSERT
  2
*DIM_0031
  8
寸法
  6
CONTINUOUS
 10
0.0
 20
0.0
  0
INSERT
  2
*DIM_0032
  8
寸法
  6
CONTINUOUS
 10
0.0
 20
0.0
  0
INSERT
  2
*DIM_0034
  8
寸法
  6
CONTINUOUS
 10
0.0
 20
0.0
  0
INSERT
  2
*DIM_0035
  8
寸法
  6
CONTINUOUS
 10
0.0
 20
0.0
  0
INSERT
  2
*DIM_0036
  8
寸法
  6
CONTINUOUS
 10
0.0
 20
0.0
  0
CIRCLE
  8
寸法
  6
CONTINUOUS
 10
-111.453763
 20
34.16027
 40
1.73792
  0
INSERT
  2
*DIM_0038
  8
寸法
  6
CONTINUOUS
 10
0.0
 20
0.0
  0
INSERT
  2
*DIM_0039
  8
寸法
  6
CONTINUOUS
 10
0.0
 20
0.0
  0
LINE
  8
別途部材
  6
CONTINUOUS
 10
-95.535405
 20
8.56027
 11
-94.935405
 21
9.16027
  0
LINE
  8
別途部材
  6
CONTINUOUS
 10
-92.435405
 20
11.66027
 11
-80.34652
 21
23.749155
  0
LINE
  8
別途部材
  6
CONTINUOUS
 62
    96
 10
-94.935405
 20
-52.279985
 11
-95.535405
 21
-53.779985
  0
LINE
  8
別途部材
  6
CONTINUOUS
 62
    96
 10
-94.935405
 20
-52.279985
 11
-69.935405
 21
-52.279985
  0
LINE
  8
別途部材
  6
CONTINUOUS
 10
-95.535405
 20
-53.779985
 11
-69.935405
 21
-53.779985
  0
LINE
  8
別途部材
  6
CONTINUOUS
 62
    96
 10
-44.935405
 20
-52.279985
 11
-44.335405
 21
-53.779985
  0
LINE
  8
別途部材
  6
CONTINUOUS
 62
    96
 10
-44.935405
 20
-52.279985
 11
-69.935405
 21
-52.279985
  0
LINE
  8
別途部材
  6
CONTINUOUS
 10
-44.335405
 20
-53.779985
 11
-69.935405
 21
-53.779985
  0
ARC
  8
別途部材
  6
CONTINUOUS
 10
-69.935404
 20
-66.279985
 40
26.5
 50
31.890792
 51
148.109208
  0
LINE
  8
別途部材
  6
CONTINUOUS
 10
-94.935405
 20
9.16027
 11
-69.935405
 21
9.16027
  0
LINE
  8
別途部材
  6
CONTINUOUS
 10
-95.535405
 20
8.56027
 11
-69.935405
 21
8.56027
  0
LINE
  8
別途部材
  6
CONTINUOUS
 10
-95.535405
 20
8.56027
 11
-95.535405
 21
34.16027
  0
LINE
  8
別途部材
  6
CONTINUOUS
 10
-94.935405
 20
9.16027
 11
-94.935405
 21
34.16027
  0
LINE
  8
別途部材
  6
CONTINUOUS
 10
-44.335405
 20
8.56027
 11
-44.935405
 21
9.16027
  0
LINE
  8
別途部材
  6
CONTINUOUS
 10
-47.435405
 20
11.66027
 11
-59.52429
 21
23.749155
  0
LINE
  8
別途部材
  6
CONTINUOUS
 10
-44.935405
 20
9.16027
 11
-69.935405
 21
9.16027
  0
LINE
  8
別途部材
  6
CONTINUOUS
 10
-44.335405
 20
8.56027
 11
-69.935405
 21
8.56027
  0
LINE
  8
別途部材
  6
CONTINUOUS
 10
-44.335405
 20
8.56027
 11
-44.335405
 21
34.16027
  0
LINE
  8
別途部材
  6
CONTINUOUS
 10
-44.935405
 20
9.16027
 11
-44.935405
 21
34.16027
  0
LINE
  8
別途部材
  6
CONTINUOUS
 10
-95.535405
 20
59.76027
 11
-94.935405
 21
59.16027
  0
LINE
  8
別途部材
  6
CONTINUOUS
 10
-92.435405
 20
56.66027
 11
-80.34652
 21
44.571385
  0
LINE
  8
別途部材
  6
CONTINUOUS
 10
-94.935405
 20
59.16027
 11
-69.935405
 21
59.16027
  0
LINE
  8
別途部材
  6
CONTINUOUS
 10
-95.535405
 20
59.76027
 11
-69.935405
 21
59.76027
  0
LINE
  8
別途部材
  6
CONTINUOUS
 10
-95.535405
 20
59.76027
 11
-95.535405
 21
34.16027
  0
LINE
  8
別途部材
  6
CONTINUOUS
 10
-94.935405
 20
59.16027
 11
-94.935405
 21
34.16027
  0
LINE
  8
別途部材
  6
CONTINUOUS
 10
-44.335405
 20
59.76027
 11
-44.935405
 21
59.16027
  0
LINE
  8
別途部材
  6
CONTINUOUS
 10
-47.435405
 20
56.66027
 11
-59.52429
 21
44.571385
  0
LINE
  8
別途部材
  6
CONTINUOUS
 10
-44.935405
 20
59.16027
 11
-69.935405
 21
59.16027
  0
LINE
  8
別途部材
  6
CONTINUOUS
 10
-44.335405
 20
59.76027
 11
-69.935405
 21
59.76027
  0
LINE
  8
別途部材
  6
CONTINUOUS
 10
-44.335405
 20
59.76027
 11
-44.335405
 21
34.16027
  0
LINE
  8
別途部材
  6
CONTINUOUS
 10
-44.935405
 20
59.16027
 11
-44.935405
 21
34.16027
  0
INSERT
  2
*GRP_0033
  8
別途部材
  6
CONTINUOUS
 10
0.0
 20
0.0
  0
LINE
  8
別途部材
  6
CONTINUOUS
 62
    96
 10
34.70785
 20
-52.279985
 11
34.10785
 21
-53.779985
  0
LINE
  8
別途部材
  6
CONTINUOUS
 62
    96
 10
34.70785
 20
-52.279985
 11
59.70785
 21
-52.279985
  0
LINE
  8
別途部材
  6
CONTINUOUS
 10
34.10785
 20
-53.779985
 11
59.70785
 21
-53.779985
  0
LINE
  8
別途部材
  6
CONTINUOUS
 62
    96
 10
84.70785
 20
-52.279985
 11
85.30785
 21
-53.779985
  0
LINE
  8
別途部材
  6
CONTINUOUS
 62
    96
 10
84.70785
 20
-52.279985
 11
59.70785
 21
-52.279985
  0
LINE
  8
別途部材
  6
CONTINUOUS
 10
85.30785
 20
-53.779985
 11
59.70785
 21
-53.779985
  0
ARC
  8
別途部材
  6
CONTINUOUS
 10
59.707852
 20
-66.279985
 40
26.5
 50
31.890792
 51
148.109208
  0
INSERT
  2
*GRP_0037
  8
別途部材
  6
CONTINUOUS
 10
0.0
 20
0.0
  0
LINE
  8
別途部材
  6
DOT
 62
    96
 10
30.665665
 20
-52.371615
 11
31.30206
 21
-53.85654
  0
LINE
  8
別途部材
  6
DOT
 62
    96
 10
30.665665
 20
-52.371615
 11
48.343335
 21
-34.693945
  0
LINE
  8
別途部材
  6
DOT
 10
31.30206
 20
-53.85654
 11
49.403995
 21
-35.754605
  0
LINE
  8
別途部材
  6
DOT
 62
    96
 10
66.021003
 20
-17.016277
 11
67.505927
 21
-17.652672
  0
LINE
  8
別途部材
  6
DOT
 62
    96
 10
66.021003
 20
-17.016277
 11
48.343335
 21
-34.693945
  0
LINE
  8
別途部材
  6
DOT
 10
67.505927
 20
-17.652672
 11
49.403995
 21
-35.754605
  0
ARC
  8
別途部材
  6
DOT
 10
58.24283
 20
-44.59344
 40
26.5
 50
76.890792
 51
193.109208
  0
INSERT
  2
*GRP_0040
  8
別途部材
  6
DOT
 10
0.0
 20
0.0
  0
INSERT
  2
*GRP_0041
  8
別途部材
  6
DOT
 10
0.0
 20
0.0
  0
INSERT
  2
*GRP_0042
  8
別途部材
  6
DOT
 10
0.0
 20
0.0
  0
INSERT
  2
*GRP_0043
  8
別途部材
  6
DOT
 10
0.0
 20
0.0
  0
INSERT
  2
*GRP_0044
  8
別途部材
  6
DOT
 10
0.0
 20
0.0
  0
INSERT
  2
*GRP_0045
  8
別途部材
  6
DOT
 10
0.0
 20
0.0
  0
ENDSEC
  0
EOF
