  0
SECTION
  2
HEADER
  9
$EXTMIN
 10
-210.0
 20
-148.5
  9
$EXTMAX
 10
210.0
 20
148.5
  9
$PDMODE
 70
    32
  9
$PDSIZE
 40
1.5
  9
$LTSCALE
 40
10.0
  0
ENDSEC
  0
SECTION
  2
TABLES
  0
TABLE
  2
LTYPE
 70
    15
  0
LTYPE
  2
CONTINUOUS
 70
    64
  3
実線
 72
    65
 73
     0
 40
0.0
  0
LTYPE
  2
DASHED
 70
    64
  3
破線A
 72
    65
 73
     2
 40
0.6
 49
0.4
 49
-0.2
  0
LTYPE
  2
DASHEDX2
 70
    64
  3
破線B
 72
    65
 73
     2
 40
1.3
 49
0.9
 49
-0.4
  0
LTYPE
  2
DASHDOT
 70
    64
  3
１点鎖線A
 72
    65
 73
     4
 40
0.5375
 49
0.375
 49
-0.05
 49
0.0625
 49
-0.05
  0
LTYPE
  2
DASHDOTX2
 70
    64
  3
１点鎖線B
 72
    65
 73
     4
 40
1.075
 49
0.75
 49
-0.1
 49
0.125
 49
-0.1
  0
LTYPE
  2
DIVIDE2
 70
    64
  3
２点鎖線A
 72
    65
 73
     6
 40
0.5125
 49
0.3
 49
-0.0375
 49
0.05
 49
-0.0375
 49
0.05
 49
-0.0375
  0
LTYPE
  2
DIVIDE
 70
    64
  3
２点鎖線B
 72
    65
 73
     6
 40
1.05
 49
0.55
 49
-0.1
 49
0.1
 49
-0.1
 49
0.1
 49
-0.1
  0
LTYPE
  2
DOT
 70
    64
  3
点線A
 72
    65
 73
     2
 40
0.1125
 49
0.0625
 49
-0.05
  0
LTYPE
  2
DOTX2
 70
    64
  3
点線B
 72
    65
 73
     2
 40
0.275
 49
0.15
 49
-0.125
  0
LTYPE
  2
CONTINUOUS
 70
    64
  3
実線
 72
    65
 73
     0
 40
0.0
  0
LTYPE
  2
CONTINUOUS
 70
    64
  3
実線
 72
    65
 73
     0
 40
0.0
  0
LTYPE
  2
CONTINUOUS
 70
    64
  3
実線
 72
    65
 73
     0
 40
0.0
  0
LTYPE
  2
CONTINUOUS
 70
    64
  3
実線
 72
    65
 73
     0
 40
0.0
  0
LTYPE
  2
CONTINUOUS
 70
    64
  3
実線
 72
    65
 73
     0
 40
0.0
  0
LTYPE
  2
CONTINUOUS
 70
    64
  3
実線
 72
    65
 73
     0
 40
0.0
  0
ENDTAB
  0
TABLE
  2
LAYER
 70
    34
  0
LAYER
  2
通り芯
 70
     0
 62
    15
  6
CONTINUOUS
  0
LAYER
  2
補助線
 70
     0
 62
    16
  6
DOT
  0
LAYER
  2
躯体
 70
     0
 62
    31
  6
CONTINUOUS
  0
LAYER
  2
型材
 70
     0
 62
    32
  6
CONTINUOUS
  0
LAYER
  2
型材断面
 70
     0
 62
    47
  6
CONTINUOUS
  0
LAYER
  2
ガラス
 70
     0
 62
    48
  6
CONTINUOUS
  0
LAYER
  2
ゴム等
 70
     0
 62
    63
  6
CONTINUOUS
  0
LAYER
  2
ボルト／ビス
 70
     0
 62
    64
  6
CONTINUOUS
  0
LAYER
  2
文字
 70
     0
 62
    79
  6
CONTINUOUS
  0
LAYER
  2
寸法
 70
     0
 62
    80
  6
CONTINUOUS
  0
LAYER
  2
ﾊｯﾁﾝｸﾞ
 70
     0
 62
    95
  6
CONTINUOUS
  0
LAYER
  2
別途部材
 70
     0
 62
    96
  6
CONTINUOUS
  0
LAYER
  2
曲げ物
 70
     0
 62
   111
  6
CONTINUOUS
  0
LAYER
  2
鉄骨等
 70
     0
 62
   112
  6
CONTINUOUS
  0
LAYER
  2
St
 70
     0
 62
   127
  6
CONTINUOUS
  0
LAYER
  2
その他部品等
 70
     0
 62
   128
  6
CONTINUOUS
  0
LAYER
  2
ｶﾞｽｹｯﾄ
 70
     0
 62
   143
  6
CONTINUOUS
  0
LAYER
  2
ｽｹｯﾁ
 70
     0
 62
    14
  6
CONTINUOUS
  0
LAYER
  2
0
 70
     0
 62
    17
  6
CONTINUOUS
  0
LAYER
  2
1
 70
     0
 62
    30
  6
CONTINUOUS
  0
LAYER
  2
4
 70
     0
 62
    33
  6
CONTINUOUS
  0
LAYER
  2
ﾚｲﾔ3
 70
     0
 62
    46
  6
CONTINUOUS
  0
LAYER
  2
外形線
 70
     0
 62
    49
  6
CONTINUOUS
  0
LAYER
  2
部品
 70
     0
 62
    14
  6
CONTINUOUS
  0
LAYER
  2
サッシ芯
 70
     0
 62
    17
  6
DASHDOTX2
  0
LAYER
  2
寸法線
 70
     0
 62
    62
  6
CONTINUOUS
  0
LAYER
  2
姿図外形線
 70
     0
 62
    65
  6
CONTINUOUS
  0
LAYER
  2
姿補助線
 70
     0
 62
    30
  6
CONTINUOUS
  0
LAYER
  2
透視線
 70
     0
 62
    78
  6
DOT
  0
LAYER
  2
用紙
 70
     0
 62
    81
  6
CONTINUOUS
  0
LAYER
  2
実線図枠
 70
     0
 62
    94
  6
CONTINUOUS
  0
LAYER
  2
補助図枠
 70
     0
 62
    97
  6
CONTINUOUS
  0
LAYER
  2
建具記号
 70
     0
 62
   110
  6
CONTINUOUS
  0
LAYER
  2
補助文字
 70
     0
 62
   113
  6
CONTINUOUS
  0
ENDTAB
  0
TABLE
  2
STYLE
 70
    10
  0
STYLE
  2
STANDARD
 70
     0
 40
1.0
 41
1.0
 42
1.0
 50
0.0
 71
     0
  3
TXT
  4
BIGFONT
  0
STYLE
  2
TATE
 70
     4
 40
1.0
 41
1.0
 42
1.0
 50
0.0
 71
     0
  3
TXT
  4
BIGFONT
  0
STYLE
  2
TextStyle03
 70
     0
 40
1.0
 41
1.0
 42
1.0
 50
0.0
 71
     0
  3
MONOTXT
  4
BIGFONT
  0
STYLE
  2
TextStyle04
 70
     0
 40
1.0
 41
1.0
 42
1.0
 50
0.0
 71
     0
  3
MONOTXT
  4
BIGFONT
  0
STYLE
  2
TextStyle05
 70
     0
 40
1.0
 41
1.0
 42
1.0
 50
0.0
 71
     0
  3
MONOTXT
  4
BIGFONT
  0
STYLE
  2
TextStyle06
 70
     0
 40
1.0
 41
1.0
 42
1.0
 50
0.0
 71
     0
  3
MONOTXT
  4
BIGFONT
  0
STYLE
  2
TextStyle07
 70
     0
 40
1.0
 41
1.0
 42
1.0
 50
0.0
 71
     0
  3
MONOTXT
  4
BIGFONT
  0
STYLE
  2
TextStyle08
 70
     0
 40
1.0
 41
1.0
 42
1.0
 50
0.0
 71
     0
  3
MONOTXT
  4
BIGFONT
  0
STYLE
  2
TextStyle09
 70
     0
 40
1.0
 41
1.0
 42
1.0
 50
0.0
 71
     0
  3
MONOTXT
  4
BIGFONT
  0
STYLE
  2
TextStyle10
 70
     0
 40
1.0
 41
1.0
 42
1.0
 50
0.0
 71
     0
  3
MONOTXT
  4
BIGFONT
  0
ENDTAB
  0
ENDSEC
  0
SECTION
  2
BLOCKS
  0
BLOCK
  2
*GRP_0001
 70
    65
 10
0.0
 20
0.0
  0
LINE
  8
型材断面
  6
CONTINUOUS
 10
195.0
 20
133.5
 11
195.0
 21
-133.5
  0
LINE
  8
型材断面
  6
CONTINUOUS
 10
195.0
 20
-133.5
 11
-185.0
 21
-133.5
  0
LINE
  8
型材断面
  6
CONTINUOUS
 10
-185.0
 20
-133.5
 11
-185.0
 21
133.5
  0
LINE
  8
型材断面
  6
CONTINUOUS
 10
195.0
 20
133.5
 11
-185.0
 21
133.5
  0
LINE
  8
型材断面
  6
CONTINUOUS
 10
145.0
 20
-133.5
 11
145.0
 21
-118.5
  0
LINE
  8
型材断面
  6
CONTINUOUS
 10
195.0
 20
-118.5
 11
145.0
 21
-118.5
  0
ENDBLK
  0
BLOCK
  2
*DIM_0002
 70
    65
 10
0.0
 20
0.0
  0
LINE
  8
寸法
  6
BYBLOCK
 62
     0
 10
-95.755937
 20
-35.080245
 11
-95.755937
 21
-33.416065
  0
LINE
  8
寸法
  6
BYBLOCK
 62
     0
 10
-30.755937
 20
-35.080245
 11
-30.755937
 21
-33.416065
  0
LINE
  8
寸法
  6
BYBLOCK
 62
     0
 10
-95.755937
 20
-33.416065
 11
-30.755937
 21
-33.416065
  0
POINT
  8
寸法
 62
     0
 10
-95.755937
 20
-33.416065
  0
POINT
  8
寸法
 62
     0
 10
-30.755937
 20
-33.416065
  0
TEXT
  7
TextStyle03
  8
寸法
  6
CONTINUOUS
 62
     0
 10
-74.99375
 20
-33.05
  1
呼称寸法　1300
 40
3.0
 72
     5
 11
-51.55625
 21
-33.05
  0
ENDBLK
  0
BLOCK
  2
*DIM_0003
 70
    65
 10
0.0
 20
0.0
  0
LINE
  8
寸法
  6
BYBLOCK
 62
     0
 10
-62.255935
 20
-52.069873
 11
-10.143282
 21
-52.069873
  0
LINE
  8
寸法
  6
BYBLOCK
 62
     0
 10
-10.143282
 20
-69.569873
 11
-10.143282
 21
-52.069873
  0
POINT
  8
寸法
 62
     0
 10
-10.143282
 20
-69.569873
  0
POINT
  8
寸法
 62
     0
 10
-10.143282
 20
-52.069873
  0
TEXT
  7
TextStyle03
  8
寸法
  6
CONTINUOUS
 62
     0
 10
-10.525
 20
-63.2875
  1
350
 40
3.0
 50
90.0
 72
     5
 11
-10.525
 21
-58.4125
  0
ENDBLK
  0
BLOCK
  2
*GRP_0004
 70
    65
 10
0.0
 20
0.0
  0
INSERT
  2
*GRP_0005
  8
補助線
  6
CONTINUOUS
 10
0.0
 20
0.0
  0
LINE
  8
ボルト／ビス
  6
CONTINUOUS
 10
-55.755937
 20
60.659058
 11
-56.005937
 21
60.51472
  0
LINE
  8
ボルト／ビス
  6
CONTINUOUS
 10
-55.755937
 20
60.659058
 11
-55.505937
 21
60.51472
  0
LINE
  8
ボルト／ビス
  6
CONTINUOUS
 10
-56.005937
 20
60.226045
 11
-55.755937
 21
60.081708
  0
LINE
  8
ボルト／ビス
  6
CONTINUOUS
 10
-55.505937
 20
60.226045
 11
-55.755937
 21
60.081708
  0
CIRCLE
  8
ボルト／ビス
  6
CONTINUOUS
 10
-55.755937
 20
60.370383
 40
0.25
  0
LINE
  8
ボルト／ビス
  6
CONTINUOUS
 10
-55.505937
 20
60.51472
 11
-55.505937
 21
60.226045
  0
LINE
  8
ボルト／ビス
  6
CONTINUOUS
 10
-56.005937
 20
60.226045
 11
-56.005937
 21
60.51472
  0
ENDBLK
  0
BLOCK
  2
*GRP_0005
 70
    65
 10
0.0
 20
0.0
  0
LINE
  8
補助線
  6
BYBLOCK
 62
     0
 10
-55.630937
 20
60.370383
 11
-55.880937
 21
60.370383
  0
LINE
  8
補助線
  6
BYBLOCK
 62
     0
 10
-55.755937
 20
60.495383
 11
-55.755937
 21
60.245383
  0
ENDBLK
  0
BLOCK
  2
*GRP_0006
 70
    65
 10
0.0
 20
0.0
  0
INSERT
  2
*GRP_0007
  8
補助線
  6
CONTINUOUS
 10
0.0
 20
0.0
  0
LINE
  8
ボルト／ビス
  6
CONTINUOUS
 10
-40.755937
 20
60.659058
 11
-41.005937
 21
60.51472
  0
LINE
  8
ボルト／ビス
  6
CONTINUOUS
 10
-40.755937
 20
60.659058
 11
-40.505937
 21
60.51472
  0
LINE
  8
ボルト／ビス
  6
CONTINUOUS
 10
-41.005937
 20
60.226045
 11
-40.755937
 21
60.081708
  0
LINE
  8
ボルト／ビス
  6
CONTINUOUS
 10
-40.505937
 20
60.226045
 11
-40.755937
 21
60.081708
  0
CIRCLE
  8
ボルト／ビス
  6
CONTINUOUS
 10
-40.755937
 20
60.370383
 40
0.25
  0
LINE
  8
ボルト／ビス
  6
CONTINUOUS
 10
-40.505937
 20
60.51472
 11
-40.505937
 21
60.226045
  0
LINE
  8
ボルト／ビス
  6
CONTINUOUS
 10
-41.005937
 20
60.226045
 11
-41.005937
 21
60.51472
  0
ENDBLK
  0
BLOCK
  2
*GRP_0007
 70
    65
 10
0.0
 20
0.0
  0
LINE
  8
補助線
  6
BYBLOCK
 62
     0
 10
-40.630937
 20
60.370383
 11
-40.880937
 21
60.370383
  0
LINE
  8
補助線
  6
BYBLOCK
 62
     0
 10
-40.755937
 20
60.495383
 11
-40.755937
 21
60.245383
  0
ENDBLK
  0
BLOCK
  2
*GRP_0008
 70
    65
 10
0.0
 20
0.0
  0
INSERT
  2
*GRP_0010
  8
補助線
  6
CONTINUOUS
 10
0.0
 20
0.0
  0
LINE
  8
ボルト／ビス
  6
CONTINUOUS
 10
-70.755937
 20
60.659058
 11
-70.505937
 21
60.51472
  0
LINE
  8
ボルト／ビス
  6
CONTINUOUS
 10
-70.755937
 20
60.659058
 11
-71.005937
 21
60.51472
  0
LINE
  8
ボルト／ビス
  6
CONTINUOUS
 10
-70.505937
 20
60.226045
 11
-70.755937
 21
60.081708
  0
LINE
  8
ボルト／ビス
  6
CONTINUOUS
 10
-71.005937
 20
60.226045
 11
-70.755937
 21
60.081708
  0
CIRCLE
  8
ボルト／ビス
  6
CONTINUOUS
 10
-70.755937
 20
60.370383
 40
0.25
  0
LINE
  8
ボルト／ビス
  6
CONTINUOUS
 10
-71.005937
 20
60.51472
 11
-71.005937
 21
60.226045
  0
LINE
  8
ボルト／ビス
  6
CONTINUOUS
 10
-70.505937
 20
60.226045
 11
-70.505937
 21
60.51472
  0
ENDBLK
  0
BLOCK
  2
*GRP_0009
 70
    65
 10
0.0
 20
0.0
  0
INSERT
  2
*GRP_0011
  8
補助線
  6
CONTINUOUS
 10
0.0
 20
0.0
  0
LINE
  8
ボルト／ビス
  6
CONTINUOUS
 10
-85.755937
 20
60.659058
 11
-85.505937
 21
60.51472
  0
LINE
  8
ボルト／ビス
  6
CONTINUOUS
 10
-85.755937
 20
60.659058
 11
-86.005937
 21
60.51472
  0
LINE
  8
ボルト／ビス
  6
CONTINUOUS
 10
-85.505937
 20
60.226045
 11
-85.755937
 21
60.081708
  0
LINE
  8
ボルト／ビス
  6
CONTINUOUS
 10
-86.005937
 20
60.226045
 11
-85.755937
 21
60.081708
  0
CIRCLE
  8
ボルト／ビス
  6
CONTINUOUS
 10
-85.755937
 20
60.370383
 40
0.25
  0
LINE
  8
ボルト／ビス
  6
CONTINUOUS
 10
-86.005937
 20
60.51472
 11
-86.005937
 21
60.226045
  0
LINE
  8
ボルト／ビス
  6
CONTINUOUS
 10
-85.505937
 20
60.226045
 11
-85.505937
 21
60.51472
  0
ENDBLK
  0
BLOCK
  2
*GRP_0010
 70
    65
 10
0.0
 20
0.0
  0
LINE
  8
補助線
  6
BYBLOCK
 62
     0
 10
-70.880937
 20
60.370383
 11
-70.630937
 21
60.370383
  0
LINE
  8
補助線
  6
BYBLOCK
 62
     0
 10
-70.755937
 20
60.495383
 11
-70.755937
 21
60.245383
  0
ENDBLK
  0
BLOCK
  2
*GRP_0011
 70
    65
 10
0.0
 20
0.0
  0
LINE
  8
補助線
  6
BYBLOCK
 62
     0
 10
-85.880937
 20
60.370383
 11
-85.630937
 21
60.370383
  0
LINE
  8
補助線
  6
BYBLOCK
 62
     0
 10
-85.755937
 20
60.495383
 11
-85.755937
 21
60.245383
  0
ENDBLK
  0
BLOCK
  2
*GRP_0012
 70
    65
 10
0.0
 20
0.0
  0
INSERT
  2
*GRP_0014
  8
補助線
  6
CONTINUOUS
 10
0.0
 20
0.0
  0
LINE
  8
ボルト／ビス
  6
CONTINUOUS
 10
-97.04461
 20
34.370385
 11
-96.900273
 21
34.120385
  0
LINE
  8
ボルト／ビス
  6
CONTINUOUS
 10
-97.04461
 20
34.370385
 11
-96.900273
 21
34.620385
  0
LINE
  8
ボルト／ビス
  6
CONTINUOUS
 10
-96.611597
 20
34.120385
 11
-96.46726
 21
34.370385
  0
LINE
  8
ボルト／ビス
  6
CONTINUOUS
 10
-96.611597
 20
34.620385
 11
-96.46726
 21
34.370385
  0
CIRCLE
  8
ボルト／ビス
  6
CONTINUOUS
 10
-96.755935
 20
34.370385
 40
0.25
  0
LINE
  8
ボルト／ビス
  6
CONTINUOUS
 10
-96.900273
 20
34.620385
 11
-96.611597
 21
34.620385
  0
LINE
  8
ボルト／ビス
  6
CONTINUOUS
 10
-96.611597
 20
34.120385
 11
-96.900273
 21
34.120385
  0
ENDBLK
  0
BLOCK
  2
*GRP_0013
 70
    65
 10
0.0
 20
0.0
  0
INSERT
  2
*GRP_0015
  8
補助線
  6
CONTINUOUS
 10
0.0
 20
0.0
  0
LINE
  8
ボルト／ビス
  6
CONTINUOUS
 10
-97.04461
 20
49.370385
 11
-96.900273
 21
49.120385
  0
LINE
  8
ボルト／ビス
  6
CONTINUOUS
 10
-97.04461
 20
49.370385
 11
-96.900273
 21
49.620385
  0
LINE
  8
ボルト／ビス
  6
CONTINUOUS
 10
-96.611597
 20
49.120385
 11
-96.46726
 21
49.370385
  0
LINE
  8
ボルト／ビス
  6
CONTINUOUS
 10
-96.611597
 20
49.620385
 11
-96.46726
 21
49.370385
  0
CIRCLE
  8
ボルト／ビス
  6
CONTINUOUS
 10
-96.755935
 20
49.370385
 40
0.25
  0
LINE
  8
ボルト／ビス
  6
CONTINUOUS
 10
-96.900273
 20
49.620385
 11
-96.611597
 21
49.620385
  0
LINE
  8
ボルト／ビス
  6
CONTINUOUS
 10
-96.611597
 20
49.120385
 11
-96.900273
 21
49.120385
  0
ENDBLK
  0
BLOCK
  2
*GRP_0014
 70
    65
 10
0.0
 20
0.0
  0
LINE
  8
補助線
  6
BYBLOCK
 62
     0
 10
-96.755935
 20
34.495385
 11
-96.755935
 21
34.245385
  0
LINE
  8
補助線
  6
BYBLOCK
 62
     0
 10
-96.880935
 20
34.370385
 11
-96.630935
 21
34.370385
  0
ENDBLK
  0
BLOCK
  2
*GRP_0015
 70
    65
 10
0.0
 20
0.0
  0
LINE
  8
補助線
  6
BYBLOCK
 62
     0
 10
-96.755935
 20
49.495385
 11
-96.755935
 21
49.245385
  0
LINE
  8
補助線
  6
BYBLOCK
 62
     0
 10
-96.880935
 20
49.370385
 11
-96.630935
 21
49.370385
  0
ENDBLK
  0
BLOCK
  2
*GRP_0016
 70
    65
 10
0.0
 20
0.0
  0
INSERT
  2
*GRP_0018
  8
補助線
  6
CONTINUOUS
 10
0.0
 20
0.0
  0
LINE
  8
ボルト／ビス
  6
CONTINUOUS
 10
-97.04461
 20
19.37038
 11
-96.900273
 21
19.62038
  0
LINE
  8
ボルト／ビス
  6
CONTINUOUS
 10
-97.04461
 20
19.37038
 11
-96.900273
 21
19.12038
  0
LINE
  8
ボルト／ビス
  6
CONTINUOUS
 10
-96.611597
 20
19.62038
 11
-96.46726
 21
19.37038
  0
LINE
  8
ボルト／ビス
  6
CONTINUOUS
 10
-96.611597
 20
19.12038
 11
-96.46726
 21
19.37038
  0
CIRCLE
  8
ボルト／ビス
  6
CONTINUOUS
 10
-96.755935
 20
19.37038
 40
0.25
  0
LINE
  8
ボルト／ビス
  6
CONTINUOUS
 10
-96.900273
 20
19.12038
 11
-96.611597
 21
19.12038
  0
LINE
  8
ボルト／ビス
  6
CONTINUOUS
 10
-96.611597
 20
19.62038
 11
-96.900273
 21
19.62038
  0
ENDBLK
  0
BLOCK
  2
*GRP_0017
 70
    65
 10
0.0
 20
0.0
  0
INSERT
  2
*GRP_0019
  8
補助線
  6
CONTINUOUS
 10
0.0
 20
0.0
  0
LINE
  8
ボルト／ビス
  6
CONTINUOUS
 10
-97.04461
 20
4.37038
 11
-96.900273
 21
4.62038
  0
LINE
  8
ボルト／ビス
  6
CONTINUOUS
 10
-97.04461
 20
4.37038
 11
-96.900273
 21
4.12038
  0
LINE
  8
ボルト／ビス
  6
CONTINUOUS
 10
-96.611597
 20
4.62038
 11
-96.46726
 21
4.37038
  0
LINE
  8
ボルト／ビス
  6
CONTINUOUS
 10
-96.611597
 20
4.12038
 11
-96.46726
 21
4.37038
  0
CIRCLE
  8
ボルト／ビス
  6
CONTINUOUS
 10
-96.755935
 20
4.37038
 40
0.25
  0
LINE
  8
ボルト／ビス
  6
CONTINUOUS
 10
-96.900273
 20
4.12038
 11
-96.611597
 21
4.12038
  0
LINE
  8
ボルト／ビス
  6
CONTINUOUS
 10
-96.611597
 20
4.62038
 11
-96.900273
 21
4.62038
  0
ENDBLK
  0
BLOCK
  2
*GRP_0018
 70
    65
 10
0.0
 20
0.0
  0
LINE
  8
補助線
  6
BYBLOCK
 62
     0
 10
-96.755935
 20
19.24538
 11
-96.755935
 21
19.49538
  0
LINE
  8
補助線
  6
BYBLOCK
 62
     0
 10
-96.880935
 20
19.37038
 11
-96.630935
 21
19.37038
  0
ENDBLK
  0
BLOCK
  2
*GRP_0019
 70
    65
 10
0.0
 20
0.0
  0
LINE
  8
補助線
  6
BYBLOCK
 62
     0
 10
-96.755935
 20
4.24538
 11
-96.755935
 21
4.49538
  0
LINE
  8
補助線
  6
BYBLOCK
 62
     0
 10
-96.880935
 20
4.37038
 11
-96.630935
 21
4.37038
  0
ENDBLK
  0
BLOCK
  2
*GRP_0020
 70
    65
 10
0.0
 20
0.0
  0
INSERT
  2
*GRP_0022
  8
補助線
  6
CONTINUOUS
 10
0.0
 20
0.0
  0
LINE
  8
ボルト／ビス
  6
CONTINUOUS
 10
-70.75594
 20
-6.91829
 11
-70.50594
 21
-6.773952
  0
LINE
  8
ボルト／ビス
  6
CONTINUOUS
 10
-70.75594
 20
-6.91829
 11
-71.00594
 21
-6.773952
  0
LINE
  8
ボルト／ビス
  6
CONTINUOUS
 10
-70.50594
 20
-6.485278
 11
-70.75594
 21
-6.34094
  0
LINE
  8
ボルト／ビス
  6
CONTINUOUS
 10
-71.00594
 20
-6.485278
 11
-70.75594
 21
-6.34094
  0
CIRCLE
  8
ボルト／ビス
  6
CONTINUOUS
 10
-70.75594
 20
-6.629615
 40
0.25
  0
LINE
  8
ボルト／ビス
  6
CONTINUOUS
 10
-71.00594
 20
-6.773952
 11
-71.00594
 21
-6.485278
  0
LINE
  8
ボルト／ビス
  6
CONTINUOUS
 10
-70.50594
 20
-6.485278
 11
-70.50594
 21
-6.773952
  0
ENDBLK
  0
BLOCK
  2
*GRP_0021
 70
    65
 10
0.0
 20
0.0
  0
INSERT
  2
*GRP_0023
  8
補助線
  6
CONTINUOUS
 10
0.0
 20
0.0
  0
LINE
  8
ボルト／ビス
  6
CONTINUOUS
 10
-85.75594
 20
-6.91829
 11
-85.50594
 21
-6.773952
  0
LINE
  8
ボルト／ビス
  6
CONTINUOUS
 10
-85.75594
 20
-6.91829
 11
-86.00594
 21
-6.773952
  0
LINE
  8
ボルト／ビス
  6
CONTINUOUS
 10
-85.50594
 20
-6.485278
 11
-85.75594
 21
-6.34094
  0
LINE
  8
ボルト／ビス
  6
CONTINUOUS
 10
-86.00594
 20
-6.485278
 11
-85.75594
 21
-6.34094
  0
CIRCLE
  8
ボルト／ビス
  6
CONTINUOUS
 10
-85.75594
 20
-6.629615
 40
0.25
  0
LINE
  8
ボルト／ビス
  6
CONTINUOUS
 10
-86.00594
 20
-6.773952
 11
-86.00594
 21
-6.485278
  0
LINE
  8
ボルト／ビス
  6
CONTINUOUS
 10
-85.50594
 20
-6.485278
 11
-85.50594
 21
-6.773952
  0
ENDBLK
  0
BLOCK
  2
*GRP_0022
 70
    65
 10
0.0
 20
0.0
  0
LINE
  8
補助線
  6
BYBLOCK
 62
     0
 10
-70.88094
 20
-6.629615
 11
-70.63094
 21
-6.629615
  0
LINE
  8
補助線
  6
BYBLOCK
 62
     0
 10
-70.75594
 20
-6.754615
 11
-70.75594
 21
-6.504615
  0
ENDBLK
  0
BLOCK
  2
*GRP_0023
 70
    65
 10
0.0
 20
0.0
  0
LINE
  8
補助線
  6
BYBLOCK
 62
     0
 10
-85.88094
 20
-6.629615
 11
-85.63094
 21
-6.629615
  0
LINE
  8
補助線
  6
BYBLOCK
 62
     0
 10
-85.75594
 20
-6.754615
 11
-85.75594
 21
-6.504615
  0
ENDBLK
  0
BLOCK
  2
*GRP_0024
 70
    65
 10
0.0
 20
0.0
  0
INSERT
  2
*GRP_0026
  8
補助線
  6
CONTINUOUS
 10
0.0
 20
0.0
  0
LINE
  8
ボルト／ビス
  6
CONTINUOUS
 10
-55.755935
 20
-6.91829
 11
-56.005935
 21
-6.773952
  0
LINE
  8
ボルト／ビス
  6
CONTINUOUS
 10
-55.755935
 20
-6.91829
 11
-55.505935
 21
-6.773952
  0
LINE
  8
ボルト／ビス
  6
CONTINUOUS
 10
-56.005935
 20
-6.485278
 11
-55.755935
 21
-6.34094
  0
LINE
  8
ボルト／ビス
  6
CONTINUOUS
 10
-55.505935
 20
-6.485278
 11
-55.755935
 21
-6.34094
  0
CIRCLE
  8
ボルト／ビス
  6
CONTINUOUS
 10
-55.755935
 20
-6.629615
 40
0.25
  0
LINE
  8
ボルト／ビス
  6
CONTINUOUS
 10
-55.505935
 20
-6.773952
 11
-55.505935
 21
-6.485278
  0
LINE
  8
ボルト／ビス
  6
CONTINUOUS
 10
-56.005935
 20
-6.485278
 11
-56.005935
 21
-6.773952
  0
ENDBLK
  0
BLOCK
  2
*GRP_0025
 70
    65
 10
0.0
 20
0.0
  0
INSERT
  2
*GRP_0027
  8
補助線
  6
CONTINUOUS
 10
0.0
 20
0.0
  0
LINE
  8
ボルト／ビス
  6
CONTINUOUS
 10
-40.755935
 20
-6.91829
 11
-41.005935
 21
-6.773952
  0
LINE
  8
ボルト／ビス
  6
CONTINUOUS
 10
-40.755935
 20
-6.91829
 11
-40.505935
 21
-6.773952
  0
LINE
  8
ボルト／ビス
  6
CONTINUOUS
 10
-41.005935
 20
-6.485278
 11
-40.755935
 21
-6.34094
  0
LINE
  8
ボルト／ビス
  6
CONTINUOUS
 10
-40.505935
 20
-6.485278
 11
-40.755935
 21
-6.34094
  0
CIRCLE
  8
ボルト／ビス
  6
CONTINUOUS
 10
-40.755935
 20
-6.629615
 40
0.25
  0
LINE
  8
ボルト／ビス
  6
CONTINUOUS
 10
-40.505935
 20
-6.773952
 11
-40.505935
 21
-6.485278
  0
LINE
  8
ボルト／ビス
  6
CONTINUOUS
 10
-41.005935
 20
-6.485278
 11
-41.005935
 21
-6.773952
  0
ENDBLK
  0
BLOCK
  2
*GRP_0026
 70
    65
 10
0.0
 20
0.0
  0
LINE
  8
補助線
  6
BYBLOCK
 62
     0
 10
-55.630935
 20
-6.629615
 11
-55.880935
 21
-6.629615
  0
LINE
  8
補助線
  6
BYBLOCK
 62
     0
 10
-55.755935
 20
-6.754615
 11
-55.755935
 21
-6.504615
  0
ENDBLK
  0
BLOCK
  2
*GRP_0027
 70
    65
 10
0.0
 20
0.0
  0
LINE
  8
補助線
  6
BYBLOCK
 62
     0
 10
-40.630935
 20
-6.629615
 11
-40.880935
 21
-6.629615
  0
LINE
  8
補助線
  6
BYBLOCK
 62
     0
 10
-40.755935
 20
-6.754615
 11
-40.755935
 21
-6.504615
  0
ENDBLK
  0
BLOCK
  2
*GRP_0028
 70
    65
 10
0.0
 20
0.0
  0
INSERT
  2
*GRP_0030
  8
補助線
  6
CONTINUOUS
 10
0.0
 20
0.0
  0
LINE
  8
ボルト／ビス
  6
CONTINUOUS
 10
-29.467263
 20
19.370383
 11
-29.6116
 21
19.620383
  0
LINE
  8
ボルト／ビス
  6
CONTINUOUS
 10
-29.467263
 20
19.370383
 11
-29.6116
 21
19.120383
  0
LINE
  8
ボルト／ビス
  6
CONTINUOUS
 10
-29.900275
 20
19.620383
 11
-30.044613
 21
19.370383
  0
LINE
  8
ボルト／ビス
  6
CONTINUOUS
 10
-29.900275
 20
19.120383
 11
-30.044613
 21
19.370383
  0
CIRCLE
  8
ボルト／ビス
  6
CONTINUOUS
 10
-29.755937
 20
19.370383
 40
0.25
  0
LINE
  8
ボルト／ビス
  6
CONTINUOUS
 10
-29.6116
 20
19.120383
 11
-29.900275
 21
19.120383
  0
LINE
  8
ボルト／ビス
  6
CONTINUOUS
 10
-29.900275
 20
19.620383
 11
-29.6116
 21
19.620383
  0
ENDBLK
  0
BLOCK
  2
*GRP_0029
 70
    65
 10
0.0
 20
0.0
  0
INSERT
  2
*GRP_0031
  8
補助線
  6
CONTINUOUS
 10
0.0
 20
0.0
  0
LINE
  8
ボルト／ビス
  6
CONTINUOUS
 10
-29.467263
 20
4.370383
 11
-29.6116
 21
4.620383
  0
LINE
  8
ボルト／ビス
  6
CONTINUOUS
 10
-29.467263
 20
4.370383
 11
-29.6116
 21
4.120383
  0
LINE
  8
ボルト／ビス
  6
CONTINUOUS
 10
-29.900275
 20
4.620383
 11
-30.044613
 21
4.370383
  0
LINE
  8
ボルト／ビス
  6
CONTINUOUS
 10
-29.900275
 20
4.120383
 11
-30.044613
 21
4.370383
  0
CIRCLE
  8
ボルト／ビス
  6
CONTINUOUS
 10
-29.755937
 20
4.370383
 40
0.25
  0
LINE
  8
ボルト／ビス
  6
CONTINUOUS
 10
-29.6116
 20
4.120383
 11
-29.900275
 21
4.120383
  0
LINE
  8
ボルト／ビス
  6
CONTINUOUS
 10
-29.900275
 20
4.620383
 11
-29.6116
 21
4.620383
  0
ENDBLK
  0
BLOCK
  2
*GRP_0030
 70
    65
 10
0.0
 20
0.0
  0
LINE
  8
補助線
  6
BYBLOCK
 62
     0
 10
-29.755937
 20
19.245383
 11
-29.755937
 21
19.495383
  0
LINE
  8
補助線
  6
BYBLOCK
 62
     0
 10
-29.630937
 20
19.370383
 11
-29.880937
 21
19.370383
  0
ENDBLK
  0
BLOCK
  2
*GRP_0031
 70
    65
 10
0.0
 20
0.0
  0
LINE
  8
補助線
  6
BYBLOCK
 62
     0
 10
-29.755937
 20
4.245383
 11
-29.755937
 21
4.495383
  0
LINE
  8
補助線
  6
BYBLOCK
 62
     0
 10
-29.630937
 20
4.370383
 11
-29.880937
 21
4.370383
  0
ENDBLK
  0
BLOCK
  2
*GRP_0032
 70
    65
 10
0.0
 20
0.0
  0
INSERT
  2
*GRP_0034
  8
補助線
  6
CONTINUOUS
 10
0.0
 20
0.0
  0
LINE
  8
ボルト／ビス
  6
CONTINUOUS
 10
-29.467263
 20
34.370383
 11
-29.6116
 21
34.120383
  0
LINE
  8
ボルト／ビス
  6
CONTINUOUS
 10
-29.467263
 20
34.370383
 11
-29.6116
 21
34.620383
  0
LINE
  8
ボルト／ビス
  6
CONTINUOUS
 10
-29.900275
 20
34.120383
 11
-30.044613
 21
34.370383
  0
LINE
  8
ボルト／ビス
  6
CONTINUOUS
 10
-29.900275
 20
34.620383
 11
-30.044613
 21
34.370383
  0
CIRCLE
  8
ボルト／ビス
  6
CONTINUOUS
 10
-29.755937
 20
34.370383
 40
0.25
  0
LINE
  8
ボルト／ビス
  6
CONTINUOUS
 10
-29.6116
 20
34.620383
 11
-29.900275
 21
34.620383
  0
LINE
  8
ボルト／ビス
  6
CONTINUOUS
 10
-29.900275
 20
34.120383
 11
-29.6116
 21
34.120383
  0
ENDBLK
  0
BLOCK
  2
*GRP_0033
 70
    65
 10
0.0
 20
0.0
  0
INSERT
  2
*GRP_0035
  8
補助線
  6
CONTINUOUS
 10
0.0
 20
0.0
  0
LINE
  8
ボルト／ビス
  6
CONTINUOUS
 10
-29.467263
 20
49.370383
 11
-29.6116
 21
49.120383
  0
LINE
  8
ボルト／ビス
  6
CONTINUOUS
 10
-29.467263
 20
49.370383
 11
-29.6116
 21
49.620383
  0
LINE
  8
ボルト／ビス
  6
CONTINUOUS
 10
-29.900275
 20
49.120383
 11
-30.044613
 21
49.370383
  0
LINE
  8
ボルト／ビス
  6
CONTINUOUS
 10
-29.900275
 20
49.620383
 11
-30.044613
 21
49.370383
  0
CIRCLE
  8
ボルト／ビス
  6
CONTINUOUS
 10
-29.755937
 20
49.370383
 40
0.25
  0
LINE
  8
ボルト／ビス
  6
CONTINUOUS
 10
-29.6116
 20
49.620383
 11
-29.900275
 21
49.620383
  0
LINE
  8
ボルト／ビス
  6
CONTINUOUS
 10
-29.900275
 20
49.120383
 11
-29.6116
 21
49.120383
  0
ENDBLK
  0
BLOCK
  2
*GRP_0034
 70
    65
 10
0.0
 20
0.0
  0
LINE
  8
補助線
  6
BYBLOCK
 62
     0
 10
-29.755937
 20
34.495383
 11
-29.755937
 21
34.245383
  0
LINE
  8
補助線
  6
BYBLOCK
 62
     0
 10
-29.630937
 20
34.370383
 11
-29.880937
 21
34.370383
  0
ENDBLK
  0
BLOCK
  2
*GRP_0035
 70
    65
 10
0.0
 20
0.0
  0
LINE
  8
補助線
  6
BYBLOCK
 62
     0
 10
-29.755937
 20
49.495383
 11
-29.755937
 21
49.245383
  0
LINE
  8
補助線
  6
BYBLOCK
 62
     0
 10
-29.630937
 20
49.370383
 11
-29.880937
 21
49.370383
  0
ENDBLK
  0
BLOCK
  2
*DIM_0036
 70
    65
 10
0.0
 20
0.0
  0
LINE
  8
寸法
  6
BYBLOCK
 62
     0
 10
-27.255935
 20
-69.569873
 11
-10.143282
 21
-69.569873
  0
LINE
  8
寸法
  6
BYBLOCK
 62
     0
 10
-24.155895
 20
-79.320225
 11
-10.143282
 21
-79.320225
  0
LINE
  8
寸法
  6
BYBLOCK
 62
     0
 10
-10.143282
 20
-69.569873
 11
-10.143282
 21
-79.320225
  0
POINT
  8
寸法
 62
     0
 10
-10.143282
 20
-69.569873
  0
POINT
  8
寸法
 62
     0
 10
-10.143282
 20
-79.320225
  0
TEXT
  7
TextStyle03
  8
寸法
  6
CONTINUOUS
 62
     0
 10
-10.525
 20
-76.8875
  1
195
 40
3.0
 50
90.0
 72
     5
 11
-10.525
 21
-72.0125
  0
ENDBLK
  0
BLOCK
  2
*DIM_0037
 70
    65
 10
0.0
 20
0.0
  0
LINE
  8
寸法
  6
BYBLOCK
 62
     0
 10
-29.755937
 20
59.370383
 11
-15.072648
 21
59.370383
  0
LINE
  8
寸法
  6
BYBLOCK
 62
     0
 10
-21.73206
 20
56.370383
 11
-15.072648
 21
56.370383
  0
LINE
  8
寸法
  6
BYBLOCK
 62
     0
 10
-15.072648
 20
59.370383
 11
-15.072648
 21
56.370383
  0
POINT
  8
寸法
 62
     0
 10
-15.072648
 20
59.370383
  0
POINT
  8
寸法
 62
     0
 10
-15.072648
 20
56.370383
  0
TEXT
  7
TextStyle03
  8
寸法
  6
CONTINUOUS
 62
     0
 10
-12.1
 20
56.23125
  1
60
 40
3.0
 50
90.0
 72
     5
 11
-12.1
 21
59.41875
  0
ENDBLK
  0
BLOCK
  2
*DIM_0038
 70
    65
 10
0.0
 20
0.0
  0
LINE
  8
寸法
  6
BYBLOCK
 62
     0
 10
-29.755937
 20
-5.629618
 11
-15.072648
 21
-5.629618
  0
LINE
  8
寸法
  6
BYBLOCK
 62
     0
 10
-21.73206
 20
-2.629618
 11
-15.072648
 21
-2.629618
  0
LINE
  8
寸法
  6
BYBLOCK
 62
     0
 10
-15.072648
 20
-5.629618
 11
-15.072648
 21
-2.629618
  0
POINT
  8
寸法
 62
     0
 10
-15.072648
 20
-5.629618
  0
POINT
  8
寸法
 62
     0
 10
-15.072648
 20
-2.629618
  0
TEXT
  7
TextStyle03
  8
寸法
  6
CONTINUOUS
 62
     0
 10
-12.075
 20
-5.74375
  1
60
 40
3.0
 50
90.0
 72
     5
 11
-12.075
 21
-2.55625
  0
ENDBLK
  0
BLOCK
  2
*GRP_0039
 70
    65
 10
0.0
 20
0.0
  0
LINE
  8
別途部材
  6
CONTINUOUS
 62
    96
 10
-97.606423
 20
-77.195038
 11
-97.456423
 21
-77.195038
  0
LINE
  8
別途部材
  6
CONTINUOUS
 62
    96
 10
-97.756423
 20
-74.043418
 11
-99.75263
 21
-74.147927
  0
LINE
  8
別途部材
  6
CONTINUOUS
 62
    96
 10
-99.766423
 20
-74.970038
 11
-100.166423
 21
-74.795038
  0
LINE
  8
別途部材
  6
CONTINUOUS
 62
    96
 10
-99.735048
 20
-74.820038
 11
-99.966547
 21
-74.718757
  0
LINE
  8
別途部材
  6
CONTINUOUS
 62
    96
 10
-99.791805
 20
-73.999773
 11
-100.182107
 21
-74.195447
  0
LINE
  8
別途部材
  6
CONTINUOUS
 62
    96
 10
-99.75263
 20
-74.147927
 11
-100.148048
 21
-74.346167
  0
LINE
  8
別途部材
  6
CONTINUOUS
 62
    96
 10
-100.050725
 20
-74.39957
 11
-99.93503
 21
-74.3041
  0
LINE
  8
別途部材
  6
DASHDOTX2
 62
    96
 10
-100.166423
 20
-74.495038
 11
-100.166423
 21
-74.02481
  0
LINE
  8
別途部材
  6
DASHDOTX2
 62
    96
 10
-100.166423
 20
-74.495038
 11
-100.166423
 21
-74.990727
  0
LINE
  8
別途部材
  6
DASHDOTX2
 62
    96
 10
-100.166423
 20
-74.495038
 11
-99.771215
 21
-74.495038
  0
LINE
  8
別途部材
  6
DASHDOTX2
 62
    96
 10
-100.166423
 20
-74.495038
 11
-100.583888
 21
-74.495038
  0
LINE
  8
別途部材
  6
CONTINUOUS
 62
    96
 10
-97.456423
 20
-74.820038
 11
-99.735048
 21
-74.820038
  0
LINE
  8
別途部材
  6
CONTINUOUS
 62
    96
 10
-97.606423
 20
-74.970038
 11
-99.766423
 21
-74.970038
  0
LINE
  8
別途部材
  6
CONTINUOUS
 62
    96
 10
-97.906425
 20
-72.193418
 11
-97.906425
 21
-73.901065
  0
LINE
  8
別途部材
  6
CONTINUOUS
 62
    96
 10
-97.756423
 20
-72.193418
 11
-97.906425
 21
-72.193418
  0
LINE
  8
別途部材
  6
CONTINUOUS
 62
    96
 10
-97.756423
 20
-72.193418
 11
-97.756423
 21
-74.043418
  0
CIRCLE
  8
別途部材
  6
CONTINUOUS
 62
    96
 10
-100.166423
 20
-74.495038
 40
0.15
  0
ARC
  8
別途部材
  6
CONTINUOUS
 62
    96
 10
-100.166424
 20
-74.495036
 40
0.3
 50
92.998444
 51
411.219394
  0
LINE
  8
別途部材
  6
CONTINUOUS
 62
    96
 10
-97.456423
 20
-74.820038
 11
-97.456423
 21
-77.195038
  0
LINE
  8
別途部材
  6
CONTINUOUS
 62
    96
 10
-97.606423
 20
-74.970038
 11
-97.606423
 21
-77.195038
  0
LINE
  8
別途部材
  6
CONTINUOUS
 62
    96
 10
-99.791805
 20
-73.999773
 11
-97.906425
 21
-73.901065
  0
ENDBLK
  0
BLOCK
  2
*DIM_0040
 70
    65
 10
0.0
 20
0.0
  0
LINE
  8
寸法
  6
BYBLOCK
 62
     0
 10
-100.756148
 20
-76.67005
 11
-100.756148
 21
-33.416065
  0
LINE
  8
寸法
  6
BYBLOCK
 62
     0
 10
-95.755937
 20
-33.416065
 11
-100.756148
 21
-33.416065
  0
POINT
  8
寸法
 62
     0
 10
-95.755937
 20
-33.416065
  0
POINT
  8
寸法
 62
     0
 10
-100.756148
 20
-33.416065
  0
TEXT
  7
TextStyle03
  8
寸法
  6
CONTINUOUS
 62
     0
 10
-105.7625
 20
-33.05
  1
100
 40
3.0
 72
     5
 11
-100.8875
 21
-33.05
  0
ENDBLK
  0
BLOCK
  2
*DIM_0041
 70
    65
 10
0.0
 20
0.0
  0
LINE
  8
寸法
  6
BYBLOCK
 62
     0
 10
-25.755728
 20
-76.67005
 11
-25.755728
 21
-33.416065
  0
LINE
  8
寸法
  6
BYBLOCK
 62
     0
 10
-30.755937
 20
-33.416065
 11
-25.755728
 21
-33.416065
  0
POINT
  8
寸法
 62
     0
 10
-30.755937
 20
-33.416065
  0
POINT
  8
寸法
 62
     0
 10
-25.755728
 20
-33.416065
  0
TEXT
  7
TextStyle03
  8
寸法
  6
CONTINUOUS
 62
     0
 10
-25.6625
 20
-33.05
  1
100
 40
3.0
 72
     5
 11
-20.7875
 21
-33.05
  0
ENDBLK
  0
BLOCK
  2
*GRP_0042
 70
    65
 10
0.0
 20
0.0
  0
LINE
  8
別途部材
  6
CONTINUOUS
 62
    96
 10
55.320705
 20
-77.195038
 11
55.470705
 21
-77.195038
  0
LINE
  8
別途部材
  6
CONTINUOUS
 62
    96
 10
55.170705
 20
-74.043418
 11
53.174497
 21
-74.147927
  0
LINE
  8
別途部材
  6
CONTINUOUS
 62
    96
 10
53.160705
 20
-74.970038
 11
52.760705
 21
-74.795038
  0
LINE
  8
別途部材
  6
CONTINUOUS
 62
    96
 10
53.19208
 20
-74.820038
 11
52.96058
 21
-74.718757
  0
LINE
  8
別途部材
  6
CONTINUOUS
 62
    96
 10
53.135323
 20
-73.999773
 11
52.74502
 21
-74.195447
  0
LINE
  8
別途部材
  6
CONTINUOUS
 62
    96
 10
53.174497
 20
-74.147927
 11
52.77908
 21
-74.346167
  0
LINE
  8
別途部材
  6
CONTINUOUS
 62
    96
 10
52.876403
 20
-74.39957
 11
52.992098
 21
-74.3041
  0
LINE
  8
別途部材
  6
DASHDOTX2
 62
    96
 10
52.760705
 20
-74.495038
 11
52.760705
 21
-74.02481
  0
LINE
  8
別途部材
  6
DASHDOTX2
 62
    96
 10
52.760705
 20
-74.495038
 11
52.760705
 21
-74.990727
  0
LINE
  8
別途部材
  6
DASHDOTX2
 62
    96
 10
52.760705
 20
-74.495038
 11
53.155912
 21
-74.495038
  0
LINE
  8
別途部材
  6
DASHDOTX2
 62
    96
 10
52.760705
 20
-74.495038
 11
52.34324
 21
-74.495038
  0
LINE
  8
別途部材
  6
CONTINUOUS
 62
    96
 10
55.470705
 20
-74.820038
 11
53.19208
 21
-74.820038
  0
LINE
  8
別途部材
  6
CONTINUOUS
 62
    96
 10
55.320705
 20
-74.970038
 11
53.160705
 21
-74.970038
  0
LINE
  8
別途部材
  6
CONTINUOUS
 62
    96
 10
55.020702
 20
-72.193418
 11
55.020702
 21
-73.901065
  0
LINE
  8
別途部材
  6
CONTINUOUS
 62
    96
 10
55.170705
 20
-72.193418
 11
55.020702
 21
-72.193418
  0
LINE
  8
別途部材
  6
CONTINUOUS
 62
    96
 10
55.170705
 20
-72.193418
 11
55.170705
 21
-74.043418
  0
CIRCLE
  8
別途部材
  6
CONTINUOUS
 62
    96
 10
52.760705
 20
-74.495038
 40
0.15
  0
ARC
  8
別途部材
  6
CONTINUOUS
 62
    96
 10
52.760703
 20
-74.495036
 40
0.3
 50
92.998444
 51
411.219394
  0
LINE
  8
別途部材
  6
CONTINUOUS
 62
    96
 10
55.470705
 20
-74.820038
 11
55.470705
 21
-77.195038
  0
LINE
  8
別途部材
  6
CONTINUOUS
 62
    96
 10
55.320705
 20
-74.970038
 11
55.320705
 21
-77.195038
  0
LINE
  8
別途部材
  6
CONTINUOUS
 62
    96
 10
53.135323
 20
-73.999773
 11
55.020702
 21
-73.901065
  0
ENDBLK
  0
BLOCK
  2
*DIM_0043
 70
    65
 10
0.0
 20
0.0
  0
LINE
  8
寸法
  6
BYBLOCK
 62
     0
 10
-80.755937
 20
82.238818
 11
-80.755937
 21
92.594355
  0
LINE
  8
寸法
  6
BYBLOCK
 62
     0
 10
-45.755937
 20
82.238818
 11
-45.755937
 21
92.594355
  0
LINE
  8
寸法
  6
BYBLOCK
 62
     0
 10
-80.755937
 20
92.594355
 11
-45.755937
 21
92.594355
  0
POINT
  8
寸法
 62
     0
 10
-80.755937
 20
92.594355
  0
POINT
  8
寸法
 62
     0
 10
-45.755937
 20
92.594355
  0
TEXT
  7
TextStyle03
  8
寸法
  6
CONTINUOUS
 62
     0
 10
-65.7125
 20
92.975
  1
700
 40
3.0
 72
     5
 11
-60.8375
 21
92.975
  0
ENDBLK
  0
BLOCK
  2
*DIM_0044
 70
    65
 10
0.0
 20
0.0
  0
LINE
  8
寸法
  6
BYBLOCK
 62
     0
 10
-123.904373
 20
44.370385
 11
-134.25991
 21
44.370385
  0
LINE
  8
寸法
  6
BYBLOCK
 62
     0
 10
-123.904375
 20
9.370385
 11
-134.259912
 21
9.370385
  0
LINE
  8
寸法
  6
BYBLOCK
 62
     0
 10
-134.25991
 20
44.370385
 11
-134.259912
 21
9.370385
  0
POINT
  8
寸法
 62
     0
 10
-134.25991
 20
44.370385
  0
POINT
  8
寸法
 62
     0
 10
-134.259912
 20
9.370385
  0
TEXT
  7
TextStyle03
  8
寸法
  6
CONTINUOUS
 62
     0
 10
-134.65
 20
24.4375
  1
700
 40
3.0
 50
90.0
 72
     5
 11
-134.65
 21
29.3125
  0
ENDBLK
  0
BLOCK
  2
*DIM_0045
 70
    65
 10
0.0
 20
0.0
  0
LINE
  8
寸法
  6
BYBLOCK
 62
     0
 10
101.504785
 20
77.557477
 11
101.504785
 21
85.255945
  0
LINE
  8
寸法
  6
BYBLOCK
 62
     0
 10
167.304785
 20
77.557477
 11
167.304785
 21
85.255945
  0
LINE
  8
寸法
  6
BYBLOCK
 62
     0
 10
101.504785
 20
85.255945
 11
167.304785
 21
85.255945
  0
POINT
  8
寸法
 62
     0
 10
101.504785
 20
85.255945
  0
POINT
  8
寸法
 62
     0
 10
167.304785
 20
85.255945
  0
TEXT
  7
TextStyle03
  8
寸法
  6
CONTINUOUS
 62
     0
 10
131.11875
 20
85.625
  1
1316
 40
3.0
 72
     5
 11
137.68125
 21
85.625
  0
ENDBLK
  0
BLOCK
  2
*DIM_0046
 70
    65
 10
0.0
 20
0.0
  0
LINE
  8
寸法
  6
BYBLOCK
 62
     0
 10
170.304785
 20
74.557477
 11
180.193265
 21
74.557477
  0
LINE
  8
寸法
  6
BYBLOCK
 62
     0
 10
170.304785
 20
8.757477
 11
180.193265
 21
8.757477
  0
LINE
  8
寸法
  6
BYBLOCK
 62
     0
 10
180.193265
 20
74.557477
 11
180.193265
 21
8.757477
  0
POINT
  8
寸法
 62
     0
 10
180.193265
 20
74.557477
  0
POINT
  8
寸法
 62
     0
 10
180.193265
 20
8.757477
  0
TEXT
  7
TextStyle03
  8
寸法
  6
CONTINUOUS
 62
     0
 10
179.8
 20
38.36875
  1
1316
 40
3.0
 50
90.0
 72
     5
 11
179.8
 21
44.93125
  0
ENDBLK
  0
BLOCK
  2
*GRP_0047
 70
    65
 10
0.0
 20
0.0
  0
LINE
  8
ボルト／ビス
  6
CONTINUOUS
 10
-96.755937
 20
-69.569875
 11
-96.755937
 21
-68.869873
  0
LINE
  8
ボルト／ビス
  6
CONTINUOUS
 10
-96.205937
 20
-69.569875
 11
-96.205937
 21
-69.469873
  0
LINE
  8
ボルト／ビス
  6
CONTINUOUS
 10
-96.205937
 20
-69.469873
 11
-97.30594
 21
-69.469873
  0
LINE
  8
ボルト／ビス
  6
CONTINUOUS
 10
-97.30594
 20
-69.469873
 11
-97.30594
 21
-69.569875
  0
LINE
  8
ボルト／ビス
  6
CONTINUOUS
 10
-96.205937
 20
-69.569875
 11
-97.30594
 21
-69.569875
  0
LINE
  8
ボルト／ビス
  6
CONTINUOUS
 10
-96.305937
 20
-69.419875
 11
-96.305937
 21
-69.469873
  0
LINE
  8
ボルト／ビス
  6
CONTINUOUS
 10
-96.305937
 20
-69.419875
 11
-97.205937
 21
-69.419875
  0
LINE
  8
ボルト／ビス
  6
CONTINUOUS
 10
-97.205937
 20
-69.419875
 11
-97.205937
 21
-69.469873
  0
LINE
  8
ボルト／ビス
  6
CONTINUOUS
 62
    64
 10
-96.515375
 20
-69.119875
 11
-96.467263
 21
-69.137388
  0
ARC
  8
ボルト／ビス
  6
CONTINUOUS
 62
    64
 10
-96.539433
 20
-69.277344
 40
0.157468
 50
90.0
 51
117.278033
  0
ARC
  8
ボルト／ビス
  6
CONTINUOUS
 62
    64
 10
-96.755939
 20
-69.72348
 40
0.603603
 50
76.165015
 51
103.834998
  0
LINE
  8
ボルト／ビス
  6
CONTINUOUS
 62
    64
 10
-96.9965
 20
-69.119875
 11
-97.044613
 21
-69.137388
  0
ARC
  8
ボルト／ビス
  6
CONTINUOUS
 62
    64
 10
-96.972445
 20
-69.277344
 40
0.157468
 50
62.721967
 51
90.0
  0
LINE
  8
ボルト／ビス
  6
CONTINUOUS
 62
    64
 10
-96.515375
 20
-69.119875
 11
-96.9965
 21
-69.119875
  0
LINE
  8
ボルト／ビス
  6
CONTINUOUS
 62
    64
 10
-97.044613
 20
-69.137388
 11
-97.044613
 21
-69.319873
  0
LINE
  8
ボルト／ビス
  6
CONTINUOUS
 62
    64
 10
-96.900275
 20
-69.137388
 11
-96.900275
 21
-69.319873
  0
LINE
  8
ボルト／ビス
  6
CONTINUOUS
 62
    64
 10
-96.467263
 20
-69.137388
 11
-96.467263
 21
-69.319873
  0
LINE
  8
ボルト／ビス
  6
CONTINUOUS
 62
    64
 10
-96.6116
 20
-69.137388
 11
-96.6116
 21
-69.319873
  0
LINE
  8
ボルト／ビス
  6
CONTINUOUS
 10
-96.467263
 20
-69.319873
 11
-97.044613
 21
-69.319873
  0
LINE
  8
ボルト／ビス
  6
CONTINUOUS
 10
-96.455937
 20
-69.319873
 11
-96.455937
 21
-69.419875
  0
LINE
  8
ボルト／ビス
  6
CONTINUOUS
 10
-96.455937
 20
-69.319873
 11
-97.055937
 21
-69.319873
  0
LINE
  8
ボルト／ビス
  6
CONTINUOUS
 10
-97.055937
 20
-69.319873
 11
-97.055937
 21
-69.419875
  0
ENDBLK
  0
BLOCK
  2
*GRP_0048
 70
    65
 10
0.0
 20
0.0
  0
LINE
  8
ボルト／ビス
  6
CONTINUOUS
 10
-29.755933
 20
-69.569875
 11
-29.755933
 21
-68.869873
  0
LINE
  8
ボルト／ビス
  6
CONTINUOUS
 10
-29.205933
 20
-69.569875
 11
-29.205933
 21
-69.469873
  0
LINE
  8
ボルト／ビス
  6
CONTINUOUS
 10
-29.205933
 20
-69.469873
 11
-30.305935
 21
-69.469873
  0
LINE
  8
ボルト／ビス
  6
CONTINUOUS
 10
-30.305935
 20
-69.469873
 11
-30.305935
 21
-69.569875
  0
LINE
  8
ボルト／ビス
  6
CONTINUOUS
 10
-29.205933
 20
-69.569875
 11
-30.305935
 21
-69.569875
  0
LINE
  8
ボルト／ビス
  6
CONTINUOUS
 10
-29.305933
 20
-69.419875
 11
-29.305933
 21
-69.469873
  0
LINE
  8
ボルト／ビス
  6
CONTINUOUS
 10
-29.305933
 20
-69.419875
 11
-30.205933
 21
-69.419875
  0
LINE
  8
ボルト／ビス
  6
CONTINUOUS
 10
-30.205933
 20
-69.419875
 11
-30.205933
 21
-69.469873
  0
LINE
  8
ボルト／ビス
  6
CONTINUOUS
 62
    64
 10
-29.51537
 20
-69.119875
 11
-29.467257
 21
-69.137388
  0
ARC
  8
ボルト／ビス
  6
CONTINUOUS
 62
    64
 10
-29.539427
 20
-69.277345
 40
0.157468
 50
90.0
 51
117.278033
  0
ARC
  8
ボルト／ビス
  6
CONTINUOUS
 62
    64
 10
-29.755933
 20
-69.723481
 40
0.603603
 50
76.165015
 51
103.834998
  0
LINE
  8
ボルト／ビス
  6
CONTINUOUS
 62
    64
 10
-29.996495
 20
-69.119875
 11
-30.044607
 21
-69.137388
  0
ARC
  8
ボルト／ビス
  6
CONTINUOUS
 62
    64
 10
-29.97244
 20
-69.277345
 40
0.157468
 50
62.721967
 51
90.0
  0
LINE
  8
ボルト／ビス
  6
CONTINUOUS
 62
    64
 10
-29.51537
 20
-69.119875
 11
-29.996495
 21
-69.119875
  0
LINE
  8
ボルト／ビス
  6
CONTINUOUS
 62
    64
 10
-30.044607
 20
-69.137388
 11
-30.044607
 21
-69.319873
  0
LINE
  8
ボルト／ビス
  6
CONTINUOUS
 62
    64
 10
-29.90027
 20
-69.137388
 11
-29.90027
 21
-69.319873
  0
LINE
  8
ボルト／ビス
  6
CONTINUOUS
 62
    64
 10
-29.467257
 20
-69.137388
 11
-29.467257
 21
-69.319873
  0
LINE
  8
ボルト／ビス
  6
CONTINUOUS
 62
    64
 10
-29.611595
 20
-69.137388
 11
-29.611595
 21
-69.319873
  0
LINE
  8
ボルト／ビス
  6
CONTINUOUS
 10
-29.467257
 20
-69.319873
 11
-30.044607
 21
-69.319873
  0
LINE
  8
ボルト／ビス
  6
CONTINUOUS
 10
-29.455933
 20
-69.319873
 11
-29.455933
 21
-69.419875
  0
LINE
  8
ボルト／ビス
  6
CONTINUOUS
 10
-29.455933
 20
-69.319873
 11
-30.055933
 21
-69.319873
  0
LINE
  8
ボルト／ビス
  6
CONTINUOUS
 10
-30.055933
 20
-69.319873
 11
-30.055933
 21
-69.419875
  0
ENDBLK
  0
BLOCK
  2
*GRP_0049
 70
    65
 10
0.0
 20
0.0
  0
LINE
  8
ボルト／ビス
  6
CONTINUOUS
 10
56.17119
 20
-69.569875
 11
56.17119
 21
-68.869873
  0
LINE
  8
ボルト／ビス
  6
CONTINUOUS
 10
56.72119
 20
-69.569875
 11
56.72119
 21
-69.469873
  0
LINE
  8
ボルト／ビス
  6
CONTINUOUS
 10
56.72119
 20
-69.469873
 11
55.621188
 21
-69.469873
  0
LINE
  8
ボルト／ビス
  6
CONTINUOUS
 10
55.621188
 20
-69.469873
 11
55.621188
 21
-69.569875
  0
LINE
  8
ボルト／ビス
  6
CONTINUOUS
 10
56.72119
 20
-69.569875
 11
55.621188
 21
-69.569875
  0
LINE
  8
ボルト／ビス
  6
CONTINUOUS
 10
56.62119
 20
-69.419875
 11
56.62119
 21
-69.469873
  0
LINE
  8
ボルト／ビス
  6
CONTINUOUS
 10
56.62119
 20
-69.419875
 11
55.72119
 21
-69.419875
  0
LINE
  8
ボルト／ビス
  6
CONTINUOUS
 10
55.72119
 20
-69.419875
 11
55.72119
 21
-69.469873
  0
LINE
  8
ボルト／ビス
  6
CONTINUOUS
 62
    64
 10
56.411752
 20
-69.119875
 11
56.459865
 21
-69.137388
  0
ARC
  8
ボルト／ビス
  6
CONTINUOUS
 62
    64
 10
56.387696
 20
-69.277344
 40
0.157468
 50
90.0
 51
117.278033
  0
ARC
  8
ボルト／ビス
  6
CONTINUOUS
 62
    64
 10
56.171189
 20
-69.72348
 40
0.603603
 50
76.165015
 51
103.834998
  0
LINE
  8
ボルト／ビス
  6
CONTINUOUS
 62
    64
 10
55.930628
 20
-69.119875
 11
55.882515
 21
-69.137388
  0
ARC
  8
ボルト／ビス
  6
CONTINUOUS
 62
    64
 10
55.954683
 20
-69.277344
 40
0.157468
 50
62.721967
 51
90.0
  0
LINE
  8
ボルト／ビス
  6
CONTINUOUS
 62
    64
 10
56.411752
 20
-69.119875
 11
55.930628
 21
-69.119875
  0
LINE
  8
ボルト／ビス
  6
CONTINUOUS
 62
    64
 10
55.882515
 20
-69.137388
 11
55.882515
 21
-69.319873
  0
LINE
  8
ボルト／ビス
  6
CONTINUOUS
 62
    64
 10
56.026852
 20
-69.137388
 11
56.026852
 21
-69.319873
  0
LINE
  8
ボルト／ビス
  6
CONTINUOUS
 62
    64
 10
56.459865
 20
-69.137388
 11
56.459865
 21
-69.319873
  0
LINE
  8
ボルト／ビス
  6
CONTINUOUS
 62
    64
 10
56.315527
 20
-69.137388
 11
56.315527
 21
-69.319873
  0
LINE
  8
ボルト／ビス
  6
CONTINUOUS
 10
56.459865
 20
-69.319873
 11
55.882515
 21
-69.319873
  0
LINE
  8
ボルト／ビス
  6
CONTINUOUS
 10
56.47119
 20
-69.319873
 11
56.47119
 21
-69.419875
  0
LINE
  8
ボルト／ビス
  6
CONTINUOUS
 10
56.47119
 20
-69.319873
 11
55.87119
 21
-69.319873
  0
LINE
  8
ボルト／ビス
  6
CONTINUOUS
 10
55.87119
 20
-69.319873
 11
55.87119
 21
-69.419875
  0
ENDBLK
  0
BLOCK
  2
*GRP_0050
 70
    65
 10
0.0
 20
0.0
  0
LINE
  8
ボルト／ビス
  6
CONTINUOUS
 10
123.171195
 20
-69.569875
 11
123.171195
 21
-68.869873
  0
LINE
  8
ボルト／ビス
  6
CONTINUOUS
 10
123.721195
 20
-69.569875
 11
123.721195
 21
-69.469873
  0
LINE
  8
ボルト／ビス
  6
CONTINUOUS
 10
123.721195
 20
-69.469873
 11
122.621192
 21
-69.469873
  0
LINE
  8
ボルト／ビス
  6
CONTINUOUS
 10
122.621192
 20
-69.469873
 11
122.621192
 21
-69.569875
  0
LINE
  8
ボルト／ビス
  6
CONTINUOUS
 10
123.721195
 20
-69.569875
 11
122.621192
 21
-69.569875
  0
LINE
  8
ボルト／ビス
  6
CONTINUOUS
 10
123.621195
 20
-69.419875
 11
123.621195
 21
-69.469873
  0
LINE
  8
ボルト／ビス
  6
CONTINUOUS
 10
123.621195
 20
-69.419875
 11
122.721195
 21
-69.419875
  0
LINE
  8
ボルト／ビス
  6
CONTINUOUS
 10
122.721195
 20
-69.419875
 11
122.721195
 21
-69.469873
  0
LINE
  8
ボルト／ビス
  6
CONTINUOUS
 62
    64
 10
123.411758
 20
-69.119875
 11
123.45987
 21
-69.137388
  0
ARC
  8
ボルト／ビス
  6
CONTINUOUS
 62
    64
 10
123.3877
 20
-69.277344
 40
0.157468
 50
90.0
 51
117.278033
  0
ARC
  8
ボルト／ビス
  6
CONTINUOUS
 62
    64
 10
123.171194
 20
-69.72348
 40
0.603603
 50
76.165015
 51
103.834998
  0
LINE
  8
ボルト／ビス
  6
CONTINUOUS
 62
    64
 10
122.930632
 20
-69.119875
 11
122.88252
 21
-69.137388
  0
ARC
  8
ボルト／ビス
  6
CONTINUOUS
 62
    64
 10
122.954688
 20
-69.277344
 40
0.157468
 50
62.721967
 51
90.0
  0
LINE
  8
ボルト／ビス
  6
CONTINUOUS
 62
    64
 10
123.411758
 20
-69.119875
 11
122.930632
 21
-69.119875
  0
LINE
  8
ボルト／ビス
  6
CONTINUOUS
 62
    64
 10
122.88252
 20
-69.137388
 11
122.88252
 21
-69.319873
  0
LINE
  8
ボルト／ビス
  6
CONTINUOUS
 62
    64
 10
123.026858
 20
-69.137388
 11
123.026858
 21
-69.319873
  0
LINE
  8
ボルト／ビス
  6
CONTINUOUS
 62
    64
 10
123.45987
 20
-69.137388
 11
123.45987
 21
-69.319873
  0
LINE
  8
ボルト／ビス
  6
CONTINUOUS
 62
    64
 10
123.315532
 20
-69.137388
 11
123.315532
 21
-69.319873
  0
LINE
  8
ボルト／ビス
  6
CONTINUOUS
 10
123.45987
 20
-69.319873
 11
122.88252
 21
-69.319873
  0
LINE
  8
ボルト／ビス
  6
CONTINUOUS
 10
123.471195
 20
-69.319873
 11
123.471195
 21
-69.419875
  0
LINE
  8
ボルト／ビス
  6
CONTINUOUS
 10
123.471195
 20
-69.319873
 11
122.871195
 21
-69.319873
  0
LINE
  8
ボルト／ビス
  6
CONTINUOUS
 10
122.871195
 20
-69.319873
 11
122.871195
 21
-69.419875
  0
ENDBLK
  0
BLOCK
  2
*GRP_0051
 70
    65
 10
0.0
 20
0.0
  0
LINE
  8
ボルト／ビス
  6
DOT
 10
51.689665
 20
-68.600845
 11
51.194687
 21
-68.10587
  0
LINE
  8
ボルト／ビス
  6
DOT
 10
52.078572
 20
-68.211938
 11
52.00786
 21
-68.141225
  0
LINE
  8
ボルト／ビス
  6
DOT
 10
52.00786
 20
-68.141225
 11
51.230042
 21
-68.919042
  0
LINE
  8
ボルト／ビス
  6
DOT
 10
51.230042
 20
-68.919042
 11
51.300755
 21
-68.989755
  0
LINE
  8
ボルト／ビス
  6
DOT
 10
52.078572
 20
-68.211938
 11
51.300755
 21
-68.989755
  0
LINE
  8
ボルト／ビス
  6
DOT
 10
51.901798
 20
-68.176583
 11
51.93715
 21
-68.211935
  0
LINE
  8
ボルト／ビス
  6
DOT
 10
51.901798
 20
-68.176583
 11
51.2654
 21
-68.812978
  0
LINE
  8
ボルト／ビス
  6
DOT
 10
51.2654
 20
-68.812978
 11
51.300755
 21
-68.84833
  0
LINE
  8
ボルト／ビス
  6
DOT
 62
    64
 10
51.54157
 20
-68.112545
 11
51.587973
 21
-68.090907
  0
ARC
  8
ボルト／ビス
  6
DOT
 62
    64
 10
51.635907
 20
-68.240901
 40
0.157468
 50
135.0
 51
162.278033
  0
ARC
  8
ボルト／ビス
  6
DOT
 62
    64
 10
51.798279
 20
-68.709459
 40
0.603603
 50
121.165015
 51
148.834998
  0
LINE
  8
ボルト／ビス
  6
DOT
 62
    64
 10
51.201362
 20
-68.45275
 11
51.179725
 21
-68.499155
  0
ARC
  8
ボルト／ビス
  6
DOT
 62
    64
 10
51.32972
 20
-68.547087
 40
0.157468
 50
107.721967
 51
135.0
  0
LINE
  8
ボルト／ビス
  6
DOT
 62
    64
 10
51.54157
 20
-68.112545
 11
51.201362
 21
-68.45275
  0
LINE
  8
ボルト／ビス
  6
DOT
 62
    64
 10
51.179725
 20
-68.499155
 11
51.308763
 21
-68.62819
  0
LINE
  8
ボルト／ビス
  6
DOT
 62
    64
 10
51.281788
 20
-68.397092
 11
51.410825
 21
-68.52613
  0
LINE
  8
ボルト／ビス
  6
DOT
 62
    64
 10
51.587973
 20
-68.090907
 11
51.71701
 21
-68.219942
  0
LINE
  8
ボルト／ビス
  6
DOT
 62
    64
 10
51.485913
 20
-68.192968
 11
51.614948
 21
-68.322005
  0
LINE
  8
ボルト／ビス
  6
DOT
 10
51.71701
 20
-68.219942
 11
51.308763
 21
-68.62819
  0
LINE
  8
ボルト／ビス
  6
DOT
 10
51.725017
 20
-68.211935
 11
51.79573
 21
-68.282647
  0
LINE
  8
ボルト／ビス
  6
DOT
 10
51.725017
 20
-68.211935
 11
51.300755
 21
-68.6362
  0
LINE
  8
ボルト／ビス
  6
DOT
 10
51.300755
 20
-68.6362
 11
51.371467
 21
-68.706913
  0
ENDBLK
  0
BLOCK
  2
*GRP_0052
 70
    65
 10
0.0
 20
0.0
  0
LINE
  8
ボルト／ビス
  6
DOT
 10
99.065822
 20
-21.224685
 11
98.570845
 21
-20.72971
  0
LINE
  8
ボルト／ビス
  6
DOT
 10
99.45473
 20
-20.835778
 11
99.384017
 21
-20.765065
  0
LINE
  8
ボルト／ビス
  6
DOT
 10
99.384017
 20
-20.765065
 11
98.6062
 21
-21.542882
  0
LINE
  8
ボルト／ビス
  6
DOT
 10
98.6062
 20
-21.542882
 11
98.676913
 21
-21.613595
  0
LINE
  8
ボルト／ビス
  6
DOT
 10
99.45473
 20
-20.835778
 11
98.676913
 21
-21.613595
  0
LINE
  8
ボルト／ビス
  6
DOT
 10
99.277955
 20
-20.800422
 11
99.313307
 21
-20.835775
  0
LINE
  8
ボルト／ビス
  6
DOT
 10
99.277955
 20
-20.800422
 11
98.641558
 21
-21.436817
  0
LINE
  8
ボルト／ビス
  6
DOT
 10
98.641558
 20
-21.436817
 11
98.676913
 21
-21.47217
  0
LINE
  8
ボルト／ビス
  6
DOT
 62
    64
 10
98.917727
 20
-20.736385
 11
98.96413
 21
-20.714747
  0
ARC
  8
ボルト／ビス
  6
DOT
 62
    64
 10
99.012065
 20
-20.864742
 40
0.157468
 50
135.0
 51
162.278033
  0
ARC
  8
ボルト／ビス
  6
DOT
 62
    64
 10
99.174438
 20
-21.333301
 40
0.603603
 50
121.165015
 51
148.834998
  0
LINE
  8
ボルト／ビス
  6
DOT
 62
    64
 10
98.57752
 20
-21.07659
 11
98.555883
 21
-21.122995
  0
ARC
  8
ボルト／ビス
  6
DOT
 62
    64
 10
98.705879
 20
-21.170928
 40
0.157468
 50
107.721967
 51
135.0
  0
LINE
  8
ボルト／ビス
  6
DOT
 62
    64
 10
98.917727
 20
-20.736385
 11
98.57752
 21
-21.07659
  0
LINE
  8
ボルト／ビス
  6
DOT
 62
    64
 10
98.555883
 20
-21.122995
 11
98.68492
 21
-21.25203
  0
LINE
  8
ボルト／ビス
  6
DOT
 62
    64
 10
98.657945
 20
-21.020932
 11
98.786982
 21
-21.14997
  0
LINE
  8
ボルト／ビス
  6
DOT
 62
    64
 10
98.96413
 20
-20.714747
 11
99.093167
 21
-20.843782
  0
LINE
  8
ボルト／ビス
  6
DOT
 62
    64
 10
98.86207
 20
-20.816807
 11
98.991105
 21
-20.945845
  0
LINE
  8
ボルト／ビス
  6
DOT
 10
99.093167
 20
-20.843782
 11
98.68492
 21
-21.25203
  0
LINE
  8
ボルト／ビス
  6
DOT
 10
99.101175
 20
-20.835775
 11
99.171888
 21
-20.906488
  0
LINE
  8
ボルト／ビス
  6
DOT
 10
99.101175
 20
-20.835775
 11
98.676913
 21
-21.26004
  0
LINE
  8
ボルト／ビス
  6
DOT
 10
98.676913
 20
-21.26004
 11
98.747625
 21
-21.330753
  0
ENDBLK
  0
ENDSEC
  0
SECTION
  2
ENTITIES
  0
POLYLINE
  8
通り芯
  6
CONTINUOUS
 66
     1
 70
     1
  0
VERTEX
  8
通り芯
 10
-210.0
 20
-148.5
  0
VERTEX
  8
通り芯
 10
210.0
 20
-148.5
  0
VERTEX
  8
通り芯
 10
210.0
 20
148.5
  0
VERTEX
  8
通り芯
 10
-210.0
 20
148.5
  0
SEQEND
  0
INSERT
  2
*GRP_0001
  8
型材断面
  6
CONTINUOUS
 10
0.0
 20
0.0
  0
LINE
  8
型材断面
  6
DASHDOT
 10
-30.755937
 20
-85.083888
 11
-30.755937
 21
59.370383
  0
LINE
  8
型材断面
  6
DASHDOT
 10
-95.755937
 20
-85.083888
 11
-95.755937
 21
59.370383
  0
LINE
  8
型材断面
  6
CONTINUOUS
 10
-22.732063
 20
26.870383
 11
-18.846303
 21
24.626937
  0
LINE
  8
型材断面
  6
CONTINUOUS
 10
-22.732063
 20
26.870383
 11
-18.846303
 21
29.113827
  0
LINE
  8
型材断面
  6
CONTINUOUS
 10
-18.846303
 20
29.113827
 11
-18.846303
 21
24.626937
  0
LINE
  8
型材断面
  6
CONTINUOUS
 10
-63.255937
 20
67.394257
 11
-65.499382
 21
71.280018
  0
LINE
  8
型材断面
  6
CONTINUOUS
 10
-63.255937
 20
67.394257
 11
-61.012493
 21
71.280018
  0
LINE
  8
型材断面
  6
CONTINUOUS
 10
-61.012493
 20
71.280018
 11
-65.499382
 21
71.280018
  0
LINE
  8
型材断面
  6
CONTINUOUS
 10
-63.255937
 20
-13.653492
 11
-65.499382
 21
-17.539253
  0
LINE
  8
型材断面
  6
CONTINUOUS
 10
-63.255937
 20
-13.653492
 11
-61.012493
 21
-17.539253
  0
LINE
  8
型材断面
  6
CONTINUOUS
 10
-61.012493
 20
-17.539253
 11
-65.499382
 21
-17.539253
  0
LINE
  8
型材断面
  6
CONTINUOUS
 10
-103.779813
 20
26.870383
 11
-107.665572
 21
24.626937
  0
LINE
  8
型材断面
  6
CONTINUOUS
 10
-103.779813
 20
26.870383
 11
-107.665572
 21
29.113827
  0
LINE
  8
型材断面
  6
CONTINUOUS
 10
-107.665572
 20
29.113827
 11
-107.665572
 21
24.626937
  0
LINE
  8
型材断面
  6
CONTINUOUS
 10
4.930422
 20
-11.415415
 11
2.686977
 21
-15.301175
  0
LINE
  8
型材断面
  6
CONTINUOUS
 10
4.930422
 20
-11.415415
 11
7.173868
 21
-15.301175
  0
LINE
  8
型材断面
  6
CONTINUOUS
 10
7.173868
 20
-15.301175
 11
2.686977
 21
-15.301175
  0
LINE
  8
型材断面
  6
CONTINUOUS
 10
4.930422
 20
-19.104962
 11
5.824508
 21
-22.990722
  0
LINE
  8
型材断面
  6
CONTINUOUS
 10
4.930422
 20
-19.104962
 11
4.036338
 21
-22.990722
  0
LINE
  8
型材断面
  6
CONTINUOUS
 10
4.036338
 20
-22.990722
 11
5.824508
 21
-22.990722
  0
LINE
  8
型材断面
  6
CONTINUOUS
 10
-4.103457
 20
-16.709068
 11
48.553223
 21
-16.709068
  0
LINE
  8
型材断面
  6
CONTINUOUS
 10
-4.103457
 20
-27.90906
 11
48.553223
 21
-27.90906
  0
LINE
  8
型材断面
  6
CONTINUOUS
 10
-4.103457
 20
-34.749005
 11
48.553223
 21
-34.749005
  0
LINE
  8
型材断面
  6
DASHDOT
 10
-63.255937
 20
-85.083888
 11
-63.255937
 21
59.370383
  0
LINE
  8
型材断面
  6
DASHDOT
 10
-95.755937
 20
26.870383
 11
-30.755937
 21
26.870383
  0
LINE
  8
型材断面
  6
DASHDOT
 10
-95.755937
 20
59.370383
 11
-30.755937
 21
59.370383
  0
LINE
  8
型材断面
  6
DASHDOT
 10
-95.755937
 20
-5.629618
 11
-30.755937
 21
-5.629618
  0
LINE
  8
型材断面
  6
CONTINUOUS
 10
-22.73206
 20
56.370383
 11
-18.8463
 21
55.476297
  0
LINE
  8
型材断面
  6
CONTINUOUS
 10
-22.73206
 20
56.370383
 11
-18.8463
 21
57.264467
  0
LINE
  8
型材断面
  6
CONTINUOUS
 10
-18.8463
 20
57.264467
 11
-18.8463
 21
55.476297
  0
LINE
  8
型材断面
  6
CONTINUOUS
 10
-22.73206
 20
-2.629618
 11
-18.8463
 21
-1.735533
  0
LINE
  8
型材断面
  6
CONTINUOUS
 10
-22.73206
 20
-2.629618
 11
-18.8463
 21
-3.523703
  0
LINE
  8
型材断面
  6
CONTINUOUS
 10
-18.8463
 20
-3.523703
 11
-18.8463
 21
-1.735533
  0
POLYLINE
  8
型材断面
  6
CONTINUOUS
 66
     1
 70
     1
  0
VERTEX
  8
型材断面
 10
-105.594575
 20
-72.018157
  0
VERTEX
  8
型材断面
 10
-119.190585
 20
-72.018157
  0
VERTEX
  8
型材断面
 10
-119.190585
 20
-77.311685
  0
VERTEX
  8
型材断面
 10
-105.594575
 20
-77.311685
  0
SEQEND
  0
LINE
  8
型材断面
  6
CONTINUOUS
 62
    47
 10
-97.740938
 20
-72.48007
 11
-97.755937
 21
-72.46507
  0
LINE
  8
型材断面
  6
CONTINUOUS
 62
    47
 10
-97.740938
 20
-72.48007
 11
-97.755937
 21
-72.49507
  0
LINE
  8
型材断面
  6
CONTINUOUS
 62
    47
 10
-97.740938
 20
-73.443418
 11
-97.755937
 21
-73.428417
  0
LINE
  8
型材断面
  6
CONTINUOUS
 62
    47
 10
-97.740938
 20
-73.443418
 11
-97.755937
 21
-73.458417
  0
LINE
  8
型材断面
  6
CONTINUOUS
 62
    47
 10
-97.755937
 20
-74.07007
 11
-97.755937
 21
-73.458417
  0
LINE
  8
型材断面
  6
CONTINUOUS
 62
    47
 10
-97.755937
 20
-73.428417
 11
-97.755937
 21
-72.49507
  0
LINE
  8
型材断面
  6
CONTINUOUS
 62
    47
 10
-97.755937
 20
-72.46507
 11
-97.755937
 21
-71.420042
  0
LINE
  8
型材断面
  6
CONTINUOUS
 62
    47
 10
-99.65615
 20
-74.169557
 11
-99.65615
 21
-74.4195
  0
LINE
  8
型材断面
  6
CONTINUOUS
 62
    47
 10
-97.441147
 20
-75.770065
 11
-97.456148
 21
-75.755065
  0
LINE
  8
型材断面
  6
CONTINUOUS
 62
    47
 10
-97.441147
 20
-75.770065
 11
-97.456148
 21
-75.785065
  0
LINE
  8
型材断面
  6
CONTINUOUS
 62
    47
 10
-97.441147
 20
-76.470075
 11
-97.456148
 21
-76.455075
  0
LINE
  8
型材断面
  6
CONTINUOUS
 62
    47
 10
-97.441147
 20
-76.470075
 11
-97.456148
 21
-76.485075
  0
LINE
  8
型材断面
  6
CONTINUOUS
 62
    47
 10
-97.456148
 20
-74.820038
 11
-97.456148
 21
-75.755065
  0
LINE
  8
型材断面
  6
CONTINUOUS
 62
    47
 10
-97.456148
 20
-75.785065
 11
-97.456148
 21
-76.455075
  0
LINE
  8
型材断面
  6
CONTINUOUS
 62
    47
 10
-100.756148
 20
-77.67005
 11
-100.756148
 21
-78.420053
  0
LINE
  8
型材断面
  6
CONTINUOUS
 62
    47
 10
-100.00616
 20
-78.92005
 11
-100.00616
 21
-78.420053
  0
LINE
  8
型材断面
  6
CONTINUOUS
 62
    47
 10
-100.756148
 20
-77.67005
 11
-97.456148
 21
-77.42005
  0
LINE
  8
型材断面
  6
CONTINUOUS
 62
    47
 10
-96.355935
 20
-77.42005
 11
-97.356148
 21
-77.42005
  0
LINE
  8
型材断面
  6
CONTINUOUS
 62
    47
 10
-97.441147
 20
-77.27005
 11
-97.456148
 21
-77.25505
  0
LINE
  8
型材断面
  6
CONTINUOUS
 62
    47
 10
-97.441147
 20
-77.27005
 11
-97.456148
 21
-77.28505
  0
LINE
  8
型材断面
  6
CONTINUOUS
 62
    47
 10
-97.456148
 20
-77.42005
 11
-97.456148
 21
-77.28505
  0
LINE
  8
型材断面
  6
CONTINUOUS
 62
    47
 10
-97.456148
 20
-76.485075
 11
-97.456148
 21
-77.25505
  0
LINE
  8
型材断面
  6
CONTINUOUS
 62
    47
 10
-99.656148
 20
-74.820038
 11
-99.656148
 21
-74.620063
  0
LINE
  8
型材断面
  6
CONTINUOUS
 62
    47
 10
-97.755937
 20
-74.07007
 11
-99.65615
 21
-74.169557
  0
LINE
  8
型材断面
  6
CONTINUOUS
 62
    47
 10
-97.350953
 20
-71.420042
 11
-97.350953
 21
-71.069873
  0
LINE
  8
型材断面
  6
CONTINUOUS
 62
    47
 10
-97.755937
 20
-71.420042
 11
-63.255937
 21
-71.420042
  0
LINE
  8
型材断面
  6
CONTINUOUS
 10
-97.755937
 20
-74.07007
 11
-63.255937
 21
-74.07007
  0
LINE
  8
型材断面
  6
CONTINUOUS
 10
-99.65615
 20
-74.169557
 11
-63.255937
 21
-74.169557
  0
LINE
  8
型材断面
  6
CONTINUOUS
 62
    47
 10
-99.656148
 20
-74.620063
 11
-63.255937
 21
-74.620063
  0
LINE
  8
型材断面
  6
CONTINUOUS
 62
    47
 10
-99.656148
 20
-74.820038
 11
-63.255937
 21
-74.820038
  0
LINE
  8
型材断面
  6
CONTINUOUS
 62
    47
 10
-99.65615
 20
-74.4195
 11
-63.255937
 21
-74.4195
  0
LINE
  8
型材断面
  6
CONTINUOUS
 10
-97.456148
 20
-77.42005
 11
-63.255937
 21
-77.42005
  0
LINE
  8
型材断面
  6
CONTINUOUS
 10
-100.756148
 20
-77.67005
 11
-63.255937
 21
-77.67005
  0
LINE
  8
型材断面
  6
CONTINUOUS
 62
    47
 10
-100.756148
 20
-78.420053
 11
-63.255937
 21
-78.420053
  0
LINE
  8
型材断面
  6
CONTINUOUS
 62
    47
 10
-100.00616
 20
-78.92005
 11
-63.255937
 21
-78.92005
  0
LINE
  8
型材断面
  6
CONTINUOUS
 62
    47
 10
-28.770938
 20
-72.48007
 11
-28.755937
 21
-72.46507
  0
LINE
  8
型材断面
  6
CONTINUOUS
 62
    47
 10
-28.770938
 20
-72.48007
 11
-28.755937
 21
-72.49507
  0
LINE
  8
型材断面
  6
CONTINUOUS
 62
    47
 10
-28.770938
 20
-73.443418
 11
-28.755937
 21
-73.428417
  0
LINE
  8
型材断面
  6
CONTINUOUS
 62
    47
 10
-28.770938
 20
-73.443418
 11
-28.755937
 21
-73.458417
  0
LINE
  8
型材断面
  6
CONTINUOUS
 62
    47
 10
-28.755937
 20
-74.07007
 11
-28.755937
 21
-73.458417
  0
LINE
  8
型材断面
  6
CONTINUOUS
 62
    47
 10
-28.755937
 20
-73.428417
 11
-28.755937
 21
-72.49507
  0
LINE
  8
型材断面
  6
CONTINUOUS
 62
    47
 10
-28.755937
 20
-72.46507
 11
-28.755937
 21
-71.420042
  0
LINE
  8
型材断面
  6
CONTINUOUS
 62
    47
 10
-26.855725
 20
-74.169557
 11
-26.855725
 21
-74.4195
  0
LINE
  8
型材断面
  6
CONTINUOUS
 62
    47
 10
-29.070727
 20
-75.770065
 11
-29.055728
 21
-75.755065
  0
LINE
  8
型材断面
  6
CONTINUOUS
 62
    47
 10
-29.070727
 20
-75.770065
 11
-29.055728
 21
-75.785065
  0
LINE
  8
型材断面
  6
CONTINUOUS
 62
    47
 10
-29.070727
 20
-76.470075
 11
-29.055728
 21
-76.455075
  0
LINE
  8
型材断面
  6
CONTINUOUS
 62
    47
 10
-29.070727
 20
-76.470075
 11
-29.055728
 21
-76.485075
  0
LINE
  8
型材断面
  6
CONTINUOUS
 62
    47
 10
-29.055728
 20
-74.820038
 11
-29.055728
 21
-75.755065
  0
LINE
  8
型材断面
  6
CONTINUOUS
 62
    47
 10
-29.055728
 20
-75.785065
 11
-29.055728
 21
-76.455075
  0
LINE
  8
型材断面
  6
CONTINUOUS
 62
    47
 10
-25.755728
 20
-77.67005
 11
-25.755728
 21
-78.420053
  0
LINE
  8
型材断面
  6
CONTINUOUS
 62
    47
 10
-26.505715
 20
-78.92005
 11
-26.505715
 21
-78.420053
  0
LINE
  8
型材断面
  6
CONTINUOUS
 62
    47
 10
-25.755728
 20
-77.67005
 11
-29.055728
 21
-77.42005
  0
LINE
  8
型材断面
  6
CONTINUOUS
 62
    47
 10
-30.15594
 20
-77.42005
 11
-29.155728
 21
-77.42005
  0
LINE
  8
型材断面
  6
CONTINUOUS
 62
    47
 10
-29.070727
 20
-77.27005
 11
-29.055728
 21
-77.25505
  0
LINE
  8
型材断面
  6
CONTINUOUS
 62
    47
 10
-29.070727
 20
-77.27005
 11
-29.055728
 21
-77.28505
  0
LINE
  8
型材断面
  6
CONTINUOUS
 62
    47
 10
-29.055728
 20
-77.42005
 11
-29.055728
 21
-77.28505
  0
LINE
  8
型材断面
  6
CONTINUOUS
 62
    47
 10
-29.055728
 20
-76.485075
 11
-29.055728
 21
-77.25505
  0
LINE
  8
型材断面
  6
CONTINUOUS
 62
    47
 10
-26.855728
 20
-74.820038
 11
-26.855728
 21
-74.620063
  0
LINE
  8
型材断面
  6
CONTINUOUS
 62
    47
 10
-28.755937
 20
-74.07007
 11
-26.855725
 21
-74.169557
  0
LINE
  8
型材断面
  6
CONTINUOUS
 62
    47
 10
-29.160923
 20
-71.420042
 11
-29.160923
 21
-71.069873
  0
LINE
  8
型材断面
  6
CONTINUOUS
 62
    47
 10
-28.755937
 20
-71.420042
 11
-63.255937
 21
-71.420042
  0
LINE
  8
型材断面
  6
CONTINUOUS
 10
-28.755937
 20
-74.07007
 11
-63.255937
 21
-74.07007
  0
LINE
  8
型材断面
  6
CONTINUOUS
 10
-26.855725
 20
-74.169557
 11
-63.255937
 21
-74.169557
  0
LINE
  8
型材断面
  6
CONTINUOUS
 62
    47
 10
-26.855728
 20
-74.620063
 11
-63.255937
 21
-74.620063
  0
LINE
  8
型材断面
  6
CONTINUOUS
 62
    47
 10
-26.855728
 20
-74.820038
 11
-63.255937
 21
-74.820038
  0
LINE
  8
型材断面
  6
CONTINUOUS
 62
    47
 10
-26.855725
 20
-74.4195
 11
-63.255937
 21
-74.4195
  0
LINE
  8
型材断面
  6
CONTINUOUS
 10
-29.055728
 20
-77.42005
 11
-63.255937
 21
-77.42005
  0
LINE
  8
型材断面
  6
CONTINUOUS
 10
-25.755728
 20
-77.67005
 11
-63.255937
 21
-77.67005
  0
LINE
  8
型材断面
  6
CONTINUOUS
 62
    47
 10
-25.755728
 20
-78.420053
 11
-63.255937
 21
-78.420053
  0
LINE
  8
型材断面
  6
CONTINUOUS
 62
    47
 10
-26.505715
 20
-78.92005
 11
-63.255937
 21
-78.92005
  0
LINE
  8
型材断面
  6
CONTINUOUS
 10
-27.655937
 20
-8.729618
 11
-25.755728
 21
-10.629828
  0
LINE
  8
型材断面
  6
CONTINUOUS
 10
-26.855728
 20
-9.529828
 11
-26.855728
 21
26.870383
  0
LINE
  8
型材断面
  6
CONTINUOUS
 10
-25.755728
 20
-10.629828
 11
-25.755728
 21
26.870383
  0
LINE
  8
型材断面
  6
CONTINUOUS
 10
-26.855728
 20
-9.529828
 11
-63.255937
 21
-9.529828
  0
LINE
  8
型材断面
  6
CONTINUOUS
 10
-25.755728
 20
-10.629828
 11
-63.255937
 21
-10.629828
  0
LINE
  8
型材断面
  6
CONTINUOUS
 10
-27.655937
 20
62.470383
 11
-25.755728
 21
64.370593
  0
LINE
  8
型材断面
  6
CONTINUOUS
 10
-26.855728
 20
63.270593
 11
-26.855728
 21
26.870383
  0
LINE
  8
型材断面
  6
CONTINUOUS
 10
-25.755728
 20
64.370593
 11
-25.755728
 21
26.870383
  0
LINE
  8
型材断面
  6
CONTINUOUS
 10
-26.855728
 20
63.270593
 11
-63.255937
 21
63.270593
  0
LINE
  8
型材断面
  6
CONTINUOUS
 10
-25.755728
 20
64.370593
 11
-63.255937
 21
64.370593
  0
LINE
  8
型材断面
  6
CONTINUOUS
 10
-98.855937
 20
62.470383
 11
-100.756148
 21
64.370593
  0
LINE
  8
型材断面
  6
CONTINUOUS
 10
-99.656148
 20
63.270593
 11
-99.656148
 21
26.870383
  0
LINE
  8
型材断面
  6
CONTINUOUS
 10
-100.756148
 20
64.370593
 11
-100.756148
 21
26.870383
  0
LINE
  8
型材断面
  6
CONTINUOUS
 10
-99.656148
 20
63.270593
 11
-63.255937
 21
63.270593
  0
LINE
  8
型材断面
  6
CONTINUOUS
 10
-100.756148
 20
64.370593
 11
-63.255937
 21
64.370593
  0
LINE
  8
型材断面
  6
CONTINUOUS
 10
-98.855937
 20
-8.729618
 11
-100.756148
 21
-10.629828
  0
LINE
  8
型材断面
  6
CONTINUOUS
 10
-99.656148
 20
-9.529828
 11
-99.656148
 21
26.870383
  0
LINE
  8
型材断面
  6
CONTINUOUS
 10
-100.756148
 20
-10.629828
 11
-100.756148
 21
26.870383
  0
LINE
  8
型材断面
  6
CONTINUOUS
 10
-99.656148
 20
-9.529828
 11
-63.255937
 21
-9.529828
  0
LINE
  8
型材断面
  6
CONTINUOUS
 10
-100.756148
 20
-10.629828
 11
-63.255937
 21
-10.629828
  0
LINE
  8
型材断面
  6
CONTINUOUS
 62
    47
 10
55.18619
 20
-72.48007
 11
55.17119
 21
-72.46507
  0
LINE
  8
型材断面
  6
CONTINUOUS
 62
    47
 10
55.18619
 20
-72.48007
 11
55.17119
 21
-72.49507
  0
LINE
  8
型材断面
  6
CONTINUOUS
 62
    47
 10
55.18619
 20
-73.443418
 11
55.17119
 21
-73.428417
  0
LINE
  8
型材断面
  6
CONTINUOUS
 62
    47
 10
55.18619
 20
-73.443418
 11
55.17119
 21
-73.458417
  0
LINE
  8
型材断面
  6
CONTINUOUS
 62
    47
 10
55.17119
 20
-74.07007
 11
55.17119
 21
-73.458417
  0
LINE
  8
型材断面
  6
CONTINUOUS
 62
    47
 10
55.17119
 20
-73.428417
 11
55.17119
 21
-72.49507
  0
LINE
  8
型材断面
  6
CONTINUOUS
 62
    47
 10
55.17119
 20
-72.46507
 11
55.17119
 21
-71.420042
  0
LINE
  8
型材断面
  6
CONTINUOUS
 62
    47
 10
53.270977
 20
-74.169557
 11
53.270977
 21
-74.4195
  0
LINE
  8
型材断面
  6
CONTINUOUS
 62
    47
 10
55.48598
 20
-75.770065
 11
55.47098
 21
-75.755065
  0
LINE
  8
型材断面
  6
CONTINUOUS
 62
    47
 10
55.48598
 20
-75.770065
 11
55.47098
 21
-75.785065
  0
LINE
  8
型材断面
  6
CONTINUOUS
 62
    47
 10
55.48598
 20
-76.470075
 11
55.47098
 21
-76.455075
  0
LINE
  8
型材断面
  6
CONTINUOUS
 62
    47
 10
55.48598
 20
-76.470075
 11
55.47098
 21
-76.485075
  0
LINE
  8
型材断面
  6
CONTINUOUS
 62
    47
 10
55.47098
 20
-74.820038
 11
55.47098
 21
-75.755065
  0
LINE
  8
型材断面
  6
CONTINUOUS
 62
    47
 10
55.47098
 20
-75.785065
 11
55.47098
 21
-76.455075
  0
LINE
  8
型材断面
  6
CONTINUOUS
 62
    47
 10
52.17098
 20
-77.67005
 11
52.17098
 21
-78.420053
  0
LINE
  8
型材断面
  6
CONTINUOUS
 62
    47
 10
52.920968
 20
-78.92005
 11
52.920968
 21
-78.420053
  0
LINE
  8
型材断面
  6
CONTINUOUS
 62
    47
 10
52.17098
 20
-77.67005
 11
55.47098
 21
-77.42005
  0
LINE
  8
型材断面
  6
CONTINUOUS
 62
    47
 10
56.571192
 20
-77.42005
 11
55.57098
 21
-77.42005
  0
LINE
  8
型材断面
  6
CONTINUOUS
 62
    47
 10
55.48598
 20
-77.27005
 11
55.47098
 21
-77.25505
  0
LINE
  8
型材断面
  6
CONTINUOUS
 62
    47
 10
55.48598
 20
-77.27005
 11
55.47098
 21
-77.28505
  0
LINE
  8
型材断面
  6
CONTINUOUS
 62
    47
 10
55.47098
 20
-77.42005
 11
55.47098
 21
-77.28505
  0
LINE
  8
型材断面
  6
CONTINUOUS
 62
    47
 10
55.47098
 20
-76.485075
 11
55.47098
 21
-77.25505
  0
LINE
  8
型材断面
  6
CONTINUOUS
 62
    47
 10
53.27098
 20
-74.820038
 11
53.27098
 21
-74.620063
  0
LINE
  8
型材断面
  6
CONTINUOUS
 62
    47
 10
55.17119
 20
-74.07007
 11
53.270977
 21
-74.169557
  0
LINE
  8
型材断面
  6
CONTINUOUS
 62
    47
 10
55.576175
 20
-71.420042
 11
55.576175
 21
-71.069873
  0
LINE
  8
型材断面
  6
CONTINUOUS
 62
    47
 10
55.17119
 20
-71.420042
 11
89.67119
 21
-71.420042
  0
LINE
  8
型材断面
  6
CONTINUOUS
 10
55.17119
 20
-74.07007
 11
89.67119
 21
-74.07007
  0
LINE
  8
型材断面
  6
CONTINUOUS
 10
53.270977
 20
-74.169557
 11
89.67119
 21
-74.169557
  0
LINE
  8
型材断面
  6
CONTINUOUS
 62
    47
 10
53.27098
 20
-74.620063
 11
89.67119
 21
-74.620063
  0
LINE
  8
型材断面
  6
CONTINUOUS
 62
    47
 10
53.27098
 20
-74.820038
 11
89.67119
 21
-74.820038
  0
LINE
  8
型材断面
  6
CONTINUOUS
 62
    47
 10
53.270977
 20
-74.4195
 11
89.67119
 21
-74.4195
  0
LINE
  8
型材断面
  6
CONTINUOUS
 10
55.47098
 20
-77.42005
 11
89.67119
 21
-77.42005
  0
LINE
  8
型材断面
  6
CONTINUOUS
 10
52.17098
 20
-77.67005
 11
89.67119
 21
-77.67005
  0
LINE
  8
型材断面
  6
CONTINUOUS
 62
    47
 10
52.17098
 20
-78.420053
 11
89.67119
 21
-78.420053
  0
LINE
  8
型材断面
  6
CONTINUOUS
 62
    47
 10
52.920968
 20
-78.92005
 11
89.67119
 21
-78.92005
  0
LINE
  8
型材断面
  6
CONTINUOUS
 62
    47
 10
124.15619
 20
-72.48007
 11
124.17119
 21
-72.46507
  0
LINE
  8
型材断面
  6
CONTINUOUS
 62
    47
 10
124.15619
 20
-72.48007
 11
124.17119
 21
-72.49507
  0
LINE
  8
型材断面
  6
CONTINUOUS
 62
    47
 10
124.15619
 20
-73.443418
 11
124.17119
 21
-73.428417
  0
LINE
  8
型材断面
  6
CONTINUOUS
 62
    47
 10
124.15619
 20
-73.443418
 11
124.17119
 21
-73.458417
  0
LINE
  8
型材断面
  6
CONTINUOUS
 62
    47
 10
124.17119
 20
-74.07007
 11
124.17119
 21
-73.458417
  0
LINE
  8
型材断面
  6
CONTINUOUS
 62
    47
 10
124.17119
 20
-73.428417
 11
124.17119
 21
-72.49507
  0
LINE
  8
型材断面
  6
CONTINUOUS
 62
    47
 10
124.17119
 20
-72.46507
 11
124.17119
 21
-71.420042
  0
LINE
  8
型材断面
  6
CONTINUOUS
 62
    47
 10
126.071402
 20
-74.169557
 11
126.071402
 21
-74.4195
  0
LINE
  8
型材断面
  6
CONTINUOUS
 62
    47
 10
123.8564
 20
-75.770065
 11
123.8714
 21
-75.755065
  0
LINE
  8
型材断面
  6
CONTINUOUS
 62
    47
 10
123.8564
 20
-75.770065
 11
123.8714
 21
-75.785065
  0
LINE
  8
型材断面
  6
CONTINUOUS
 62
    47
 10
123.8564
 20
-76.470075
 11
123.8714
 21
-76.455075
  0
LINE
  8
型材断面
  6
CONTINUOUS
 62
    47
 10
123.8564
 20
-76.470075
 11
123.8714
 21
-76.485075
  0
LINE
  8
型材断面
  6
CONTINUOUS
 62
    47
 10
123.8714
 20
-74.820038
 11
123.8714
 21
-75.755065
  0
LINE
  8
型材断面
  6
CONTINUOUS
 62
    47
 10
123.8714
 20
-75.785065
 11
123.8714
 21
-76.455075
  0
LINE
  8
型材断面
  6
CONTINUOUS
 62
    47
 10
127.1714
 20
-77.67005
 11
127.1714
 21
-78.420053
  0
LINE
  8
型材断面
  6
CONTINUOUS
 62
    47
 10
126.421413
 20
-78.92005
 11
126.421413
 21
-78.420053
  0
LINE
  8
型材断面
  6
CONTINUOUS
 62
    47
 10
127.1714
 20
-77.67005
 11
123.8714
 21
-77.42005
  0
LINE
  8
型材断面
  6
CONTINUOUS
 62
    47
 10
122.771188
 20
-77.42005
 11
123.7714
 21
-77.42005
  0
LINE
  8
型材断面
  6
CONTINUOUS
 62
    47
 10
123.8564
 20
-77.27005
 11
123.8714
 21
-77.25505
  0
LINE
  8
型材断面
  6
CONTINUOUS
 62
    47
 10
123.8564
 20
-77.27005
 11
123.8714
 21
-77.28505
  0
LINE
  8
型材断面
  6
CONTINUOUS
 62
    47
 10
123.8714
 20
-77.42005
 11
123.8714
 21
-77.28505
  0
LINE
  8
型材断面
  6
CONTINUOUS
 62
    47
 10
123.8714
 20
-76.485075
 11
123.8714
 21
-77.25505
  0
LINE
  8
型材断面
  6
CONTINUOUS
 62
    47
 10
126.0714
 20
-74.820038
 11
126.0714
 21
-74.620063
  0
LINE
  8
型材断面
  6
CONTINUOUS
 62
    47
 10
124.17119
 20
-74.07007
 11
126.071402
 21
-74.169557
  0
LINE
  8
型材断面
  6
CONTINUOUS
 62
    47
 10
123.766205
 20
-71.420042
 11
123.766205
 21
-71.069873
  0
LINE
  8
型材断面
  6
CONTINUOUS
 62
    47
 10
124.17119
 20
-71.420042
 11
89.67119
 21
-71.420042
  0
LINE
  8
型材断面
  6
CONTINUOUS
 10
124.17119
 20
-74.07007
 11
89.67119
 21
-74.07007
  0
LINE
  8
型材断面
  6
CONTINUOUS
 10
126.071402
 20
-74.169557
 11
89.67119
 21
-74.169557
  0
LINE
  8
型材断面
  6
CONTINUOUS
 62
    47
 10
126.0714
 20
-74.620063
 11
89.67119
 21
-74.620063
  0
LINE
  8
型材断面
  6
CONTINUOUS
 62
    47
 10
126.0714
 20
-74.820038
 11
89.67119
 21
-74.820038
  0
LINE
  8
型材断面
  6
CONTINUOUS
 62
    47
 10
126.071402
 20
-74.4195
 11
89.67119
 21
-74.4195
  0
LINE
  8
型材断面
  6
CONTINUOUS
 10
123.8714
 20
-77.42005
 11
89.67119
 21
-77.42005
  0
LINE
  8
型材断面
  6
CONTINUOUS
 10
127.1714
 20
-77.67005
 11
89.67119
 21
-77.67005
  0
LINE
  8
型材断面
  6
CONTINUOUS
 62
    47
 10
127.1714
 20
-78.420053
 11
89.67119
 21
-78.420053
  0
LINE
  8
型材断面
  6
CONTINUOUS
 62
    47
 10
126.421413
 20
-78.92005
 11
89.67119
 21
-78.92005
  0
LINE
  8
型材断面
  6
DOT
 62
    47
 10
53.050985
 20
-71.355163
 11
53.029773
 21
-71.355163
  0
LINE
  8
型材断面
  6
DOT
 62
    47
 10
53.050985
 20
-71.355163
 11
53.050985
 21
-71.376378
  0
LINE
  8
型材断面
  6
DOT
 62
    47
 10
53.732175
 20
-72.036352
 11
53.71096
 21
-72.036352
  0
LINE
  8
型材断面
  6
DOT
 62
    47
 10
53.732175
 20
-72.036352
 11
53.732175
 21
-72.057565
  0
LINE
  8
型材断面
  6
DOT
 62
    47
 10
54.164677
 20
-72.49007
 11
53.732175
 21
-72.057565
  0
LINE
  8
型材断面
  6
DOT
 62
    47
 10
53.71096
 20
-72.036352
 11
53.050985
 21
-71.376378
  0
LINE
  8
型材断面
  6
DOT
 62
    47
 10
53.029773
 20
-71.355163
 11
52.290825
 21
-70.616218
  0
LINE
  8
型材断面
  6
DOT
 62
    47
 10
52.891373
 20
-73.90407
 11
53.06811
 21
-74.080807
  0
LINE
  8
型材断面
  6
DOT
 62
    47
 10
54.164677
 20
-72.49007
 11
52.891373
 21
-73.90407
  0
LINE
  8
型材断面
  6
DOT
 62
    47
 10
52.577192
 20
-70.32985
 11
52.329585
 21
-70.082243
  0
LINE
  8
型材断面
  6
DOT
 62
    47
 10
52.290825
 20
-70.616218
 11
76.68601
 21
-46.221033
  0
LINE
  8
型材断面
  6
DOT
 10
54.164677
 20
-72.49007
 11
78.559863
 21
-48.094885
  0
LINE
  8
型材断面
  6
DOT
 10
52.891373
 20
-73.90407
 11
78.63021
 21
-48.165235
  0
LINE
  8
型材断面
  6
DOT
 62
    47
 10
53.06811
 20
-74.080807
 11
78.806945
 21
-48.34197
  0
LINE
  8
型材断面
  6
DOT
 62
    47
 10
101.82014
 20
-22.586007
 11
101.82014
 21
-22.564795
  0
LINE
  8
型材断面
  6
DOT
 62
    47
 10
101.82014
 20
-22.586007
 11
101.841353
 21
-22.586007
  0
LINE
  8
型材断面
  6
DOT
 62
    47
 10
102.50133
 20
-23.267198
 11
102.50133
 21
-23.245985
  0
LINE
  8
型材断面
  6
DOT
 62
    47
 10
102.50133
 20
-23.267198
 11
102.522543
 21
-23.267198
  0
LINE
  8
型材断面
  6
DOT
 62
    47
 10
102.955045
 20
-23.699702
 11
102.522543
 21
-23.267198
  0
LINE
  8
型材断面
  6
DOT
 62
    47
 10
102.50133
 20
-23.245985
 11
101.841353
 21
-22.586007
  0
LINE
  8
型材断面
  6
DOT
 62
    47
 10
101.82014
 20
-22.564795
 11
101.081193
 21
-21.82585
  0
LINE
  8
型材断面
  6
DOT
 62
    47
 10
104.369047
 20
-22.426397
 11
104.545782
 21
-22.603132
  0
LINE
  8
型材断面
  6
DOT
 62
    47
 10
102.955045
 20
-23.699702
 11
104.369047
 21
-22.426397
  0
LINE
  8
型材断面
  6
DOT
 62
    47
 10
100.794825
 20
-22.112218
 11
100.547218
 21
-21.86461
  0
LINE
  8
型材断面
  6
DOT
 62
    47
 10
101.081193
 20
-21.82585
 11
76.68601
 21
-46.221033
  0
LINE
  8
型材断面
  6
DOT
 10
102.955045
 20
-23.699702
 11
78.559863
 21
-48.094885
  0
LINE
  8
型材断面
  6
DOT
 10
104.369047
 20
-22.426397
 11
78.63021
 21
-48.165235
  0
LINE
  8
型材断面
  6
DOT
 62
    47
 10
104.545782
 20
-22.603132
 11
78.806945
 21
-48.34197
  0
ARC
  8
型材断面
  6
DASHDOT
 10
52.760705
 20
-74.495038
 40
73.310738
 50
360.059036
 51
405.059037
  0
LINE
  8
ガラス
  6
CONTINUOUS
 10
167.304785
 20
74.557477
 11
101.504785
 21
74.557477
  0
LINE
  8
ガラス
  6
CONTINUOUS
 10
101.504785
 20
74.557477
 11
101.504785
 21
8.757477
  0
LINE
  8
ガラス
  6
CONTINUOUS
 10
101.504785
 20
8.757477
 11
167.304785
 21
8.757477
  0
LINE
  8
ガラス
  6
CONTINUOUS
 10
167.304785
 20
74.557477
 11
167.304785
 21
8.757477
  0
CIRCLE
  8
ボルト／ビス
  6
CONTINUOUS
 10
-55.755937
 20
60.370383
 40
0.288675
  0
CIRCLE
  8
ボルト／ビス
  6
CONTINUOUS
 10
-55.755937
 20
60.370383
 40
0.455885
  0
CIRCLE
  8
ボルト／ビス
  6
CONTINUOUS
 10
-40.755937
 20
60.370383
 40
0.288675
  0
CIRCLE
  8
ボルト／ビス
  6
CONTINUOUS
 10
-40.755937
 20
60.370383
 40
0.455885
  0
CIRCLE
  8
ボルト／ビス
  6
CONTINUOUS
 10
-70.755937
 20
60.370383
 40
0.288675
  0
CIRCLE
  8
ボルト／ビス
  6
CONTINUOUS
 10
-70.755937
 20
60.370383
 40
0.455885
  0
CIRCLE
  8
ボルト／ビス
  6
CONTINUOUS
 10
-85.755937
 20
60.370383
 40
0.288675
  0
CIRCLE
  8
ボルト／ビス
  6
CONTINUOUS
 10
-85.755937
 20
60.370383
 40
0.455885
  0
CIRCLE
  8
ボルト／ビス
  6
CONTINUOUS
 10
-96.755935
 20
34.370385
 40
0.288675
  0
CIRCLE
  8
ボルト／ビス
  6
CONTINUOUS
 10
-96.755935
 20
34.370385
 40
0.455885
  0
CIRCLE
  8
ボルト／ビス
  6
CONTINUOUS
 10
-96.755935
 20
49.370385
 40
0.288675
  0
CIRCLE
  8
ボルト／ビス
  6
CONTINUOUS
 10
-96.755935
 20
49.370385
 40
0.455885
  0
CIRCLE
  8
ボルト／ビス
  6
CONTINUOUS
 10
-96.755935
 20
19.37038
 40
0.288675
  0
CIRCLE
  8
ボルト／ビス
  6
CONTINUOUS
 10
-96.755935
 20
19.37038
 40
0.455885
  0
CIRCLE
  8
ボルト／ビス
  6
CONTINUOUS
 10
-96.755935
 20
4.37038
 40
0.288675
  0
CIRCLE
  8
ボルト／ビス
  6
CONTINUOUS
 10
-96.755935
 20
4.37038
 40
0.455885
  0
CIRCLE
  8
ボルト／ビス
  6
CONTINUOUS
 10
-70.75594
 20
-6.629615
 40
0.288675
  0
CIRCLE
  8
ボルト／ビス
  6
CONTINUOUS
 10
-70.75594
 20
-6.629615
 40
0.455885
  0
CIRCLE
  8
ボルト／ビス
  6
CONTINUOUS
 10
-85.75594
 20
-6.629615
 40
0.288675
  0
CIRCLE
  8
ボルト／ビス
  6
CONTINUOUS
 10
-85.75594
 20
-6.629615
 40
0.455885
  0
CIRCLE
  8
ボルト／ビス
  6
CONTINUOUS
 10
-55.755935
 20
-6.629615
 40
0.288675
  0
CIRCLE
  8
ボルト／ビス
  6
CONTINUOUS
 10
-55.755935
 20
-6.629615
 40
0.455885
  0
CIRCLE
  8
ボルト／ビス
  6
CONTINUOUS
 10
-40.755935
 20
-6.629615
 40
0.288675
  0
CIRCLE
  8
ボルト／ビス
  6
CONTINUOUS
 10
-40.755935
 20
-6.629615
 40
0.455885
  0
CIRCLE
  8
ボルト／ビス
  6
CONTINUOUS
 10
-29.755937
 20
19.370383
 40
0.288675
  0
CIRCLE
  8
ボルト／ビス
  6
CONTINUOUS
 10
-29.755937
 20
19.370383
 40
0.455885
  0
CIRCLE
  8
ボルト／ビス
  6
CONTINUOUS
 10
-29.755937
 20
4.370383
 40
0.288675
  0
CIRCLE
  8
ボルト／ビス
  6
CONTINUOUS
 10
-29.755937
 20
4.370383
 40
0.455885
  0
CIRCLE
  8
ボルト／ビス
  6
CONTINUOUS
 10
-29.755937
 20
34.370383
 40
0.288675
  0
CIRCLE
  8
ボルト／ビス
  6
CONTINUOUS
 10
-29.755937
 20
34.370383
 40
0.455885
  0
CIRCLE
  8
ボルト／ビス
  6
CONTINUOUS
 10
-29.755937
 20
49.370383
 40
0.288675
  0
CIRCLE
  8
ボルト／ビス
  6
CONTINUOUS
 10
-29.755937
 20
49.370383
 40
0.455885
  0
TEXT
  7
TextStyle03
  8
文字
  6
CONTINUOUS
 10
9.175
 20
-14.975
  1
は排水穴位置を示す
 40
3.0
 72
     5
 11
39.175
 21
-14.975
  0
INSERT
  2
*GRP_0004
  8
文字
  6
CONTINUOUS
 10
0.0
 20
0.0
  0
INSERT
  2
*GRP_0006
  8
文字
  6
CONTINUOUS
 10
0.0
 20
0.0
  0
INSERT
  2
*GRP_0008
  8
文字
  6
CONTINUOUS
 10
0.0
 20
0.0
  0
INSERT
  2
*GRP_0009
  8
文字
  6
CONTINUOUS
 10
0.0
 20
0.0
  0
INSERT
  2
*GRP_0012
  8
文字
  6
CONTINUOUS
 10
0.0
 20
0.0
  0
INSERT
  2
*GRP_0013
  8
文字
  6
CONTINUOUS
 10
0.0
 20
0.0
  0
INSERT
  2
*GRP_0016
  8
文字
  6
CONTINUOUS
 10
0.0
 20
0.0
  0
INSERT
  2
*GRP_0017
  8
文字
  6
CONTINUOUS
 10
0.0
 20
0.0
  0
INSERT
  2
*GRP_0020
  8
文字
  6
CONTINUOUS
 10
0.0
 20
0.0
  0
INSERT
  2
*GRP_0021
  8
文字
  6
CONTINUOUS
 10
0.0
 20
0.0
  0
INSERT
  2
*GRP_0024
  8
文字
  6
CONTINUOUS
 10
0.0
 20
0.0
  0
INSERT
  2
*GRP_0025
  8
文字
  6
CONTINUOUS
 10
0.0
 20
0.0
  0
INSERT
  2
*GRP_0028
  8
文字
  6
CONTINUOUS
 10
0.0
 20
0.0
  0
INSERT
  2
*GRP_0029
  8
文字
  6
CONTINUOUS
 10
0.0
 20
0.0
  0
INSERT
  2
*GRP_0032
  8
文字
  6
CONTINUOUS
 10
0.0
 20
0.0
  0
INSERT
  2
*GRP_0033
  8
文字
  6
CONTINUOUS
 10
0.0
 20
0.0
  0
TEXT
  7
TextStyle03
  8
文字
  6
CONTINUOUS
 10
9.175
 20
-22.825
  1
はケーシング位置を示す
 40
3.0
 72
     5
 11
45.925
 21
-22.825
  0
TEXT
  7
TextStyle03
  8
文字
  6
CONTINUOUS
 10
9.175
 20
-26.2
  1
２ヶ所中1ヶ所に設定
 40
3.0
 72
     5
 11
40.8625
 21
-26.2
  0
TEXT
  7
TextStyle03
  8
文字
  6
CONTINUOUS
 10
-117.55
 20
-76.025
  1
丁番側
 40
3.0
 72
     5
 11
-107.8
 21
-76.025
  0
TEXT
  7
TextStyle03
  8
文字
  6
CONTINUOUS
 10
125.65
 20
-51.0
  1
45°
 40
3.0
 72
     5
 11
132.025
 21
-51.0
  0
TEXT
  7
TextStyle03
  8
文字
  6
CONTINUOUS
 10
3.575
 20
-33.35
  1
アンカー数量　８ヶ所
 40
3.0
 72
     5
 11
36.95
 21
-33.35
  0
TEXT
  7
TextStyle03
  8
文字
  6
CONTINUOUS
 10
-110.25
 20
86.3
  1
アンカーピッチ
 40
3.0
 72
     5
 11
-87.0
 21
86.3
  0
TEXT
  7
TextStyle03
  8
文字
  6
CONTINUOUS
 10
-127.25
 20
-16.5
  1
アンカーピッチ
 40
3.0
 50
90.0
 72
     5
 11
-127.25
 21
6.75
  0
TEXT
  7
TextStyle03
  8
文字
  6
CONTINUOUS
 10
84.8
 20
93.475
  1
ＮＳコード：ＮＳＨＺ
 40
5.0
 72
     5
 11
140.425
 21
93.475
  0
TEXT
  7
TextStyle03
  8
文字
  6
CONTINUOUS
 10
146.1
 20
18.8
  1
網入り6.8t
 40
3.0
 72
     5
 11
162.7875
 21
18.8
  0
TEXT
  7
TextStyle03
  8
文字
  6
CONTINUOUS
 10
152.725
 20
13.55
  1
×１枚
 40
3.0
 72
     5
 11
162.475
 21
13.55
  0
TEXT
  7
TextStyle03
  8
文字
  6
CONTINUOUS
 10
84.675
 20
115.775
  1
シリーズ：ＴＤ２Ｈ
 40
5.0
 72
     5
 11
134.675
 21
115.775
  0
TEXT
  7
TextStyle03
  8
文字
  6
CONTINUOUS
 10
84.675
 20
110.15
  1
　　　　　（片側開閉）1300×1300タイプ
 40
5.0
 72
     5
 11
190.925
 21
110.15
  0
TEXT
  7
TextStyle03
  8
文字
  6
CONTINUOUS
 10
84.675
 20
104.525
  1
図面名　：外観姿図
 40
5.0
 72
     5
 11
134.675
 21
104.525
  0
TEXT
  7
TextStyle03
  8
文字
  6
CONTINUOUS
 10
84.675
 20
98.9
  1
　　　　　　
 40
5.0
 72
     5
 11
117.8
 21
98.9
  0
INSERT
  2
*DIM_0002
  8
寸法
  6
CONTINUOUS
 10
0.0
 20
0.0
  0
INSERT
  2
*DIM_0003
  8
寸法
  6
CONTINUOUS
 10
0.0
 20
0.0
  0
INSERT
  2
*DIM_0036
  8
寸法
  6
CONTINUOUS
 10
0.0
 20
0.0
  0
INSERT
  2
*DIM_0037
  8
寸法
  6
CONTINUOUS
 10
0.0
 20
0.0
  0
INSERT
  2
*DIM_0038
  8
寸法
  6
CONTINUOUS
 10
0.0
 20
0.0
  0
INSERT
  2
*DIM_0040
  8
寸法
  6
CONTINUOUS
 10
0.0
 20
0.0
  0
INSERT
  2
*DIM_0041
  8
寸法
  6
CONTINUOUS
 10
0.0
 20
0.0
  0
INSERT
  2
*DIM_0043
  8
寸法
  6
CONTINUOUS
 10
0.0
 20
0.0
  0
INSERT
  2
*DIM_0044
  8
寸法
  6
CONTINUOUS
 10
0.0
 20
0.0
  0
INSERT
  2
*DIM_0045
  8
寸法
  6
CONTINUOUS
 10
0.0
 20
0.0
  0
INSERT
  2
*DIM_0046
  8
寸法
  6
CONTINUOUS
 10
0.0
 20
0.0
  0
LINE
  8
別途部材
  6
CONTINUOUS
 10
-98.255937
 20
26.870383
 11
-98.255937
 21
-8.129618
  0
LINE
  8
別途部材
  6
CONTINUOUS
 10
-63.255935
 20
-8.129618
 11
-98.255937
 21
-8.129618
  0
LINE
  8
別途部材
  6
CONTINUOUS
 10
-98.855937
 20
26.870383
 11
-98.855937
 21
-8.729618
  0
LINE
  8
別途部材
  6
CONTINUOUS
 10
-63.255935
 20
-8.729618
 11
-98.855937
 21
-8.729618
  0
LINE
  8
別途部材
  6
CONTINUOUS
 10
-98.855937
 20
-8.729618
 11
-98.255937
 21
-8.129618
  0
LINE
  8
別途部材
  6
CONTINUOUS
 10
-95.755937
 20
-5.629618
 11
-83.667053
 21
6.459267
  0
LINE
  8
別途部材
  6
CONTINUOUS
 10
-98.255937
 20
26.870383
 11
-98.255937
 21
61.870385
  0
LINE
  8
別途部材
  6
CONTINUOUS
 10
-63.255935
 20
61.870385
 11
-98.255937
 21
61.870385
  0
LINE
  8
別途部材
  6
CONTINUOUS
 10
-98.855937
 20
26.870383
 11
-98.855937
 21
62.470385
  0
LINE
  8
別途部材
  6
CONTINUOUS
 10
-63.255935
 20
62.470385
 11
-98.855937
 21
62.470385
  0
LINE
  8
別途部材
  6
CONTINUOUS
 10
-98.855937
 20
62.470385
 11
-98.255937
 21
61.870385
  0
LINE
  8
別途部材
  6
CONTINUOUS
 10
-95.755937
 20
59.370385
 11
-83.667053
 21
47.2815
  0
LINE
  8
別途部材
  6
CONTINUOUS
 10
-28.255935
 20
26.870383
 11
-28.255935
 21
61.870385
  0
LINE
  8
別途部材
  6
CONTINUOUS
 10
-63.255935
 20
61.870385
 11
-28.255935
 21
61.870385
  0
LINE
  8
別途部材
  6
CONTINUOUS
 10
-27.655935
 20
26.870383
 11
-27.655935
 21
62.470385
  0
LINE
  8
別途部材
  6
CONTINUOUS
 10
-63.255935
 20
62.470385
 11
-27.655935
 21
62.470385
  0
LINE
  8
別途部材
  6
CONTINUOUS
 10
-27.655935
 20
62.470385
 11
-28.255935
 21
61.870385
  0
LINE
  8
別途部材
  6
CONTINUOUS
 10
-30.755935
 20
59.370385
 11
-42.84482
 21
47.2815
  0
LINE
  8
別途部材
  6
CONTINUOUS
 10
-28.255935
 20
26.870383
 11
-28.255935
 21
-8.129618
  0
LINE
  8
別途部材
  6
CONTINUOUS
 10
-63.255935
 20
-8.129618
 11
-28.255935
 21
-8.129618
  0
LINE
  8
別途部材
  6
CONTINUOUS
 10
-27.655935
 20
26.870383
 11
-27.655935
 21
-8.729618
  0
LINE
  8
別途部材
  6
CONTINUOUS
 10
-63.255935
 20
-8.729618
 11
-27.655935
 21
-8.729618
  0
LINE
  8
別途部材
  6
CONTINUOUS
 10
-27.655935
 20
-8.729618
 11
-28.255935
 21
-8.129618
  0
LINE
  8
別途部材
  6
CONTINUOUS
 10
-30.755935
 20
-5.629618
 11
-42.84482
 21
6.459267
  0
LINE
  8
別途部材
  6
CONTINUOUS
 62
    96
 10
-98.255937
 20
-69.569873
 11
-98.855937
 21
-71.069873
  0
LINE
  8
別途部材
  6
CONTINUOUS
 62
    96
 10
-98.255937
 20
-69.569873
 11
-63.255935
 21
-69.569873
  0
LINE
  8
別途部材
  6
CONTINUOUS
 10
-98.855937
 20
-71.069873
 11
-63.255935
 21
-71.069873
  0
LINE
  8
別途部材
  6
CONTINUOUS
 62
    96
 10
-28.255935
 20
-69.569873
 11
-27.655935
 21
-71.069873
  0
LINE
  8
別途部材
  6
CONTINUOUS
 62
    96
 10
-28.255935
 20
-69.569873
 11
-63.255935
 21
-69.569873
  0
LINE
  8
別途部材
  6
CONTINUOUS
 10
-27.655935
 20
-71.069873
 11
-63.255935
 21
-71.069873
  0
ARC
  8
別途部材
  6
CONTINUOUS
 10
-63.255936
 20
-90.998446
 40
38.928572
 50
33.39849
 51
146.60151
  0
INSERT
  2
*GRP_0039
  8
別途部材
  6
CONTINUOUS
 10
0.0
 20
0.0
  0
LINE
  8
別途部材
  6
CONTINUOUS
 62
    96
 10
54.67119
 20
-69.569873
 11
54.07119
 21
-71.069873
  0
LINE
  8
別途部材
  6
CONTINUOUS
 62
    96
 10
54.67119
 20
-69.569873
 11
89.671192
 21
-69.569873
  0
LINE
  8
別途部材
  6
CONTINUOUS
 10
54.07119
 20
-71.069873
 11
89.671192
 21
-71.069873
  0
LINE
  8
別途部材
  6
CONTINUOUS
 62
    96
 10
124.671192
 20
-69.569873
 11
125.271192
 21
-71.069873
  0
LINE
  8
別途部材
  6
CONTINUOUS
 62
    96
 10
124.671192
 20
-69.569873
 11
89.671192
 21
-69.569873
  0
LINE
  8
別途部材
  6
CONTINUOUS
 10
125.271192
 20
-71.069873
 11
89.671192
 21
-71.069873
  0
ARC
  8
別途部材
  6
CONTINUOUS
 10
89.671191
 20
-90.998446
 40
38.928572
 50
33.39849
 51
146.60151
  0
INSERT
  2
*GRP_0042
  8
別途部材
  6
CONTINUOUS
 10
0.0
 20
0.0
  0
LINE
  8
別途部材
  6
DOT
 62
    96
 10
50.629005
 20
-69.661503
 11
51.2654
 21
-71.146428
  0
LINE
  8
別途部材
  6
DOT
 62
    96
 10
50.629005
 20
-69.661503
 11
75.377743
 21
-44.912765
  0
LINE
  8
別途部材
  6
DOT
 10
51.2654
 20
-71.146428
 11
76.438402
 21
-45.973425
  0
LINE
  8
別途部材
  6
DOT
 62
    96
 10
100.12648
 20
-20.164027
 11
101.611405
 21
-20.800422
  0
LINE
  8
別途部材
  6
DOT
 62
    96
 10
100.12648
 20
-20.164027
 11
75.377743
 21
-44.912765
  0
LINE
  8
別途部材
  6
DOT
 10
101.611405
 20
-20.800422
 11
76.438402
 21
-45.973425
  0
ARC
  8
別途部材
  6
DOT
 10
90.530031
 20
-60.065055
 40
38.928572
 50
78.39849
 51
191.60151
  0
INSERT
  2
*GRP_0047
  8
別途部材
  6
DOT
 10
0.0
 20
0.0
  0
INSERT
  2
*GRP_0048
  8
別途部材
  6
DOT
 10
0.0
 20
0.0
  0
INSERT
  2
*GRP_0049
  8
別途部材
  6
DOT
 10
0.0
 20
0.0
  0
INSERT
  2
*GRP_0050
  8
別途部材
  6
DOT
 10
0.0
 20
0.0
  0
INSERT
  2
*GRP_0051
  8
別途部材
  6
DOT
 10
0.0
 20
0.0
  0
INSERT
  2
*GRP_0052
  8
別途部材
  6
DOT
 10
0.0
 20
0.0
  0
ENDSEC
  0
EOF
