  0
SECTION
  2
HEADER
  9
$EXTMIN
 10
-210.0
 20
-148.5
  9
$EXTMAX
 10
210.0
 20
148.5
  9
$PDMODE
 70
    32
  9
$PDSIZE
 40
1.5
  9
$LTSCALE
 40
10.0
  0
ENDSEC
  0
SECTION
  2
TABLES
  0
TABLE
  2
LTYPE
 70
    15
  0
LTYPE
  2
CONTINUOUS
 70
    64
  3
実線
 72
    65
 73
     0
 40
0.0
  0
LTYPE
  2
DASHED
 70
    64
  3
破線A
 72
    65
 73
     2
 40
0.6
 49
0.4
 49
-0.2
  0
LTYPE
  2
DASHEDX2
 70
    64
  3
破線B
 72
    65
 73
     2
 40
1.3
 49
0.9
 49
-0.4
  0
LTYPE
  2
DASHDOT
 70
    64
  3
１点鎖線A
 72
    65
 73
     4
 40
0.5375
 49
0.375
 49
-0.05
 49
0.0625
 49
-0.05
  0
LTYPE
  2
DASHDOTX2
 70
    64
  3
１点鎖線B
 72
    65
 73
     4
 40
1.075
 49
0.75
 49
-0.1
 49
0.125
 49
-0.1
  0
LTYPE
  2
DIVIDE2
 70
    64
  3
２点鎖線A
 72
    65
 73
     6
 40
0.5125
 49
0.3
 49
-0.0375
 49
0.05
 49
-0.0375
 49
0.05
 49
-0.0375
  0
LTYPE
  2
DIVIDE
 70
    64
  3
２点鎖線B
 72
    65
 73
     6
 40
1.05
 49
0.55
 49
-0.1
 49
0.1
 49
-0.1
 49
0.1
 49
-0.1
  0
LTYPE
  2
DOT
 70
    64
  3
点線A
 72
    65
 73
     2
 40
0.1125
 49
0.0625
 49
-0.05
  0
LTYPE
  2
DOTX2
 70
    64
  3
点線B
 72
    65
 73
     2
 40
0.275
 49
0.15
 49
-0.125
  0
LTYPE
  2
CONTINUOUS
 70
    64
  3
実線
 72
    65
 73
     0
 40
0.0
  0
LTYPE
  2
CONTINUOUS
 70
    64
  3
実線
 72
    65
 73
     0
 40
0.0
  0
LTYPE
  2
CONTINUOUS
 70
    64
  3
実線
 72
    65
 73
     0
 40
0.0
  0
LTYPE
  2
CONTINUOUS
 70
    64
  3
実線
 72
    65
 73
     0
 40
0.0
  0
LTYPE
  2
CONTINUOUS
 70
    64
  3
実線
 72
    65
 73
     0
 40
0.0
  0
LTYPE
  2
CONTINUOUS
 70
    64
  3
実線
 72
    65
 73
     0
 40
0.0
  0
ENDTAB
  0
TABLE
  2
LAYER
 70
    34
  0
LAYER
  2
通り芯
 70
     0
 62
    15
  6
CONTINUOUS
  0
LAYER
  2
補助線
 70
     0
 62
    16
  6
DOT
  0
LAYER
  2
躯体
 70
     0
 62
    31
  6
CONTINUOUS
  0
LAYER
  2
型材
 70
     0
 62
    32
  6
CONTINUOUS
  0
LAYER
  2
型材断面
 70
     0
 62
    47
  6
CONTINUOUS
  0
LAYER
  2
ガラス
 70
     0
 62
    48
  6
CONTINUOUS
  0
LAYER
  2
ゴム等
 70
     0
 62
    63
  6
CONTINUOUS
  0
LAYER
  2
ボルト／ビス
 70
     0
 62
    64
  6
CONTINUOUS
  0
LAYER
  2
文字
 70
     0
 62
    79
  6
CONTINUOUS
  0
LAYER
  2
寸法
 70
     0
 62
    80
  6
CONTINUOUS
  0
LAYER
  2
ﾊｯﾁﾝｸﾞ
 70
     0
 62
    95
  6
CONTINUOUS
  0
LAYER
  2
別途部材
 70
     0
 62
    96
  6
CONTINUOUS
  0
LAYER
  2
曲げ物
 70
     0
 62
   111
  6
CONTINUOUS
  0
LAYER
  2
鉄骨等
 70
     0
 62
   112
  6
CONTINUOUS
  0
LAYER
  2
St
 70
     0
 62
   127
  6
CONTINUOUS
  0
LAYER
  2
その他部品等
 70
     0
 62
   128
  6
CONTINUOUS
  0
LAYER
  2
ｶﾞｽｹｯﾄ
 70
     0
 62
   143
  6
CONTINUOUS
  0
LAYER
  2
ｽｹｯﾁ
 70
     0
 62
    14
  6
CONTINUOUS
  0
LAYER
  2
0
 70
     0
 62
    17
  6
CONTINUOUS
  0
LAYER
  2
1
 70
     0
 62
    30
  6
CONTINUOUS
  0
LAYER
  2
4
 70
     0
 62
    33
  6
CONTINUOUS
  0
LAYER
  2
ﾚｲﾔ3
 70
     0
 62
    46
  6
CONTINUOUS
  0
LAYER
  2
外形線
 70
     0
 62
    49
  6
CONTINUOUS
  0
LAYER
  2
部品
 70
     0
 62
    14
  6
CONTINUOUS
  0
LAYER
  2
サッシ芯
 70
     0
 62
    17
  6
DASHDOTX2
  0
LAYER
  2
寸法線
 70
     0
 62
    62
  6
CONTINUOUS
  0
LAYER
  2
姿図外形線
 70
     0
 62
    65
  6
CONTINUOUS
  0
LAYER
  2
姿補助線
 70
     0
 62
    30
  6
CONTINUOUS
  0
LAYER
  2
透視線
 70
     0
 62
    78
  6
DOT
  0
LAYER
  2
用紙
 70
     0
 62
    81
  6
CONTINUOUS
  0
LAYER
  2
実線図枠
 70
     0
 62
    94
  6
CONTINUOUS
  0
LAYER
  2
補助図枠
 70
     0
 62
    97
  6
CONTINUOUS
  0
LAYER
  2
建具記号
 70
     0
 62
   110
  6
CONTINUOUS
  0
LAYER
  2
補助文字
 70
     0
 62
   113
  6
CONTINUOUS
  0
ENDTAB
  0
TABLE
  2
STYLE
 70
    10
  0
STYLE
  2
STANDARD
 70
     0
 40
1.0
 41
1.0
 42
1.0
 50
0.0
 71
     0
  3
TXT
  4
BIGFONT
  0
STYLE
  2
TATE
 70
     4
 40
1.0
 41
1.0
 42
1.0
 50
0.0
 71
     0
  3
TXT
  4
BIGFONT
  0
STYLE
  2
TextStyle03
 70
     0
 40
1.0
 41
1.0
 42
1.0
 50
0.0
 71
     0
  3
MONOTXT
  4
BIGFONT
  0
STYLE
  2
TextStyle04
 70
     0
 40
1.0
 41
1.0
 42
1.0
 50
0.0
 71
     0
  3
MONOTXT
  4
BIGFONT
  0
STYLE
  2
TextStyle05
 70
     0
 40
1.0
 41
1.0
 42
1.0
 50
0.0
 71
     0
  3
MONOTXT
  4
BIGFONT
  0
STYLE
  2
TextStyle06
 70
     0
 40
1.0
 41
1.0
 42
1.0
 50
0.0
 71
     0
  3
MONOTXT
  4
BIGFONT
  0
STYLE
  2
TextStyle07
 70
     0
 40
1.0
 41
1.0
 42
1.0
 50
0.0
 71
     0
  3
MONOTXT
  4
BIGFONT
  0
STYLE
  2
TextStyle08
 70
     0
 40
1.0
 41
1.0
 42
1.0
 50
0.0
 71
     0
  3
MONOTXT
  4
BIGFONT
  0
STYLE
  2
TextStyle09
 70
     0
 40
1.0
 41
1.0
 42
1.0
 50
0.0
 71
     0
  3
MONOTXT
  4
BIGFONT
  0
STYLE
  2
TextStyle10
 70
     0
 40
1.0
 41
1.0
 42
1.0
 50
0.0
 71
     0
  3
MONOTXT
  4
BIGFONT
  0
ENDTAB
  0
ENDSEC
  0
SECTION
  2
BLOCKS
  0
BLOCK
  2
*GRP_0001
 70
    65
 10
0.0
 20
0.0
  0
LINE
  8
型材断面
  6
CONTINUOUS
 10
195.0
 20
133.5
 11
195.0
 21
-133.5
  0
LINE
  8
型材断面
  6
CONTINUOUS
 10
195.0
 20
-133.5
 11
-185.0
 21
-133.5
  0
LINE
  8
型材断面
  6
CONTINUOUS
 10
-185.0
 20
-133.5
 11
-185.0
 21
133.5
  0
LINE
  8
型材断面
  6
CONTINUOUS
 10
195.0
 20
133.5
 11
-185.0
 21
133.5
  0
LINE
  8
型材断面
  6
CONTINUOUS
 10
145.0
 20
-133.5
 11
145.0
 21
-118.5
  0
LINE
  8
型材断面
  6
CONTINUOUS
 10
195.0
 20
-118.5
 11
145.0
 21
-118.5
  0
ENDBLK
  0
BLOCK
  2
*DIM_0002
 70
    65
 10
0.0
 20
0.0
  0
LINE
  8
寸法
  6
CONTINUOUS
 10
153.804085
 20
28.262
 11
153.804085
 21
19.319045
  0
LINE
  8
寸法
  6
CONTINUOUS
 10
147.30385
 20
30.328695
 11
147.30385
 21
19.319045
  0
LINE
  8
寸法
  6
CONTINUOUS
 10
153.804085
 20
19.319045
 11
147.30385
 21
19.319045
  0
POINT
  8
寸法
 10
153.804085
 20
19.319045
  0
POINT
  8
寸法
 10
147.30385
 20
19.319045
  0
TEXT
  7
TextStyle03
  8
寸法
  6
CONTINUOUS
 10
148.0875
 20
19.675
  1
195
 40
3.0
 72
     5
 11
152.9625
 21
19.675
  0
ENDBLK
  0
BLOCK
  2
*DIM_0003
 70
    65
 10
0.0
 20
0.0
  0
LINE
  8
寸法
  6
CONTINUOUS
 10
138.970515
 20
46.995365
 11
138.970515
 21
19.319045
  0
LINE
  8
寸法
  6
CONTINUOUS
 10
147.30385
 20
19.319045
 11
138.970515
 21
19.319045
  0
POINT
  8
寸法
 10
138.970515
 20
19.319045
  0
TEXT
  7
TextStyle03
  8
寸法
  6
CONTINUOUS
 10
140.6875
 20
19.675
  1
250
 40
3.0
 72
     5
 11
145.5625
 21
19.675
  0
ENDBLK
  0
BLOCK
  2
*GRP_0004
 70
    65
 10
0.0
 20
0.0
  0
LINE
  8
別途部材
  6
CONTINUOUS
 62
    96
 10
152.587292
 20
68.628908
 11
152.587292
 21
68.528908
  0
LINE
  8
別途部材
  6
CONTINUOUS
 62
    96
 10
150.486212
 20
68.728908
 11
150.555885
 21
70.059713
  0
LINE
  8
別途部材
  6
CONTINUOUS
 62
    96
 10
151.10396
 20
70.068908
 11
150.987292
 21
70.335575
  0
LINE
  8
別途部材
  6
CONTINUOUS
 62
    96
 10
151.00396
 20
70.04799
 11
150.93644
 21
70.202325
  0
LINE
  8
別途部材
  6
CONTINUOUS
 62
    96
 10
150.457115
 20
70.08583
 11
150.587565
 21
70.34603
  0
LINE
  8
別途部材
  6
CONTINUOUS
 62
    96
 10
150.555885
 20
70.059713
 11
150.688045
 21
70.323325
  0
LINE
  8
別途部材
  6
CONTINUOUS
 62
    96
 10
150.723647
 20
70.258442
 11
150.66
 21
70.181313
  0
LINE
  8
別途部材
  6
DASHDOTX2
 62
    96
 10
150.787292
 20
70.335575
 11
150.473807
 21
70.335575
  0
LINE
  8
別途部材
  6
DASHDOTX2
 62
    96
 10
150.787292
 20
70.335575
 11
151.117752
 21
70.335575
  0
LINE
  8
別途部材
  6
DASHDOTX2
 62
    96
 10
150.787292
 20
70.335575
 11
150.787292
 21
70.072103
  0
LINE
  8
別途部材
  6
DASHDOTX2
 62
    96
 10
150.787292
 20
70.335575
 11
150.787292
 21
70.613885
  0
LINE
  8
別途部材
  6
CONTINUOUS
 62
    96
 10
151.00396
 20
68.528908
 11
151.00396
 21
70.04799
  0
LINE
  8
別途部材
  6
CONTINUOUS
 62
    96
 10
151.10396
 20
68.628908
 11
151.10396
 21
70.068908
  0
LINE
  8
別途部材
  6
CONTINUOUS
 62
    96
 10
149.25288
 20
68.82891
 11
150.39131
 21
68.82891
  0
LINE
  8
別途部材
  6
CONTINUOUS
 62
    96
 10
149.25288
 20
68.728908
 11
149.25288
 21
68.82891
  0
LINE
  8
別途部材
  6
CONTINUOUS
 62
    96
 10
149.25288
 20
68.728908
 11
150.486212
 21
68.728908
  0
CIRCLE
  8
別途部材
  6
CONTINUOUS
 62
    96
 10
150.787292
 20
70.335575
 40
0.1
  0
ARC
  8
別途部材
  6
CONTINUOUS
 62
    96
 10
150.787288
 20
70.335576
 40
0.2
 50
218.780606
 51
537.001556
  0
LINE
  8
別途部材
  6
CONTINUOUS
 62
    96
 10
151.00396
 20
68.528908
 11
152.587292
 21
68.528908
  0
LINE
  8
別途部材
  6
CONTINUOUS
 62
    96
 10
151.10396
 20
68.628908
 11
152.587292
 21
68.628908
  0
LINE
  8
別途部材
  6
CONTINUOUS
 62
    96
 10
150.457115
 20
70.08583
 11
150.39131
 21
68.82891
  0
ENDBLK
  0
BLOCK
  2
*DIM_0005
 70
    65
 10
0.0
 20
0.0
  0
LINE
  8
寸法
  6
CONTINUOUS
 10
103.775028
 20
36.995363
 11
103.775028
 21
66.995363
  0
POINT
  8
寸法
 10
103.775028
 20
36.995363
  0
POINT
  8
寸法
 10
103.775028
 20
66.995363
  0
TEXT
  7
TextStyle03
  8
寸法
  6
CONTINUOUS
 10
103.4
 20
41.1
  1
呼称寸法　900
 40
3.0
 50
90.0
 72
     5
 11
103.4
 21
62.85
  0
ENDBLK
  0
BLOCK
  2
*DIM_0006
 70
    65
 10
0.0
 20
0.0
  0
LINE
  8
寸法
  6
CONTINUOUS
 10
98.775028
 20
36.995363
 11
103.4
 21
36.995363
  0
LINE
  8
寸法
  6
CONTINUOUS
 10
148.304085
 20
33.262
 11
103.4
 21
33.262
  0
LINE
  8
寸法
  6
CONTINUOUS
 10
103.4
 20
36.995363
 11
103.4
 21
33.262
  0
POINT
  8
寸法
 10
103.4
 20
36.995363
  0
POINT
  8
寸法
 10
103.4
 20
33.262
  0
TEXT
  7
TextStyle03
  8
寸法
  6
CONTINUOUS
 10
103.025
 20
27.6375
  1
112
 40
3.0
 50
90.0
 72
     5
 11
103.025
 21
32.5125
  0
ENDBLK
  0
BLOCK
  2
*DIM_0007
 70
    65
 10
0.0
 20
0.0
  0
LINE
  8
寸法
  6
CONTINUOUS
 10
148.304085
 20
70.728725
 11
103.775028
 21
70.728725
  0
LINE
  8
寸法
  6
CONTINUOUS
 10
103.775028
 20
66.995363
 11
103.775028
 21
70.728725
  0
POINT
  8
寸法
 10
103.775028
 20
66.995363
  0
POINT
  8
寸法
 10
103.775028
 20
70.728725
  0
TEXT
  7
TextStyle03
  8
寸法
  6
CONTINUOUS
 10
103.4
 20
71.4625
  1
112
 40
3.0
 50
90.0
 72
     5
 11
103.4
 21
76.3375
  0
ENDBLK
  0
BLOCK
  2
*DIM_0008
 70
    65
 10
0.0
 20
0.0
  0
LINE
  8
寸法
  6
CONTINUOUS
 10
10.683178
 20
-56.327663
 11
10.683178
 21
-31.074888
  0
LINE
  8
寸法
  6
CONTINUOUS
 10
6.949815
 20
-31.074888
 11
10.683178
 21
-31.074888
  0
POINT
  8
寸法
 10
6.949815
 20
-31.074888
  0
POINT
  8
寸法
 10
10.683178
 20
-31.074888
  0
TEXT
  7
TextStyle03
  8
寸法
  6
CONTINUOUS
 10
6.3625
 20
-30.7
  1
112
 40
3.0
 72
     5
 11
11.2375
 21
-30.7
  0
ENDBLK
  0
BLOCK
  2
*DIM_0009
 70
    65
 10
0.0
 20
0.0
  0
LINE
  8
寸法
  6
CONTINUOUS
 10
-96.783543
 20
-56.327663
 11
-96.783543
 21
-31.074888
  0
LINE
  8
寸法
  6
CONTINUOUS
 10
-93.050183
 20
-31.074888
 11
-96.783543
 21
-31.074888
  0
POINT
  8
寸法
 10
-93.050183
 20
-31.074888
  0
POINT
  8
寸法
 10
-96.783543
 20
-31.074888
  0
TEXT
  7
TextStyle03
  8
寸法
  6
CONTINUOUS
 10
-97.3625
 20
-30.7
  1
112
 40
3.0
 72
     5
 11
-92.4875
 21
-30.7
  0
ENDBLK
  0
BLOCK
  2
*DIM_0010
 70
    65
 10
0.0
 20
0.0
  0
LINE
  8
寸法
  6
CONTINUOUS
 10
-93.050183
 20
-31.074888
 11
6.949815
 21
-31.074888
  0
POINT
  8
寸法
 10
-93.050183
 20
-31.074888
  0
POINT
  8
寸法
 10
6.949815
 20
-31.074888
  0
TEXT
  7
TextStyle03
  8
寸法
  6
CONTINUOUS
 10
-54.79375
 20
-30.7
  1
呼称寸法　3000
 40
3.0
 72
     5
 11
-31.35625
 21
-30.7
  0
ENDBLK
  0
BLOCK
  2
*DIM_0011
 70
    65
 10
0.0
 20
0.0
  0
LINE
  8
寸法
  6
BYBLOCK
 62
     0
 10
-76.383515
 20
33.365232
 11
-76.383515
 21
28.28462
  0
LINE
  8
寸法
  6
BYBLOCK
 62
     0
 10
-9.71685
 20
33.365232
 11
-9.71685
 21
28.28462
  0
LINE
  8
寸法
  6
BYBLOCK
 62
     0
 10
-76.383515
 20
28.28462
 11
-9.71685
 21
28.28462
  0
POINT
  8
寸法
 62
     0
 10
-76.383515
 20
28.28462
  0
POINT
  8
寸法
 62
     0
 10
-9.71685
 20
28.28462
  0
TEXT
  7
TextStyle03
  8
寸法
  6
CONTINUOUS
 62
     0
 10
-46.33125
 20
28.65
  1
2000
 40
3.0
 72
     5
 11
-39.76875
 21
28.65
  0
ENDBLK
  0
BLOCK
  2
*DIM_0012
 70
    65
 10
0.0
 20
0.0
  0
LINE
  8
寸法
  6
BYBLOCK
 62
     0
 10
4.949818
 20
31.38855
 11
4.949818
 21
28.363508
  0
LINE
  8
寸法
  6
BYBLOCK
 62
     0
 10
6.949818
 20
28.363508
 11
4.949818
 21
28.363508
  0
POINT
  8
寸法
 62
     0
 10
6.949818
 20
28.363508
  0
POINT
  8
寸法
 62
     0
 10
4.949818
 20
28.363508
  0
TEXT
  7
TextStyle03
  8
寸法
  6
CONTINUOUS
 62
     0
 10
3.08125
 20
24.575
  1
60
 40
3.0
 72
     5
 11
6.26875
 21
24.575
  0
ENDBLK
  0
BLOCK
  2
*DIM_0013
 70
    65
 10
0.0
 20
0.0
  0
LINE
  8
寸法
  6
BYBLOCK
 62
     0
 10
-91.050183
 20
31.38855
 11
-91.050183
 21
28.363508
  0
LINE
  8
寸法
  6
BYBLOCK
 62
     0
 10
-93.050183
 20
28.363508
 11
-91.050183
 21
28.363508
  0
POINT
  8
寸法
 62
     0
 10
-93.050183
 20
28.363508
  0
POINT
  8
寸法
 62
     0
 10
-91.050183
 20
28.363508
  0
TEXT
  7
TextStyle03
  8
寸法
  6
CONTINUOUS
 62
     0
 10
-92.34375
 20
24.575
  1
60
 40
3.0
 72
     5
 11
-89.15625
 21
24.575
  0
ENDBLK
  0
BLOCK
  2
*DIM_0014
 70
    65
 10
0.0
 20
0.0
  0
LINE
  8
寸法
  6
BYBLOCK
 62
     0
 10
-96.050183
 20
61.995363
 11
-109.34302
 21
61.995363
  0
LINE
  8
寸法
  6
BYBLOCK
 62
     0
 10
-96.050183
 20
41.995363
 11
-109.34302
 21
41.995363
  0
LINE
  8
寸法
  6
BYBLOCK
 62
     0
 10
-109.34302
 20
61.995363
 11
-109.34302
 21
41.995363
  0
POINT
  8
寸法
 62
     0
 10
-109.34302
 20
61.995363
  0
POINT
  8
寸法
 62
     0
 10
-109.34302
 20
41.995363
  0
TEXT
  7
TextStyle03
  8
寸法
  6
CONTINUOUS
 62
     0
 10
-109.675
 20
49.5375
  1
600
 40
3.0
 50
90.0
 72
     5
 11
-109.675
 21
54.4125
  0
ENDBLK
  0
BLOCK
  2
*DIM_0015
 70
    65
 10
0.0
 20
0.0
  0
LINE
  8
寸法
  6
BYBLOCK
 62
     0
 10
-83.050183
 20
69.995363
 11
-83.050183
 21
99.103435
  0
LINE
  8
寸法
  6
BYBLOCK
 62
     0
 10
-56.383515
 20
69.995363
 11
-56.383515
 21
99.103435
  0
LINE
  8
寸法
  6
BYBLOCK
 62
     0
 10
-83.050183
 20
99.103435
 11
-56.383515
 21
99.103435
  0
POINT
  8
寸法
 62
     0
 10
-83.050183
 20
99.103435
  0
POINT
  8
寸法
 62
     0
 10
-56.383515
 20
99.103435
  0
TEXT
  7
TextStyle03
  8
寸法
  6
CONTINUOUS
 62
     0
 10
-72.1875
 20
99.45
  1
800
 40
3.0
 72
     5
 11
-67.3125
 21
99.45
  0
ENDBLK
  0
BLOCK
  2
*DIM_0016
 70
    65
 10
0.0
 20
0.0
  0
LINE
  8
寸法
  6
BYBLOCK
 62
     0
 10
-29.71685
 20
69.995363
 11
-29.71685
 21
99.103435
  0
LINE
  8
寸法
  6
BYBLOCK
 62
     0
 10
-56.383515
 20
99.103435
 11
-29.71685
 21
99.103435
  0
POINT
  8
寸法
 62
     0
 10
-29.71685
 20
99.103435
  0
TEXT
  7
TextStyle03
  8
寸法
  6
CONTINUOUS
 62
     0
 10
-45.5125
 20
99.45
  1
800
 40
3.0
 72
     5
 11
-40.6375
 21
99.45
  0
ENDBLK
  0
BLOCK
  2
*DIM_0017
 70
    65
 10
0.0
 20
0.0
  0
LINE
  8
寸法
  6
BYBLOCK
 62
     0
 10
-3.050183
 20
69.995363
 11
-3.050183
 21
99.103435
  0
LINE
  8
寸法
  6
BYBLOCK
 62
     0
 10
-29.71685
 20
99.103435
 11
-3.050183
 21
99.103435
  0
POINT
  8
寸法
 62
     0
 10
-3.050183
 20
99.103435
  0
TEXT
  7
TextStyle03
  8
寸法
  6
CONTINUOUS
 62
     0
 10
-18.8375
 20
99.45
  1
800
 40
3.0
 72
     5
 11
-13.9625
 21
99.45
  0
ENDBLK
  0
BLOCK
  2
*GRP_0018
 70
    65
 10
0.0
 20
0.0
  0
LINE
  8
別途部材
  6
CONTINUOUS
 62
    96
 10
-94.71685
 20
-55.177423
 11
-95.11685
 21
-56.177423
  0
ARC
  8
別途部材
  6
CONTINUOUS
 10
-78.050184
 20
-64.510757
 40
17.666667
 50
90.0
 51
148.109204
  0
LINE
  8
別途部材
  6
CONTINUOUS
 62
    96
 10
-94.71685
 20
-55.177423
 11
-43.050185
 21
-55.177423
  0
LINE
  8
別途部材
  6
CONTINUOUS
 10
-95.11685
 20
-56.177423
 11
-43.050185
 21
-56.177423
  0
LINE
  8
別途部材
  6
CONTINUOUS
 10
-43.550185
 20
-45.84409
 11
-44.550185
 21
-46.84409
  0
LINE
  8
別途部材
  6
CONTINUOUS
 10
-45.550185
 20
-46.84409
 11
-46.550185
 21
-45.84409
  0
LINE
  8
別途部材
  6
CONTINUOUS
 10
-47.550185
 20
-45.84409
 11
-48.550185
 21
-46.84409
  0
LINE
  8
別途部材
  6
CONTINUOUS
 10
-46.550185
 20
-45.84409
 11
-47.550185
 21
-45.84409
  0
LINE
  8
別途部材
  6
CONTINUOUS
 10
-43.550185
 20
-45.84409
 11
-43.050185
 21
-45.84409
  0
LINE
  8
別途部材
  6
CONTINUOUS
 10
-49.550185
 20
-46.84409
 11
-50.550185
 21
-45.84409
  0
LINE
  8
別途部材
  6
CONTINUOUS
 10
-51.550185
 20
-45.84409
 11
-52.550185
 21
-46.84409
  0
LINE
  8
別途部材
  6
CONTINUOUS
 10
-50.550185
 20
-45.84409
 11
-51.550185
 21
-45.84409
  0
LINE
  8
別途部材
  6
CONTINUOUS
 10
-53.550185
 20
-46.84409
 11
-54.550185
 21
-45.84409
  0
LINE
  8
別途部材
  6
CONTINUOUS
 10
-55.550185
 20
-45.84409
 11
-56.550185
 21
-46.84409
  0
LINE
  8
別途部材
  6
CONTINUOUS
 10
-54.550185
 20
-45.84409
 11
-55.550185
 21
-45.84409
  0
LINE
  8
別途部材
  6
CONTINUOUS
 10
-57.550185
 20
-46.84409
 11
-58.550185
 21
-45.84409
  0
LINE
  8
別途部材
  6
CONTINUOUS
 10
-59.550185
 20
-45.84409
 11
-60.550185
 21
-46.84409
  0
LINE
  8
別途部材
  6
CONTINUOUS
 10
-58.550185
 20
-45.84409
 11
-59.550185
 21
-45.84409
  0
LINE
  8
別途部材
  6
CONTINUOUS
 10
-61.550185
 20
-46.84409
 11
-62.550185
 21
-45.84409
  0
LINE
  8
別途部材
  6
CONTINUOUS
 10
-63.550185
 20
-45.84409
 11
-64.550185
 21
-46.84409
  0
LINE
  8
別途部材
  6
CONTINUOUS
 10
-62.550185
 20
-45.84409
 11
-63.550185
 21
-45.84409
  0
LINE
  8
別途部材
  6
CONTINUOUS
 10
-65.550185
 20
-46.84409
 11
-66.550185
 21
-45.84409
  0
LINE
  8
別途部材
  6
CONTINUOUS
 10
-67.550185
 20
-45.84409
 11
-68.550185
 21
-46.84409
  0
LINE
  8
別途部材
  6
CONTINUOUS
 10
-66.550185
 20
-45.84409
 11
-67.550185
 21
-45.84409
  0
LINE
  8
別途部材
  6
CONTINUOUS
 10
-69.550185
 20
-46.84409
 11
-70.550185
 21
-45.84409
  0
LINE
  8
別途部材
  6
CONTINUOUS
 10
-71.550185
 20
-45.84409
 11
-72.550185
 21
-46.84409
  0
LINE
  8
別途部材
  6
CONTINUOUS
 10
-70.550185
 20
-45.84409
 11
-71.550185
 21
-45.84409
  0
LINE
  8
別途部材
  6
CONTINUOUS
 10
-73.550185
 20
-46.84409
 11
-74.550185
 21
-45.84409
  0
LINE
  8
別途部材
  6
CONTINUOUS
 10
-75.550185
 20
-45.84409
 11
-76.550185
 21
-46.84409
  0
LINE
  8
別途部材
  6
CONTINUOUS
 10
-74.550185
 20
-45.84409
 11
-75.550185
 21
-45.84409
  0
LINE
  8
別途部材
  6
CONTINUOUS
 10
-72.550185
 20
-46.84409
 11
-73.550185
 21
-46.84409
  0
LINE
  8
別途部材
  6
CONTINUOUS
 10
-68.550185
 20
-46.84409
 11
-69.550185
 21
-46.84409
  0
LINE
  8
別途部材
  6
CONTINUOUS
 10
-64.550185
 20
-46.84409
 11
-65.550185
 21
-46.84409
  0
LINE
  8
別途部材
  6
CONTINUOUS
 10
-60.550185
 20
-46.84409
 11
-61.550185
 21
-46.84409
  0
LINE
  8
別途部材
  6
CONTINUOUS
 10
-56.550185
 20
-46.84409
 11
-57.550185
 21
-46.84409
  0
LINE
  8
別途部材
  6
CONTINUOUS
 10
-52.550185
 20
-46.84409
 11
-53.550185
 21
-46.84409
  0
LINE
  8
別途部材
  6
CONTINUOUS
 10
-48.550185
 20
-46.84409
 11
-49.550185
 21
-46.84409
  0
LINE
  8
別途部材
  6
CONTINUOUS
 10
-45.550185
 20
-46.84409
 11
-44.550185
 21
-46.84409
  0
LINE
  8
別途部材
  6
CONTINUOUS
 10
-76.550185
 20
-46.84409
 11
-76.550185
 21
-55.177423
  0
LINE
  8
別途部材
  6
CONTINUOUS
 10
-75.550185
 20
-45.84409
 11
-75.550185
 21
-55.177423
  0
LINE
  8
別途部材
  6
CONTINUOUS
 10
-73.550185
 20
-46.84409
 11
-73.550185
 21
-55.177423
  0
LINE
  8
別途部材
  6
CONTINUOUS
 10
-74.550185
 20
-45.84409
 11
-74.550185
 21
-55.177423
  0
LINE
  8
別途部材
  6
CONTINUOUS
 10
-71.550185
 20
-45.84409
 11
-71.550185
 21
-55.177423
  0
LINE
  8
別途部材
  6
CONTINUOUS
 10
-72.550185
 20
-46.84409
 11
-72.550185
 21
-55.177423
  0
LINE
  8
別途部材
  6
CONTINUOUS
 10
-68.550185
 20
-46.84409
 11
-68.550185
 21
-55.177423
  0
LINE
  8
別途部材
  6
CONTINUOUS
 10
-67.550185
 20
-45.84409
 11
-67.550185
 21
-55.177423
  0
LINE
  8
別途部材
  6
CONTINUOUS
 10
-66.550185
 20
-45.84409
 11
-66.550185
 21
-55.177423
  0
LINE
  8
別途部材
  6
CONTINUOUS
 10
-69.550185
 20
-46.84409
 11
-69.550185
 21
-55.177423
  0
LINE
  8
別途部材
  6
CONTINUOUS
 10
-70.550185
 20
-45.84409
 11
-70.550185
 21
-55.177423
  0
LINE
  8
別途部材
  6
CONTINUOUS
 10
-62.550185
 20
-45.84409
 11
-62.550185
 21
-55.177423
  0
LINE
  8
別途部材
  6
CONTINUOUS
 10
-64.550185
 20
-46.84409
 11
-64.550185
 21
-55.177423
  0
LINE
  8
別途部材
  6
CONTINUOUS
 10
-65.550185
 20
-46.84409
 11
-65.550185
 21
-55.177423
  0
LINE
  8
別途部材
  6
CONTINUOUS
 10
-63.550185
 20
-45.84409
 11
-63.550185
 21
-55.177423
  0
LINE
  8
別途部材
  6
CONTINUOUS
 10
-61.550185
 20
-46.84409
 11
-61.550185
 21
-55.177423
  0
LINE
  8
別途部材
  6
CONTINUOUS
 10
-59.550185
 20
-45.84409
 11
-59.550185
 21
-55.177423
  0
LINE
  8
別途部材
  6
CONTINUOUS
 10
-58.550185
 20
-45.84409
 11
-58.550185
 21
-55.177423
  0
LINE
  8
別途部材
  6
CONTINUOUS
 10
-56.550185
 20
-46.84409
 11
-56.550185
 21
-55.177423
  0
LINE
  8
別途部材
  6
CONTINUOUS
 10
-57.550185
 20
-46.84409
 11
-57.550185
 21
-55.177423
  0
LINE
  8
別途部材
  6
CONTINUOUS
 10
-60.550185
 20
-46.84409
 11
-60.550185
 21
-55.177423
  0
LINE
  8
別途部材
  6
CONTINUOUS
 10
-55.550185
 20
-45.84409
 11
-55.550185
 21
-55.177423
  0
LINE
  8
別途部材
  6
CONTINUOUS
 10
-53.550185
 20
-46.84409
 11
-53.550185
 21
-55.177423
  0
LINE
  8
別途部材
  6
CONTINUOUS
 10
-54.550185
 20
-45.84409
 11
-54.550185
 21
-55.177423
  0
LINE
  8
別途部材
  6
CONTINUOUS
 10
-52.550185
 20
-46.84409
 11
-52.550185
 21
-55.177423
  0
LINE
  8
別途部材
  6
CONTINUOUS
 10
-51.550185
 20
-45.84409
 11
-51.550185
 21
-55.177423
  0
LINE
  8
別途部材
  6
CONTINUOUS
 10
-49.550185
 20
-46.84409
 11
-49.550185
 21
-55.177423
  0
LINE
  8
別途部材
  6
CONTINUOUS
 10
-50.550185
 20
-45.84409
 11
-50.550185
 21
-55.177423
  0
LINE
  8
別途部材
  6
CONTINUOUS
 10
-48.550185
 20
-46.84409
 11
-48.550185
 21
-55.177423
  0
LINE
  8
別途部材
  6
CONTINUOUS
 10
-47.550185
 20
-45.84409
 11
-47.550185
 21
-55.177423
  0
LINE
  8
別途部材
  6
CONTINUOUS
 10
-45.550185
 20
-46.84409
 11
-45.550185
 21
-55.177423
  0
LINE
  8
別途部材
  6
CONTINUOUS
 10
-46.550185
 20
-45.84409
 11
-46.550185
 21
-55.177423
  0
LINE
  8
別途部材
  6
CONTINUOUS
 10
-44.550185
 20
-46.84409
 11
-44.550185
 21
-55.177423
  0
LINE
  8
別途部材
  6
CONTINUOUS
 10
-43.550185
 20
-45.84409
 11
-43.550185
 21
-55.177423
  0
LINE
  8
別途部材
  6
CONTINUOUS
 10
-76.550185
 20
-46.84409
 11
-78.050185
 21
-46.84409
  0
LINE
  8
別途部材
  6
CONTINUOUS
 62
    96
 10
8.616482
 20
-55.177423
 11
9.016482
 21
-56.177423
  0
ARC
  8
別途部材
  6
CONTINUOUS
 10
-8.050184
 20
-64.510757
 40
17.666667
 50
31.890796
 51
90.0
  0
LINE
  8
別途部材
  6
CONTINUOUS
 62
    96
 10
8.616482
 20
-55.177423
 11
-43.050185
 21
-55.177423
  0
LINE
  8
別途部材
  6
CONTINUOUS
 10
9.016482
 20
-56.177423
 11
-43.050185
 21
-56.177423
  0
LINE
  8
別途部材
  6
CONTINUOUS
 10
-42.550185
 20
-45.84409
 11
-41.550185
 21
-46.84409
  0
LINE
  8
別途部材
  6
CONTINUOUS
 10
-40.550185
 20
-46.84409
 11
-39.550185
 21
-45.84409
  0
LINE
  8
別途部材
  6
CONTINUOUS
 10
-38.550185
 20
-45.84409
 11
-37.550185
 21
-46.84409
  0
LINE
  8
別途部材
  6
CONTINUOUS
 10
-39.550185
 20
-45.84409
 11
-38.550185
 21
-45.84409
  0
LINE
  8
別途部材
  6
CONTINUOUS
 10
-42.550185
 20
-45.84409
 11
-43.050185
 21
-45.84409
  0
LINE
  8
別途部材
  6
CONTINUOUS
 10
-36.550185
 20
-46.84409
 11
-35.550185
 21
-45.84409
  0
LINE
  8
別途部材
  6
CONTINUOUS
 10
-34.550185
 20
-45.84409
 11
-33.550185
 21
-46.84409
  0
LINE
  8
別途部材
  6
CONTINUOUS
 10
-35.550185
 20
-45.84409
 11
-34.550185
 21
-45.84409
  0
LINE
  8
別途部材
  6
CONTINUOUS
 10
-32.550185
 20
-46.84409
 11
-31.550185
 21
-45.84409
  0
LINE
  8
別途部材
  6
CONTINUOUS
 10
-30.550185
 20
-45.84409
 11
-29.550185
 21
-46.84409
  0
LINE
  8
別途部材
  6
CONTINUOUS
 10
-31.550185
 20
-45.84409
 11
-30.550185
 21
-45.84409
  0
LINE
  8
別途部材
  6
CONTINUOUS
 10
-28.550185
 20
-46.84409
 11
-27.550185
 21
-45.84409
  0
LINE
  8
別途部材
  6
CONTINUOUS
 10
-26.550185
 20
-45.84409
 11
-25.550185
 21
-46.84409
  0
LINE
  8
別途部材
  6
CONTINUOUS
 10
-27.550185
 20
-45.84409
 11
-26.550185
 21
-45.84409
  0
LINE
  8
別途部材
  6
CONTINUOUS
 10
-24.550185
 20
-46.84409
 11
-23.550185
 21
-45.84409
  0
LINE
  8
別途部材
  6
CONTINUOUS
 10
-22.550185
 20
-45.84409
 11
-21.550185
 21
-46.84409
  0
LINE
  8
別途部材
  6
CONTINUOUS
 10
-23.550185
 20
-45.84409
 11
-22.550185
 21
-45.84409
  0
LINE
  8
別途部材
  6
CONTINUOUS
 10
-20.550185
 20
-46.84409
 11
-19.550185
 21
-45.84409
  0
LINE
  8
別途部材
  6
CONTINUOUS
 10
-18.550185
 20
-45.84409
 11
-17.550185
 21
-46.84409
  0
LINE
  8
別途部材
  6
CONTINUOUS
 10
-19.550185
 20
-45.84409
 11
-18.550185
 21
-45.84409
  0
LINE
  8
別途部材
  6
CONTINUOUS
 10
-16.550185
 20
-46.84409
 11
-15.550185
 21
-45.84409
  0
LINE
  8
別途部材
  6
CONTINUOUS
 10
-14.550185
 20
-45.84409
 11
-13.550185
 21
-46.84409
  0
LINE
  8
別途部材
  6
CONTINUOUS
 10
-15.550185
 20
-45.84409
 11
-14.550185
 21
-45.84409
  0
LINE
  8
別途部材
  6
CONTINUOUS
 10
-12.550185
 20
-46.84409
 11
-11.550185
 21
-45.84409
  0
LINE
  8
別途部材
  6
CONTINUOUS
 10
-10.550185
 20
-45.84409
 11
-9.550185
 21
-46.84409
  0
LINE
  8
別途部材
  6
CONTINUOUS
 10
-11.550185
 20
-45.84409
 11
-10.550185
 21
-45.84409
  0
LINE
  8
別途部材
  6
CONTINUOUS
 10
-13.550185
 20
-46.84409
 11
-12.550185
 21
-46.84409
  0
LINE
  8
別途部材
  6
CONTINUOUS
 10
-17.550185
 20
-46.84409
 11
-16.550185
 21
-46.84409
  0
LINE
  8
別途部材
  6
CONTINUOUS
 10
-21.550185
 20
-46.84409
 11
-20.550185
 21
-46.84409
  0
LINE
  8
別途部材
  6
CONTINUOUS
 10
-25.550185
 20
-46.84409
 11
-24.550185
 21
-46.84409
  0
LINE
  8
別途部材
  6
CONTINUOUS
 10
-29.550185
 20
-46.84409
 11
-28.550185
 21
-46.84409
  0
LINE
  8
別途部材
  6
CONTINUOUS
 10
-33.550185
 20
-46.84409
 11
-32.550185
 21
-46.84409
  0
LINE
  8
別途部材
  6
CONTINUOUS
 10
-37.550185
 20
-46.84409
 11
-36.550185
 21
-46.84409
  0
LINE
  8
別途部材
  6
CONTINUOUS
 10
-40.550185
 20
-46.84409
 11
-41.550185
 21
-46.84409
  0
LINE
  8
別途部材
  6
CONTINUOUS
 10
-9.550185
 20
-46.84409
 11
-9.550185
 21
-55.177423
  0
LINE
  8
別途部材
  6
CONTINUOUS
 10
-10.550185
 20
-45.84409
 11
-10.550185
 21
-55.177423
  0
LINE
  8
別途部材
  6
CONTINUOUS
 10
-12.550185
 20
-46.84409
 11
-12.550185
 21
-55.177423
  0
LINE
  8
別途部材
  6
CONTINUOUS
 10
-11.550185
 20
-45.84409
 11
-11.550185
 21
-55.177423
  0
LINE
  8
別途部材
  6
CONTINUOUS
 10
-14.550185
 20
-45.84409
 11
-14.550185
 21
-55.177423
  0
LINE
  8
別途部材
  6
CONTINUOUS
 10
-13.550185
 20
-46.84409
 11
-13.550185
 21
-55.177423
  0
LINE
  8
別途部材
  6
CONTINUOUS
 10
-17.550185
 20
-46.84409
 11
-17.550185
 21
-55.177423
  0
LINE
  8
別途部材
  6
CONTINUOUS
 10
-18.550185
 20
-45.84409
 11
-18.550185
 21
-55.177423
  0
LINE
  8
別途部材
  6
CONTINUOUS
 10
-19.550185
 20
-45.84409
 11
-19.550185
 21
-55.177423
  0
LINE
  8
別途部材
  6
CONTINUOUS
 10
-16.550185
 20
-46.84409
 11
-16.550185
 21
-55.177423
  0
LINE
  8
別途部材
  6
CONTINUOUS
 10
-15.550185
 20
-45.84409
 11
-15.550185
 21
-55.177423
  0
LINE
  8
別途部材
  6
CONTINUOUS
 10
-23.550185
 20
-45.84409
 11
-23.550185
 21
-55.177423
  0
LINE
  8
別途部材
  6
CONTINUOUS
 10
-21.550185
 20
-46.84409
 11
-21.550185
 21
-55.177423
  0
LINE
  8
別途部材
  6
CONTINUOUS
 10
-20.550185
 20
-46.84409
 11
-20.550185
 21
-55.177423
  0
LINE
  8
別途部材
  6
CONTINUOUS
 10
-22.550185
 20
-45.84409
 11
-22.550185
 21
-55.177423
  0
LINE
  8
別途部材
  6
CONTINUOUS
 10
-24.550185
 20
-46.84409
 11
-24.550185
 21
-55.177423
  0
LINE
  8
別途部材
  6
CONTINUOUS
 10
-26.550185
 20
-45.84409
 11
-26.550185
 21
-55.177423
  0
LINE
  8
別途部材
  6
CONTINUOUS
 10
-27.550185
 20
-45.84409
 11
-27.550185
 21
-55.177423
  0
LINE
  8
別途部材
  6
CONTINUOUS
 10
-29.550185
 20
-46.84409
 11
-29.550185
 21
-55.177423
  0
LINE
  8
別途部材
  6
CONTINUOUS
 10
-28.550185
 20
-46.84409
 11
-28.550185
 21
-55.177423
  0
LINE
  8
別途部材
  6
CONTINUOUS
 10
-25.550185
 20
-46.84409
 11
-25.550185
 21
-55.177423
  0
LINE
  8
別途部材
  6
CONTINUOUS
 10
-30.550185
 20
-45.84409
 11
-30.550185
 21
-55.177423
  0
LINE
  8
別途部材
  6
CONTINUOUS
 10
-32.550185
 20
-46.84409
 11
-32.550185
 21
-55.177423
  0
LINE
  8
別途部材
  6
CONTINUOUS
 10
-31.550185
 20
-45.84409
 11
-31.550185
 21
-55.177423
  0
LINE
  8
別途部材
  6
CONTINUOUS
 10
-33.550185
 20
-46.84409
 11
-33.550185
 21
-55.177423
  0
LINE
  8
別途部材
  6
CONTINUOUS
 10
-34.550185
 20
-45.84409
 11
-34.550185
 21
-55.177423
  0
LINE
  8
別途部材
  6
CONTINUOUS
 10
-36.550185
 20
-46.84409
 11
-36.550185
 21
-55.177423
  0
LINE
  8
別途部材
  6
CONTINUOUS
 10
-35.550185
 20
-45.84409
 11
-35.550185
 21
-55.177423
  0
LINE
  8
別途部材
  6
CONTINUOUS
 10
-37.550185
 20
-46.84409
 11
-37.550185
 21
-55.177423
  0
LINE
  8
別途部材
  6
CONTINUOUS
 10
-38.550185
 20
-45.84409
 11
-38.550185
 21
-55.177423
  0
LINE
  8
別途部材
  6
CONTINUOUS
 10
-40.550185
 20
-46.84409
 11
-40.550185
 21
-55.177423
  0
LINE
  8
別途部材
  6
CONTINUOUS
 10
-39.550185
 20
-45.84409
 11
-39.550185
 21
-55.177423
  0
LINE
  8
別途部材
  6
CONTINUOUS
 10
-41.550185
 20
-46.84409
 11
-41.550185
 21
-55.177423
  0
LINE
  8
別途部材
  6
CONTINUOUS
 10
-42.550185
 20
-45.84409
 11
-42.550185
 21
-55.177423
  0
LINE
  8
別途部材
  6
CONTINUOUS
 10
-9.550185
 20
-46.84409
 11
-8.050185
 21
-46.84409
  0
ENDBLK
  0
BLOCK
  2
*DIM_0019
 70
    65
 10
0.0
 20
0.0
  0
LINE
  8
寸法
  6
CONTINUOUS
 10
15.683178
 20
-61.677663
 11
31.511537
 21
-61.677663
  0
LINE
  8
寸法
  6
CONTINUOUS
 10
13.616482
 20
-55.177423
 11
31.511537
 21
-55.177423
  0
LINE
  8
寸法
  6
CONTINUOUS
 10
31.511537
 20
-61.677663
 11
31.511537
 21
-55.177423
  0
POINT
  8
寸法
 10
31.511537
 20
-61.677663
  0
POINT
  8
寸法
 10
31.511537
 20
-55.177423
  0
TEXT
  7
TextStyle03
  8
寸法
  6
CONTINUOUS
 10
31.125
 20
-60.8875
  1
195
 40
3.0
 50
90.0
 72
     5
 11
31.125
 21
-56.0125
  0
ENDBLK
  0
BLOCK
  2
*DIM_0020
 70
    65
 10
0.0
 20
0.0
  0
LINE
  8
寸法
  6
CONTINUOUS
 10
-3.800185
 20
-46.84409
 11
31.511537
 21
-46.84409
  0
LINE
  8
寸法
  6
CONTINUOUS
 10
31.511537
 20
-55.177423
 11
31.511537
 21
-46.84409
  0
POINT
  8
寸法
 10
31.511537
 20
-46.84409
  0
TEXT
  7
TextStyle03
  8
寸法
  6
CONTINUOUS
 10
31.125
 20
-53.4625
  1
250
 40
3.0
 50
90.0
 72
     5
 11
31.125
 21
-48.5875
  0
ENDBLK
  0
BLOCK
  2
*DIM_0021
 70
    65
 10
0.0
 20
0.0
  0
LINE
  8
寸法
  6
CONTINUOUS
 10
106.113463
 20
-33.19936
 11
106.113463
 21
-20.621155
  0
LINE
  8
寸法
  6
CONTINUOUS
 10
139.06013
 20
-33.19936
 11
139.06013
 21
-20.621155
  0
LINE
  8
寸法
  6
CONTINUOUS
 10
106.113463
 20
-20.621155
 11
139.06013
 21
-20.621155
  0
POINT
  8
寸法
 10
106.113463
 20
-20.621155
  0
POINT
  8
寸法
 10
139.06013
 20
-20.621155
  0
TEXT
  7
TextStyle03
  8
寸法
  6
CONTINUOUS
 10
118.45
 20
-20.25
  1
988.4
 40
3.0
 72
     5
 11
126.7
 21
-20.25
  0
ENDBLK
  0
BLOCK
  2
*DIM_0022
 70
    65
 10
0.0
 20
0.0
  0
LINE
  8
寸法
  6
CONTINUOUS
 10
144.06013
 20
-38.19936
 11
157.748077
 21
-38.19936
  0
LINE
  8
寸法
  6
CONTINUOUS
 10
144.06013
 20
-68.732693
 11
157.748077
 21
-68.732693
  0
LINE
  8
寸法
  6
CONTINUOUS
 10
157.748077
 20
-38.19936
 11
157.748077
 21
-68.732693
  0
POINT
  8
寸法
 10
157.748077
 20
-38.19936
  0
POINT
  8
寸法
 10
157.748077
 20
-68.732693
  0
TEXT
  7
TextStyle03
  8
寸法
  6
CONTINUOUS
 10
157.35
 20
-55.9125
  1
916
 40
3.0
 50
90.0
 72
     5
 11
157.35
 21
-51.0375
  0
ENDBLK
  0
BLOCK
  2
*GRP_0023
 70
    65
 10
0.0
 20
0.0
  0
LINE
  8
ボルト／ビス
  6
CONTINUOUS
 10
7.616482
 20
-55.177423
 11
7.616482
 21
-54.710755
  0
LINE
  8
ボルト／ビス
  6
CONTINUOUS
 10
7.98315
 20
-55.177423
 11
7.98315
 21
-55.110755
  0
LINE
  8
ボルト／ビス
  6
CONTINUOUS
 10
7.98315
 20
-55.110755
 11
7.249815
 21
-55.110755
  0
LINE
  8
ボルト／ビス
  6
CONTINUOUS
 10
7.249815
 20
-55.110755
 11
7.249815
 21
-55.177423
  0
LINE
  8
ボルト／ビス
  6
CONTINUOUS
 10
7.98315
 20
-55.177423
 11
7.249815
 21
-55.177423
  0
LINE
  8
ボルト／ビス
  6
CONTINUOUS
 10
7.916482
 20
-55.077423
 11
7.916482
 21
-55.110755
  0
LINE
  8
ボルト／ビス
  6
CONTINUOUS
 10
7.916482
 20
-55.077423
 11
7.316482
 21
-55.077423
  0
LINE
  8
ボルト／ビス
  6
CONTINUOUS
 10
7.316482
 20
-55.077423
 11
7.316482
 21
-55.110755
  0
LINE
  8
ボルト／ビス
  6
CONTINUOUS
 62
    64
 10
7.776858
 20
-54.877423
 11
7.808933
 21
-54.889098
  0
ARC
  8
ボルト／ビス
  6
CONTINUOUS
 62
    64
 10
7.76082
 20
-54.982403
 40
0.104978
 50
90.0
 51
117.278033
  0
ARC
  8
ボルト／ビス
  6
CONTINUOUS
 62
    64
 10
7.616483
 20
-55.279827
 40
0.402402
 50
76.165015
 51
103.834998
  0
LINE
  8
ボルト／ビス
  6
CONTINUOUS
 62
    64
 10
7.456107
 20
-54.877423
 11
7.424033
 21
-54.889098
  0
ARC
  8
ボルト／ビス
  6
CONTINUOUS
 62
    64
 10
7.472145
 20
-54.982403
 40
0.104978
 50
62.721967
 51
90.0
  0
LINE
  8
ボルト／ビス
  6
CONTINUOUS
 62
    64
 10
7.776858
 20
-54.877423
 11
7.456107
 21
-54.877423
  0
LINE
  8
ボルト／ビス
  6
CONTINUOUS
 62
    64
 10
7.424033
 20
-54.889098
 11
7.424033
 21
-55.010755
  0
LINE
  8
ボルト／ビス
  6
CONTINUOUS
 62
    64
 10
7.520257
 20
-54.889098
 11
7.520257
 21
-55.010755
  0
LINE
  8
ボルト／ビス
  6
CONTINUOUS
 62
    64
 10
7.808933
 20
-54.889098
 11
7.808933
 21
-55.010755
  0
LINE
  8
ボルト／ビス
  6
CONTINUOUS
 62
    64
 10
7.712708
 20
-54.889098
 11
7.712708
 21
-55.010755
  0
LINE
  8
ボルト／ビス
  6
CONTINUOUS
 10
7.808933
 20
-55.010755
 11
7.424033
 21
-55.010755
  0
LINE
  8
ボルト／ビス
  6
CONTINUOUS
 10
7.816482
 20
-55.010755
 11
7.816482
 21
-55.077423
  0
LINE
  8
ボルト／ビス
  6
CONTINUOUS
 10
7.816482
 20
-55.010755
 11
7.416482
 21
-55.010755
  0
LINE
  8
ボルト／ビス
  6
CONTINUOUS
 10
7.416482
 20
-55.010755
 11
7.416482
 21
-55.077423
  0
ENDBLK
  0
BLOCK
  2
*GRP_0024
 70
    65
 10
0.0
 20
0.0
  0
LINE
  8
ボルト／ビス
  6
CONTINUOUS
 10
-93.716853
 20
-55.177423
 11
-93.716853
 21
-54.710755
  0
LINE
  8
ボルト／ビス
  6
CONTINUOUS
 10
-93.350185
 20
-55.177423
 11
-93.350185
 21
-55.110755
  0
LINE
  8
ボルト／ビス
  6
CONTINUOUS
 10
-93.350185
 20
-55.110755
 11
-94.08352
 21
-55.110755
  0
LINE
  8
ボルト／ビス
  6
CONTINUOUS
 10
-94.08352
 20
-55.110755
 11
-94.08352
 21
-55.177423
  0
LINE
  8
ボルト／ビス
  6
CONTINUOUS
 10
-93.350185
 20
-55.177423
 11
-94.08352
 21
-55.177423
  0
LINE
  8
ボルト／ビス
  6
CONTINUOUS
 10
-93.416853
 20
-55.077423
 11
-93.416853
 21
-55.110755
  0
LINE
  8
ボルト／ビス
  6
CONTINUOUS
 10
-93.416853
 20
-55.077423
 11
-94.016852
 21
-55.077423
  0
LINE
  8
ボルト／ビス
  6
CONTINUOUS
 10
-94.016852
 20
-55.077423
 11
-94.016852
 21
-55.110755
  0
LINE
  8
ボルト／ビス
  6
CONTINUOUS
 62
    64
 10
-93.556477
 20
-54.877423
 11
-93.524402
 21
-54.889098
  0
ARC
  8
ボルト／ビス
  6
CONTINUOUS
 62
    64
 10
-93.572515
 20
-54.982403
 40
0.104978
 50
90.0
 51
117.278033
  0
ARC
  8
ボルト／ビス
  6
CONTINUOUS
 62
    64
 10
-93.716852
 20
-55.279827
 40
0.402402
 50
76.165015
 51
103.834998
  0
LINE
  8
ボルト／ビス
  6
CONTINUOUS
 62
    64
 10
-93.877228
 20
-54.877423
 11
-93.909303
 21
-54.889098
  0
ARC
  8
ボルト／ビス
  6
CONTINUOUS
 62
    64
 10
-93.86119
 20
-54.982403
 40
0.104978
 50
62.721967
 51
90.0
  0
LINE
  8
ボルト／ビス
  6
CONTINUOUS
 62
    64
 10
-93.556477
 20
-54.877423
 11
-93.877228
 21
-54.877423
  0
LINE
  8
ボルト／ビス
  6
CONTINUOUS
 62
    64
 10
-93.909303
 20
-54.889098
 11
-93.909303
 21
-55.010755
  0
LINE
  8
ボルト／ビス
  6
CONTINUOUS
 62
    64
 10
-93.813077
 20
-54.889098
 11
-93.813077
 21
-55.010755
  0
LINE
  8
ボルト／ビス
  6
CONTINUOUS
 62
    64
 10
-93.524402
 20
-54.889098
 11
-93.524402
 21
-55.010755
  0
LINE
  8
ボルト／ビス
  6
CONTINUOUS
 62
    64
 10
-93.620627
 20
-54.889098
 11
-93.620627
 21
-55.010755
  0
LINE
  8
ボルト／ビス
  6
CONTINUOUS
 10
-93.524402
 20
-55.010755
 11
-93.909303
 21
-55.010755
  0
LINE
  8
ボルト／ビス
  6
CONTINUOUS
 10
-93.516852
 20
-55.010755
 11
-93.516852
 21
-55.077423
  0
LINE
  8
ボルト／ビス
  6
CONTINUOUS
 10
-93.516852
 20
-55.010755
 11
-93.916853
 21
-55.010755
  0
LINE
  8
ボルト／ビス
  6
CONTINUOUS
 10
-93.916853
 20
-55.010755
 11
-93.916853
 21
-55.077423
  0
ENDBLK
  0
BLOCK
  2
*GRP_0025
 70
    65
 10
0.0
 20
0.0
  0
LINE
  8
ボルト／ビス
  6
CONTINUOUS
 10
147.30385
 20
36.328695
 11
146.837183
 21
36.328695
  0
LINE
  8
ボルト／ビス
  6
CONTINUOUS
 10
147.30385
 20
36.695363
 11
147.237183
 21
36.695363
  0
LINE
  8
ボルト／ビス
  6
CONTINUOUS
 10
147.237183
 20
36.695363
 11
147.237183
 21
35.962027
  0
LINE
  8
ボルト／ビス
  6
CONTINUOUS
 10
147.237183
 20
35.962027
 11
147.30385
 21
35.962027
  0
LINE
  8
ボルト／ビス
  6
CONTINUOUS
 10
147.30385
 20
36.695363
 11
147.30385
 21
35.962027
  0
LINE
  8
ボルト／ビス
  6
CONTINUOUS
 10
147.20385
 20
36.628695
 11
147.237183
 21
36.628695
  0
LINE
  8
ボルト／ビス
  6
CONTINUOUS
 10
147.20385
 20
36.628695
 11
147.20385
 21
36.028695
  0
LINE
  8
ボルト／ビス
  6
CONTINUOUS
 10
147.20385
 20
36.028695
 11
147.237183
 21
36.028695
  0
LINE
  8
ボルト／ビス
  6
CONTINUOUS
 62
    64
 10
147.00385
 20
36.48907
 11
147.015525
 21
36.521145
  0
ARC
  8
ボルト／ビス
  6
CONTINUOUS
 62
    64
 10
147.10883
 20
36.473031
 40
0.104978
 50
180.0
 51
207.278033
  0
ARC
  8
ボルト／ビス
  6
CONTINUOUS
 62
    64
 10
147.406254
 20
36.328694
 40
0.402402
 50
166.165015
 51
193.834998
  0
LINE
  8
ボルト／ビス
  6
CONTINUOUS
 62
    64
 10
147.00385
 20
36.16832
 11
147.015525
 21
36.136245
  0
ARC
  8
ボルト／ビス
  6
CONTINUOUS
 62
    64
 10
147.10883
 20
36.184356
 40
0.104978
 50
152.721967
 51
180.0
  0
LINE
  8
ボルト／ビス
  6
CONTINUOUS
 62
    64
 10
147.00385
 20
36.48907
 11
147.00385
 21
36.16832
  0
LINE
  8
ボルト／ビス
  6
CONTINUOUS
 62
    64
 10
147.015525
 20
36.136245
 11
147.137183
 21
36.136245
  0
LINE
  8
ボルト／ビス
  6
CONTINUOUS
 62
    64
 10
147.015525
 20
36.23247
 11
147.137183
 21
36.23247
  0
LINE
  8
ボルト／ビス
  6
CONTINUOUS
 62
    64
 10
147.015525
 20
36.521145
 11
147.137183
 21
36.521145
  0
LINE
  8
ボルト／ビス
  6
CONTINUOUS
 62
    64
 10
147.015525
 20
36.42492
 11
147.137183
 21
36.42492
  0
LINE
  8
ボルト／ビス
  6
CONTINUOUS
 10
147.137183
 20
36.521145
 11
147.137183
 21
36.136245
  0
LINE
  8
ボルト／ビス
  6
CONTINUOUS
 10
147.137183
 20
36.528695
 11
147.20385
 21
36.528695
  0
LINE
  8
ボルト／ビス
  6
CONTINUOUS
 10
147.137183
 20
36.528695
 11
147.137183
 21
36.128695
  0
LINE
  8
ボルト／ビス
  6
CONTINUOUS
 10
147.137183
 20
36.128695
 11
147.20385
 21
36.128695
  0
ENDBLK
  0
BLOCK
  2
*GRP_0026
 70
    65
 10
0.0
 20
0.0
  0
LINE
  8
ボルト／ビス
  6
CONTINUOUS
 10
147.30385
 20
67.66203
 11
146.837183
 21
67.66203
  0
LINE
  8
ボルト／ビス
  6
CONTINUOUS
 10
147.30385
 20
68.028698
 11
147.237183
 21
68.028698
  0
LINE
  8
ボルト／ビス
  6
CONTINUOUS
 10
147.237183
 20
68.028698
 11
147.237183
 21
67.295363
  0
LINE
  8
ボルト／ビス
  6
CONTINUOUS
 10
147.237183
 20
67.295363
 11
147.30385
 21
67.295363
  0
LINE
  8
ボルト／ビス
  6
CONTINUOUS
 10
147.30385
 20
68.028698
 11
147.30385
 21
67.295363
  0
LINE
  8
ボルト／ビス
  6
CONTINUOUS
 10
147.20385
 20
67.96203
 11
147.237183
 21
67.96203
  0
LINE
  8
ボルト／ビス
  6
CONTINUOUS
 10
147.20385
 20
67.96203
 11
147.20385
 21
67.36203
  0
LINE
  8
ボルト／ビス
  6
CONTINUOUS
 10
147.20385
 20
67.36203
 11
147.237183
 21
67.36203
  0
LINE
  8
ボルト／ビス
  6
CONTINUOUS
 62
    64
 10
147.00385
 20
67.822405
 11
147.015525
 21
67.85448
  0
ARC
  8
ボルト／ビス
  6
CONTINUOUS
 62
    64
 10
147.10883
 20
67.806366
 40
0.104978
 50
180.0
 51
207.278033
  0
ARC
  8
ボルト／ビス
  6
CONTINUOUS
 62
    64
 10
147.406254
 20
67.662029
 40
0.402402
 50
166.165015
 51
193.834998
  0
LINE
  8
ボルト／ビス
  6
CONTINUOUS
 62
    64
 10
147.00385
 20
67.501655
 11
147.015525
 21
67.46958
  0
ARC
  8
ボルト／ビス
  6
CONTINUOUS
 62
    64
 10
147.10883
 20
67.517691
 40
0.104978
 50
152.721967
 51
180.0
  0
LINE
  8
ボルト／ビス
  6
CONTINUOUS
 62
    64
 10
147.00385
 20
67.822405
 11
147.00385
 21
67.501655
  0
LINE
  8
ボルト／ビス
  6
CONTINUOUS
 62
    64
 10
147.015525
 20
67.46958
 11
147.137183
 21
67.46958
  0
LINE
  8
ボルト／ビス
  6
CONTINUOUS
 62
    64
 10
147.015525
 20
67.565805
 11
147.137183
 21
67.565805
  0
LINE
  8
ボルト／ビス
  6
CONTINUOUS
 62
    64
 10
147.015525
 20
67.85448
 11
147.137183
 21
67.85448
  0
LINE
  8
ボルト／ビス
  6
CONTINUOUS
 62
    64
 10
147.015525
 20
67.758255
 11
147.137183
 21
67.758255
  0
LINE
  8
ボルト／ビス
  6
CONTINUOUS
 10
147.137183
 20
67.85448
 11
147.137183
 21
67.46958
  0
LINE
  8
ボルト／ビス
  6
CONTINUOUS
 10
147.137183
 20
67.86203
 11
147.20385
 21
67.86203
  0
LINE
  8
ボルト／ビス
  6
CONTINUOUS
 10
147.137183
 20
67.86203
 11
147.137183
 21
67.46203
  0
LINE
  8
ボルト／ビス
  6
CONTINUOUS
 10
147.137183
 20
67.46203
 11
147.20385
 21
67.46203
  0
ENDBLK
  0
BLOCK
  2
*GRP_0027
 70
    65
 10
0.0
 20
0.0
  0
LINE
  8
ボルト／ビス
  6
DOT
 10
146.433648
 20
70.908258
 11
146.103665
 21
71.238242
  0
LINE
  8
ボルト／ビス
  6
DOT
 10
146.692922
 20
71.16753
 11
146.64578
 21
71.214673
  0
LINE
  8
ボルト／ビス
  6
DOT
 10
146.64578
 20
71.214673
 11
146.127235
 21
70.696125
  0
LINE
  8
ボルト／ビス
  6
DOT
 10
146.127235
 20
70.696125
 11
146.174375
 21
70.648985
  0
LINE
  8
ボルト／ビス
  6
DOT
 10
146.692922
 20
71.16753
 11
146.174375
 21
70.648985
  0
LINE
  8
ボルト／ビス
  6
DOT
 10
146.57507
 20
71.1911
 11
146.59864
 21
71.16753
  0
LINE
  8
ボルト／ビス
  6
DOT
 10
146.57507
 20
71.1911
 11
146.150805
 21
70.766837
  0
LINE
  8
ボルト／ビス
  6
DOT
 10
146.150805
 20
70.766837
 11
146.174375
 21
70.743268
  0
LINE
  8
ボルト／ビス
  6
DOT
 62
    64
 10
146.334917
 20
71.233792
 11
146.365855
 21
71.248217
  0
ARC
  8
ボルト／ビス
  6
DOT
 62
    64
 10
146.397808
 20
71.148218
 40
0.104978
 50
135.0
 51
162.278033
  0
ARC
  8
ボルト／ビス
  6
DOT
 62
    64
 10
146.506057
 20
70.835846
 40
0.402402
 50
121.165015
 51
148.834998
  0
LINE
  8
ボルト／ビス
  6
DOT
 62
    64
 10
146.108115
 20
71.006987
 11
146.09369
 21
70.976052
  0
ARC
  8
ボルト／ビス
  6
DOT
 62
    64
 10
146.193684
 20
70.944094
 40
0.104978
 50
107.721967
 51
135.0
  0
LINE
  8
ボルト／ビス
  6
DOT
 62
    64
 10
146.334917
 20
71.233792
 11
146.108115
 21
71.006987
  0
LINE
  8
ボルト／ビス
  6
DOT
 62
    64
 10
146.09369
 20
70.976052
 11
146.179715
 21
70.890028
  0
LINE
  8
ボルト／ビス
  6
DOT
 62
    64
 10
146.16173
 20
71.044093
 11
146.247755
 21
70.958067
  0
LINE
  8
ボルト／ビス
  6
DOT
 62
    64
 10
146.365855
 20
71.248217
 11
146.45188
 21
71.162192
  0
LINE
  8
ボルト／ビス
  6
DOT
 62
    64
 10
146.297812
 20
71.180175
 11
146.383837
 21
71.09415
  0
LINE
  8
ボルト／ビス
  6
DOT
 10
146.45188
 20
71.162192
 11
146.179715
 21
70.890028
  0
LINE
  8
ボルト／ビス
  6
DOT
 10
146.457217
 20
71.16753
 11
146.50436
 21
71.12039
  0
LINE
  8
ボルト／ビス
  6
DOT
 10
146.457217
 20
71.16753
 11
146.174375
 21
70.884687
  0
LINE
  8
ボルト／ビス
  6
DOT
 10
146.174375
 20
70.884687
 11
146.221515
 21
70.837548
  0
ENDBLK
  0
BLOCK
  2
*GRP_0028
 70
    65
 10
0.0
 20
0.0
  0
LINE
  8
ボルト／ビス
  6
DOT
 10
124.277633
 20
48.752245
 11
123.94765
 21
49.08223
  0
LINE
  8
ボルト／ビス
  6
DOT
 10
124.536908
 20
49.011518
 11
124.489765
 21
49.05866
  0
LINE
  8
ボルト／ビス
  6
DOT
 10
124.489765
 20
49.05866
 11
123.97122
 21
48.540113
  0
LINE
  8
ボルト／ビス
  6
DOT
 10
123.97122
 20
48.540113
 11
124.01836
 21
48.492972
  0
LINE
  8
ボルト／ビス
  6
DOT
 10
124.536908
 20
49.011518
 11
124.01836
 21
48.492972
  0
LINE
  8
ボルト／ビス
  6
DOT
 10
124.419055
 20
49.035088
 11
124.442625
 21
49.011518
  0
LINE
  8
ボルト／ビス
  6
DOT
 10
124.419055
 20
49.035088
 11
123.99479
 21
48.610825
  0
LINE
  8
ボルト／ビス
  6
DOT
 10
123.99479
 20
48.610825
 11
124.01836
 21
48.587255
  0
LINE
  8
ボルト／ビス
  6
DOT
 62
    64
 10
124.178903
 20
49.07778
 11
124.20984
 21
49.092205
  0
ARC
  8
ボルト／ビス
  6
DOT
 62
    64
 10
124.241794
 20
48.992205
 40
0.104978
 50
135.0
 51
162.278033
  0
ARC
  8
ボルト／ビス
  6
DOT
 62
    64
 10
124.350042
 20
48.679833
 40
0.402402
 50
121.165015
 51
148.834998
  0
LINE
  8
ボルト／ビス
  6
DOT
 62
    64
 10
123.9521
 20
48.850975
 11
123.937675
 21
48.82004
  0
ARC
  8
ボルト／ビス
  6
DOT
 62
    64
 10
124.03767
 20
48.788081
 40
0.104978
 50
107.721967
 51
135.0
  0
LINE
  8
ボルト／ビス
  6
DOT
 62
    64
 10
124.178903
 20
49.07778
 11
123.9521
 21
48.850975
  0
LINE
  8
ボルト／ビス
  6
DOT
 62
    64
 10
123.937675
 20
48.82004
 11
124.0237
 21
48.734015
  0
LINE
  8
ボルト／ビス
  6
DOT
 62
    64
 10
124.005715
 20
48.88808
 11
124.09174
 21
48.802055
  0
LINE
  8
ボルト／ビス
  6
DOT
 62
    64
 10
124.20984
 20
49.092205
 11
124.295865
 21
49.00618
  0
LINE
  8
ボルト／ビス
  6
DOT
 62
    64
 10
124.141798
 20
49.024163
 11
124.227823
 21
48.938138
  0
LINE
  8
ボルト／ビス
  6
DOT
 10
124.295865
 20
49.00618
 11
124.0237
 21
48.734015
  0
LINE
  8
ボルト／ビス
  6
DOT
 10
124.301203
 20
49.011518
 11
124.348345
 21
48.964378
  0
LINE
  8
ボルト／ビス
  6
DOT
 10
124.301203
 20
49.011518
 11
124.01836
 21
48.728675
  0
LINE
  8
ボルト／ビス
  6
DOT
 10
124.01836
 20
48.728675
 11
124.0655
 21
48.681535
  0
ENDBLK
  0
ENDSEC
  0
SECTION
  2
ENTITIES
  0
POLYLINE
  8
通り芯
  6
CONTINUOUS
 66
     1
 70
     1
  0
VERTEX
  8
通り芯
 10
-210.0
 20
-148.5
  0
VERTEX
  8
通り芯
 10
210.0
 20
-148.5
  0
VERTEX
  8
通り芯
 10
210.0
 20
148.5
  0
VERTEX
  8
通り芯
 10
-210.0
 20
148.5
  0
SEQEND
  0
INSERT
  2
*GRP_0001
  8
型材断面
  6
CONTINUOUS
 10
0.0
 20
0.0
  0
LINE
  8
型材断面
  6
CONTINUOUS
 62
    47
 10
150.7373
 20
68.042055
 11
150.7373
 21
68.76227
  0
LINE
  8
型材断面
  6
CONTINUOUS
 62
    47
 10
149.44398
 20
68.718905
 11
149.43398
 21
68.728905
  0
LINE
  8
型材断面
  6
CONTINUOUS
 62
    47
 10
149.44398
 20
68.718905
 11
149.45398
 21
68.728905
  0
LINE
  8
型材断面
  6
CONTINUOUS
 62
    47
 10
150.086212
 20
68.718905
 11
150.076212
 21
68.728905
  0
LINE
  8
型材断面
  6
CONTINUOUS
 62
    47
 10
150.086212
 20
68.718905
 11
150.096213
 21
68.728905
  0
LINE
  8
型材断面
  6
CONTINUOUS
 62
    47
 10
150.503997
 20
68.728905
 11
150.096213
 21
68.728905
  0
LINE
  8
型材断面
  6
CONTINUOUS
 62
    47
 10
150.076212
 20
68.728905
 11
149.45398
 21
68.728905
  0
LINE
  8
型材断面
  6
CONTINUOUS
 62
    47
 10
154.137418
 20
70.228732
 11
153.804085
 21
70.228732
  0
LINE
  8
型材断面
  6
CONTINUOUS
 62
    47
 10
153.137415
 20
68.29557
 11
153.137415
 21
67.698725
  0
LINE
  8
型材断面
  6
CONTINUOUS
 62
    47
 10
153.137402
 20
68.528725
 11
153.304085
 21
70.728725
  0
LINE
  8
型材断面
  6
CONTINUOUS
 62
    47
 10
153.804085
 20
70.728725
 11
153.304085
 21
70.728725
  0
LINE
  8
型材断面
  6
CONTINUOUS
 62
    47
 10
150.570655
 20
69.99539
 11
150.7373
 21
69.99539
  0
LINE
  8
型材断面
  6
CONTINUOUS
 62
    47
 10
151.00396
 20
69.99539
 11
150.870643
 21
69.99539
  0
LINE
  8
型材断面
  6
CONTINUOUS
 62
    47
 10
150.503997
 20
68.728905
 11
150.570655
 21
70.002078
  0
LINE
  8
型材断面
  6
CONTINUOUS
 62
    47
 10
151.00396
 20
68.528725
 11
153.137415
 21
68.528725
  0
LINE
  8
型材断面
  6
CONTINUOUS
 62
    47
 10
149.43398
 20
68.728905
 11
148.30385
 21
68.728905
  0
LINE
  8
型材断面
  6
CONTINUOUS
 62
    47
 10
151.00396
 20
69.99539
 11
151.00396
 21
51.995363
  0
LINE
  8
型材断面
  6
CONTINUOUS
 10
150.570655
 20
69.99539
 11
150.570655
 21
51.995363
  0
LINE
  8
型材断面
  6
CONTINUOUS
 62
    47
 10
150.7373
 20
69.99539
 11
150.7373
 21
51.995363
  0
LINE
  8
型材断面
  6
CONTINUOUS
 10
150.503997
 20
68.728905
 11
150.503997
 21
51.995363
  0
LINE
  8
型材断面
  6
CONTINUOUS
 62
    47
 10
150.870643
 20
69.99539
 11
150.870643
 21
51.995363
  0
LINE
  8
型材断面
  6
CONTINUOUS
 10
153.137415
 20
68.528725
 11
153.137415
 21
51.995363
  0
LINE
  8
型材断面
  6
CONTINUOUS
 10
153.304085
 20
70.728725
 11
153.304085
 21
51.995363
  0
LINE
  8
型材断面
  6
CONTINUOUS
 10
154.137418
 20
70.228732
 11
154.137418
 21
51.995363
  0
LINE
  8
型材断面
  6
CONTINUOUS
 10
153.804085
 20
70.728725
 11
153.804085
 21
51.995363
  0
LINE
  8
型材断面
  6
CONTINUOUS
 62
    47
 10
150.7373
 20
35.94867
 11
150.7373
 21
35.228455
  0
LINE
  8
型材断面
  6
CONTINUOUS
 62
    47
 10
149.44398
 20
35.27182
 11
149.43398
 21
35.26182
  0
LINE
  8
型材断面
  6
CONTINUOUS
 62
    47
 10
149.44398
 20
35.27182
 11
149.45398
 21
35.26182
  0
LINE
  8
型材断面
  6
CONTINUOUS
 62
    47
 10
150.086212
 20
35.27182
 11
150.076212
 21
35.26182
  0
LINE
  8
型材断面
  6
CONTINUOUS
 62
    47
 10
150.086212
 20
35.27182
 11
150.096213
 21
35.26182
  0
LINE
  8
型材断面
  6
CONTINUOUS
 62
    47
 10
150.503997
 20
35.26182
 11
150.096213
 21
35.26182
  0
LINE
  8
型材断面
  6
CONTINUOUS
 62
    47
 10
150.076212
 20
35.26182
 11
149.45398
 21
35.26182
  0
LINE
  8
型材断面
  6
CONTINUOUS
 62
    47
 10
154.137418
 20
33.761993
 11
153.804085
 21
33.761993
  0
LINE
  8
型材断面
  6
CONTINUOUS
 62
    47
 10
153.137415
 20
35.695155
 11
153.137415
 21
36.292
  0
LINE
  8
型材断面
  6
CONTINUOUS
 62
    47
 10
153.137402
 20
35.462
 11
153.304085
 21
33.262
  0
LINE
  8
型材断面
  6
CONTINUOUS
 62
    47
 10
153.804085
 20
33.262
 11
153.304085
 21
33.262
  0
LINE
  8
型材断面
  6
CONTINUOUS
 62
    47
 10
150.570655
 20
33.995335
 11
150.7373
 21
33.995335
  0
LINE
  8
型材断面
  6
CONTINUOUS
 62
    47
 10
151.00396
 20
33.995335
 11
150.870643
 21
33.995335
  0
LINE
  8
型材断面
  6
CONTINUOUS
 62
    47
 10
150.503997
 20
35.26182
 11
150.570655
 21
33.988647
  0
LINE
  8
型材断面
  6
CONTINUOUS
 62
    47
 10
151.00396
 20
35.462
 11
153.137415
 21
35.462
  0
LINE
  8
型材断面
  6
CONTINUOUS
 62
    47
 10
149.43398
 20
35.26182
 11
148.30385
 21
35.26182
  0
LINE
  8
型材断面
  6
CONTINUOUS
 62
    47
 10
151.00396
 20
33.995335
 11
151.00396
 21
51.995363
  0
LINE
  8
型材断面
  6
CONTINUOUS
 10
150.570655
 20
33.995335
 11
150.570655
 21
51.995363
  0
LINE
  8
型材断面
  6
CONTINUOUS
 62
    47
 10
150.7373
 20
33.995335
 11
150.7373
 21
51.995363
  0
LINE
  8
型材断面
  6
CONTINUOUS
 10
150.503997
 20
35.26182
 11
150.503997
 21
51.995363
  0
LINE
  8
型材断面
  6
CONTINUOUS
 62
    47
 10
150.870643
 20
33.995335
 11
150.870643
 21
51.995363
  0
LINE
  8
型材断面
  6
CONTINUOUS
 10
153.137415
 20
35.462
 11
153.137415
 21
51.995363
  0
LINE
  8
型材断面
  6
CONTINUOUS
 10
153.304085
 20
33.262
 11
153.304085
 21
51.995363
  0
LINE
  8
型材断面
  6
CONTINUOUS
 10
154.137418
 20
33.761993
 11
154.137418
 21
51.995363
  0
LINE
  8
型材断面
  6
CONTINUOUS
 10
153.804085
 20
33.262
 11
153.804085
 21
51.995363
  0
LINE
  8
型材断面
  6
CONTINUOUS
 62
    47
 10
150.7373
 20
68.042055
 11
150.7373
 21
68.76227
  0
LINE
  8
型材断面
  6
CONTINUOUS
 62
    47
 10
149.44398
 20
68.718905
 11
149.43398
 21
68.728905
  0
LINE
  8
型材断面
  6
CONTINUOUS
 62
    47
 10
149.44398
 20
68.718905
 11
149.45398
 21
68.728905
  0
LINE
  8
型材断面
  6
CONTINUOUS
 62
    47
 10
150.086212
 20
68.718905
 11
150.076212
 21
68.728905
  0
LINE
  8
型材断面
  6
CONTINUOUS
 62
    47
 10
150.086212
 20
68.718905
 11
150.096213
 21
68.728905
  0
LINE
  8
型材断面
  6
CONTINUOUS
 62
    47
 10
150.503997
 20
68.728905
 11
150.096213
 21
68.728905
  0
LINE
  8
型材断面
  6
CONTINUOUS
 62
    47
 10
150.076212
 20
68.728905
 11
149.45398
 21
68.728905
  0
LINE
  8
型材断面
  6
CONTINUOUS
 62
    47
 10
150.570655
 20
69.99539
 11
150.7373
 21
69.99539
  0
LINE
  8
型材断面
  6
CONTINUOUS
 62
    47
 10
150.503997
 20
68.728905
 11
150.570655
 21
70.002078
  0
LINE
  8
型材断面
  6
CONTINUOUS
 62
    47
 10
149.43398
 20
68.728905
 11
148.30385
 21
68.728905
  0
LINE
  8
型材断面
  6
CONTINUOUS
 10
150.570655
 20
69.99539
 11
150.570655
 21
51.995363
  0
LINE
  8
型材断面
  6
CONTINUOUS
 62
    47
 10
150.7373
 20
69.99539
 11
150.7373
 21
51.995363
  0
LINE
  8
型材断面
  6
CONTINUOUS
 10
150.503997
 20
68.728905
 11
150.503997
 21
51.995363
  0
LINE
  8
型材断面
  6
CONTINUOUS
 62
    47
 10
150.7373
 20
35.94867
 11
150.7373
 21
35.228455
  0
LINE
  8
型材断面
  6
CONTINUOUS
 62
    47
 10
149.44398
 20
35.27182
 11
149.43398
 21
35.26182
  0
LINE
  8
型材断面
  6
CONTINUOUS
 62
    47
 10
149.44398
 20
35.27182
 11
149.45398
 21
35.26182
  0
LINE
  8
型材断面
  6
CONTINUOUS
 62
    47
 10
150.086212
 20
35.27182
 11
150.076212
 21
35.26182
  0
LINE
  8
型材断面
  6
CONTINUOUS
 62
    47
 10
150.086212
 20
35.27182
 11
150.096213
 21
35.26182
  0
LINE
  8
型材断面
  6
CONTINUOUS
 62
    47
 10
150.503997
 20
35.26182
 11
150.096213
 21
35.26182
  0
LINE
  8
型材断面
  6
CONTINUOUS
 62
    47
 10
150.076212
 20
35.26182
 11
149.45398
 21
35.26182
  0
LINE
  8
型材断面
  6
CONTINUOUS
 62
    47
 10
150.570655
 20
33.995335
 11
150.7373
 21
33.995335
  0
LINE
  8
型材断面
  6
CONTINUOUS
 62
    47
 10
150.503997
 20
35.26182
 11
150.570655
 21
33.988647
  0
LINE
  8
型材断面
  6
CONTINUOUS
 62
    47
 10
149.43398
 20
35.26182
 11
148.30385
 21
35.26182
  0
LINE
  8
型材断面
  6
CONTINUOUS
 10
150.570655
 20
33.995335
 11
150.570655
 21
51.995363
  0
LINE
  8
型材断面
  6
CONTINUOUS
 62
    47
 10
150.7373
 20
33.995335
 11
150.7373
 21
51.995363
  0
LINE
  8
型材断面
  6
CONTINUOUS
 10
150.503997
 20
35.26182
 11
150.503997
 21
51.995363
  0
LINE
  8
型材断面
  6
DOT
 62
    47
 10
149.13018
 20
68.74916
 11
149.63945
 21
69.25843
  0
LINE
  8
型材断面
  6
DOT
 62
    47
 10
148.69427
 20
70.142282
 11
148.69427
 21
70.156425
  0
LINE
  8
型材断面
  6
DOT
 62
    47
 10
148.69427
 20
70.142282
 11
148.708412
 21
70.142282
  0
LINE
  8
型材断面
  6
DOT
 62
    47
 10
149.148397
 20
69.688155
 11
149.148397
 21
69.702297
  0
LINE
  8
型材断面
  6
DOT
 62
    47
 10
149.148397
 20
69.688155
 11
149.16254
 21
69.688155
  0
LINE
  8
型材断面
  6
DOT
 62
    47
 10
149.450885
 20
69.399807
 11
149.16254
 21
69.688155
  0
LINE
  8
型材断面
  6
DOT
 62
    47
 10
149.148397
 20
69.702297
 11
148.708412
 21
70.142282
  0
LINE
  8
型材断面
  6
DOT
 62
    47
 10
150.39356
 20
70.248215
 11
150.511398
 21
70.130378
  0
LINE
  8
型材断面
  6
DOT
 62
    47
 10
149.450885
 20
69.399807
 11
150.39829
 21
70.252943
  0
LINE
  8
型材断面
  6
DOT
 62
    47
 10
148.69427
 20
70.156425
 11
147.895147
 21
70.955547
  0
LINE
  8
型材断面
  6
DOT
 10
150.39356
 20
70.248215
 11
137.66562
 21
57.52027
  0
LINE
  8
型材断面
  6
DOT
 62
    47
 10
150.511398
 20
70.130378
 11
137.783455
 21
57.402435
  0
LINE
  8
型材断面
  6
DOT
 62
    47
 10
126.43673
 20
46.05571
 11
125.92746
 21
45.546443
  0
LINE
  8
型材断面
  6
DOT
 62
    47
 10
125.04361
 20
46.49162
 11
125.029465
 21
46.49162
  0
LINE
  8
型材断面
  6
DOT
 62
    47
 10
125.04361
 20
46.49162
 11
125.04361
 21
46.477477
  0
LINE
  8
型材断面
  6
DOT
 62
    47
 10
125.497735
 20
46.037495
 11
125.483592
 21
46.037495
  0
LINE
  8
型材断面
  6
DOT
 62
    47
 10
125.497735
 20
46.037495
 11
125.497735
 21
46.02335
  0
LINE
  8
型材断面
  6
DOT
 62
    47
 10
125.786082
 20
45.735005
 11
125.497735
 21
46.02335
  0
LINE
  8
型材断面
  6
DOT
 62
    47
 10
125.483592
 20
46.037495
 11
125.04361
 21
46.477477
  0
LINE
  8
型材断面
  6
DOT
 62
    47
 10
124.937678
 20
44.79233
 11
125.055513
 21
44.674495
  0
LINE
  8
型材断面
  6
DOT
 62
    47
 10
125.786082
 20
45.735005
 11
124.93295
 21
44.7876
  0
LINE
  8
型材断面
  6
DOT
 62
    47
 10
125.029465
 20
46.49162
 11
124.230343
 21
47.290745
  0
LINE
  8
型材断面
  6
DOT
 10
124.937678
 20
44.79233
 11
137.66562
 21
57.52027
  0
LINE
  8
型材断面
  6
DOT
 62
    47
 10
125.055513
 20
44.674495
 11
137.783455
 21
57.402435
  0
LINE
  8
型材断面
  6
DOT
 10
125.786082
 20
45.735005
 11
137.618485
 21
57.567405
  0
LINE
  8
型材断面
  6
DOT
 62
    47
 10
149.13018
 20
68.74916
 11
149.63945
 21
69.25843
  0
LINE
  8
型材断面
  6
DOT
 62
    47
 10
148.69427
 20
70.142282
 11
148.69427
 21
70.156425
  0
LINE
  8
型材断面
  6
DOT
 62
    47
 10
148.69427
 20
70.142282
 11
148.708412
 21
70.142282
  0
LINE
  8
型材断面
  6
DOT
 62
    47
 10
149.148397
 20
69.688155
 11
149.148397
 21
69.702297
  0
LINE
  8
型材断面
  6
DOT
 62
    47
 10
149.148397
 20
69.688155
 11
149.16254
 21
69.688155
  0
LINE
  8
型材断面
  6
DOT
 62
    47
 10
149.450885
 20
69.399807
 11
149.16254
 21
69.688155
  0
LINE
  8
型材断面
  6
DOT
 62
    47
 10
149.148397
 20
69.702297
 11
148.708412
 21
70.142282
  0
LINE
  8
型材断面
  6
DOT
 62
    47
 10
150.39356
 20
70.248215
 11
150.511398
 21
70.130378
  0
LINE
  8
型材断面
  6
DOT
 62
    47
 10
149.450885
 20
69.399807
 11
150.39829
 21
70.252943
  0
LINE
  8
型材断面
  6
DOT
 62
    47
 10
148.69427
 20
70.156425
 11
147.895147
 21
70.955547
  0
LINE
  8
型材断面
  6
DOT
 10
150.39356
 20
70.248215
 11
137.66562
 21
57.52027
  0
LINE
  8
型材断面
  6
DOT
 62
    47
 10
150.511398
 20
70.130378
 11
137.783455
 21
57.402435
  0
LINE
  8
型材断面
  6
DOT
 10
149.450885
 20
69.399807
 11
137.618485
 21
57.567405
  0
LINE
  8
型材断面
  6
DOT
 62
    47
 10
126.43673
 20
46.05571
 11
125.92746
 21
45.546443
  0
LINE
  8
型材断面
  6
DOT
 62
    47
 10
125.04361
 20
46.49162
 11
125.029465
 21
46.49162
  0
LINE
  8
型材断面
  6
DOT
 62
    47
 10
125.04361
 20
46.49162
 11
125.04361
 21
46.477477
  0
LINE
  8
型材断面
  6
DOT
 62
    47
 10
125.497735
 20
46.037495
 11
125.483592
 21
46.037495
  0
LINE
  8
型材断面
  6
DOT
 62
    47
 10
125.497735
 20
46.037495
 11
125.497735
 21
46.02335
  0
LINE
  8
型材断面
  6
DOT
 62
    47
 10
125.786082
 20
45.735005
 11
125.497735
 21
46.02335
  0
LINE
  8
型材断面
  6
DOT
 62
    47
 10
125.483592
 20
46.037495
 11
125.04361
 21
46.477477
  0
LINE
  8
型材断面
  6
DOT
 62
    47
 10
124.937678
 20
44.79233
 11
125.055513
 21
44.674495
  0
LINE
  8
型材断面
  6
DOT
 62
    47
 10
125.786082
 20
45.735005
 11
124.93295
 21
44.7876
  0
LINE
  8
型材断面
  6
DOT
 62
    47
 10
125.029465
 20
46.49162
 11
124.230343
 21
47.290745
  0
LINE
  8
型材断面
  6
DOT
 10
124.937678
 20
44.79233
 11
137.66562
 21
57.52027
  0
LINE
  8
型材断面
  6
DOT
 62
    47
 10
125.055513
 20
44.674495
 11
137.783455
 21
57.402435
  0
LINE
  8
型材断面
  6
DOT
 10
125.786082
 20
45.735005
 11
137.618485
 21
57.567405
  0
ARC
  8
型材断面
  6
DASHDOT
 10
150.787289
 20
70.335575
 40
36.340275
 50
224.92118
 51
269.921181
  0
LINE
  8
型材断面
  6
DASHDOT
 10
-43.050183
 20
-66.258275
 11
-43.050183
 21
66.995363
  0
LINE
  8
型材断面
  6
CONTINUOUS
 62
    47
 10
7.996508
 20
-58.610877
 11
8.716722
 21
-58.610877
  0
LINE
  8
型材断面
  6
CONTINUOUS
 62
    47
 10
8.673358
 20
-57.317558
 11
8.683358
 21
-57.307557
  0
LINE
  8
型材断面
  6
CONTINUOUS
 62
    47
 10
8.673358
 20
-57.317558
 11
8.683358
 21
-57.327557
  0
LINE
  8
型材断面
  6
CONTINUOUS
 62
    47
 10
8.673358
 20
-57.95979
 11
8.683358
 21
-57.94979
  0
LINE
  8
型材断面
  6
CONTINUOUS
 62
    47
 10
8.673358
 20
-57.95979
 11
8.683358
 21
-57.96979
  0
LINE
  8
型材断面
  6
CONTINUOUS
 62
    47
 10
8.683358
 20
-58.377575
 11
8.683358
 21
-57.96979
  0
LINE
  8
型材断面
  6
CONTINUOUS
 62
    47
 10
8.683358
 20
-57.94979
 11
8.683358
 21
-57.327557
  0
LINE
  8
型材断面
  6
CONTINUOUS
 62
    47
 10
10.183185
 20
-62.010995
 11
10.183185
 21
-61.677663
  0
LINE
  8
型材断面
  6
CONTINUOUS
 62
    47
 10
8.250022
 20
-61.010992
 11
7.653177
 21
-61.010992
  0
LINE
  8
型材断面
  6
CONTINUOUS
 62
    47
 10
8.483178
 20
-61.01098
 11
10.683178
 21
-61.177663
  0
LINE
  8
型材断面
  6
CONTINUOUS
 62
    47
 10
10.683178
 20
-61.677663
 11
10.683178
 21
-61.177663
  0
LINE
  8
型材断面
  6
CONTINUOUS
 62
    47
 10
9.949842
 20
-58.444232
 11
9.949842
 21
-58.610877
  0
LINE
  8
型材断面
  6
CONTINUOUS
 62
    47
 10
9.949842
 20
-58.877538
 11
9.949842
 21
-58.74422
  0
LINE
  8
型材断面
  6
CONTINUOUS
 62
    47
 10
8.683358
 20
-58.377575
 11
9.95653
 21
-58.444232
  0
LINE
  8
型材断面
  6
CONTINUOUS
 62
    47
 10
8.483178
 20
-58.877538
 11
8.483178
 21
-61.010992
  0
LINE
  8
型材断面
  6
CONTINUOUS
 62
    47
 10
8.683358
 20
-57.307557
 11
8.683358
 21
-56.177427
  0
LINE
  8
型材断面
  6
CONTINUOUS
 62
    47
 10
9.949842
 20
-58.74422
 11
-43.050183
 21
-58.74422
  0
LINE
  8
型材断面
  6
CONTINUOUS
 10
8.683358
 20
-58.377575
 11
-43.050183
 21
-58.377575
  0
LINE
  8
型材断面
  6
CONTINUOUS
 10
9.949842
 20
-58.444232
 11
-43.050183
 21
-58.444232
  0
LINE
  8
型材断面
  6
CONTINUOUS
 62
    47
 10
9.949842
 20
-58.877538
 11
-43.050183
 21
-58.877538
  0
LINE
  8
型材断面
  6
CONTINUOUS
 62
    47
 10
9.949842
 20
-58.610877
 11
-43.050183
 21
-58.610877
  0
LINE
  8
型材断面
  6
CONTINUOUS
 10
10.683178
 20
-61.677663
 11
-43.050183
 21
-61.677663
  0
LINE
  8
型材断面
  6
CONTINUOUS
 10
10.683178
 20
-61.177663
 11
-43.050183
 21
-61.177663
  0
LINE
  8
型材断面
  6
CONTINUOUS
 10
10.183185
 20
-62.010995
 11
-43.050183
 21
-62.010995
  0
LINE
  8
型材断面
  6
CONTINUOUS
 10
8.483178
 20
-61.010992
 11
-43.050183
 21
-61.010992
  0
LINE
  8
型材断面
  6
CONTINUOUS
 10
9.016482
 20
34.928698
 11
10.683178
 21
33.262003
  0
LINE
  8
型材断面
  6
CONTINUOUS
 10
10.683178
 20
33.262003
 11
10.683178
 21
46.995363
  0
LINE
  8
型材断面
  6
CONTINUOUS
 10
9.949842
 20
33.995335
 11
9.949842
 21
46.995363
  0
LINE
  8
型材断面
  6
CONTINUOUS
 10
9.016482
 20
69.06203
 11
10.683178
 21
70.728725
  0
LINE
  8
型材断面
  6
CONTINUOUS
 10
10.683178
 20
46.995363
 11
10.683178
 21
70.728725
  0
LINE
  8
型材断面
  6
CONTINUOUS
 10
9.949842
 20
46.995363
 11
9.949842
 21
69.99539
  0
LINE
  8
型材断面
  6
DASHDOT
 10
6.949815
 20
-66.258275
 11
6.949815
 21
66.995363
  0
LINE
  8
型材断面
  6
CONTINUOUS
 62
    47
 10
-94.096875
 20
-58.610877
 11
-94.817087
 21
-58.610877
  0
LINE
  8
型材断面
  6
CONTINUOUS
 62
    47
 10
-94.773725
 20
-57.317558
 11
-94.783725
 21
-57.307557
  0
LINE
  8
型材断面
  6
CONTINUOUS
 62
    47
 10
-94.773725
 20
-57.317558
 11
-94.783725
 21
-57.327557
  0
LINE
  8
型材断面
  6
CONTINUOUS
 62
    47
 10
-94.773725
 20
-57.95979
 11
-94.783725
 21
-57.94979
  0
LINE
  8
型材断面
  6
CONTINUOUS
 62
    47
 10
-94.773725
 20
-57.95979
 11
-94.783725
 21
-57.96979
  0
LINE
  8
型材断面
  6
CONTINUOUS
 62
    47
 10
-94.783725
 20
-58.377575
 11
-94.783725
 21
-57.96979
  0
LINE
  8
型材断面
  6
CONTINUOUS
 62
    47
 10
-94.783725
 20
-57.94979
 11
-94.783725
 21
-57.327557
  0
LINE
  8
型材断面
  6
CONTINUOUS
 62
    47
 10
-96.283553
 20
-62.010995
 11
-96.283553
 21
-61.677663
  0
LINE
  8
型材断面
  6
CONTINUOUS
 62
    47
 10
-94.35039
 20
-61.010992
 11
-93.753543
 21
-61.010992
  0
LINE
  8
型材断面
  6
CONTINUOUS
 62
    47
 10
-94.583543
 20
-61.01098
 11
-96.783543
 21
-61.177663
  0
LINE
  8
型材断面
  6
CONTINUOUS
 62
    47
 10
-96.783543
 20
-61.677663
 11
-96.783543
 21
-61.177663
  0
LINE
  8
型材断面
  6
CONTINUOUS
 62
    47
 10
-96.05021
 20
-58.444232
 11
-96.05021
 21
-58.610877
  0
LINE
  8
型材断面
  6
CONTINUOUS
 62
    47
 10
-96.05021
 20
-58.877538
 11
-96.05021
 21
-58.74422
  0
LINE
  8
型材断面
  6
CONTINUOUS
 62
    47
 10
-94.783725
 20
-58.377575
 11
-96.056898
 21
-58.444232
  0
LINE
  8
型材断面
  6
CONTINUOUS
 62
    47
 10
-94.583543
 20
-58.877538
 11
-94.583543
 21
-61.010992
  0
LINE
  8
型材断面
  6
CONTINUOUS
 62
    47
 10
-94.783725
 20
-57.307557
 11
-94.783725
 21
-56.177427
  0
LINE
  8
型材断面
  6
CONTINUOUS
 62
    47
 10
-96.05021
 20
-58.74422
 11
-43.050183
 21
-58.74422
  0
LINE
  8
型材断面
  6
CONTINUOUS
 10
-94.783725
 20
-58.377575
 11
-43.050183
 21
-58.377575
  0
LINE
  8
型材断面
  6
CONTINUOUS
 10
-96.05021
 20
-58.444232
 11
-43.050183
 21
-58.444232
  0
LINE
  8
型材断面
  6
CONTINUOUS
 62
    47
 10
-96.05021
 20
-58.877538
 11
-43.050183
 21
-58.877538
  0
LINE
  8
型材断面
  6
CONTINUOUS
 62
    47
 10
-96.05021
 20
-58.610877
 11
-43.050183
 21
-58.610877
  0
LINE
  8
型材断面
  6
CONTINUOUS
 10
-96.783543
 20
-61.677663
 11
-43.050183
 21
-61.677663
  0
LINE
  8
型材断面
  6
CONTINUOUS
 10
-96.783543
 20
-61.177663
 11
-43.050183
 21
-61.177663
  0
LINE
  8
型材断面
  6
CONTINUOUS
 10
-96.283553
 20
-62.010995
 11
-43.050183
 21
-62.010995
  0
LINE
  8
型材断面
  6
CONTINUOUS
 10
-94.583543
 20
-61.010992
 11
-43.050183
 21
-61.010992
  0
LINE
  8
型材断面
  6
CONTINUOUS
 10
-95.116848
 20
34.928698
 11
-96.783543
 21
33.262003
  0
LINE
  8
型材断面
  6
CONTINUOUS
 10
-96.783543
 20
33.262003
 11
-96.783543
 21
46.995363
  0
LINE
  8
型材断面
  6
CONTINUOUS
 10
-96.05021
 20
33.995335
 11
-96.05021
 21
46.995363
  0
LINE
  8
型材断面
  6
CONTINUOUS
 10
-96.783543
 20
33.262003
 11
-83.050183
 21
33.262003
  0
LINE
  8
型材断面
  6
CONTINUOUS
 10
-96.05021
 20
33.995335
 11
-83.050183
 21
33.995335
  0
LINE
  8
型材断面
  6
DASHDOT
 10
-93.050183
 20
36.995363
 11
159.10577
 21
36.995363
  0
LINE
  8
型材断面
  6
CONTINUOUS
 10
-95.116848
 20
69.06203
 11
-96.783543
 21
70.728725
  0
LINE
  8
型材断面
  6
CONTINUOUS
 10
-96.783543
 20
70.728725
 11
-83.050183
 21
70.728725
  0
LINE
  8
型材断面
  6
CONTINUOUS
 10
-96.05021
 20
69.995392
 11
-83.050183
 21
69.995392
  0
LINE
  8
型材断面
  6
DASHDOT
 10
-93.050183
 20
66.995363
 11
159.10577
 21
66.995363
  0
LINE
  8
型材断面
  6
DASHDOT
 10
-93.050183
 20
51.995363
 11
159.10577
 21
51.995363
  0
LINE
  8
型材断面
  6
DASHDOT
 10
-93.050183
 20
-66.258275
 11
-93.050183
 21
66.995363
  0
LINE
  8
型材断面
  6
CONTINUOUS
 10
-96.05021
 20
46.995363
 11
-96.05021
 21
69.995392
  0
LINE
  8
型材断面
  6
CONTINUOUS
 10
-96.783543
 20
46.995363
 11
-96.783543
 21
70.728725
  0
LINE
  8
型材断面
  6
CONTINUOUS
 10
10.683178
 20
33.262003
 11
-83.050183
 21
33.262003
  0
LINE
  8
型材断面
  6
CONTINUOUS
 10
9.949842
 20
33.995335
 11
-83.050183
 21
33.995335
  0
LINE
  8
型材断面
  6
CONTINUOUS
 10
10.683178
 20
70.728725
 11
-83.050183
 21
70.728725
  0
LINE
  8
型材断面
  6
CONTINUOUS
 10
9.949842
 20
69.995392
 11
-83.050183
 21
69.995392
  0
LINE
  8
型材断面
  6
CONTINUOUS
 10
-76.383515
 20
69.625492
 11
-77.879145
 21
72.216
  0
LINE
  8
型材断面
  6
CONTINUOUS
 10
-76.383515
 20
69.625492
 11
-74.887885
 21
72.216
  0
LINE
  8
型材断面
  6
CONTINUOUS
 10
-74.887885
 20
72.216
 11
-77.879145
 21
72.216
  0
LINE
  8
型材断面
  6
CONTINUOUS
 10
-95.680313
 20
51.995363
 11
-98.27082
 21
53.490992
  0
LINE
  8
型材断面
  6
CONTINUOUS
 10
-95.680313
 20
51.995363
 11
-98.27082
 21
50.499733
  0
LINE
  8
型材断面
  6
CONTINUOUS
 10
-98.27082
 20
50.499733
 11
-98.27082
 21
53.490992
  0
LINE
  8
型材断面
  6
CONTINUOUS
 10
-76.383515
 20
34.365232
 11
-77.879145
 21
31.774725
  0
LINE
  8
型材断面
  6
CONTINUOUS
 10
-76.383515
 20
34.365232
 11
-74.887885
 21
31.774725
  0
LINE
  8
型材断面
  6
CONTINUOUS
 10
-74.887885
 20
31.774725
 11
-77.879145
 21
31.774725
  0
LINE
  8
型材断面
  6
CONTINUOUS
 10
-146.928705
 20
104.972835
 11
-146.33265
 21
102.382328
  0
LINE
  8
型材断面
  6
CONTINUOUS
 10
-146.928705
 20
104.972835
 11
-147.524763
 21
102.382328
  0
LINE
  8
型材断面
  6
CONTINUOUS
 10
-147.524763
 20
102.382328
 11
-146.33265
 21
102.382328
  0
LINE
  8
型材断面
  6
CONTINUOUS
 10
-152.951292
 20
99.103435
 11
-106.709515
 21
99.103435
  0
LINE
  8
型材断面
  6
CONTINUOUS
 10
-146.928705
 20
111.50271
 11
-148.424335
 21
108.912203
  0
LINE
  8
型材断面
  6
CONTINUOUS
 10
-146.928705
 20
111.50271
 11
-145.433075
 21
108.912203
  0
LINE
  8
型材断面
  6
CONTINUOUS
 10
-145.433075
 20
108.912203
 11
-148.424335
 21
108.912203
  0
LINE
  8
型材断面
  6
CONTINUOUS
 10
-152.951292
 20
107.973608
 11
-106.709515
 21
107.973608
  0
LINE
  8
型材断面
  6
CONTINUOUS
 10
-152.951292
 20
93.315402
 11
-106.709515
 21
93.315402
  0
LINE
  8
型材断面
  6
CONTINUOUS
 10
-9.71685
 20
69.625492
 11
-8.22122
 21
72.216
  0
LINE
  8
型材断面
  6
CONTINUOUS
 10
-9.71685
 20
69.625492
 11
-11.21248
 21
72.216
  0
LINE
  8
型材断面
  6
CONTINUOUS
 10
-11.21248
 20
72.216
 11
-8.22122
 21
72.216
  0
LINE
  8
型材断面
  6
CONTINUOUS
 10
-9.71685
 20
34.365232
 11
-8.22122
 21
31.774725
  0
LINE
  8
型材断面
  6
CONTINUOUS
 10
-9.71685
 20
34.365232
 11
-11.21248
 21
31.774725
  0
LINE
  8
型材断面
  6
CONTINUOUS
 10
-11.21248
 20
31.774725
 11
-8.22122
 21
31.774725
  0
POLYLINE
  8
型材断面
  6
DASHDOT
 66
     1
  0
VERTEX
  8
型材断面
 10
-93.050183
 20
36.995363
  0
VERTEX
  8
型材断面
 10
-43.050183
 20
66.995363
  0
VERTEX
  8
型材断面
 10
6.949818
 20
36.995363
  0
SEQEND
  0
LINE
  8
型材断面
  6
CONTINUOUS
 10
4.949818
 20
34.38855
 11
4.35376
 21
31.798045
  0
LINE
  8
型材断面
  6
CONTINUOUS
 10
4.949818
 20
34.38855
 11
5.545875
 21
31.798045
  0
LINE
  8
型材断面
  6
CONTINUOUS
 10
5.545875
 20
31.798045
 11
4.35376
 21
31.798045
  0
LINE
  8
型材断面
  6
CONTINUOUS
 10
-91.050183
 20
34.38855
 11
-90.454125
 21
31.798045
  0
LINE
  8
型材断面
  6
CONTINUOUS
 10
-91.050183
 20
34.38855
 11
-91.64624
 21
31.798045
  0
LINE
  8
型材断面
  6
CONTINUOUS
 10
-91.64624
 20
31.798045
 11
-90.454125
 21
31.798045
  0
LINE
  8
型材断面
  6
DASHDOT
 10
-59.946847
 20
36.995363
 11
-59.946847
 21
66.995363
  0
LINE
  8
型材断面
  6
DOT
 10
-61.196847
 20
36.995363
 11
-61.196847
 21
66.995363
  0
LINE
  8
型材断面
  6
DOT
 10
-58.696847
 20
36.995363
 11
-58.696847
 21
66.995363
  0
LINE
  8
型材断面
  6
DASHDOT
 10
-26.153518
 20
36.995363
 11
-26.153518
 21
66.995363
  0
LINE
  8
型材断面
  6
DOT
 10
-24.903518
 20
36.995363
 11
-24.903518
 21
66.995363
  0
LINE
  8
型材断面
  6
DOT
 10
-27.403518
 20
36.995363
 11
-27.403518
 21
66.995363
  0
POLYLINE
  8
ガラス
  6
CONTINUOUS
 66
     1
 70
     1
  0
VERTEX
  8
ガラス
 10
139.06013
 20
-38.19936
  0
VERTEX
  8
ガラス
 10
106.113463
 20
-38.19936
  0
VERTEX
  8
ガラス
 10
106.113463
 20
-68.732693
  0
VERTEX
  8
ガラス
 10
139.06013
 20
-68.732693
  0
SEQEND
  0
TEXT
  7
TextStyle03
  8
文字
  6
CONTINUOUS
 10
80.875
 20
94.425
  1
ＮＳコード：ＮＳＨＬ
 40
5.0
 72
     5
 11
136.5
 21
94.425
  0
TEXT
  7
TextStyle03
  8
文字
  6
CONTINUOUS
 10
129.975
 20
30.25
  1
45°
 40
3.0
 72
     5
 11
136.35
 21
30.25
  0
TEXT
  7
TextStyle03
  8
文字
  6
CONTINUOUS
 10
81.225
 20
116.5
  1
シリーズ：ＴＤ１ＨＬ
 40
5.0
 72
     5
 11
136.85
 21
116.5
  0
TEXT
  7
TextStyle03
  8
文字
  6
CONTINUOUS
 10
81.225
 20
110.875
  1
　　　　　（片側開閉）900×3000タイプ
 40
5.0
 72
     5
 11
184.6625
 21
110.875
  0
TEXT
  7
TextStyle03
  8
文字
  6
CONTINUOUS
 10
81.225
 20
105.25
  1
図面名　：外観姿図
 40
5.0
 72
     5
 11
131.225
 21
105.25
  0
TEXT
  7
TextStyle03
  8
文字
  6
CONTINUOUS
 10
81.225
 20
99.625
  1
　　　　　　
 40
5.0
 72
     5
 11
114.35
 21
99.625
  0
TEXT
  7
TextStyle03
  8
文字
  6
CONTINUOUS
 10
-144.125
 20
109.1
  1
は排水穴位置を示す
 40
3.0
 72
     5
 11
-114.125
 21
109.1
  0
TEXT
  7
TextStyle03
  8
文字
  6
CONTINUOUS
 10
-144.125
 20
103.575
  1
はケーシング位置を示す
 40
3.0
 72
     5
 11
-107.375
 21
103.575
  0
TEXT
  7
TextStyle03
  8
文字
  6
CONTINUOUS
 10
-144.125
 20
100.2
  1
２ヶ所中1ヶ所に設定
 40
3.0
 72
     5
 11
-112.4375
 21
100.2
  0
TEXT
  7
TextStyle03
  8
文字
  6
CONTINUOUS
 10
-114.0
 20
30.45
  1
アンカーピッチ
 40
3.0
 50
90.0
 72
     5
 11
-114.0
 21
53.7
  0
TEXT
  7
TextStyle03
  8
文字
  6
CONTINUOUS
 10
-83.1
 20
104.375
  1
アンカーピッチ
 40
3.0
 72
     5
 11
-59.85
 21
104.375
  0
TEXT
  7
TextStyle03
  8
文字
  6
CONTINUOUS
 10
-147.85
 20
94.225
  1
アンカー数量　１２ヶ所
 40
3.0
 72
     5
 11
-111.1
 21
94.225
  0
TEXT
  7
TextStyle03
  8
文字
  6
CONTINUOUS
 10
119.8
 20
-61.4
  1
網入り6.8t
 40
3.0
 72
     5
 11
136.4875
 21
-61.4
  0
TEXT
  7
TextStyle03
  8
文字
  6
CONTINUOUS
 10
126.425
 20
-66.65
  1
×３枚
 40
3.0
 72
     5
 11
136.175
 21
-66.65
  0
INSERT
  2
*DIM_0002
  8
寸法
  6
CONTINUOUS
 10
0.0
 20
0.0
  0
INSERT
  2
*DIM_0003
  8
寸法
  6
CONTINUOUS
 10
0.0
 20
0.0
  0
INSERT
  2
*DIM_0005
  8
寸法
  6
CONTINUOUS
 10
0.0
 20
0.0
  0
INSERT
  2
*DIM_0006
  8
寸法
  6
CONTINUOUS
 10
0.0
 20
0.0
  0
INSERT
  2
*DIM_0007
  8
寸法
  6
CONTINUOUS
 10
0.0
 20
0.0
  0
INSERT
  2
*DIM_0008
  8
寸法
  6
CONTINUOUS
 10
0.0
 20
0.0
  0
INSERT
  2
*DIM_0009
  8
寸法
  6
CONTINUOUS
 10
0.0
 20
0.0
  0
INSERT
  2
*DIM_0010
  8
寸法
  6
CONTINUOUS
 10
0.0
 20
0.0
  0
INSERT
  2
*DIM_0011
  8
寸法
  6
CONTINUOUS
 10
0.0
 20
0.0
  0
INSERT
  2
*DIM_0012
  8
寸法
  6
CONTINUOUS
 10
0.0
 20
0.0
  0
INSERT
  2
*DIM_0013
  8
寸法
  6
CONTINUOUS
 10
0.0
 20
0.0
  0
INSERT
  2
*DIM_0014
  8
寸法
  6
CONTINUOUS
 10
0.0
 20
0.0
  0
INSERT
  2
*DIM_0015
  8
寸法
  6
CONTINUOUS
 10
0.0
 20
0.0
  0
INSERT
  2
*DIM_0016
  8
寸法
  6
CONTINUOUS
 10
0.0
 20
0.0
  0
INSERT
  2
*DIM_0017
  8
寸法
  6
CONTINUOUS
 10
0.0
 20
0.0
  0
INSERT
  2
*DIM_0019
  8
寸法
  6
CONTINUOUS
 10
0.0
 20
0.0
  0
INSERT
  2
*DIM_0020
  8
寸法
  6
CONTINUOUS
 10
0.0
 20
0.0
  0
INSERT
  2
*DIM_0021
  8
寸法
  6
CONTINUOUS
 10
0.0
 20
0.0
  0
INSERT
  2
*DIM_0022
  8
寸法
  6
CONTINUOUS
 10
0.0
 20
0.0
  0
LINE
  8
別途部材
  6
CONTINUOUS
 62
    96
 10
147.30385
 20
68.66203
 11
148.30385
 21
69.06203
  0
LINE
  8
別途部材
  6
CONTINUOUS
 62
    96
 10
147.30385
 20
68.66203
 11
147.30385
 21
51.995363
  0
LINE
  8
別途部材
  6
CONTINUOUS
 10
148.30385
 20
69.06203
 11
148.30385
 21
51.995363
  0
LINE
  8
別途部材
  6
CONTINUOUS
 62
    96
 10
147.30385
 20
35.328695
 11
148.30385
 21
34.928695
  0
LINE
  8
別途部材
  6
CONTINUOUS
 62
    96
 10
147.30385
 20
35.328695
 11
147.30385
 21
51.995363
  0
LINE
  8
別途部材
  6
CONTINUOUS
 10
148.30385
 20
34.928695
 11
148.30385
 21
51.995363
  0
ARC
  8
別途部材
  6
CONTINUOUS
 10
156.63718
 20
51.995363
 40
17.666667
 50
121.890792
 51
238.109208
  0
INSERT
  2
*GRP_0004
  8
別途部材
  6
CONTINUOUS
 10
0.0
 20
0.0
  0
LINE
  8
別途部材
  6
CONTINUOUS
 62
    96
 10
147.30385
 20
68.66203
 11
148.30385
 21
69.06203
  0
LINE
  8
別途部材
  6
CONTINUOUS
 62
    96
 10
147.30385
 20
68.66203
 11
147.30385
 21
51.995363
  0
LINE
  8
別途部材
  6
CONTINUOUS
 10
148.30385
 20
69.06203
 11
148.30385
 21
51.995363
  0
LINE
  8
別途部材
  6
CONTINUOUS
 62
    96
 10
147.30385
 20
35.328695
 11
148.30385
 21
34.928695
  0
LINE
  8
別途部材
  6
CONTINUOUS
 62
    96
 10
147.30385
 20
35.328695
 11
147.30385
 21
51.995363
  0
LINE
  8
別途部材
  6
CONTINUOUS
 10
148.30385
 20
34.928695
 11
148.30385
 21
51.995363
  0
ARC
  8
別途部材
  6
CONTINUOUS
 10
156.63718
 20
51.995363
 40
17.666667
 50
121.890792
 51
238.109208
  0
LINE
  8
別途部材
  6
DOT
 62
    96
 10
147.14075
 20
71.615365
 11
148.1307
 21
71.1911
  0
LINE
  8
別途部材
  6
DOT
 62
    96
 10
147.14075
 20
71.615365
 11
135.355638
 21
59.830252
  0
LINE
  8
別途部材
  6
DOT
 10
148.1307
 20
71.1911
 11
136.062745
 21
59.123145
  0
LINE
  8
別途部材
  6
DOT
 62
    96
 10
123.570525
 20
48.04514
 11
123.99479
 21
47.05519
  0
LINE
  8
別途部材
  6
DOT
 62
    96
 10
123.570525
 20
48.04514
 11
135.355638
 21
59.830252
  0
LINE
  8
別途部材
  6
DOT
 10
123.99479
 20
47.05519
 11
136.062745
 21
59.123145
  0
ARC
  8
別途部材
  6
DOT
 10
141.955298
 20
53.23059
 40
17.666667
 50
76.890792
 51
193.109208
  0
LINE
  8
別途部材
  6
DOT
 62
    96
 10
147.14075
 20
71.615365
 11
148.1307
 21
71.1911
  0
LINE
  8
別途部材
  6
DOT
 62
    96
 10
147.14075
 20
71.615365
 11
135.355638
 21
59.830252
  0
LINE
  8
別途部材
  6
DOT
 10
148.1307
 20
71.1911
 11
136.062745
 21
59.123145
  0
LINE
  8
別途部材
  6
DOT
 62
    96
 10
123.570525
 20
48.04514
 11
123.99479
 21
47.05519
  0
LINE
  8
別途部材
  6
DOT
 62
    96
 10
123.570525
 20
48.04514
 11
135.355638
 21
59.830252
  0
LINE
  8
別途部材
  6
DOT
 10
123.99479
 20
47.05519
 11
136.062745
 21
59.123145
  0
ARC
  8
別途部材
  6
DOT
 10
141.955298
 20
53.23059
 40
17.666667
 50
76.890792
 51
193.109208
  0
LINE
  8
別途部材
  6
CONTINUOUS
 10
9.016485
 20
34.928695
 11
8.616485
 21
35.328695
  0
LINE
  8
別途部材
  6
CONTINUOUS
 10
6.949818
 20
36.995363
 11
-1.109437
 21
45.05462
  0
LINE
  8
別途部材
  6
CONTINUOUS
 10
8.616485
 20
35.328695
 11
8.616485
 21
51.995363
  0
LINE
  8
別途部材
  6
CONTINUOUS
 10
9.016485
 20
34.928695
 11
9.016485
 21
51.995363
  0
LINE
  8
別途部材
  6
CONTINUOUS
 10
9.016485
 20
69.06203
 11
8.616485
 21
68.66203
  0
LINE
  8
別途部材
  6
CONTINUOUS
 10
6.949818
 20
66.995363
 11
-1.109437
 21
58.936105
  0
LINE
  8
別途部材
  6
CONTINUOUS
 10
8.616485
 20
68.66203
 11
8.616485
 21
51.995363
  0
LINE
  8
別途部材
  6
CONTINUOUS
 10
9.016485
 20
69.06203
 11
9.016485
 21
51.995363
  0
LINE
  8
別途部材
  6
CONTINUOUS
 10
8.616485
 20
68.66203
 11
-43.050183
 21
68.66203
  0
LINE
  8
別途部材
  6
CONTINUOUS
 10
9.016485
 20
69.06203
 11
-43.050183
 21
69.06203
  0
LINE
  8
別途部材
  6
CONTINUOUS
 10
8.616485
 20
35.328695
 11
-43.050183
 21
35.328695
  0
LINE
  8
別途部材
  6
CONTINUOUS
 10
9.016485
 20
34.928695
 11
-43.050183
 21
34.928695
  0
LINE
  8
別途部材
  6
CONTINUOUS
 10
-95.11685
 20
34.928695
 11
-94.71685
 21
35.328695
  0
LINE
  8
別途部材
  6
CONTINUOUS
 10
-93.050183
 20
36.995363
 11
-84.990927
 21
45.05462
  0
LINE
  8
別途部材
  6
CONTINUOUS
 10
-94.71685
 20
35.328695
 11
-94.71685
 21
51.995363
  0
LINE
  8
別途部材
  6
CONTINUOUS
 10
-95.11685
 20
34.928695
 11
-95.11685
 21
51.995363
  0
LINE
  8
別途部材
  6
CONTINUOUS
 10
-95.11685
 20
69.06203
 11
-94.71685
 21
68.66203
  0
LINE
  8
別途部材
  6
CONTINUOUS
 10
-93.050183
 20
66.995363
 11
-84.990927
 21
58.936105
  0
LINE
  8
別途部材
  6
CONTINUOUS
 10
-94.71685
 20
68.66203
 11
-94.71685
 21
51.995363
  0
LINE
  8
別途部材
  6
CONTINUOUS
 10
-95.11685
 20
69.06203
 11
-95.11685
 21
51.995363
  0
LINE
  8
別途部材
  6
CONTINUOUS
 10
-94.71685
 20
68.66203
 11
-43.050183
 21
68.66203
  0
LINE
  8
別途部材
  6
CONTINUOUS
 10
-95.11685
 20
69.06203
 11
-43.050183
 21
69.06203
  0
LINE
  8
別途部材
  6
CONTINUOUS
 10
-94.71685
 20
35.328695
 11
-43.050183
 21
35.328695
  0
LINE
  8
別途部材
  6
CONTINUOUS
 10
-95.11685
 20
34.928695
 11
-43.050183
 21
34.928695
  0
INSERT
  2
*GRP_0018
  8
別途部材
  6
CONTINUOUS
 10
0.0
 20
0.0
  0
INSERT
  2
*GRP_0023
  8
別途部材
  6
DOT
 10
0.0
 20
0.0
  0
INSERT
  2
*GRP_0024
  8
別途部材
  6
DOT
 10
0.0
 20
0.0
  0
INSERT
  2
*GRP_0025
  8
別途部材
  6
DOT
 10
0.0
 20
0.0
  0
INSERT
  2
*GRP_0026
  8
別途部材
  6
DOT
 10
0.0
 20
0.0
  0
INSERT
  2
*GRP_0027
  8
別途部材
  6
DOT
 10
0.0
 20
0.0
  0
INSERT
  2
*GRP_0028
  8
別途部材
  6
DOT
 10
0.0
 20
0.0
  0
ENDSEC
  0
EOF
