  0
SECTION
  2
HEADER
  9
$EXTMIN
 10
-210.0
 20
-148.5
  9
$EXTMAX
 10
210.0
 20
148.5
  9
$PDMODE
 70
    32
  9
$PDSIZE
 40
1.5
  9
$LTSCALE
 40
10.0
  0
ENDSEC
  0
SECTION
  2
TABLES
  0
TABLE
  2
LTYPE
 70
    15
  0
LTYPE
  2
CONTINUOUS
 70
    64
  3
実線
 72
    65
 73
     0
 40
0.0
  0
LTYPE
  2
DASHED
 70
    64
  3
破線A
 72
    65
 73
     2
 40
0.6
 49
0.4
 49
-0.2
  0
LTYPE
  2
DASHEDX2
 70
    64
  3
破線B
 72
    65
 73
     2
 40
1.3
 49
0.9
 49
-0.4
  0
LTYPE
  2
DASHDOT
 70
    64
  3
１点鎖線A
 72
    65
 73
     4
 40
0.5375
 49
0.375
 49
-0.05
 49
0.0625
 49
-0.05
  0
LTYPE
  2
DASHDOTX2
 70
    64
  3
１点鎖線B
 72
    65
 73
     4
 40
1.075
 49
0.75
 49
-0.1
 49
0.125
 49
-0.1
  0
LTYPE
  2
DIVIDE2
 70
    64
  3
２点鎖線A
 72
    65
 73
     6
 40
0.5125
 49
0.3
 49
-0.0375
 49
0.05
 49
-0.0375
 49
0.05
 49
-0.0375
  0
LTYPE
  2
DIVIDE
 70
    64
  3
２点鎖線B
 72
    65
 73
     6
 40
1.05
 49
0.55
 49
-0.1
 49
0.1
 49
-0.1
 49
0.1
 49
-0.1
  0
LTYPE
  2
DOT
 70
    64
  3
点線A
 72
    65
 73
     2
 40
0.1125
 49
0.0625
 49
-0.05
  0
LTYPE
  2
DOTX2
 70
    64
  3
点線B
 72
    65
 73
     2
 40
0.275
 49
0.15
 49
-0.125
  0
LTYPE
  2
CONTINUOUS
 70
    64
  3
実線
 72
    65
 73
     0
 40
0.0
  0
LTYPE
  2
CONTINUOUS
 70
    64
  3
実線
 72
    65
 73
     0
 40
0.0
  0
LTYPE
  2
CONTINUOUS
 70
    64
  3
実線
 72
    65
 73
     0
 40
0.0
  0
LTYPE
  2
CONTINUOUS
 70
    64
  3
実線
 72
    65
 73
     0
 40
0.0
  0
LTYPE
  2
CONTINUOUS
 70
    64
  3
実線
 72
    65
 73
     0
 40
0.0
  0
LTYPE
  2
CONTINUOUS
 70
    64
  3
実線
 72
    65
 73
     0
 40
0.0
  0
ENDTAB
  0
TABLE
  2
LAYER
 70
    34
  0
LAYER
  2
通り芯
 70
     0
 62
    15
  6
CONTINUOUS
  0
LAYER
  2
補助線
 70
     0
 62
    16
  6
DOT
  0
LAYER
  2
躯体
 70
     0
 62
    31
  6
CONTINUOUS
  0
LAYER
  2
型材
 70
     0
 62
    32
  6
CONTINUOUS
  0
LAYER
  2
型材断面
 70
     0
 62
    47
  6
CONTINUOUS
  0
LAYER
  2
ガラス
 70
     0
 62
    48
  6
CONTINUOUS
  0
LAYER
  2
ゴム等
 70
     0
 62
    63
  6
CONTINUOUS
  0
LAYER
  2
ボルト／ビス
 70
     0
 62
    64
  6
CONTINUOUS
  0
LAYER
  2
文字
 70
     0
 62
    79
  6
CONTINUOUS
  0
LAYER
  2
寸法
 70
     0
 62
    80
  6
CONTINUOUS
  0
LAYER
  2
ﾊｯﾁﾝｸﾞ
 70
     0
 62
    95
  6
CONTINUOUS
  0
LAYER
  2
別途部材
 70
     0
 62
    96
  6
CONTINUOUS
  0
LAYER
  2
曲げ物
 70
     0
 62
   111
  6
CONTINUOUS
  0
LAYER
  2
鉄骨等
 70
     0
 62
   112
  6
CONTINUOUS
  0
LAYER
  2
St
 70
     0
 62
   127
  6
CONTINUOUS
  0
LAYER
  2
その他部品等
 70
     0
 62
   128
  6
CONTINUOUS
  0
LAYER
  2
ｶﾞｽｹｯﾄ
 70
     0
 62
   143
  6
CONTINUOUS
  0
LAYER
  2
ｽｹｯﾁ
 70
     0
 62
    14
  6
CONTINUOUS
  0
LAYER
  2
0
 70
     0
 62
    17
  6
CONTINUOUS
  0
LAYER
  2
1
 70
     0
 62
    30
  6
CONTINUOUS
  0
LAYER
  2
4
 70
     0
 62
    33
  6
CONTINUOUS
  0
LAYER
  2
ﾚｲﾔ3
 70
     0
 62
    46
  6
CONTINUOUS
  0
LAYER
  2
外形線
 70
     0
 62
    49
  6
CONTINUOUS
  0
LAYER
  2
部品
 70
     0
 62
    14
  6
CONTINUOUS
  0
LAYER
  2
サッシ芯
 70
     0
 62
    17
  6
DASHDOTX2
  0
LAYER
  2
寸法線
 70
     0
 62
    62
  6
CONTINUOUS
  0
LAYER
  2
姿図外形線
 70
     0
 62
    65
  6
CONTINUOUS
  0
LAYER
  2
姿補助線
 70
     0
 62
    30
  6
CONTINUOUS
  0
LAYER
  2
透視線
 70
     0
 62
    78
  6
DOT
  0
LAYER
  2
用紙
 70
     0
 62
    81
  6
CONTINUOUS
  0
LAYER
  2
実線図枠
 70
     0
 62
    94
  6
CONTINUOUS
  0
LAYER
  2
補助図枠
 70
     0
 62
    97
  6
CONTINUOUS
  0
LAYER
  2
建具記号
 70
     0
 62
   110
  6
CONTINUOUS
  0
LAYER
  2
補助文字
 70
     0
 62
   113
  6
CONTINUOUS
  0
ENDTAB
  0
TABLE
  2
STYLE
 70
    10
  0
STYLE
  2
STANDARD
 70
     0
 40
1.0
 41
1.0
 42
1.0
 50
0.0
 71
     0
  3
TXT
  4
BIGFONT
  0
STYLE
  2
TATE
 70
     4
 40
1.0
 41
1.0
 42
1.0
 50
0.0
 71
     0
  3
TXT
  4
BIGFONT
  0
STYLE
  2
TextStyle03
 70
     0
 40
1.0
 41
1.0
 42
1.0
 50
0.0
 71
     0
  3
MONOTXT
  4
BIGFONT
  0
STYLE
  2
TextStyle04
 70
     0
 40
1.0
 41
1.0
 42
1.0
 50
0.0
 71
     0
  3
MONOTXT
  4
BIGFONT
  0
STYLE
  2
TextStyle05
 70
     0
 40
1.0
 41
1.0
 42
1.0
 50
0.0
 71
     0
  3
MONOTXT
  4
BIGFONT
  0
STYLE
  2
TextStyle06
 70
     0
 40
1.0
 41
1.0
 42
1.0
 50
0.0
 71
     0
  3
MONOTXT
  4
BIGFONT
  0
STYLE
  2
TextStyle07
 70
     0
 40
1.0
 41
1.0
 42
1.0
 50
0.0
 71
     0
  3
MONOTXT
  4
BIGFONT
  0
STYLE
  2
TextStyle08
 70
     0
 40
1.0
 41
1.0
 42
1.0
 50
0.0
 71
     0
  3
MONOTXT
  4
BIGFONT
  0
STYLE
  2
TextStyle09
 70
     0
 40
1.0
 41
1.0
 42
1.0
 50
0.0
 71
     0
  3
MONOTXT
  4
BIGFONT
  0
STYLE
  2
TextStyle10
 70
     0
 40
1.0
 41
1.0
 42
1.0
 50
0.0
 71
     0
  3
MONOTXT
  4
BIGFONT
  0
ENDTAB
  0
ENDSEC
  0
SECTION
  2
BLOCKS
  0
BLOCK
  2
*GRP_0001
 70
    65
 10
0.0
 20
0.0
  0
LINE
  8
型材断面
  6
CONTINUOUS
 10
195.0
 20
133.5
 11
195.0
 21
-133.5
  0
LINE
  8
型材断面
  6
CONTINUOUS
 10
195.0
 20
-133.5
 11
-185.0
 21
-133.5
  0
LINE
  8
型材断面
  6
CONTINUOUS
 10
-185.0
 20
-133.5
 11
-185.0
 21
133.5
  0
LINE
  8
型材断面
  6
CONTINUOUS
 10
195.0
 20
133.5
 11
-185.0
 21
133.5
  0
LINE
  8
型材断面
  6
CONTINUOUS
 10
145.0
 20
-133.5
 11
145.0
 21
-118.5
  0
LINE
  8
型材断面
  6
CONTINUOUS
 10
195.0
 20
-118.5
 11
145.0
 21
-118.5
  0
ENDBLK
  0
BLOCK
  2
*DIM_0002
 70
    65
 10
0.0
 20
0.0
  0
LINE
  8
寸法
  6
CONTINUOUS
 10
-109.716848
 20
-31.074888
 11
23.61648
 21
-31.074888
  0
POINT
  8
寸法
 10
-109.716848
 20
-31.074888
  0
POINT
  8
寸法
 10
23.61648
 20
-31.074888
  0
TEXT
  7
TextStyle03
  8
寸法
  6
CONTINUOUS
 10
-54.79375
 20
-30.7
  1
呼称寸法　4000
 40
3.0
 72
     5
 11
-31.35625
 21
-30.7
  0
ENDBLK
  0
BLOCK
  2
*DIM_0003
 70
    65
 10
0.0
 20
0.0
  0
LINE
  8
寸法
  6
BYBLOCK
 62
     0
 10
-93.05018
 20
33.365232
 11
-93.05018
 21
28.31291
  0
LINE
  8
寸法
  6
BYBLOCK
 62
     0
 10
6.949815
 20
33.365232
 11
6.949815
 21
28.31291
  0
LINE
  8
寸法
  6
BYBLOCK
 62
     0
 10
-93.05018
 20
28.31291
 11
6.949815
 21
28.31291
  0
POINT
  8
寸法
 62
     0
 10
-93.05018
 20
28.31291
  0
POINT
  8
寸法
 62
     0
 10
6.949815
 20
28.31291
  0
TEXT
  7
TextStyle03
  8
寸法
  6
CONTINUOUS
 62
     0
 10
-46.33125
 20
28.675
  1
3000
 40
3.0
 72
     5
 11
-39.76875
 21
28.675
  0
ENDBLK
  0
BLOCK
  2
*DIM_0004
 70
    65
 10
0.0
 20
0.0
  0
LINE
  8
寸法
  6
BYBLOCK
 62
     0
 10
21.616485
 20
31.38855
 11
21.616485
 21
28.363508
  0
LINE
  8
寸法
  6
BYBLOCK
 62
     0
 10
23.616485
 20
28.363508
 11
21.616485
 21
28.363508
  0
POINT
  8
寸法
 62
     0
 10
23.616485
 20
28.363508
  0
POINT
  8
寸法
 62
     0
 10
21.616485
 20
28.363508
  0
TEXT
  7
TextStyle03
  8
寸法
  6
CONTINUOUS
 62
     0
 10
19.73125
 20
24.575
  1
60
 40
3.0
 72
     5
 11
22.91875
 21
24.575
  0
ENDBLK
  0
BLOCK
  2
*DIM_0005
 70
    65
 10
0.0
 20
0.0
  0
LINE
  8
寸法
  6
BYBLOCK
 62
     0
 10
-107.71685
 20
31.38855
 11
-107.71685
 21
28.363508
  0
LINE
  8
寸法
  6
BYBLOCK
 62
     0
 10
-109.71685
 20
28.363508
 11
-107.71685
 21
28.363508
  0
POINT
  8
寸法
 62
     0
 10
-109.71685
 20
28.363508
  0
POINT
  8
寸法
 62
     0
 10
-107.71685
 20
28.363508
  0
TEXT
  7
TextStyle03
  8
寸法
  6
CONTINUOUS
 62
     0
 10
-109.01875
 20
24.575
  1
60
 40
3.0
 72
     5
 11
-105.83125
 21
24.575
  0
ENDBLK
  0
BLOCK
  2
*DIM_0006
 70
    65
 10
0.0
 20
0.0
  0
LINE
  8
寸法
  6
BYBLOCK
 62
     0
 10
-112.716848
 20
53.66203
 11
-126.009685
 21
53.66203
  0
LINE
  8
寸法
  6
BYBLOCK
 62
     0
 10
-112.716848
 20
40.328695
 11
-126.009685
 21
40.328695
  0
LINE
  8
寸法
  6
BYBLOCK
 62
     0
 10
-126.009685
 20
53.66203
 11
-126.009685
 21
40.328695
  0
POINT
  8
寸法
 62
     0
 10
-126.009685
 20
53.66203
  0
POINT
  8
寸法
 62
     0
 10
-126.009685
 20
40.328695
  0
TEXT
  7
TextStyle03
  8
寸法
  6
CONTINUOUS
 62
     0
 10
-126.425
 20
44.5375
  1
400
 40
3.0
 50
90.0
 72
     5
 11
-126.425
 21
49.4125
  0
ENDBLK
  0
BLOCK
  2
*DIM_0007
 70
    65
 10
0.0
 20
0.0
  0
LINE
  8
寸法
  6
BYBLOCK
 62
     0
 10
-101.383515
 20
59.995363
 11
-101.383515
 21
89.103435
  0
LINE
  8
寸法
  6
BYBLOCK
 62
     0
 10
-78.050183
 20
59.995363
 11
-78.050183
 21
89.103435
  0
LINE
  8
寸法
  6
BYBLOCK
 62
     0
 10
-101.383515
 20
89.103435
 11
-78.050183
 21
89.103435
  0
POINT
  8
寸法
 62
     0
 10
-101.383515
 20
89.103435
  0
POINT
  8
寸法
 62
     0
 10
-78.050183
 20
89.103435
  0
TEXT
  7
TextStyle03
  8
寸法
  6
CONTINUOUS
 62
     0
 10
-92.1625
 20
89.45
  1
700
 40
3.0
 72
     5
 11
-87.2875
 21
89.45
  0
ENDBLK
  0
BLOCK
  2
*DIM_0008
 70
    65
 10
0.0
 20
0.0
  0
LINE
  8
寸法
  6
BYBLOCK
 62
     0
 10
-54.71685
 20
59.995363
 11
-54.71685
 21
89.103435
  0
LINE
  8
寸法
  6
BYBLOCK
 62
     0
 10
-78.050183
 20
89.103435
 11
-54.71685
 21
89.103435
  0
POINT
  8
寸法
 62
     0
 10
-54.71685
 20
89.103435
  0
TEXT
  7
TextStyle03
  8
寸法
  6
CONTINUOUS
 62
     0
 10
-68.8375
 20
89.45
  1
700
 40
3.0
 72
     5
 11
-63.9625
 21
89.45
  0
ENDBLK
  0
BLOCK
  2
*DIM_0009
 70
    65
 10
0.0
 20
0.0
  0
LINE
  8
寸法
  6
BYBLOCK
 62
     0
 10
-31.383515
 20
59.995363
 11
-31.383515
 21
89.103435
  0
LINE
  8
寸法
  6
BYBLOCK
 62
     0
 10
-54.71685
 20
89.103435
 11
-31.383515
 21
89.103435
  0
POINT
  8
寸法
 62
     0
 10
-31.383515
 20
89.103435
  0
TEXT
  7
TextStyle03
  8
寸法
  6
CONTINUOUS
 62
     0
 10
-45.5125
 20
89.45
  1
700
 40
3.0
 72
     5
 11
-40.6375
 21
89.45
  0
ENDBLK
  0
BLOCK
  2
*DIM_0010
 70
    65
 10
0.0
 20
0.0
  0
LINE
  8
寸法
  6
BYBLOCK
 62
     0
 10
-8.050183
 20
59.995363
 11
-8.050183
 21
89.103435
  0
LINE
  8
寸法
  6
BYBLOCK
 62
     0
 10
-31.383515
 20
89.103435
 11
-8.050183
 21
89.103435
  0
POINT
  8
寸法
 62
     0
 10
-8.050183
 20
89.103435
  0
TEXT
  7
TextStyle03
  8
寸法
  6
CONTINUOUS
 62
     0
 10
-22.1625
 20
89.45
  1
700
 40
3.0
 72
     5
 11
-17.2875
 21
89.45
  0
ENDBLK
  0
BLOCK
  2
*DIM_0011
 70
    65
 10
0.0
 20
0.0
  0
LINE
  8
寸法
  6
BYBLOCK
 62
     0
 10
15.28315
 20
59.995363
 11
15.28315
 21
89.103435
  0
LINE
  8
寸法
  6
BYBLOCK
 62
     0
 10
-8.050183
 20
89.103435
 11
15.28315
 21
89.103435
  0
POINT
  8
寸法
 62
     0
 10
15.28315
 20
89.103435
  0
TEXT
  7
TextStyle03
  8
寸法
  6
CONTINUOUS
 62
     0
 10
1.1625
 20
89.45
  1
700
 40
3.0
 72
     5
 11
6.0375
 21
89.45
  0
ENDBLK
  0
BLOCK
  2
*GRP_0012
 70
    65
 10
0.0
 20
0.0
  0
LINE
  8
別途部材
  6
CONTINUOUS
 62
    96
 10
-111.383522
 20
-55.177423
 11
-111.783522
 21
-56.177423
  0
LINE
  8
別途部材
  6
CONTINUOUS
 62
    96
 10
-111.383522
 20
-55.177423
 11
-43.050187
 21
-55.177423
  0
LINE
  8
別途部材
  6
CONTINUOUS
 10
-111.783522
 20
-56.177423
 11
-43.050187
 21
-56.177423
  0
LINE
  8
別途部材
  6
CONTINUOUS
 10
-43.550187
 20
-48.84409
 11
-44.550187
 21
-49.84409
  0
LINE
  8
別途部材
  6
CONTINUOUS
 10
-45.550187
 20
-49.84409
 11
-46.550187
 21
-48.84409
  0
LINE
  8
別途部材
  6
CONTINUOUS
 10
-47.550187
 20
-48.84409
 11
-48.550187
 21
-49.84409
  0
LINE
  8
別途部材
  6
CONTINUOUS
 10
-46.550187
 20
-48.84409
 11
-47.550187
 21
-48.84409
  0
LINE
  8
別途部材
  6
CONTINUOUS
 10
-43.550187
 20
-48.84409
 11
-43.050187
 21
-48.84409
  0
LINE
  8
別途部材
  6
CONTINUOUS
 10
-49.550187
 20
-49.84409
 11
-50.550187
 21
-48.84409
  0
LINE
  8
別途部材
  6
CONTINUOUS
 10
-51.550187
 20
-48.84409
 11
-52.550187
 21
-49.84409
  0
LINE
  8
別途部材
  6
CONTINUOUS
 10
-50.550187
 20
-48.84409
 11
-51.550187
 21
-48.84409
  0
LINE
  8
別途部材
  6
CONTINUOUS
 10
-53.550187
 20
-49.84409
 11
-54.550187
 21
-48.84409
  0
LINE
  8
別途部材
  6
CONTINUOUS
 10
-55.550187
 20
-48.84409
 11
-56.550187
 21
-49.84409
  0
LINE
  8
別途部材
  6
CONTINUOUS
 10
-54.550187
 20
-48.84409
 11
-55.550187
 21
-48.84409
  0
LINE
  8
別途部材
  6
CONTINUOUS
 10
-57.550187
 20
-49.84409
 11
-58.550187
 21
-48.84409
  0
LINE
  8
別途部材
  6
CONTINUOUS
 10
-59.550187
 20
-48.84409
 11
-60.550187
 21
-49.84409
  0
LINE
  8
別途部材
  6
CONTINUOUS
 10
-58.550187
 20
-48.84409
 11
-59.550187
 21
-48.84409
  0
LINE
  8
別途部材
  6
CONTINUOUS
 10
-61.550187
 20
-49.84409
 11
-62.550187
 21
-48.84409
  0
LINE
  8
別途部材
  6
CONTINUOUS
 10
-63.550187
 20
-48.84409
 11
-64.550187
 21
-49.84409
  0
LINE
  8
別途部材
  6
CONTINUOUS
 10
-62.550187
 20
-48.84409
 11
-63.550187
 21
-48.84409
  0
LINE
  8
別途部材
  6
CONTINUOUS
 10
-65.550187
 20
-49.84409
 11
-66.550187
 21
-48.84409
  0
LINE
  8
別途部材
  6
CONTINUOUS
 10
-67.550187
 20
-48.84409
 11
-68.550187
 21
-49.84409
  0
LINE
  8
別途部材
  6
CONTINUOUS
 10
-66.550187
 20
-48.84409
 11
-67.550187
 21
-48.84409
  0
LINE
  8
別途部材
  6
CONTINUOUS
 10
-69.550187
 20
-49.84409
 11
-70.550187
 21
-48.84409
  0
LINE
  8
別途部材
  6
CONTINUOUS
 10
-71.550187
 20
-48.84409
 11
-72.550187
 21
-49.84409
  0
LINE
  8
別途部材
  6
CONTINUOUS
 10
-70.550187
 20
-48.84409
 11
-71.550187
 21
-48.84409
  0
LINE
  8
別途部材
  6
CONTINUOUS
 10
-73.550187
 20
-49.84409
 11
-74.550187
 21
-48.84409
  0
LINE
  8
別途部材
  6
CONTINUOUS
 10
-75.550187
 20
-48.84409
 11
-76.550187
 21
-49.84409
  0
LINE
  8
別途部材
  6
CONTINUOUS
 10
-74.550187
 20
-48.84409
 11
-75.550187
 21
-48.84409
  0
LINE
  8
別途部材
  6
CONTINUOUS
 10
-77.550187
 20
-49.84409
 11
-78.550187
 21
-48.84409
  0
LINE
  8
別途部材
  6
CONTINUOUS
 10
-79.550187
 20
-48.84409
 11
-80.550187
 21
-49.84409
  0
LINE
  8
別途部材
  6
CONTINUOUS
 10
-78.550187
 20
-48.84409
 11
-79.550187
 21
-48.84409
  0
LINE
  8
別途部材
  6
CONTINUOUS
 10
-81.550187
 20
-49.84409
 11
-82.550187
 21
-48.84409
  0
LINE
  8
別途部材
  6
CONTINUOUS
 10
-83.550187
 20
-48.84409
 11
-84.550187
 21
-49.84409
  0
LINE
  8
別途部材
  6
CONTINUOUS
 10
-82.550187
 20
-48.84409
 11
-83.550187
 21
-48.84409
  0
LINE
  8
別途部材
  6
CONTINUOUS
 10
-85.550187
 20
-49.84409
 11
-86.550187
 21
-48.84409
  0
LINE
  8
別途部材
  6
CONTINUOUS
 10
-87.550187
 20
-48.84409
 11
-88.550187
 21
-49.84409
  0
LINE
  8
別途部材
  6
CONTINUOUS
 10
-86.550187
 20
-48.84409
 11
-87.550187
 21
-48.84409
  0
LINE
  8
別途部材
  6
CONTINUOUS
 10
-84.550187
 20
-49.84409
 11
-85.550187
 21
-49.84409
  0
LINE
  8
別途部材
  6
CONTINUOUS
 10
-80.550187
 20
-49.84409
 11
-81.550187
 21
-49.84409
  0
LINE
  8
別途部材
  6
CONTINUOUS
 10
-76.550187
 20
-49.84409
 11
-77.550187
 21
-49.84409
  0
LINE
  8
別途部材
  6
CONTINUOUS
 10
-72.550187
 20
-49.84409
 11
-73.550187
 21
-49.84409
  0
LINE
  8
別途部材
  6
CONTINUOUS
 10
-68.550187
 20
-49.84409
 11
-69.550187
 21
-49.84409
  0
LINE
  8
別途部材
  6
CONTINUOUS
 10
-64.550187
 20
-49.84409
 11
-65.550187
 21
-49.84409
  0
LINE
  8
別途部材
  6
CONTINUOUS
 10
-60.550187
 20
-49.84409
 11
-61.550187
 21
-49.84409
  0
LINE
  8
別途部材
  6
CONTINUOUS
 10
-56.550187
 20
-49.84409
 11
-57.550187
 21
-49.84409
  0
LINE
  8
別途部材
  6
CONTINUOUS
 10
-52.550187
 20
-49.84409
 11
-53.550187
 21
-49.84409
  0
LINE
  8
別途部材
  6
CONTINUOUS
 10
-48.550187
 20
-49.84409
 11
-49.550187
 21
-49.84409
  0
LINE
  8
別途部材
  6
CONTINUOUS
 10
-45.550187
 20
-49.84409
 11
-44.550187
 21
-49.84409
  0
LINE
  8
別途部材
  6
CONTINUOUS
 10
-89.550187
 20
-49.84409
 11
-90.550187
 21
-48.84409
  0
LINE
  8
別途部材
  6
CONTINUOUS
 10
-91.550187
 20
-48.84409
 11
-92.550187
 21
-49.84409
  0
LINE
  8
別途部材
  6
CONTINUOUS
 10
-90.550187
 20
-48.84409
 11
-91.550187
 21
-48.84409
  0
LINE
  8
別途部材
  6
CONTINUOUS
 10
-93.550187
 20
-49.84409
 11
-94.550187
 21
-48.84409
  0
LINE
  8
別途部材
  6
CONTINUOUS
 10
-95.550187
 20
-48.84409
 11
-96.550187
 21
-49.84409
  0
LINE
  8
別途部材
  6
CONTINUOUS
 10
-94.550187
 20
-48.84409
 11
-95.550187
 21
-48.84409
  0
LINE
  8
別途部材
  6
CONTINUOUS
 10
-97.550187
 20
-49.84409
 11
-98.550187
 21
-48.84409
  0
LINE
  8
別途部材
  6
CONTINUOUS
 10
-99.550187
 20
-48.84409
 11
-100.550187
 21
-49.84409
  0
LINE
  8
別途部材
  6
CONTINUOUS
 10
-98.550187
 20
-48.84409
 11
-99.550187
 21
-48.84409
  0
LINE
  8
別途部材
  6
CONTINUOUS
 10
-96.550187
 20
-49.84409
 11
-97.550187
 21
-49.84409
  0
LINE
  8
別途部材
  6
CONTINUOUS
 10
-92.550187
 20
-49.84409
 11
-93.550187
 21
-49.84409
  0
LINE
  8
別途部材
  6
CONTINUOUS
 10
-88.550187
 20
-49.84409
 11
-89.550187
 21
-49.84409
  0
LINE
  8
別途部材
  6
CONTINUOUS
 10
-100.550187
 20
-49.84409
 11
-100.550187
 21
-55.177423
  0
LINE
  8
別途部材
  6
CONTINUOUS
 10
-99.550187
 20
-48.84409
 11
-99.550187
 21
-55.177423
  0
LINE
  8
別途部材
  6
CONTINUOUS
 10
-98.550187
 20
-48.84409
 11
-98.550187
 21
-55.177423
  0
LINE
  8
別途部材
  6
CONTINUOUS
 10
-95.550187
 20
-48.84409
 11
-95.550187
 21
-55.177423
  0
LINE
  8
別途部材
  6
CONTINUOUS
 10
-93.550187
 20
-49.84409
 11
-93.550187
 21
-55.177423
  0
LINE
  8
別途部材
  6
CONTINUOUS
 10
-94.550187
 20
-48.84409
 11
-94.550187
 21
-55.177423
  0
LINE
  8
別途部材
  6
CONTINUOUS
 10
-96.550187
 20
-49.84409
 11
-96.550187
 21
-55.177423
  0
LINE
  8
別途部材
  6
CONTINUOUS
 10
-97.550187
 20
-49.84409
 11
-97.550187
 21
-55.177423
  0
LINE
  8
別途部材
  6
CONTINUOUS
 10
-92.550187
 20
-49.84409
 11
-92.550187
 21
-55.177423
  0
LINE
  8
別途部材
  6
CONTINUOUS
 10
-90.550187
 20
-48.84409
 11
-90.550187
 21
-55.177423
  0
LINE
  8
別途部材
  6
CONTINUOUS
 10
-91.550187
 20
-48.84409
 11
-91.550187
 21
-55.177423
  0
LINE
  8
別途部材
  6
CONTINUOUS
 10
-89.550187
 20
-49.84409
 11
-89.550187
 21
-55.177423
  0
LINE
  8
別途部材
  6
CONTINUOUS
 10
-87.550187
 20
-48.84409
 11
-87.550187
 21
-55.177423
  0
LINE
  8
別途部材
  6
CONTINUOUS
 10
-88.550187
 20
-49.84409
 11
-88.550187
 21
-55.177423
  0
LINE
  8
別途部材
  6
CONTINUOUS
 10
-86.550187
 20
-48.84409
 11
-86.550187
 21
-55.177423
  0
LINE
  8
別途部材
  6
CONTINUOUS
 10
-85.550187
 20
-49.84409
 11
-85.550187
 21
-55.177423
  0
LINE
  8
別途部材
  6
CONTINUOUS
 10
-83.550187
 20
-48.84409
 11
-83.550187
 21
-55.177423
  0
LINE
  8
別途部材
  6
CONTINUOUS
 10
-84.550187
 20
-49.84409
 11
-84.550187
 21
-55.177423
  0
LINE
  8
別途部材
  6
CONTINUOUS
 10
-80.550187
 20
-49.84409
 11
-80.550187
 21
-55.177423
  0
LINE
  8
別途部材
  6
CONTINUOUS
 10
-81.550187
 20
-49.84409
 11
-81.550187
 21
-55.177423
  0
LINE
  8
別途部材
  6
CONTINUOUS
 10
-82.550187
 20
-48.84409
 11
-82.550187
 21
-55.177423
  0
LINE
  8
別途部材
  6
CONTINUOUS
 10
-79.550187
 20
-48.84409
 11
-79.550187
 21
-55.177423
  0
LINE
  8
別途部材
  6
CONTINUOUS
 10
-78.550187
 20
-48.84409
 11
-78.550187
 21
-55.177423
  0
LINE
  8
別途部材
  6
CONTINUOUS
 10
-77.550187
 20
-49.84409
 11
-77.550187
 21
-55.177423
  0
LINE
  8
別途部材
  6
CONTINUOUS
 10
-75.550187
 20
-48.84409
 11
-75.550187
 21
-55.177423
  0
LINE
  8
別途部材
  6
CONTINUOUS
 10
-71.550187
 20
-48.84409
 11
-71.550187
 21
-55.177423
  0
LINE
  8
別途部材
  6
CONTINUOUS
 10
-72.550187
 20
-49.84409
 11
-72.550187
 21
-55.177423
  0
LINE
  8
別途部材
  6
CONTINUOUS
 10
-73.550187
 20
-49.84409
 11
-73.550187
 21
-55.177423
  0
LINE
  8
別途部材
  6
CONTINUOUS
 10
-74.550187
 20
-48.84409
 11
-74.550187
 21
-55.177423
  0
LINE
  8
別途部材
  6
CONTINUOUS
 10
-76.550187
 20
-49.84409
 11
-76.550187
 21
-55.177423
  0
LINE
  8
別途部材
  6
CONTINUOUS
 10
-69.550187
 20
-49.84409
 11
-69.550187
 21
-55.177423
  0
LINE
  8
別途部材
  6
CONTINUOUS
 10
-70.550187
 20
-48.84409
 11
-70.550187
 21
-55.177423
  0
LINE
  8
別途部材
  6
CONTINUOUS
 10
-68.550187
 20
-49.84409
 11
-68.550187
 21
-55.177423
  0
LINE
  8
別途部材
  6
CONTINUOUS
 10
-67.550187
 20
-48.84409
 11
-67.550187
 21
-55.177423
  0
LINE
  8
別途部材
  6
CONTINUOUS
 10
-63.550187
 20
-48.84409
 11
-63.550187
 21
-55.177423
  0
LINE
  8
別途部材
  6
CONTINUOUS
 10
-62.550187
 20
-48.84409
 11
-62.550187
 21
-55.177423
  0
LINE
  8
別途部材
  6
CONTINUOUS
 10
-64.550187
 20
-49.84409
 11
-64.550187
 21
-55.177423
  0
LINE
  8
別途部材
  6
CONTINUOUS
 10
-65.550187
 20
-49.84409
 11
-65.550187
 21
-55.177423
  0
LINE
  8
別途部材
  6
CONTINUOUS
 10
-66.550187
 20
-48.84409
 11
-66.550187
 21
-55.177423
  0
LINE
  8
別途部材
  6
CONTINUOUS
 10
-61.550187
 20
-49.84409
 11
-61.550187
 21
-55.177423
  0
LINE
  8
別途部材
  6
CONTINUOUS
 10
-59.550187
 20
-48.84409
 11
-59.550187
 21
-55.177423
  0
LINE
  8
別途部材
  6
CONTINUOUS
 10
-58.550187
 20
-48.84409
 11
-58.550187
 21
-55.177423
  0
LINE
  8
別途部材
  6
CONTINUOUS
 10
-57.550187
 20
-49.84409
 11
-57.550187
 21
-55.177423
  0
LINE
  8
別途部材
  6
CONTINUOUS
 10
-56.550187
 20
-49.84409
 11
-56.550187
 21
-55.177423
  0
LINE
  8
別途部材
  6
CONTINUOUS
 10
-55.550187
 20
-48.84409
 11
-55.550187
 21
-55.177423
  0
LINE
  8
別途部材
  6
CONTINUOUS
 10
-60.550187
 20
-49.84409
 11
-60.550187
 21
-55.177423
  0
LINE
  8
別途部材
  6
CONTINUOUS
 10
-54.550187
 20
-48.84409
 11
-54.550187
 21
-55.177423
  0
LINE
  8
別途部材
  6
CONTINUOUS
 10
-53.550187
 20
-49.84409
 11
-53.550187
 21
-55.177423
  0
LINE
  8
別途部材
  6
CONTINUOUS
 10
-52.550187
 20
-49.84409
 11
-52.550187
 21
-55.177423
  0
LINE
  8
別途部材
  6
CONTINUOUS
 10
-50.550187
 20
-48.84409
 11
-50.550187
 21
-55.177423
  0
LINE
  8
別途部材
  6
CONTINUOUS
 10
-48.550187
 20
-49.84409
 11
-48.550187
 21
-55.177423
  0
LINE
  8
別途部材
  6
CONTINUOUS
 10
-47.550187
 20
-48.84409
 11
-47.550187
 21
-55.177423
  0
LINE
  8
別途部材
  6
CONTINUOUS
 10
-45.550187
 20
-49.84409
 11
-45.550187
 21
-55.177423
  0
LINE
  8
別途部材
  6
CONTINUOUS
 10
-44.550187
 20
-49.84409
 11
-44.550187
 21
-55.177423
  0
LINE
  8
別途部材
  6
CONTINUOUS
 10
-43.550187
 20
-48.84409
 11
-43.550187
 21
-55.177423
  0
LINE
  8
別途部材
  6
CONTINUOUS
 10
-46.550187
 20
-48.84409
 11
-46.550187
 21
-55.177423
  0
LINE
  8
別途部材
  6
CONTINUOUS
 10
-49.550187
 20
-49.84409
 11
-49.550187
 21
-55.177423
  0
LINE
  8
別途部材
  6
CONTINUOUS
 10
-51.550187
 20
-48.84409
 11
-51.550187
 21
-55.177423
  0
ARC
  8
別途部材
  6
CONTINUOUS
 10
-99.716858
 20
-61.885762
 40
12.041668
 50
93.968265
 51
146.144967
  0
LINE
  8
別途部材
  6
CONTINUOUS
 62
    96
 10
25.283145
 20
-55.177423
 11
25.683145
 21
-56.177423
  0
LINE
  8
別途部材
  6
CONTINUOUS
 62
    96
 10
25.283145
 20
-55.177423
 11
-43.050187
 21
-55.177423
  0
LINE
  8
別途部材
  6
CONTINUOUS
 10
25.683145
 20
-56.177423
 11
-43.050187
 21
-56.177423
  0
LINE
  8
別途部材
  6
CONTINUOUS
 10
-42.550187
 20
-48.84409
 11
-41.550187
 21
-49.84409
  0
LINE
  8
別途部材
  6
CONTINUOUS
 10
-40.550187
 20
-49.84409
 11
-39.550187
 21
-48.84409
  0
LINE
  8
別途部材
  6
CONTINUOUS
 10
-38.550187
 20
-48.84409
 11
-37.550187
 21
-49.84409
  0
LINE
  8
別途部材
  6
CONTINUOUS
 10
-39.550187
 20
-48.84409
 11
-38.550187
 21
-48.84409
  0
LINE
  8
別途部材
  6
CONTINUOUS
 10
-42.550187
 20
-48.84409
 11
-43.050187
 21
-48.84409
  0
LINE
  8
別途部材
  6
CONTINUOUS
 10
-36.550187
 20
-49.84409
 11
-35.550187
 21
-48.84409
  0
LINE
  8
別途部材
  6
CONTINUOUS
 10
-34.550187
 20
-48.84409
 11
-33.550187
 21
-49.84409
  0
LINE
  8
別途部材
  6
CONTINUOUS
 10
-35.550187
 20
-48.84409
 11
-34.550187
 21
-48.84409
  0
LINE
  8
別途部材
  6
CONTINUOUS
 10
-32.550187
 20
-49.84409
 11
-31.550187
 21
-48.84409
  0
LINE
  8
別途部材
  6
CONTINUOUS
 10
-30.550187
 20
-48.84409
 11
-29.550187
 21
-49.84409
  0
LINE
  8
別途部材
  6
CONTINUOUS
 10
-31.550187
 20
-48.84409
 11
-30.550187
 21
-48.84409
  0
LINE
  8
別途部材
  6
CONTINUOUS
 10
-28.550187
 20
-49.84409
 11
-27.550187
 21
-48.84409
  0
LINE
  8
別途部材
  6
CONTINUOUS
 10
-26.550187
 20
-48.84409
 11
-25.550187
 21
-49.84409
  0
LINE
  8
別途部材
  6
CONTINUOUS
 10
-27.550187
 20
-48.84409
 11
-26.550187
 21
-48.84409
  0
LINE
  8
別途部材
  6
CONTINUOUS
 10
-24.550187
 20
-49.84409
 11
-23.550187
 21
-48.84409
  0
LINE
  8
別途部材
  6
CONTINUOUS
 10
-22.550187
 20
-48.84409
 11
-21.550187
 21
-49.84409
  0
LINE
  8
別途部材
  6
CONTINUOUS
 10
-23.550187
 20
-48.84409
 11
-22.550187
 21
-48.84409
  0
LINE
  8
別途部材
  6
CONTINUOUS
 10
-20.550187
 20
-49.84409
 11
-19.550187
 21
-48.84409
  0
LINE
  8
別途部材
  6
CONTINUOUS
 10
-18.550187
 20
-48.84409
 11
-17.550187
 21
-49.84409
  0
LINE
  8
別途部材
  6
CONTINUOUS
 10
-19.550187
 20
-48.84409
 11
-18.550187
 21
-48.84409
  0
LINE
  8
別途部材
  6
CONTINUOUS
 10
-16.550187
 20
-49.84409
 11
-15.550187
 21
-48.84409
  0
LINE
  8
別途部材
  6
CONTINUOUS
 10
-14.550187
 20
-48.84409
 11
-13.550187
 21
-49.84409
  0
LINE
  8
別途部材
  6
CONTINUOUS
 10
-15.550187
 20
-48.84409
 11
-14.550187
 21
-48.84409
  0
LINE
  8
別途部材
  6
CONTINUOUS
 10
-12.550187
 20
-49.84409
 11
-11.550187
 21
-48.84409
  0
LINE
  8
別途部材
  6
CONTINUOUS
 10
-10.550187
 20
-48.84409
 11
-9.550187
 21
-49.84409
  0
LINE
  8
別途部材
  6
CONTINUOUS
 10
-11.550187
 20
-48.84409
 11
-10.550187
 21
-48.84409
  0
LINE
  8
別途部材
  6
CONTINUOUS
 10
-8.550187
 20
-49.84409
 11
-7.550187
 21
-48.84409
  0
LINE
  8
別途部材
  6
CONTINUOUS
 10
-6.550187
 20
-48.84409
 11
-5.550187
 21
-49.84409
  0
LINE
  8
別途部材
  6
CONTINUOUS
 10
-7.550187
 20
-48.84409
 11
-6.550187
 21
-48.84409
  0
LINE
  8
別途部材
  6
CONTINUOUS
 10
-4.550187
 20
-49.84409
 11
-3.550187
 21
-48.84409
  0
LINE
  8
別途部材
  6
CONTINUOUS
 10
-2.550187
 20
-48.84409
 11
-1.550187
 21
-49.84409
  0
LINE
  8
別途部材
  6
CONTINUOUS
 10
-3.550187
 20
-48.84409
 11
-2.550187
 21
-48.84409
  0
LINE
  8
別途部材
  6
CONTINUOUS
 10
-0.550187
 20
-49.84409
 11
0.449813
 21
-48.84409
  0
LINE
  8
別途部材
  6
CONTINUOUS
 10
1.449813
 20
-48.84409
 11
2.449813
 21
-49.84409
  0
LINE
  8
別途部材
  6
CONTINUOUS
 10
0.449813
 20
-48.84409
 11
1.449813
 21
-48.84409
  0
LINE
  8
別途部材
  6
CONTINUOUS
 10
-1.550187
 20
-49.84409
 11
-0.550187
 21
-49.84409
  0
LINE
  8
別途部材
  6
CONTINUOUS
 10
-5.550187
 20
-49.84409
 11
-4.550187
 21
-49.84409
  0
LINE
  8
別途部材
  6
CONTINUOUS
 10
-9.550187
 20
-49.84409
 11
-8.550187
 21
-49.84409
  0
LINE
  8
別途部材
  6
CONTINUOUS
 10
-13.550187
 20
-49.84409
 11
-12.550187
 21
-49.84409
  0
LINE
  8
別途部材
  6
CONTINUOUS
 10
-17.550187
 20
-49.84409
 11
-16.550187
 21
-49.84409
  0
LINE
  8
別途部材
  6
CONTINUOUS
 10
-21.550187
 20
-49.84409
 11
-20.550187
 21
-49.84409
  0
LINE
  8
別途部材
  6
CONTINUOUS
 10
-25.550187
 20
-49.84409
 11
-24.550187
 21
-49.84409
  0
LINE
  8
別途部材
  6
CONTINUOUS
 10
-29.550187
 20
-49.84409
 11
-28.550187
 21
-49.84409
  0
LINE
  8
別途部材
  6
CONTINUOUS
 10
-33.550187
 20
-49.84409
 11
-32.550187
 21
-49.84409
  0
LINE
  8
別途部材
  6
CONTINUOUS
 10
-37.550187
 20
-49.84409
 11
-36.550187
 21
-49.84409
  0
LINE
  8
別途部材
  6
CONTINUOUS
 10
-40.550187
 20
-49.84409
 11
-41.550187
 21
-49.84409
  0
LINE
  8
別途部材
  6
CONTINUOUS
 10
3.449813
 20
-49.84409
 11
4.449813
 21
-48.84409
  0
LINE
  8
別途部材
  6
CONTINUOUS
 10
5.449813
 20
-48.84409
 11
6.449813
 21
-49.84409
  0
LINE
  8
別途部材
  6
CONTINUOUS
 10
4.449813
 20
-48.84409
 11
5.449813
 21
-48.84409
  0
LINE
  8
別途部材
  6
CONTINUOUS
 10
7.449813
 20
-49.84409
 11
8.449813
 21
-48.84409
  0
LINE
  8
別途部材
  6
CONTINUOUS
 10
9.449813
 20
-48.84409
 11
10.449813
 21
-49.84409
  0
LINE
  8
別途部材
  6
CONTINUOUS
 10
8.449813
 20
-48.84409
 11
9.449813
 21
-48.84409
  0
LINE
  8
別途部材
  6
CONTINUOUS
 10
11.449813
 20
-49.84409
 11
12.449813
 21
-48.84409
  0
LINE
  8
別途部材
  6
CONTINUOUS
 10
13.449813
 20
-48.84409
 11
14.449813
 21
-49.84409
  0
LINE
  8
別途部材
  6
CONTINUOUS
 10
12.449813
 20
-48.84409
 11
13.449813
 21
-48.84409
  0
LINE
  8
別途部材
  6
CONTINUOUS
 10
10.449813
 20
-49.84409
 11
11.449813
 21
-49.84409
  0
LINE
  8
別途部材
  6
CONTINUOUS
 10
6.449813
 20
-49.84409
 11
7.449813
 21
-49.84409
  0
LINE
  8
別途部材
  6
CONTINUOUS
 10
2.449813
 20
-49.84409
 11
3.449813
 21
-49.84409
  0
LINE
  8
別途部材
  6
CONTINUOUS
 10
14.449813
 20
-49.84409
 11
14.449813
 21
-55.177423
  0
LINE
  8
別途部材
  6
CONTINUOUS
 10
13.449813
 20
-48.84409
 11
13.449813
 21
-55.177423
  0
LINE
  8
別途部材
  6
CONTINUOUS
 10
12.449813
 20
-48.84409
 11
12.449813
 21
-55.177423
  0
LINE
  8
別途部材
  6
CONTINUOUS
 10
9.449813
 20
-48.84409
 11
9.449813
 21
-55.177423
  0
LINE
  8
別途部材
  6
CONTINUOUS
 10
7.449813
 20
-49.84409
 11
7.449813
 21
-55.177423
  0
LINE
  8
別途部材
  6
CONTINUOUS
 10
8.449813
 20
-48.84409
 11
8.449813
 21
-55.177423
  0
LINE
  8
別途部材
  6
CONTINUOUS
 10
10.449813
 20
-49.84409
 11
10.449813
 21
-55.177423
  0
LINE
  8
別途部材
  6
CONTINUOUS
 10
11.449813
 20
-49.84409
 11
11.449813
 21
-55.177423
  0
LINE
  8
別途部材
  6
CONTINUOUS
 10
6.449813
 20
-49.84409
 11
6.449813
 21
-55.177423
  0
LINE
  8
別途部材
  6
CONTINUOUS
 10
4.449813
 20
-48.84409
 11
4.449813
 21
-55.177423
  0
LINE
  8
別途部材
  6
CONTINUOUS
 10
5.449813
 20
-48.84409
 11
5.449813
 21
-55.177423
  0
LINE
  8
別途部材
  6
CONTINUOUS
 10
3.449813
 20
-49.84409
 11
3.449813
 21
-55.177423
  0
LINE
  8
別途部材
  6
CONTINUOUS
 10
1.449813
 20
-48.84409
 11
1.449813
 21
-55.177423
  0
LINE
  8
別途部材
  6
CONTINUOUS
 10
2.449813
 20
-49.84409
 11
2.449813
 21
-55.177423
  0
LINE
  8
別途部材
  6
CONTINUOUS
 10
0.449813
 20
-48.84409
 11
0.449813
 21
-55.177423
  0
LINE
  8
別途部材
  6
CONTINUOUS
 10
-0.550187
 20
-49.84409
 11
-0.550187
 21
-55.177423
  0
LINE
  8
別途部材
  6
CONTINUOUS
 10
-2.550187
 20
-48.84409
 11
-2.550187
 21
-55.177423
  0
LINE
  8
別途部材
  6
CONTINUOUS
 10
-1.550187
 20
-49.84409
 11
-1.550187
 21
-55.177423
  0
LINE
  8
別途部材
  6
CONTINUOUS
 10
-5.550187
 20
-49.84409
 11
-5.550187
 21
-55.177423
  0
LINE
  8
別途部材
  6
CONTINUOUS
 10
-4.550187
 20
-49.84409
 11
-4.550187
 21
-55.177423
  0
LINE
  8
別途部材
  6
CONTINUOUS
 10
-3.550187
 20
-48.84409
 11
-3.550187
 21
-55.177423
  0
LINE
  8
別途部材
  6
CONTINUOUS
 10
-6.550187
 20
-48.84409
 11
-6.550187
 21
-55.177423
  0
LINE
  8
別途部材
  6
CONTINUOUS
 10
-7.550187
 20
-48.84409
 11
-7.550187
 21
-55.177423
  0
LINE
  8
別途部材
  6
CONTINUOUS
 10
-8.550187
 20
-49.84409
 11
-8.550187
 21
-55.177423
  0
LINE
  8
別途部材
  6
CONTINUOUS
 10
-10.550187
 20
-48.84409
 11
-10.550187
 21
-55.177423
  0
LINE
  8
別途部材
  6
CONTINUOUS
 10
-14.550187
 20
-48.84409
 11
-14.550187
 21
-55.177423
  0
LINE
  8
別途部材
  6
CONTINUOUS
 10
-13.550187
 20
-49.84409
 11
-13.550187
 21
-55.177423
  0
LINE
  8
別途部材
  6
CONTINUOUS
 10
-12.550187
 20
-49.84409
 11
-12.550187
 21
-55.177423
  0
LINE
  8
別途部材
  6
CONTINUOUS
 10
-11.550187
 20
-48.84409
 11
-11.550187
 21
-55.177423
  0
LINE
  8
別途部材
  6
CONTINUOUS
 10
-9.550187
 20
-49.84409
 11
-9.550187
 21
-55.177423
  0
LINE
  8
別途部材
  6
CONTINUOUS
 10
-16.550187
 20
-49.84409
 11
-16.550187
 21
-55.177423
  0
LINE
  8
別途部材
  6
CONTINUOUS
 10
-15.550187
 20
-48.84409
 11
-15.550187
 21
-55.177423
  0
LINE
  8
別途部材
  6
CONTINUOUS
 10
-17.550187
 20
-49.84409
 11
-17.550187
 21
-55.177423
  0
LINE
  8
別途部材
  6
CONTINUOUS
 10
-18.550187
 20
-48.84409
 11
-18.550187
 21
-55.177423
  0
LINE
  8
別途部材
  6
CONTINUOUS
 10
-22.550187
 20
-48.84409
 11
-22.550187
 21
-55.177423
  0
LINE
  8
別途部材
  6
CONTINUOUS
 10
-23.550187
 20
-48.84409
 11
-23.550187
 21
-55.177423
  0
LINE
  8
別途部材
  6
CONTINUOUS
 10
-21.550187
 20
-49.84409
 11
-21.550187
 21
-55.177423
  0
LINE
  8
別途部材
  6
CONTINUOUS
 10
-20.550187
 20
-49.84409
 11
-20.550187
 21
-55.177423
  0
LINE
  8
別途部材
  6
CONTINUOUS
 10
-19.550187
 20
-48.84409
 11
-19.550187
 21
-55.177423
  0
LINE
  8
別途部材
  6
CONTINUOUS
 10
-24.550187
 20
-49.84409
 11
-24.550187
 21
-55.177423
  0
LINE
  8
別途部材
  6
CONTINUOUS
 10
-26.550187
 20
-48.84409
 11
-26.550187
 21
-55.177423
  0
LINE
  8
別途部材
  6
CONTINUOUS
 10
-27.550187
 20
-48.84409
 11
-27.550187
 21
-55.177423
  0
LINE
  8
別途部材
  6
CONTINUOUS
 10
-28.550187
 20
-49.84409
 11
-28.550187
 21
-55.177423
  0
LINE
  8
別途部材
  6
CONTINUOUS
 10
-29.550187
 20
-49.84409
 11
-29.550187
 21
-55.177423
  0
LINE
  8
別途部材
  6
CONTINUOUS
 10
-30.550187
 20
-48.84409
 11
-30.550187
 21
-55.177423
  0
LINE
  8
別途部材
  6
CONTINUOUS
 10
-25.550187
 20
-49.84409
 11
-25.550187
 21
-55.177423
  0
LINE
  8
別途部材
  6
CONTINUOUS
 10
-31.550187
 20
-48.84409
 11
-31.550187
 21
-55.177423
  0
LINE
  8
別途部材
  6
CONTINUOUS
 10
-32.550187
 20
-49.84409
 11
-32.550187
 21
-55.177423
  0
LINE
  8
別途部材
  6
CONTINUOUS
 10
-33.550187
 20
-49.84409
 11
-33.550187
 21
-55.177423
  0
LINE
  8
別途部材
  6
CONTINUOUS
 10
-35.550187
 20
-48.84409
 11
-35.550187
 21
-55.177423
  0
LINE
  8
別途部材
  6
CONTINUOUS
 10
-37.550187
 20
-49.84409
 11
-37.550187
 21
-55.177423
  0
LINE
  8
別途部材
  6
CONTINUOUS
 10
-38.550187
 20
-48.84409
 11
-38.550187
 21
-55.177423
  0
LINE
  8
別途部材
  6
CONTINUOUS
 10
-40.550187
 20
-49.84409
 11
-40.550187
 21
-55.177423
  0
LINE
  8
別途部材
  6
CONTINUOUS
 10
-41.550187
 20
-49.84409
 11
-41.550187
 21
-55.177423
  0
LINE
  8
別途部材
  6
CONTINUOUS
 10
-42.550187
 20
-48.84409
 11
-42.550187
 21
-55.177423
  0
LINE
  8
別途部材
  6
CONTINUOUS
 10
-39.550187
 20
-48.84409
 11
-39.550187
 21
-55.177423
  0
LINE
  8
別途部材
  6
CONTINUOUS
 10
-36.550187
 20
-49.84409
 11
-36.550187
 21
-55.177423
  0
LINE
  8
別途部材
  6
CONTINUOUS
 10
-34.550187
 20
-48.84409
 11
-34.550187
 21
-55.177423
  0
ARC
  8
別途部材
  6
CONTINUOUS
 10
13.616481
 20
-61.885762
 40
12.041668
 50
33.855033
 51
86.031735
  0
ENDBLK
  0
BLOCK
  2
*DIM_0013
 70
    65
 10
0.0
 20
0.0
  0
LINE
  8
寸法
  6
CONTINUOUS
 10
32.349842
 20
-61.677663
 11
47.53879
 21
-61.677663
  0
LINE
  8
寸法
  6
CONTINUOUS
 10
30.283145
 20
-55.177423
 11
47.53879
 21
-55.177423
  0
LINE
  8
寸法
  6
CONTINUOUS
 10
47.53879
 20
-61.677663
 11
47.53879
 21
-55.177423
  0
POINT
  8
寸法
 10
47.53879
 20
-61.677663
  0
POINT
  8
寸法
 10
47.53879
 20
-55.177423
  0
TEXT
  7
TextStyle03
  8
寸法
  6
CONTINUOUS
 10
47.15
 20
-60.8875
  1
195
 40
3.0
 50
90.0
 72
     5
 11
47.15
 21
-56.0125
  0
ENDBLK
  0
BLOCK
  2
*DIM_0014
 70
    65
 10
0.0
 20
0.0
  0
LINE
  8
寸法
  6
CONTINUOUS
 10
19.449813
 20
-49.84409
 11
47.53879
 21
-49.84409
  0
LINE
  8
寸法
  6
CONTINUOUS
 10
47.53879
 20
-55.177423
 11
47.53879
 21
-49.84409
  0
POINT
  8
寸法
 10
47.53879
 20
-49.84409
  0
TEXT
  7
TextStyle03
  8
寸法
  6
CONTINUOUS
 10
47.15
 20
-54.9625
  1
160
 40
3.0
 50
90.0
 72
     5
 11
47.15
 21
-50.0875
  0
ENDBLK
  0
BLOCK
  2
*DIM_0015
 70
    65
 10
0.0
 20
0.0
  0
LINE
  8
寸法
  6
CONTINUOUS
 10
27.349842
 20
-56.327663
 11
27.349842
 21
-31.074888
  0
LINE
  8
寸法
  6
CONTINUOUS
 10
23.61648
 20
-31.074888
 11
27.349842
 21
-31.074888
  0
POINT
  8
寸法
 10
23.61648
 20
-31.074888
  0
POINT
  8
寸法
 10
27.349842
 20
-31.074888
  0
TEXT
  7
TextStyle03
  8
寸法
  6
CONTINUOUS
 10
24.3375
 20
-30.45
  1
112
 40
3.0
 72
     5
 11
29.2125
 21
-30.45
  0
ENDBLK
  0
BLOCK
  2
*DIM_0016
 70
    65
 10
0.0
 20
0.0
  0
LINE
  8
寸法
  6
CONTINUOUS
 10
-113.450208
 20
-56.327663
 11
-113.450208
 21
-31.074888
  0
LINE
  8
寸法
  6
CONTINUOUS
 10
-109.716848
 20
-31.074888
 11
-113.450208
 21
-31.074888
  0
POINT
  8
寸法
 10
-109.716848
 20
-31.074888
  0
POINT
  8
寸法
 10
-113.450208
 20
-31.074888
  0
TEXT
  7
TextStyle03
  8
寸法
  6
CONTINUOUS
 10
-114.9875
 20
-30.575
  1
112
 40
3.0
 72
     5
 11
-110.1125
 21
-30.575
  0
ENDBLK
  0
BLOCK
  2
*DIM_0017
 70
    65
 10
0.0
 20
0.0
  0
LINE
  8
寸法
  6
CONTINUOUS
 10
100.03654
 20
41.99536
 11
100.03654
 21
20.518102
  0
LINE
  8
寸法
  6
CONTINUOUS
 10
105.369875
 20
20.518102
 11
100.03654
 21
20.518102
  0
POINT
  8
寸法
 10
100.03654
 20
20.518102
  0
TEXT
  7
TextStyle03
  8
寸法
  6
CONTINUOUS
 10
100.2125
 20
20.875
  1
160
 40
3.0
 72
     5
 11
105.0875
 21
20.875
  0
ENDBLK
  0
BLOCK
  2
*DIM_0018
 70
    65
 10
0.0
 20
0.0
  0
LINE
  8
寸法
  6
CONTINUOUS
 10
111.87011
 20
28.262
 11
111.87011
 21
20.518102
  0
LINE
  8
寸法
  6
CONTINUOUS
 10
105.369875
 20
30.328695
 11
105.369875
 21
20.518102
  0
LINE
  8
寸法
  6
CONTINUOUS
 10
111.87011
 20
20.518102
 11
105.369875
 21
20.518102
  0
POINT
  8
寸法
 10
111.87011
 20
20.518102
  0
POINT
  8
寸法
 10
105.369875
 20
20.518102
  0
TEXT
  7
TextStyle03
  8
寸法
  6
CONTINUOUS
 10
106.1375
 20
20.875
  1
195
 40
3.0
 72
     5
 11
111.0125
 21
20.875
  0
ENDBLK
  0
BLOCK
  2
*DIM_0019
 70
    65
 10
0.0
 20
0.0
  0
LINE
  8
寸法
  6
CONTINUOUS
 10
75.2003
 20
36.995363
 11
75.2003
 21
56.995363
  0
POINT
  8
寸法
 10
75.2003
 20
36.995363
  0
POINT
  8
寸法
 10
75.2003
 20
56.995363
  0
TEXT
  7
TextStyle03
  8
寸法
  6
CONTINUOUS
 10
74.8
 20
36.1
  1
呼称寸法　600
 40
3.0
 50
90.0
 72
     5
 11
74.8
 21
57.85
  0
ENDBLK
  0
BLOCK
  2
*DIM_0020
 70
    65
 10
0.0
 20
0.0
  0
LINE
  8
寸法
  6
CONTINUOUS
 10
100.369873
 20
56.995363
 11
75.2003
 21
56.995363
  0
LINE
  8
寸法
  6
CONTINUOUS
 10
106.37011
 20
60.728723
 11
75.2003
 21
60.728723
  0
LINE
  8
寸法
  6
CONTINUOUS
 10
75.2003
 20
56.995363
 11
75.2003
 21
60.728723
  0
POINT
  8
寸法
 10
75.2003
 20
56.995363
  0
POINT
  8
寸法
 10
75.2003
 20
60.728723
  0
TEXT
  7
TextStyle03
  8
寸法
  6
CONTINUOUS
 10
74.8
 20
61.4625
  1
112
 40
3.0
 50
90.0
 72
     5
 11
74.8
 21
66.3375
  0
ENDBLK
  0
BLOCK
  2
*DIM_0021
 70
    65
 10
0.0
 20
0.0
  0
LINE
  8
寸法
  6
CONTINUOUS
 10
106.37011
 20
33.262
 11
75.2003
 21
33.262
  0
LINE
  8
寸法
  6
CONTINUOUS
 10
75.2003
 20
36.995363
 11
75.2003
 21
33.262
  0
POINT
  8
寸法
 10
75.2003
 20
36.995363
  0
POINT
  8
寸法
 10
75.2003
 20
33.262
  0
TEXT
  7
TextStyle03
  8
寸法
  6
CONTINUOUS
 10
74.8
 20
27.6375
  1
112
 40
3.0
 50
90.0
 72
     5
 11
74.8
 21
32.5125
  0
ENDBLK
  0
BLOCK
  2
*GRP_0022
 70
    65
 10
0.0
 20
0.0
  0
LINE
  8
別途部材
  6
CONTINUOUS
 62
    96
 10
110.653318
 20
58.628905
 11
110.653318
 21
58.528905
  0
LINE
  8
別途部材
  6
CONTINUOUS
 62
    96
 10
108.552238
 20
58.728905
 11
108.62191
 21
60.05971
  0
LINE
  8
別途部材
  6
CONTINUOUS
 62
    96
 10
109.169985
 20
60.068905
 11
109.053318
 21
60.335572
  0
LINE
  8
別途部材
  6
CONTINUOUS
 62
    96
 10
109.069985
 20
60.04799
 11
109.002465
 21
60.202323
  0
LINE
  8
別途部材
  6
CONTINUOUS
 62
    96
 10
108.52314
 20
60.085828
 11
108.65359
 21
60.34603
  0
LINE
  8
別途部材
  6
CONTINUOUS
 62
    96
 10
108.62191
 20
60.05971
 11
108.75407
 21
60.323322
  0
LINE
  8
別途部材
  6
CONTINUOUS
 62
    96
 10
108.789673
 20
60.25844
 11
108.726025
 21
60.18131
  0
LINE
  8
別途部材
  6
DASHDOTX2
 62
    96
 10
108.853318
 20
60.335572
 11
108.539833
 21
60.335572
  0
LINE
  8
別途部材
  6
DASHDOTX2
 62
    96
 10
108.853318
 20
60.335572
 11
109.183777
 21
60.335572
  0
LINE
  8
別途部材
  6
DASHDOTX2
 62
    96
 10
108.853318
 20
60.335572
 11
108.853318
 21
60.0721
  0
LINE
  8
別途部材
  6
DASHDOTX2
 62
    96
 10
108.853318
 20
60.335572
 11
108.853318
 21
60.613883
  0
LINE
  8
別途部材
  6
CONTINUOUS
 62
    96
 10
109.069985
 20
58.528905
 11
109.069985
 21
60.04799
  0
LINE
  8
別途部材
  6
CONTINUOUS
 62
    96
 10
109.169985
 20
58.628905
 11
109.169985
 21
60.068905
  0
LINE
  8
別途部材
  6
CONTINUOUS
 62
    96
 10
107.318905
 20
58.828908
 11
108.457335
 21
58.828908
  0
LINE
  8
別途部材
  6
CONTINUOUS
 62
    96
 10
107.318905
 20
58.728905
 11
107.318905
 21
58.828908
  0
LINE
  8
別途部材
  6
CONTINUOUS
 62
    96
 10
107.318905
 20
58.728905
 11
108.552238
 21
58.728905
  0
CIRCLE
  8
別途部材
  6
CONTINUOUS
 62
    96
 10
108.853318
 20
60.335572
 40
0.1
  0
ARC
  8
別途部材
  6
CONTINUOUS
 62
    96
 10
108.853314
 20
60.335574
 40
0.2
 50
218.780606
 51
537.001556
  0
LINE
  8
別途部材
  6
CONTINUOUS
 62
    96
 10
109.069985
 20
58.528905
 11
110.653318
 21
58.528905
  0
LINE
  8
別途部材
  6
CONTINUOUS
 62
    96
 10
109.169985
 20
58.628905
 11
110.653318
 21
58.628905
  0
LINE
  8
別途部材
  6
CONTINUOUS
 62
    96
 10
108.52314
 20
60.085828
 11
108.457335
 21
58.828908
  0
ENDBLK
  0
BLOCK
  2
*DIM_0023
 70
    65
 10
0.0
 20
0.0
  0
LINE
  8
寸法
  6
CONTINUOUS
 10
91.55423
 20
-41.573718
 11
91.55423
 21
-35.34423
  0
LINE
  8
寸法
  6
CONTINUOUS
 10
124.39423
 20
-41.573718
 11
124.39423
 21
-35.34423
  0
LINE
  8
寸法
  6
CONTINUOUS
 10
91.55423
 20
-35.34423
 11
124.39423
 21
-35.34423
  0
POINT
  8
寸法
 10
91.55423
 20
-35.34423
  0
POINT
  8
寸法
 10
124.39423
 20
-35.34423
  0
TEXT
  7
TextStyle03
  8
寸法
  6
CONTINUOUS
 10
103.825
 20
-34.975
  1
985.2
 40
3.0
 72
     5
 11
112.075
 21
-34.975
  0
ENDBLK
  0
BLOCK
  2
*DIM_0024
 70
    65
 10
0.0
 20
0.0
  0
LINE
  8
寸法
  6
CONTINUOUS
 10
129.39423
 20
-46.573718
 11
139.396155
 21
-46.573718
  0
LINE
  8
寸法
  6
CONTINUOUS
 10
129.39423
 20
-67.10705
 11
139.396155
 21
-67.10705
  0
LINE
  8
寸法
  6
CONTINUOUS
 10
139.396155
 20
-46.573718
 11
139.396155
 21
-67.10705
  0
POINT
  8
寸法
 10
139.396155
 20
-46.573718
  0
POINT
  8
寸法
 10
139.396155
 20
-67.10705
  0
TEXT
  7
TextStyle03
  8
寸法
  6
CONTINUOUS
 10
139.0
 20
-59.2875
  1
616
 40
3.0
 50
90.0
 72
     5
 11
139.0
 21
-54.4125
  0
ENDBLK
  0
BLOCK
  2
*GRP_0025
 70
    65
 10
0.0
 20
0.0
  0
LINE
  8
ボルト／ビス
  6
CONTINUOUS
 10
24.283145
 20
-55.177423
 11
24.283145
 21
-54.710755
  0
LINE
  8
ボルト／ビス
  6
CONTINUOUS
 10
24.649813
 20
-55.177423
 11
24.649813
 21
-55.110755
  0
LINE
  8
ボルト／ビス
  6
CONTINUOUS
 10
24.649813
 20
-55.110755
 11
23.916477
 21
-55.110755
  0
LINE
  8
ボルト／ビス
  6
CONTINUOUS
 10
23.916477
 20
-55.110755
 11
23.916477
 21
-55.177423
  0
LINE
  8
ボルト／ビス
  6
CONTINUOUS
 10
24.649813
 20
-55.177423
 11
23.916477
 21
-55.177423
  0
LINE
  8
ボルト／ビス
  6
CONTINUOUS
 10
24.583145
 20
-55.077423
 11
24.583145
 21
-55.110755
  0
LINE
  8
ボルト／ビス
  6
CONTINUOUS
 10
24.583145
 20
-55.077423
 11
23.983145
 21
-55.077423
  0
LINE
  8
ボルト／ビス
  6
CONTINUOUS
 10
23.983145
 20
-55.077423
 11
23.983145
 21
-55.110755
  0
LINE
  8
ボルト／ビス
  6
CONTINUOUS
 62
    64
 10
24.44352
 20
-54.877423
 11
24.475595
 21
-54.889098
  0
ARC
  8
ボルト／ビス
  6
CONTINUOUS
 62
    64
 10
24.427483
 20
-54.982401
 40
0.104978
 50
90.0
 51
117.278033
  0
ARC
  8
ボルト／ビス
  6
CONTINUOUS
 62
    64
 10
24.283146
 20
-55.279825
 40
0.402402
 50
76.165015
 51
103.834998
  0
LINE
  8
ボルト／ビス
  6
CONTINUOUS
 62
    64
 10
24.12277
 20
-54.877423
 11
24.090695
 21
-54.889098
  0
ARC
  8
ボルト／ビス
  6
CONTINUOUS
 62
    64
 10
24.138808
 20
-54.982401
 40
0.104978
 50
62.721967
 51
90.0
  0
LINE
  8
ボルト／ビス
  6
CONTINUOUS
 62
    64
 10
24.44352
 20
-54.877423
 11
24.12277
 21
-54.877423
  0
LINE
  8
ボルト／ビス
  6
CONTINUOUS
 62
    64
 10
24.090695
 20
-54.889098
 11
24.090695
 21
-55.010755
  0
LINE
  8
ボルト／ビス
  6
CONTINUOUS
 62
    64
 10
24.18692
 20
-54.889098
 11
24.18692
 21
-55.010755
  0
LINE
  8
ボルト／ビス
  6
CONTINUOUS
 62
    64
 10
24.475595
 20
-54.889098
 11
24.475595
 21
-55.010755
  0
LINE
  8
ボルト／ビス
  6
CONTINUOUS
 62
    64
 10
24.37937
 20
-54.889098
 11
24.37937
 21
-55.010755
  0
LINE
  8
ボルト／ビス
  6
CONTINUOUS
 10
24.475595
 20
-55.010755
 11
24.090695
 21
-55.010755
  0
LINE
  8
ボルト／ビス
  6
CONTINUOUS
 10
24.483145
 20
-55.010755
 11
24.483145
 21
-55.077423
  0
LINE
  8
ボルト／ビス
  6
CONTINUOUS
 10
24.483145
 20
-55.010755
 11
24.083145
 21
-55.010755
  0
LINE
  8
ボルト／ビス
  6
CONTINUOUS
 10
24.083145
 20
-55.010755
 11
24.083145
 21
-55.077423
  0
ENDBLK
  0
BLOCK
  2
*GRP_0026
 70
    65
 10
0.0
 20
0.0
  0
LINE
  8
ボルト／ビス
  6
CONTINUOUS
 10
-110.383525
 20
-55.177423
 11
-110.383525
 21
-54.710755
  0
LINE
  8
ボルト／ビス
  6
CONTINUOUS
 10
-110.016857
 20
-55.177423
 11
-110.016857
 21
-55.110755
  0
LINE
  8
ボルト／ビス
  6
CONTINUOUS
 10
-110.016857
 20
-55.110755
 11
-110.750192
 21
-55.110755
  0
LINE
  8
ボルト／ビス
  6
CONTINUOUS
 10
-110.750192
 20
-55.110755
 11
-110.750192
 21
-55.177423
  0
LINE
  8
ボルト／ビス
  6
CONTINUOUS
 10
-110.016857
 20
-55.177423
 11
-110.750192
 21
-55.177423
  0
LINE
  8
ボルト／ビス
  6
CONTINUOUS
 10
-110.083525
 20
-55.077423
 11
-110.083525
 21
-55.110755
  0
LINE
  8
ボルト／ビス
  6
CONTINUOUS
 10
-110.083525
 20
-55.077423
 11
-110.683525
 21
-55.077423
  0
LINE
  8
ボルト／ビス
  6
CONTINUOUS
 10
-110.683525
 20
-55.077423
 11
-110.683525
 21
-55.110755
  0
LINE
  8
ボルト／ビス
  6
CONTINUOUS
 62
    64
 10
-110.22315
 20
-54.877423
 11
-110.191075
 21
-54.889098
  0
ARC
  8
ボルト／ビス
  6
CONTINUOUS
 62
    64
 10
-110.239187
 20
-54.982401
 40
0.104978
 50
90.0
 51
117.278033
  0
ARC
  8
ボルト／ビス
  6
CONTINUOUS
 62
    64
 10
-110.383524
 20
-55.279825
 40
0.402402
 50
76.165015
 51
103.834998
  0
LINE
  8
ボルト／ビス
  6
CONTINUOUS
 62
    64
 10
-110.5439
 20
-54.877423
 11
-110.575975
 21
-54.889098
  0
ARC
  8
ボルト／ビス
  6
CONTINUOUS
 62
    64
 10
-110.527862
 20
-54.982401
 40
0.104978
 50
62.721967
 51
90.0
  0
LINE
  8
ボルト／ビス
  6
CONTINUOUS
 62
    64
 10
-110.22315
 20
-54.877423
 11
-110.5439
 21
-54.877423
  0
LINE
  8
ボルト／ビス
  6
CONTINUOUS
 62
    64
 10
-110.575975
 20
-54.889098
 11
-110.575975
 21
-55.010755
  0
LINE
  8
ボルト／ビス
  6
CONTINUOUS
 62
    64
 10
-110.47975
 20
-54.889098
 11
-110.47975
 21
-55.010755
  0
LINE
  8
ボルト／ビス
  6
CONTINUOUS
 62
    64
 10
-110.191075
 20
-54.889098
 11
-110.191075
 21
-55.010755
  0
LINE
  8
ボルト／ビス
  6
CONTINUOUS
 62
    64
 10
-110.2873
 20
-54.889098
 11
-110.2873
 21
-55.010755
  0
LINE
  8
ボルト／ビス
  6
CONTINUOUS
 10
-110.191075
 20
-55.010755
 11
-110.575975
 21
-55.010755
  0
LINE
  8
ボルト／ビス
  6
CONTINUOUS
 10
-110.183525
 20
-55.010755
 11
-110.183525
 21
-55.077423
  0
LINE
  8
ボルト／ビス
  6
CONTINUOUS
 10
-110.183525
 20
-55.010755
 11
-110.583525
 21
-55.010755
  0
LINE
  8
ボルト／ビス
  6
CONTINUOUS
 10
-110.583525
 20
-55.010755
 11
-110.583525
 21
-55.077423
  0
ENDBLK
  0
BLOCK
  2
*GRP_0027
 70
    65
 10
0.0
 20
0.0
  0
LINE
  8
ボルト／ビス
  6
CONTINUOUS
 10
105.369875
 20
36.328695
 11
104.903207
 21
36.328695
  0
LINE
  8
ボルト／ビス
  6
CONTINUOUS
 10
105.369875
 20
36.695363
 11
105.303207
 21
36.695363
  0
LINE
  8
ボルト／ビス
  6
CONTINUOUS
 10
105.303207
 20
36.695363
 11
105.303207
 21
35.962027
  0
LINE
  8
ボルト／ビス
  6
CONTINUOUS
 10
105.303207
 20
35.962027
 11
105.369875
 21
35.962027
  0
LINE
  8
ボルト／ビス
  6
CONTINUOUS
 10
105.369875
 20
36.695363
 11
105.369875
 21
35.962027
  0
LINE
  8
ボルト／ビス
  6
CONTINUOUS
 10
105.269875
 20
36.628695
 11
105.303207
 21
36.628695
  0
LINE
  8
ボルト／ビス
  6
CONTINUOUS
 10
105.269875
 20
36.628695
 11
105.269875
 21
36.028695
  0
LINE
  8
ボルト／ビス
  6
CONTINUOUS
 10
105.269875
 20
36.028695
 11
105.303207
 21
36.028695
  0
LINE
  8
ボルト／ビス
  6
CONTINUOUS
 62
    64
 10
105.069875
 20
36.48907
 11
105.08155
 21
36.521145
  0
ARC
  8
ボルト／ビス
  6
CONTINUOUS
 62
    64
 10
105.174855
 20
36.473032
 40
0.104978
 50
180.0
 51
207.278033
  0
ARC
  8
ボルト／ビス
  6
CONTINUOUS
 62
    64
 10
105.472279
 20
36.328694
 40
0.402402
 50
166.165015
 51
193.834998
  0
LINE
  8
ボルト／ビス
  6
CONTINUOUS
 62
    64
 10
105.069875
 20
36.16832
 11
105.08155
 21
36.136245
  0
ARC
  8
ボルト／ビス
  6
CONTINUOUS
 62
    64
 10
105.174855
 20
36.184357
 40
0.104978
 50
152.721967
 51
180.0
  0
LINE
  8
ボルト／ビス
  6
CONTINUOUS
 62
    64
 10
105.069875
 20
36.48907
 11
105.069875
 21
36.16832
  0
LINE
  8
ボルト／ビス
  6
CONTINUOUS
 62
    64
 10
105.08155
 20
36.136245
 11
105.203207
 21
36.136245
  0
LINE
  8
ボルト／ビス
  6
CONTINUOUS
 62
    64
 10
105.08155
 20
36.23247
 11
105.203207
 21
36.23247
  0
LINE
  8
ボルト／ビス
  6
CONTINUOUS
 62
    64
 10
105.08155
 20
36.521145
 11
105.203207
 21
36.521145
  0
LINE
  8
ボルト／ビス
  6
CONTINUOUS
 62
    64
 10
105.08155
 20
36.42492
 11
105.203207
 21
36.42492
  0
LINE
  8
ボルト／ビス
  6
CONTINUOUS
 10
105.203207
 20
36.521145
 11
105.203207
 21
36.136245
  0
LINE
  8
ボルト／ビス
  6
CONTINUOUS
 10
105.203207
 20
36.528695
 11
105.269875
 21
36.528695
  0
LINE
  8
ボルト／ビス
  6
CONTINUOUS
 10
105.203207
 20
36.528695
 11
105.203207
 21
36.128695
  0
LINE
  8
ボルト／ビス
  6
CONTINUOUS
 10
105.203207
 20
36.128695
 11
105.269875
 21
36.128695
  0
ENDBLK
  0
BLOCK
  2
*GRP_0028
 70
    65
 10
0.0
 20
0.0
  0
LINE
  8
ボルト／ビス
  6
CONTINUOUS
 10
105.369875
 20
57.662027
 11
104.903207
 21
57.662027
  0
LINE
  8
ボルト／ビス
  6
CONTINUOUS
 10
105.369875
 20
58.028695
 11
105.303207
 21
58.028695
  0
LINE
  8
ボルト／ビス
  6
CONTINUOUS
 10
105.303207
 20
58.028695
 11
105.303207
 21
57.29536
  0
LINE
  8
ボルト／ビス
  6
CONTINUOUS
 10
105.303207
 20
57.29536
 11
105.369875
 21
57.29536
  0
LINE
  8
ボルト／ビス
  6
CONTINUOUS
 10
105.369875
 20
58.028695
 11
105.369875
 21
57.29536
  0
LINE
  8
ボルト／ビス
  6
CONTINUOUS
 10
105.269875
 20
57.962027
 11
105.303207
 21
57.962027
  0
LINE
  8
ボルト／ビス
  6
CONTINUOUS
 10
105.269875
 20
57.962027
 11
105.269875
 21
57.362027
  0
LINE
  8
ボルト／ビス
  6
CONTINUOUS
 10
105.269875
 20
57.362027
 11
105.303207
 21
57.362027
  0
LINE
  8
ボルト／ビス
  6
CONTINUOUS
 62
    64
 10
105.069875
 20
57.822402
 11
105.08155
 21
57.854478
  0
ARC
  8
ボルト／ビス
  6
CONTINUOUS
 62
    64
 10
105.174855
 20
57.806364
 40
0.104978
 50
180.0
 51
207.278033
  0
ARC
  8
ボルト／ビス
  6
CONTINUOUS
 62
    64
 10
105.472279
 20
57.662027
 40
0.402402
 50
166.165015
 51
193.834998
  0
LINE
  8
ボルト／ビス
  6
CONTINUOUS
 62
    64
 10
105.069875
 20
57.501652
 11
105.08155
 21
57.469578
  0
ARC
  8
ボルト／ビス
  6
CONTINUOUS
 62
    64
 10
105.174855
 20
57.517689
 40
0.104978
 50
152.721967
 51
180.0
  0
LINE
  8
ボルト／ビス
  6
CONTINUOUS
 62
    64
 10
105.069875
 20
57.822402
 11
105.069875
 21
57.501652
  0
LINE
  8
ボルト／ビス
  6
CONTINUOUS
 62
    64
 10
105.08155
 20
57.469578
 11
105.203207
 21
57.469578
  0
LINE
  8
ボルト／ビス
  6
CONTINUOUS
 62
    64
 10
105.08155
 20
57.565803
 11
105.203207
 21
57.565803
  0
LINE
  8
ボルト／ビス
  6
CONTINUOUS
 62
    64
 10
105.08155
 20
57.854478
 11
105.203207
 21
57.854478
  0
LINE
  8
ボルト／ビス
  6
CONTINUOUS
 62
    64
 10
105.08155
 20
57.758252
 11
105.203207
 21
57.758252
  0
LINE
  8
ボルト／ビス
  6
CONTINUOUS
 10
105.203207
 20
57.854478
 11
105.203207
 21
57.469578
  0
LINE
  8
ボルト／ビス
  6
CONTINUOUS
 10
105.203207
 20
57.862027
 11
105.269875
 21
57.862027
  0
LINE
  8
ボルト／ビス
  6
CONTINUOUS
 10
105.203207
 20
57.862027
 11
105.203207
 21
57.462027
  0
LINE
  8
ボルト／ビス
  6
CONTINUOUS
 10
105.203207
 20
57.462027
 11
105.269875
 21
57.462027
  0
ENDBLK
  0
BLOCK
  2
*GRP_0029
 70
    65
 10
0.0
 20
0.0
  0
LINE
  8
ボルト／ビス
  6
DOT
 10
104.393605
 20
61.01432
 11
104.063623
 21
61.344305
  0
LINE
  8
ボルト／ビス
  6
DOT
 10
104.65288
 20
61.273593
 11
104.605738
 21
61.320735
  0
LINE
  8
ボルト／ビス
  6
DOT
 10
104.605738
 20
61.320735
 11
104.087192
 21
60.802188
  0
LINE
  8
ボルト／ビス
  6
DOT
 10
104.087192
 20
60.802188
 11
104.134332
 21
60.755048
  0
LINE
  8
ボルト／ビス
  6
DOT
 10
104.65288
 20
61.273593
 11
104.134332
 21
60.755048
  0
LINE
  8
ボルト／ビス
  6
DOT
 10
104.535028
 20
61.297163
 11
104.558597
 21
61.273593
  0
LINE
  8
ボルト／ビス
  6
DOT
 10
104.535028
 20
61.297163
 11
104.110763
 21
60.8729
  0
LINE
  8
ボルト／ビス
  6
DOT
 10
104.110763
 20
60.8729
 11
104.134332
 21
60.84933
  0
LINE
  8
ボルト／ビス
  6
DOT
 62
    64
 10
104.294875
 20
61.339855
 11
104.325813
 21
61.35428
  0
ARC
  8
ボルト／ビス
  6
DOT
 62
    64
 10
104.357766
 20
61.254283
 40
0.104978
 50
135.0
 51
162.278033
  0
ARC
  8
ボルト／ビス
  6
DOT
 62
    64
 10
104.466015
 20
60.94191
 40
0.402402
 50
121.165015
 51
148.834998
  0
LINE
  8
ボルト／ビス
  6
DOT
 62
    64
 10
104.068073
 20
61.11305
 11
104.053648
 21
61.082115
  0
ARC
  8
ボルト／ビス
  6
DOT
 62
    64
 10
104.153642
 20
61.050158
 40
0.104978
 50
107.721967
 51
135.0
  0
LINE
  8
ボルト／ビス
  6
DOT
 62
    64
 10
104.294875
 20
61.339855
 11
104.068073
 21
61.11305
  0
LINE
  8
ボルト／ビス
  6
DOT
 62
    64
 10
104.053648
 20
61.082115
 11
104.139673
 21
60.99609
  0
LINE
  8
ボルト／ビス
  6
DOT
 62
    64
 10
104.121688
 20
61.150155
 11
104.207712
 21
61.06413
  0
LINE
  8
ボルト／ビス
  6
DOT
 62
    64
 10
104.325813
 20
61.35428
 11
104.411838
 21
61.268255
  0
LINE
  8
ボルト／ビス
  6
DOT
 62
    64
 10
104.25777
 20
61.286238
 11
104.343795
 21
61.200213
  0
LINE
  8
ボルト／ビス
  6
DOT
 10
104.411838
 20
61.268255
 11
104.139673
 21
60.99609
  0
LINE
  8
ボルト／ビス
  6
DOT
 10
104.417175
 20
61.273593
 11
104.464317
 21
61.226453
  0
LINE
  8
ボルト／ビス
  6
DOT
 10
104.417175
 20
61.273593
 11
104.134332
 21
60.99075
  0
LINE
  8
ボルト／ビス
  6
DOT
 10
104.134332
 20
60.99075
 11
104.181473
 21
60.94361
  0
ENDBLK
  0
BLOCK
  2
*GRP_0030
 70
    65
 10
0.0
 20
0.0
  0
LINE
  8
ボルト／ビス
  6
DOT
 10
89.30866
 20
45.929378
 11
88.978678
 21
46.259362
  0
LINE
  8
ボルト／ビス
  6
DOT
 10
89.567935
 20
46.18865
 11
89.520793
 21
46.235793
  0
LINE
  8
ボルト／ビス
  6
DOT
 10
89.520793
 20
46.235793
 11
89.002247
 21
45.717245
  0
LINE
  8
ボルト／ビス
  6
DOT
 10
89.002247
 20
45.717245
 11
89.049388
 21
45.670105
  0
LINE
  8
ボルト／ビス
  6
DOT
 10
89.567935
 20
46.18865
 11
89.049388
 21
45.670105
  0
LINE
  8
ボルト／ビス
  6
DOT
 10
89.450082
 20
46.21222
 11
89.473653
 21
46.18865
  0
LINE
  8
ボルト／ビス
  6
DOT
 10
89.450082
 20
46.21222
 11
89.025818
 21
45.787958
  0
LINE
  8
ボルト／ビス
  6
DOT
 10
89.025818
 20
45.787958
 11
89.049388
 21
45.764387
  0
LINE
  8
ボルト／ビス
  6
DOT
 62
    64
 10
89.20993
 20
46.254912
 11
89.240868
 21
46.269338
  0
ARC
  8
ボルト／ビス
  6
DOT
 62
    64
 10
89.272821
 20
46.169341
 40
0.104978
 50
135.0
 51
162.278033
  0
ARC
  8
ボルト／ビス
  6
DOT
 62
    64
 10
89.381069
 20
45.856968
 40
0.402402
 50
121.165015
 51
148.834998
  0
LINE
  8
ボルト／ビス
  6
DOT
 62
    64
 10
88.983128
 20
46.028108
 11
88.968702
 21
45.997172
  0
ARC
  8
ボルト／ビス
  6
DOT
 62
    64
 10
89.068697
 20
45.965217
 40
0.104978
 50
107.721967
 51
135.0
  0
LINE
  8
ボルト／ビス
  6
DOT
 62
    64
 10
89.20993
 20
46.254912
 11
88.983128
 21
46.028108
  0
LINE
  8
ボルト／ビス
  6
DOT
 62
    64
 10
88.968702
 20
45.997172
 11
89.054728
 21
45.911147
  0
LINE
  8
ボルト／ビス
  6
DOT
 62
    64
 10
89.036743
 20
46.065213
 11
89.122768
 21
45.979188
  0
LINE
  8
ボルト／ビス
  6
DOT
 62
    64
 10
89.240868
 20
46.269338
 11
89.326893
 21
46.183312
  0
LINE
  8
ボルト／ビス
  6
DOT
 62
    64
 10
89.172825
 20
46.201295
 11
89.25885
 21
46.11527
  0
LINE
  8
ボルト／ビス
  6
DOT
 10
89.326893
 20
46.183312
 11
89.054728
 21
45.911147
  0
LINE
  8
ボルト／ビス
  6
DOT
 10
89.33223
 20
46.18865
 11
89.379372
 21
46.14151
  0
LINE
  8
ボルト／ビス
  6
DOT
 10
89.33223
 20
46.18865
 11
89.049388
 21
45.905808
  0
LINE
  8
ボルト／ビス
  6
DOT
 10
89.049388
 20
45.905808
 11
89.096528
 21
45.858668
  0
ENDBLK
  0
ENDSEC
  0
SECTION
  2
ENTITIES
  0
POLYLINE
  8
通り芯
  6
CONTINUOUS
 66
     1
 70
     1
  0
VERTEX
  8
通り芯
 10
-210.0
 20
-148.5
  0
VERTEX
  8
通り芯
 10
210.0
 20
-148.5
  0
VERTEX
  8
通り芯
 10
210.0
 20
148.5
  0
VERTEX
  8
通り芯
 10
-210.0
 20
148.5
  0
SEQEND
  0
INSERT
  2
*GRP_0001
  8
型材断面
  6
CONTINUOUS
 10
0.0
 20
0.0
  0
LINE
  8
型材断面
  6
DASHDOT
 10
-43.050183
 20
-66.258275
 11
-43.050183
 21
56.995363
  0
LINE
  8
型材断面
  6
CONTINUOUS
 62
    47
 10
24.663172
 20
-58.610877
 11
25.383388
 21
-58.610877
  0
LINE
  8
型材断面
  6
CONTINUOUS
 62
    47
 10
25.340022
 20
-57.317558
 11
25.350022
 21
-57.307557
  0
LINE
  8
型材断面
  6
CONTINUOUS
 62
    47
 10
25.340022
 20
-57.317558
 11
25.350022
 21
-57.327557
  0
LINE
  8
型材断面
  6
CONTINUOUS
 62
    47
 10
25.340022
 20
-57.95979
 11
25.350022
 21
-57.94979
  0
LINE
  8
型材断面
  6
CONTINUOUS
 62
    47
 10
25.340022
 20
-57.95979
 11
25.350022
 21
-57.96979
  0
LINE
  8
型材断面
  6
CONTINUOUS
 62
    47
 10
25.350022
 20
-58.377575
 11
25.350022
 21
-57.96979
  0
LINE
  8
型材断面
  6
CONTINUOUS
 62
    47
 10
25.350022
 20
-57.94979
 11
25.350022
 21
-57.327557
  0
LINE
  8
型材断面
  6
CONTINUOUS
 62
    47
 10
26.84985
 20
-62.010995
 11
26.84985
 21
-61.677663
  0
LINE
  8
型材断面
  6
CONTINUOUS
 62
    47
 10
24.916688
 20
-61.010992
 11
24.319843
 21
-61.010992
  0
LINE
  8
型材断面
  6
CONTINUOUS
 62
    47
 10
25.149842
 20
-61.01098
 11
27.349842
 21
-61.177663
  0
LINE
  8
型材断面
  6
CONTINUOUS
 62
    47
 10
27.349842
 20
-61.677663
 11
27.349842
 21
-61.177663
  0
LINE
  8
型材断面
  6
CONTINUOUS
 62
    47
 10
26.616508
 20
-58.444232
 11
26.616508
 21
-58.610877
  0
LINE
  8
型材断面
  6
CONTINUOUS
 62
    47
 10
26.616508
 20
-58.877538
 11
26.616508
 21
-58.74422
  0
LINE
  8
型材断面
  6
CONTINUOUS
 62
    47
 10
25.350022
 20
-58.377575
 11
26.623195
 21
-58.444232
  0
LINE
  8
型材断面
  6
CONTINUOUS
 62
    47
 10
25.149842
 20
-58.877538
 11
25.149842
 21
-61.010992
  0
LINE
  8
型材断面
  6
CONTINUOUS
 62
    47
 10
25.350022
 20
-57.307557
 11
25.350022
 21
-56.177427
  0
LINE
  8
型材断面
  6
CONTINUOUS
 62
    47
 10
26.616508
 20
-58.74422
 11
-43.050183
 21
-58.74422
  0
LINE
  8
型材断面
  6
CONTINUOUS
 10
25.350022
 20
-58.377575
 11
-43.050183
 21
-58.377575
  0
LINE
  8
型材断面
  6
CONTINUOUS
 10
26.616508
 20
-58.444232
 11
-43.050183
 21
-58.444232
  0
LINE
  8
型材断面
  6
CONTINUOUS
 62
    47
 10
26.616508
 20
-58.877538
 11
-43.050183
 21
-58.877538
  0
LINE
  8
型材断面
  6
CONTINUOUS
 62
    47
 10
26.616508
 20
-58.610877
 11
-43.050183
 21
-58.610877
  0
LINE
  8
型材断面
  6
CONTINUOUS
 10
27.349842
 20
-61.677663
 11
-43.050183
 21
-61.677663
  0
LINE
  8
型材断面
  6
CONTINUOUS
 10
27.349842
 20
-61.177663
 11
-43.050183
 21
-61.177663
  0
LINE
  8
型材断面
  6
CONTINUOUS
 10
26.84985
 20
-62.010995
 11
-43.050183
 21
-62.010995
  0
LINE
  8
型材断面
  6
CONTINUOUS
 10
25.149842
 20
-61.010992
 11
-43.050183
 21
-61.010992
  0
LINE
  8
型材断面
  6
CONTINUOUS
 10
25.683148
 20
34.928698
 11
27.349842
 21
33.262003
  0
LINE
  8
型材断面
  6
CONTINUOUS
 10
27.349842
 20
33.262003
 11
27.349842
 21
46.995363
  0
LINE
  8
型材断面
  6
CONTINUOUS
 10
26.616508
 20
33.995335
 11
26.616508
 21
46.995363
  0
LINE
  8
型材断面
  6
CONTINUOUS
 10
25.683148
 20
59.06203
 11
27.349842
 21
60.728725
  0
LINE
  8
型材断面
  6
CONTINUOUS
 10
27.349842
 20
60.728725
 11
27.349842
 21
46.995363
  0
LINE
  8
型材断面
  6
CONTINUOUS
 10
26.616508
 20
59.995392
 11
26.616508
 21
46.995363
  0
LINE
  8
型材断面
  6
DASHDOT
 10
23.61648
 20
-66.258275
 11
23.61648
 21
56.995363
  0
LINE
  8
型材断面
  6
CONTINUOUS
 62
    47
 10
-110.76354
 20
-58.610877
 11
-111.483752
 21
-58.610877
  0
LINE
  8
型材断面
  6
CONTINUOUS
 62
    47
 10
-111.44039
 20
-57.317558
 11
-111.45039
 21
-57.307557
  0
LINE
  8
型材断面
  6
CONTINUOUS
 62
    47
 10
-111.44039
 20
-57.317558
 11
-111.45039
 21
-57.327557
  0
LINE
  8
型材断面
  6
CONTINUOUS
 62
    47
 10
-111.44039
 20
-57.95979
 11
-111.45039
 21
-57.94979
  0
LINE
  8
型材断面
  6
CONTINUOUS
 62
    47
 10
-111.44039
 20
-57.95979
 11
-111.45039
 21
-57.96979
  0
LINE
  8
型材断面
  6
CONTINUOUS
 62
    47
 10
-111.45039
 20
-58.377575
 11
-111.45039
 21
-57.96979
  0
LINE
  8
型材断面
  6
CONTINUOUS
 62
    47
 10
-111.45039
 20
-57.94979
 11
-111.45039
 21
-57.327557
  0
LINE
  8
型材断面
  6
CONTINUOUS
 62
    47
 10
-112.950217
 20
-62.010995
 11
-112.950217
 21
-61.677663
  0
LINE
  8
型材断面
  6
CONTINUOUS
 62
    47
 10
-111.017055
 20
-61.010992
 11
-110.420208
 21
-61.010992
  0
LINE
  8
型材断面
  6
CONTINUOUS
 62
    47
 10
-111.250208
 20
-61.01098
 11
-113.450208
 21
-61.177663
  0
LINE
  8
型材断面
  6
CONTINUOUS
 62
    47
 10
-113.450208
 20
-61.677663
 11
-113.450208
 21
-61.177663
  0
LINE
  8
型材断面
  6
CONTINUOUS
 62
    47
 10
-112.716875
 20
-58.444232
 11
-112.716875
 21
-58.610877
  0
LINE
  8
型材断面
  6
CONTINUOUS
 62
    47
 10
-112.716875
 20
-58.877538
 11
-112.716875
 21
-58.74422
  0
LINE
  8
型材断面
  6
CONTINUOUS
 62
    47
 10
-111.45039
 20
-58.377575
 11
-112.723563
 21
-58.444232
  0
LINE
  8
型材断面
  6
CONTINUOUS
 62
    47
 10
-111.250208
 20
-58.877538
 11
-111.250208
 21
-61.010992
  0
LINE
  8
型材断面
  6
CONTINUOUS
 62
    47
 10
-111.45039
 20
-57.307557
 11
-111.45039
 21
-56.177427
  0
LINE
  8
型材断面
  6
CONTINUOUS
 62
    47
 10
-112.716875
 20
-58.74422
 11
-43.050183
 21
-58.74422
  0
LINE
  8
型材断面
  6
CONTINUOUS
 10
-111.45039
 20
-58.377575
 11
-43.050183
 21
-58.377575
  0
LINE
  8
型材断面
  6
CONTINUOUS
 10
-112.716875
 20
-58.444232
 11
-43.050183
 21
-58.444232
  0
LINE
  8
型材断面
  6
CONTINUOUS
 62
    47
 10
-112.716875
 20
-58.877538
 11
-43.050183
 21
-58.877538
  0
LINE
  8
型材断面
  6
CONTINUOUS
 62
    47
 10
-112.716875
 20
-58.610877
 11
-43.050183
 21
-58.610877
  0
LINE
  8
型材断面
  6
CONTINUOUS
 10
-113.450208
 20
-61.677663
 11
-43.050183
 21
-61.677663
  0
LINE
  8
型材断面
  6
CONTINUOUS
 10
-113.450208
 20
-61.177663
 11
-43.050183
 21
-61.177663
  0
LINE
  8
型材断面
  6
CONTINUOUS
 10
-112.950217
 20
-62.010995
 11
-43.050183
 21
-62.010995
  0
LINE
  8
型材断面
  6
CONTINUOUS
 10
-111.250208
 20
-61.010992
 11
-43.050183
 21
-61.010992
  0
LINE
  8
型材断面
  6
CONTINUOUS
 10
-111.783512
 20
34.928698
 11
-113.450208
 21
33.262003
  0
LINE
  8
型材断面
  6
CONTINUOUS
 10
-113.450208
 20
33.262003
 11
-113.450208
 21
46.995363
  0
LINE
  8
型材断面
  6
CONTINUOUS
 10
-112.716875
 20
33.995335
 11
-112.716875
 21
46.995363
  0
LINE
  8
型材断面
  6
CONTINUOUS
 10
-113.450208
 20
33.262003
 11
-99.716848
 21
33.262003
  0
LINE
  8
型材断面
  6
CONTINUOUS
 10
-112.716875
 20
33.995335
 11
-99.716848
 21
33.995335
  0
LINE
  8
型材断面
  6
CONTINUOUS
 10
-111.783512
 20
59.06203
 11
-113.450208
 21
60.728725
  0
LINE
  8
型材断面
  6
CONTINUOUS
 10
-113.450208
 20
60.728725
 11
-113.450208
 21
46.995363
  0
LINE
  8
型材断面
  6
CONTINUOUS
 10
-112.716875
 20
59.995392
 11
-112.716875
 21
46.995363
  0
LINE
  8
型材断面
  6
CONTINUOUS
 10
-113.450208
 20
60.728725
 11
-99.716848
 21
60.728725
  0
LINE
  8
型材断面
  6
CONTINUOUS
 10
-112.716875
 20
59.995392
 11
-99.716848
 21
59.995392
  0
LINE
  8
型材断面
  6
DASHDOT
 10
114.059035
 20
36.995363
 11
-109.716848
 21
36.995363
  0
LINE
  8
型材断面
  6
DASHDOT
 10
114.059035
 20
46.995363
 11
-109.716848
 21
46.995363
  0
LINE
  8
型材断面
  6
DASHDOT
 10
114.059035
 20
56.995363
 11
-109.716848
 21
56.995363
  0
LINE
  8
型材断面
  6
DASHDOT
 10
-109.716848
 20
-66.258275
 11
-109.716848
 21
56.995363
  0
LINE
  8
型材断面
  6
CONTINUOUS
 10
27.349842
 20
33.262003
 11
-99.716848
 21
33.262003
  0
LINE
  8
型材断面
  6
CONTINUOUS
 10
26.616508
 20
33.995335
 11
-99.716848
 21
33.995335
  0
LINE
  8
型材断面
  6
CONTINUOUS
 10
27.349842
 20
60.728725
 11
-99.716848
 21
60.728725
  0
LINE
  8
型材断面
  6
CONTINUOUS
 10
26.616508
 20
59.995392
 11
-99.716848
 21
59.995392
  0
LINE
  8
型材断面
  6
DOT
 10
-44.300183
 20
36.995363
 11
-44.300183
 21
56.995363
  0
LINE
  8
型材断面
  6
DASHDOT
 10
-43.050183
 20
36.995363
 11
-43.050183
 21
56.995363
  0
LINE
  8
型材断面
  6
DOT
 10
-41.800183
 20
36.995363
 11
-41.800183
 21
56.995363
  0
LINE
  8
型材断面
  6
CONTINUOUS
 10
-93.05018
 20
59.625492
 11
-94.54581
 21
62.216
  0
LINE
  8
型材断面
  6
CONTINUOUS
 10
-93.05018
 20
59.625492
 11
-91.55455
 21
62.216
  0
LINE
  8
型材断面
  6
CONTINUOUS
 10
-91.55455
 20
62.216
 11
-94.54581
 21
62.216
  0
LINE
  8
型材断面
  6
CONTINUOUS
 10
-150.569055
 20
94.972835
 11
-149.973
 21
92.382328
  0
LINE
  8
型材断面
  6
CONTINUOUS
 10
-150.569055
 20
94.972835
 11
-151.165113
 21
92.382328
  0
LINE
  8
型材断面
  6
CONTINUOUS
 10
-151.165113
 20
92.382328
 11
-149.973
 21
92.382328
  0
LINE
  8
型材断面
  6
CONTINUOUS
 10
-156.591643
 20
89.103435
 11
-110.349865
 21
89.103435
  0
LINE
  8
型材断面
  6
CONTINUOUS
 10
-150.569055
 20
101.50271
 11
-152.064685
 21
98.912203
  0
LINE
  8
型材断面
  6
CONTINUOUS
 10
-150.569055
 20
101.50271
 11
-149.073425
 21
98.912203
  0
LINE
  8
型材断面
  6
CONTINUOUS
 10
-149.073425
 20
98.912203
 11
-152.064685
 21
98.912203
  0
LINE
  8
型材断面
  6
CONTINUOUS
 10
-156.591643
 20
97.973608
 11
-110.349865
 21
97.973608
  0
LINE
  8
型材断面
  6
CONTINUOUS
 10
-156.591643
 20
83.315402
 11
-110.349865
 21
83.315402
  0
LINE
  8
型材断面
  6
CONTINUOUS
 10
-112.346977
 20
46.995363
 11
-114.937485
 21
48.490992
  0
LINE
  8
型材断面
  6
CONTINUOUS
 10
-112.346977
 20
46.995363
 11
-114.937485
 21
45.499733
  0
LINE
  8
型材断面
  6
CONTINUOUS
 10
-114.937485
 20
45.499733
 11
-114.937485
 21
48.490992
  0
LINE
  8
型材断面
  6
CONTINUOUS
 10
-93.05018
 20
34.365232
 11
-94.54581
 21
31.774725
  0
LINE
  8
型材断面
  6
CONTINUOUS
 10
-93.05018
 20
34.365232
 11
-91.55455
 21
31.774725
  0
LINE
  8
型材断面
  6
CONTINUOUS
 10
-91.55455
 20
31.774725
 11
-94.54581
 21
31.774725
  0
LINE
  8
型材断面
  6
CONTINUOUS
 10
6.949815
 20
59.625492
 11
8.445445
 21
62.216
  0
LINE
  8
型材断面
  6
CONTINUOUS
 10
6.949815
 20
59.625492
 11
5.454185
 21
62.216
  0
LINE
  8
型材断面
  6
CONTINUOUS
 10
5.454185
 20
62.216
 11
8.445445
 21
62.216
  0
LINE
  8
型材断面
  6
CONTINUOUS
 10
26.246613
 20
46.995363
 11
28.83712
 21
48.490992
  0
LINE
  8
型材断面
  6
CONTINUOUS
 10
26.246613
 20
46.995363
 11
28.83712
 21
45.499733
  0
LINE
  8
型材断面
  6
CONTINUOUS
 10
28.83712
 20
45.499733
 11
28.83712
 21
48.490992
  0
LINE
  8
型材断面
  6
CONTINUOUS
 10
6.949815
 20
34.365232
 11
8.445445
 21
31.774725
  0
LINE
  8
型材断面
  6
CONTINUOUS
 10
6.949815
 20
34.365232
 11
5.454185
 21
31.774725
  0
LINE
  8
型材断面
  6
CONTINUOUS
 10
5.454185
 20
31.774725
 11
8.445445
 21
31.774725
  0
POLYLINE
  8
型材断面
  6
DASHDOT
 66
     1
  0
VERTEX
  8
型材断面
 10
-109.716848
 20
36.995363
  0
VERTEX
  8
型材断面
 10
-43.050183
 20
56.995363
  0
VERTEX
  8
型材断面
 10
23.616485
 20
36.995363
  0
SEQEND
  0
LINE
  8
型材断面
  6
CONTINUOUS
 10
21.616485
 20
34.38855
 11
21.020428
 21
31.798045
  0
LINE
  8
型材断面
  6
CONTINUOUS
 10
21.616485
 20
34.38855
 11
22.212543
 21
31.798045
  0
LINE
  8
型材断面
  6
CONTINUOUS
 10
22.212543
 20
31.798045
 11
21.020428
 21
31.798045
  0
LINE
  8
型材断面
  6
CONTINUOUS
 10
-107.71685
 20
34.38855
 11
-107.120792
 21
31.798045
  0
LINE
  8
型材断面
  6
CONTINUOUS
 10
-107.71685
 20
34.38855
 11
-108.312907
 21
31.798045
  0
LINE
  8
型材断面
  6
CONTINUOUS
 10
-108.312907
 20
31.798045
 11
-107.120792
 21
31.798045
  0
LINE
  8
型材断面
  6
DOT
 10
-75.476847
 20
36.995363
 11
-75.476847
 21
56.995363
  0
LINE
  8
型材断面
  6
DASHDOT
 10
-76.726847
 20
36.995363
 11
-76.726847
 21
56.995363
  0
LINE
  8
型材断面
  6
DOT
 10
-77.976847
 20
36.995363
 11
-77.976847
 21
56.995363
  0
LINE
  8
型材断面
  6
DOT
 10
-10.623517
 20
36.995363
 11
-10.623517
 21
56.995363
  0
LINE
  8
型材断面
  6
DASHDOT
 10
-9.373517
 20
36.995363
 11
-9.373517
 21
56.995363
  0
LINE
  8
型材断面
  6
DOT
 10
-8.123517
 20
36.995363
 11
-8.123517
 21
56.995363
  0
LINE
  8
型材断面
  6
CONTINUOUS
 62
    47
 10
108.803325
 20
58.042055
 11
108.803325
 21
58.762268
  0
LINE
  8
型材断面
  6
CONTINUOUS
 62
    47
 10
107.510005
 20
58.718905
 11
107.500005
 21
58.728905
  0
LINE
  8
型材断面
  6
CONTINUOUS
 62
    47
 10
107.510005
 20
58.718905
 11
107.520005
 21
58.728905
  0
LINE
  8
型材断面
  6
CONTINUOUS
 62
    47
 10
108.152238
 20
58.718905
 11
108.142238
 21
58.728905
  0
LINE
  8
型材断面
  6
CONTINUOUS
 62
    47
 10
108.152238
 20
58.718905
 11
108.162238
 21
58.728905
  0
LINE
  8
型材断面
  6
CONTINUOUS
 62
    47
 10
108.570023
 20
58.728905
 11
108.162238
 21
58.728905
  0
LINE
  8
型材断面
  6
CONTINUOUS
 62
    47
 10
108.142238
 20
58.728905
 11
107.520005
 21
58.728905
  0
LINE
  8
型材断面
  6
CONTINUOUS
 62
    47
 10
112.203442
 20
60.22873
 11
111.87011
 21
60.22873
  0
LINE
  8
型材断面
  6
CONTINUOUS
 62
    47
 10
111.20344
 20
58.29557
 11
111.20344
 21
57.698723
  0
LINE
  8
型材断面
  6
CONTINUOUS
 62
    47
 10
111.203428
 20
58.528723
 11
111.37011
 21
60.728723
  0
LINE
  8
型材断面
  6
CONTINUOUS
 62
    47
 10
111.87011
 20
60.728723
 11
111.37011
 21
60.728723
  0
LINE
  8
型材断面
  6
CONTINUOUS
 62
    47
 10
109.069985
 20
59.99539
 11
109.069985
 21
46.99536
  0
LINE
  8
型材断面
  6
CONTINUOUS
 10
111.20344
 20
46.99536
 11
111.20344
 21
58.528723
  0
LINE
  8
型材断面
  6
CONTINUOUS
 10
112.203442
 20
46.99536
 11
112.203442
 21
60.22873
  0
LINE
  8
型材断面
  6
CONTINUOUS
 10
111.87011
 20
46.99536
 11
111.87011
 21
60.728723
  0
LINE
  8
型材断面
  6
CONTINUOUS
 62
    47
 10
108.803325
 20
46.99536
 11
108.803325
 21
59.99539
  0
LINE
  8
型材断面
  6
CONTINUOUS
 62
    47
 10
108.63668
 20
59.99539
 11
108.803325
 21
59.99539
  0
LINE
  8
型材断面
  6
CONTINUOUS
 62
    47
 10
108.936667
 20
46.99536
 11
108.936667
 21
59.99539
  0
LINE
  8
型材断面
  6
CONTINUOUS
 62
    47
 10
109.069985
 20
59.99539
 11
108.936667
 21
59.99539
  0
LINE
  8
型材断面
  6
CONTINUOUS
 62
    47
 10
108.570023
 20
58.728905
 11
108.63668
 21
60.002075
  0
LINE
  8
型材断面
  6
CONTINUOUS
 62
    47
 10
109.069985
 20
58.528723
 11
111.20344
 21
58.528723
  0
LINE
  8
型材断面
  6
CONTINUOUS
 10
111.37011
 20
46.99536
 11
111.37011
 21
60.728723
  0
LINE
  8
型材断面
  6
CONTINUOUS
 10
108.570023
 20
58.728905
 11
108.570023
 21
46.99536
  0
LINE
  8
型材断面
  6
CONTINUOUS
 10
108.63668
 20
59.99539
 11
108.63668
 21
46.99536
  0
LINE
  8
型材断面
  6
CONTINUOUS
 62
    47
 10
108.803325
 20
35.948668
 11
108.803325
 21
35.228455
  0
LINE
  8
型材断面
  6
CONTINUOUS
 62
    47
 10
107.510005
 20
35.271817
 11
107.500005
 21
35.261817
  0
LINE
  8
型材断面
  6
CONTINUOUS
 62
    47
 10
107.510005
 20
35.271817
 11
107.520005
 21
35.261817
  0
LINE
  8
型材断面
  6
CONTINUOUS
 62
    47
 10
108.152238
 20
35.271817
 11
108.142238
 21
35.261817
  0
LINE
  8
型材断面
  6
CONTINUOUS
 62
    47
 10
108.152238
 20
35.271817
 11
108.162238
 21
35.261817
  0
LINE
  8
型材断面
  6
CONTINUOUS
 62
    47
 10
108.570023
 20
35.261817
 11
108.162238
 21
35.261817
  0
LINE
  8
型材断面
  6
CONTINUOUS
 62
    47
 10
108.142238
 20
35.261817
 11
107.520005
 21
35.261817
  0
LINE
  8
型材断面
  6
CONTINUOUS
 62
    47
 10
112.203442
 20
33.76199
 11
111.87011
 21
33.76199
  0
LINE
  8
型材断面
  6
CONTINUOUS
 62
    47
 10
111.20344
 20
35.695153
 11
111.20344
 21
36.292
  0
LINE
  8
型材断面
  6
CONTINUOUS
 62
    47
 10
111.203428
 20
35.462
 11
111.37011
 21
33.262
  0
LINE
  8
型材断面
  6
CONTINUOUS
 62
    47
 10
111.87011
 20
33.262
 11
111.37011
 21
33.262
  0
LINE
  8
型材断面
  6
CONTINUOUS
 62
    47
 10
109.069985
 20
33.995333
 11
109.069985
 21
46.99536
  0
LINE
  8
型材断面
  6
CONTINUOUS
 10
111.20344
 20
46.99536
 11
111.20344
 21
35.462
  0
LINE
  8
型材断面
  6
CONTINUOUS
 10
112.203442
 20
46.99536
 11
112.203442
 21
33.76199
  0
LINE
  8
型材断面
  6
CONTINUOUS
 10
111.87011
 20
46.99536
 11
111.87011
 21
33.262
  0
LINE
  8
型材断面
  6
CONTINUOUS
 62
    47
 10
108.803325
 20
46.99536
 11
108.803325
 21
33.995333
  0
LINE
  8
型材断面
  6
CONTINUOUS
 62
    47
 10
108.63668
 20
33.995333
 11
108.803325
 21
33.995333
  0
LINE
  8
型材断面
  6
CONTINUOUS
 62
    47
 10
108.936667
 20
46.99536
 11
108.936667
 21
33.995333
  0
LINE
  8
型材断面
  6
CONTINUOUS
 62
    47
 10
109.069985
 20
33.995333
 11
108.936667
 21
33.995333
  0
LINE
  8
型材断面
  6
CONTINUOUS
 62
    47
 10
108.570023
 20
35.261817
 11
108.63668
 21
33.988645
  0
LINE
  8
型材断面
  6
CONTINUOUS
 62
    47
 10
109.069985
 20
35.462
 11
111.20344
 21
35.462
  0
LINE
  8
型材断面
  6
CONTINUOUS
 10
111.37011
 20
46.99536
 11
111.37011
 21
33.262
  0
LINE
  8
型材断面
  6
CONTINUOUS
 10
108.570023
 20
35.261817
 11
108.570023
 21
46.99536
  0
LINE
  8
型材断面
  6
CONTINUOUS
 10
108.63668
 20
33.995333
 11
108.63668
 21
46.99536
  0
LINE
  8
型材断面
  6
DOT
 62
    47
 10
107.196205
 20
58.74916
 11
107.705475
 21
59.258427
  0
LINE
  8
型材断面
  6
DOT
 62
    47
 10
106.760295
 20
60.14228
 11
106.760295
 21
60.156423
  0
LINE
  8
型材断面
  6
DOT
 62
    47
 10
106.760295
 20
60.14228
 11
106.774438
 21
60.14228
  0
LINE
  8
型材断面
  6
DOT
 62
    47
 10
107.214423
 20
59.688155
 11
107.214423
 21
59.702295
  0
LINE
  8
型材断面
  6
DOT
 62
    47
 10
107.214423
 20
59.688155
 11
107.228565
 21
59.688155
  0
LINE
  8
型材断面
  6
DOT
 62
    47
 10
107.51691
 20
59.399805
 11
107.228565
 21
59.688155
  0
LINE
  8
型材断面
  6
DOT
 62
    47
 10
107.214423
 20
59.702295
 11
106.774438
 21
60.14228
  0
LINE
  8
型材断面
  6
DOT
 62
    47
 10
106.760295
 20
60.156423
 11
105.855105
 21
61.061613
  0
LINE
  8
型材断面
  6
DOT
 62
    47
 10
99.385015
 20
50.937968
 11
108.577422
 21
60.130375
  0
LINE
  8
型材断面
  6
DOT
 62
    47
 10
108.459585
 20
60.248213
 11
108.577422
 21
60.130375
  0
LINE
  8
型材断面
  6
DOT
 62
    47
 10
107.51691
 20
59.399805
 11
108.464315
 21
60.25294
  0
LINE
  8
型材断面
  6
DOT
 10
107.51691
 20
59.399805
 11
99.220045
 21
51.102938
  0
LINE
  8
型材断面
  6
DOT
 10
108.459585
 20
60.248213
 11
99.267178
 21
51.055805
  0
LINE
  8
型材断面
  6
DOT
 62
    47
 10
91.573822
 20
43.126775
 11
91.064555
 21
42.617507
  0
LINE
  8
型材断面
  6
DOT
 62
    47
 10
90.1807
 20
43.562685
 11
90.16656
 21
43.562685
  0
LINE
  8
型材断面
  6
DOT
 62
    47
 10
90.1807
 20
43.562685
 11
90.1807
 21
43.548545
  0
LINE
  8
型材断面
  6
DOT
 62
    47
 10
90.634828
 20
43.10856
 11
90.620685
 21
43.10856
  0
LINE
  8
型材断面
  6
DOT
 62
    47
 10
90.634828
 20
43.10856
 11
90.634828
 21
43.094418
  0
LINE
  8
型材断面
  6
DOT
 62
    47
 10
90.923175
 20
42.80607
 11
90.634828
 21
43.094418
  0
LINE
  8
型材断面
  6
DOT
 62
    47
 10
90.620685
 20
43.10856
 11
90.1807
 21
43.548545
  0
LINE
  8
型材断面
  6
DOT
 62
    47
 10
90.16656
 20
43.562685
 11
89.26137
 21
44.467875
  0
LINE
  8
型材断面
  6
DOT
 62
    47
 10
99.385015
 20
50.937968
 11
90.192605
 21
41.74556
  0
LINE
  8
型材断面
  6
DOT
 62
    47
 10
90.07477
 20
41.863395
 11
90.192605
 21
41.74556
  0
LINE
  8
型材断面
  6
DOT
 62
    47
 10
90.923175
 20
42.80607
 11
90.070043
 21
41.858668
  0
LINE
  8
型材断面
  6
DOT
 10
90.923175
 20
42.80607
 11
99.220045
 21
51.102938
  0
LINE
  8
型材断面
  6
DOT
 10
90.07477
 20
41.863395
 11
99.267178
 21
51.055805
  0
ARC
  8
型材断面
  6
DASHDOT
 10
108.853315
 20
60.335574
 40
26.340287
 50
224.891258
 51
269.891257
  0
LINE
  8
型材断面
  6
CONTINUOUS
 62
    47
 10
107.500005
 20
58.728905
 11
106.369875
 21
58.728905
  0
LINE
  8
型材断面
  6
CONTINUOUS
 62
    47
 10
107.500005
 20
35.261817
 11
106.369875
 21
35.261817
  0
POLYLINE
  8
ガラス
  6
CONTINUOUS
 66
     1
 70
     1
  0
VERTEX
  8
ガラス
 10
124.39423
 20
-46.573718
  0
VERTEX
  8
ガラス
 10
91.55423
 20
-46.573718
  0
VERTEX
  8
ガラス
 10
91.55423
 20
-67.10705
  0
VERTEX
  8
ガラス
 10
124.39423
 20
-67.10705
  0
SEQEND
  0
TEXT
  7
TextStyle03
  8
文字
  6
CONTINUOUS
 10
80.875
 20
94.425
  1
ＮＳコード：ＮＳＨＬ
 40
5.0
 72
     5
 11
136.5
 21
94.425
  0
TEXT
  7
TextStyle03
  8
文字
  6
CONTINUOUS
 10
81.225
 20
116.5
  1
シリーズ：ＴＤ１ＨＬ
 40
5.0
 72
     5
 11
136.85
 21
116.5
  0
TEXT
  7
TextStyle03
  8
文字
  6
CONTINUOUS
 10
81.225
 20
110.875
  1
　　　　　（片側開閉）600×4000タイプ
 40
5.0
 72
     5
 11
184.6625
 21
110.875
  0
TEXT
  7
TextStyle03
  8
文字
  6
CONTINUOUS
 10
81.225
 20
105.25
  1
図面名　：外観姿図
 40
5.0
 72
     5
 11
131.225
 21
105.25
  0
TEXT
  7
TextStyle03
  8
文字
  6
CONTINUOUS
 10
81.225
 20
99.625
  1
　　　　　　
 40
5.0
 72
     5
 11
114.35
 21
99.625
  0
TEXT
  7
TextStyle03
  8
文字
  6
CONTINUOUS
 10
-147.75
 20
99.125
  1
は排水穴位置を示す
 40
3.0
 72
     5
 11
-117.75
 21
99.125
  0
TEXT
  7
TextStyle03
  8
文字
  6
CONTINUOUS
 10
-147.75
 20
93.6
  1
はケーシング位置を示す
 40
3.0
 72
     5
 11
-111.0
 21
93.6
  0
TEXT
  7
TextStyle03
  8
文字
  6
CONTINUOUS
 10
-147.75
 20
90.225
  1
２ヶ所中1ヶ所に設定
 40
3.0
 72
     5
 11
-116.0625
 21
90.225
  0
TEXT
  7
TextStyle03
  8
文字
  6
CONTINUOUS
 10
-130.775
 20
25.45
  1
アンカーピッチ
 40
3.0
 50
90.0
 72
     5
 11
-130.775
 21
48.7
  0
TEXT
  7
TextStyle03
  8
文字
  6
CONTINUOUS
 10
-101.625
 20
95.0
  1
アンカーピッチ
 40
3.0
 72
     5
 11
-78.375
 21
95.0
  0
TEXT
  7
TextStyle03
  8
文字
  6
CONTINUOUS
 10
-151.475
 20
84.25
  1
アンカー数量　１６ヶ所
 40
3.0
 72
     5
 11
-114.725
 21
84.25
  0
TEXT
  7
TextStyle03
  8
文字
  6
CONTINUOUS
 10
84.95
 20
37.675
  1
45°
 40
3.0
 72
     5
 11
91.325
 21
37.675
  0
TEXT
  7
TextStyle03
  8
文字
  6
CONTINUOUS
 10
104.95
 20
-59.875
  1
網入り6.8t
 40
3.0
 72
     5
 11
121.6375
 21
-59.875
  0
TEXT
  7
TextStyle03
  8
文字
  6
CONTINUOUS
 10
111.575
 20
-65.125
  1
×４枚
 40
3.0
 72
     5
 11
121.325
 21
-65.125
  0
INSERT
  2
*DIM_0002
  8
寸法
  6
CONTINUOUS
 10
0.0
 20
0.0
  0
INSERT
  2
*DIM_0003
  8
寸法
  6
CONTINUOUS
 10
0.0
 20
0.0
  0
INSERT
  2
*DIM_0004
  8
寸法
  6
CONTINUOUS
 10
0.0
 20
0.0
  0
INSERT
  2
*DIM_0005
  8
寸法
  6
CONTINUOUS
 10
0.0
 20
0.0
  0
INSERT
  2
*DIM_0006
  8
寸法
  6
CONTINUOUS
 10
0.0
 20
0.0
  0
INSERT
  2
*DIM_0007
  8
寸法
  6
CONTINUOUS
 10
0.0
 20
0.0
  0
INSERT
  2
*DIM_0008
  8
寸法
  6
CONTINUOUS
 10
0.0
 20
0.0
  0
INSERT
  2
*DIM_0009
  8
寸法
  6
CONTINUOUS
 10
0.0
 20
0.0
  0
INSERT
  2
*DIM_0010
  8
寸法
  6
CONTINUOUS
 10
0.0
 20
0.0
  0
INSERT
  2
*DIM_0011
  8
寸法
  6
CONTINUOUS
 10
0.0
 20
0.0
  0
INSERT
  2
*DIM_0013
  8
寸法
  6
CONTINUOUS
 10
0.0
 20
0.0
  0
INSERT
  2
*DIM_0014
  8
寸法
  6
CONTINUOUS
 10
0.0
 20
0.0
  0
INSERT
  2
*DIM_0015
  8
寸法
  6
CONTINUOUS
 10
0.0
 20
0.0
  0
INSERT
  2
*DIM_0016
  8
寸法
  6
CONTINUOUS
 10
0.0
 20
0.0
  0
INSERT
  2
*DIM_0017
  8
寸法
  6
CONTINUOUS
 10
0.0
 20
0.0
  0
INSERT
  2
*DIM_0018
  8
寸法
  6
CONTINUOUS
 10
0.0
 20
0.0
  0
INSERT
  2
*DIM_0019
  8
寸法
  6
CONTINUOUS
 10
0.0
 20
0.0
  0
INSERT
  2
*DIM_0020
  8
寸法
  6
CONTINUOUS
 10
0.0
 20
0.0
  0
INSERT
  2
*DIM_0021
  8
寸法
  6
CONTINUOUS
 10
0.0
 20
0.0
  0
INSERT
  2
*DIM_0023
  8
寸法
  6
CONTINUOUS
 10
0.0
 20
0.0
  0
INSERT
  2
*DIM_0024
  8
寸法
  6
CONTINUOUS
 10
0.0
 20
0.0
  0
LINE
  8
別途部材
  6
CONTINUOUS
 10
25.683152
 20
34.928695
 11
25.283152
 21
35.328695
  0
LINE
  8
別途部材
  6
CONTINUOUS
 10
23.616485
 20
36.995363
 11
15.55723
 21
45.05462
  0
LINE
  8
別途部材
  6
CONTINUOUS
 10
25.283152
 20
35.328695
 11
25.283152
 21
46.995363
  0
LINE
  8
別途部材
  6
CONTINUOUS
 10
25.683152
 20
34.928695
 11
25.683152
 21
46.995363
  0
LINE
  8
別途部材
  6
CONTINUOUS
 10
25.683152
 20
59.06203
 11
25.283152
 21
58.66203
  0
LINE
  8
別途部材
  6
CONTINUOUS
 10
23.616485
 20
56.995363
 11
15.55723
 21
48.936105
  0
LINE
  8
別途部材
  6
CONTINUOUS
 10
25.283152
 20
58.66203
 11
25.283152
 21
46.995363
  0
LINE
  8
別途部材
  6
CONTINUOUS
 10
25.683152
 20
59.06203
 11
25.683152
 21
46.995363
  0
LINE
  8
別途部材
  6
CONTINUOUS
 10
25.283152
 20
58.66203
 11
-43.050183
 21
58.66203
  0
LINE
  8
別途部材
  6
CONTINUOUS
 10
25.683152
 20
59.06203
 11
-43.050183
 21
59.06203
  0
LINE
  8
別途部材
  6
CONTINUOUS
 10
25.683152
 20
34.928695
 11
-43.050183
 21
34.928695
  0
LINE
  8
別途部材
  6
CONTINUOUS
 10
25.283152
 20
35.328695
 11
-43.050183
 21
35.328695
  0
LINE
  8
別途部材
  6
CONTINUOUS
 10
-111.783518
 20
34.928695
 11
-111.383518
 21
35.328695
  0
LINE
  8
別途部材
  6
CONTINUOUS
 10
-109.71685
 20
36.995363
 11
-101.657595
 21
45.05462
  0
LINE
  8
別途部材
  6
CONTINUOUS
 10
-111.383518
 20
35.328695
 11
-111.383518
 21
46.995363
  0
LINE
  8
別途部材
  6
CONTINUOUS
 10
-111.783518
 20
34.928695
 11
-111.783518
 21
46.995363
  0
LINE
  8
別途部材
  6
CONTINUOUS
 10
-111.783518
 20
59.06203
 11
-111.383518
 21
58.66203
  0
LINE
  8
別途部材
  6
CONTINUOUS
 10
-109.71685
 20
56.995363
 11
-101.657595
 21
48.936105
  0
LINE
  8
別途部材
  6
CONTINUOUS
 10
-111.383518
 20
58.66203
 11
-111.383518
 21
46.995363
  0
LINE
  8
別途部材
  6
CONTINUOUS
 10
-111.783518
 20
59.06203
 11
-111.783518
 21
46.995363
  0
LINE
  8
別途部材
  6
CONTINUOUS
 10
-111.383518
 20
58.66203
 11
-43.050183
 21
58.66203
  0
LINE
  8
別途部材
  6
CONTINUOUS
 10
-111.783518
 20
59.06203
 11
-43.050183
 21
59.06203
  0
LINE
  8
別途部材
  6
CONTINUOUS
 10
-111.783518
 20
34.928695
 11
-43.050183
 21
34.928695
  0
LINE
  8
別途部材
  6
CONTINUOUS
 10
-111.383518
 20
35.328695
 11
-43.050183
 21
35.328695
  0
INSERT
  2
*GRP_0012
  8
別途部材
  6
CONTINUOUS
 10
0.0
 20
0.0
  0
INSERT
  2
*GRP_0022
  8
別途部材
  6
CONTINUOUS
 10
0.0
 20
0.0
  0
LINE
  8
別途部材
  6
DOT
 62
    96
 10
105.10071
 20
61.72143
 11
106.09066
 21
61.297165
  0
LINE
  8
別途部材
  6
DOT
 62
    96
 10
105.10071
 20
61.72143
 11
96.85113
 21
53.47185
  0
LINE
  8
別途部材
  6
DOT
 10
106.09066
 20
61.297165
 11
97.558237
 21
52.764745
  0
LINE
  8
別途部材
  6
DOT
 62
    96
 10
88.601553
 20
45.222272
 11
89.025815
 21
44.232323
  0
LINE
  8
別途部材
  6
DOT
 62
    96
 10
88.601553
 20
45.222272
 11
96.85113
 21
53.47185
  0
LINE
  8
別途部材
  6
DOT
 10
89.025815
 20
44.232323
 11
97.558237
 21
52.764745
  0
ARC
  8
別途部材
  6
DOT
 10
101.594635
 20
48.728345
 40
12.041667
 50
78.855026
 51
191.144974
  0
LINE
  8
別途部材
  6
CONTINUOUS
 62
    96
 10
105.369875
 20
58.662027
 11
106.369875
 21
59.062027
  0
LINE
  8
別途部材
  6
CONTINUOUS
 62
    96
 10
105.369875
 20
58.662027
 11
105.369875
 21
46.99536
  0
LINE
  8
別途部材
  6
CONTINUOUS
 10
106.369875
 20
59.062027
 11
106.369875
 21
46.99536
  0
LINE
  8
別途部材
  6
CONTINUOUS
 62
    96
 10
105.369875
 20
35.328695
 11
106.369875
 21
34.928695
  0
LINE
  8
別途部材
  6
CONTINUOUS
 62
    96
 10
105.369875
 20
35.328695
 11
105.369875
 21
46.99536
  0
LINE
  8
別途部材
  6
CONTINUOUS
 10
106.369875
 20
34.928695
 11
106.369875
 21
46.99536
  0
ARC
  8
別途部材
  6
CONTINUOUS
 10
112.078204
 20
46.995362
 40
12.041667
 50
123.855026
 51
236.144974
  0
INSERT
  2
*GRP_0025
  8
別途部材
  6
DOT
 10
0.0
 20
0.0
  0
INSERT
  2
*GRP_0026
  8
別途部材
  6
DOT
 10
0.0
 20
0.0
  0
INSERT
  2
*GRP_0027
  8
別途部材
  6
DOT
 10
0.0
 20
0.0
  0
INSERT
  2
*GRP_0028
  8
別途部材
  6
DOT
 10
0.0
 20
0.0
  0
INSERT
  2
*GRP_0029
  8
別途部材
  6
DOT
 10
0.0
 20
0.0
  0
INSERT
  2
*GRP_0030
  8
別途部材
  6
DOT
 10
0.0
 20
0.0
  0
ENDSEC
  0
EOF
