  0
SECTION
  2
HEADER
  9
$EXTMIN
 10
-210.0
 20
-148.5
  9
$EXTMAX
 10
210.0
 20
148.5
  9
$PDMODE
 70
    32
  9
$PDSIZE
 40
1.5
  9
$LTSCALE
 40
10.0
  0
ENDSEC
  0
SECTION
  2
TABLES
  0
TABLE
  2
LTYPE
 70
    15
  0
LTYPE
  2
CONTINUOUS
 70
    64
  3
実線
 72
    65
 73
     0
 40
0.0
  0
LTYPE
  2
DASHED
 70
    64
  3
破線A
 72
    65
 73
     2
 40
0.6
 49
0.4
 49
-0.2
  0
LTYPE
  2
DASHEDX2
 70
    64
  3
破線B
 72
    65
 73
     2
 40
1.3
 49
0.9
 49
-0.4
  0
LTYPE
  2
DASHDOT
 70
    64
  3
１点鎖線A
 72
    65
 73
     4
 40
0.5375
 49
0.375
 49
-0.05
 49
0.0625
 49
-0.05
  0
LTYPE
  2
DASHDOTX2
 70
    64
  3
１点鎖線B
 72
    65
 73
     4
 40
1.075
 49
0.75
 49
-0.1
 49
0.125
 49
-0.1
  0
LTYPE
  2
DIVIDE2
 70
    64
  3
２点鎖線A
 72
    65
 73
     6
 40
0.5125
 49
0.3
 49
-0.0375
 49
0.05
 49
-0.0375
 49
0.05
 49
-0.0375
  0
LTYPE
  2
DIVIDE
 70
    64
  3
２点鎖線B
 72
    65
 73
     6
 40
1.05
 49
0.55
 49
-0.1
 49
0.1
 49
-0.1
 49
0.1
 49
-0.1
  0
LTYPE
  2
DOT
 70
    64
  3
点線A
 72
    65
 73
     2
 40
0.1125
 49
0.0625
 49
-0.05
  0
LTYPE
  2
DOTX2
 70
    64
  3
点線B
 72
    65
 73
     2
 40
0.275
 49
0.15
 49
-0.125
  0
LTYPE
  2
CONTINUOUS
 70
    64
  3
実線
 72
    65
 73
     0
 40
0.0
  0
LTYPE
  2
CONTINUOUS
 70
    64
  3
実線
 72
    65
 73
     0
 40
0.0
  0
LTYPE
  2
CONTINUOUS
 70
    64
  3
実線
 72
    65
 73
     0
 40
0.0
  0
LTYPE
  2
CONTINUOUS
 70
    64
  3
実線
 72
    65
 73
     0
 40
0.0
  0
LTYPE
  2
CONTINUOUS
 70
    64
  3
実線
 72
    65
 73
     0
 40
0.0
  0
LTYPE
  2
CONTINUOUS
 70
    64
  3
実線
 72
    65
 73
     0
 40
0.0
  0
ENDTAB
  0
TABLE
  2
LAYER
 70
    34
  0
LAYER
  2
通り芯
 70
     0
 62
    15
  6
CONTINUOUS
  0
LAYER
  2
補助線
 70
     0
 62
    16
  6
DOT
  0
LAYER
  2
躯体
 70
     0
 62
    31
  6
CONTINUOUS
  0
LAYER
  2
型材
 70
     0
 62
    32
  6
CONTINUOUS
  0
LAYER
  2
型材断面
 70
     0
 62
    47
  6
CONTINUOUS
  0
LAYER
  2
ガラス
 70
     0
 62
    48
  6
CONTINUOUS
  0
LAYER
  2
ゴム等
 70
     0
 62
    63
  6
CONTINUOUS
  0
LAYER
  2
ボルト／ビス
 70
     0
 62
    64
  6
CONTINUOUS
  0
LAYER
  2
文字
 70
     0
 62
    79
  6
CONTINUOUS
  0
LAYER
  2
寸法
 70
     0
 62
    80
  6
CONTINUOUS
  0
LAYER
  2
ﾊｯﾁﾝｸﾞ
 70
     0
 62
    95
  6
CONTINUOUS
  0
LAYER
  2
別途部材
 70
     0
 62
    96
  6
CONTINUOUS
  0
LAYER
  2
曲げ物
 70
     0
 62
   111
  6
CONTINUOUS
  0
LAYER
  2
鉄骨等
 70
     0
 62
   112
  6
CONTINUOUS
  0
LAYER
  2
St
 70
     0
 62
   127
  6
CONTINUOUS
  0
LAYER
  2
その他部品等
 70
     0
 62
   128
  6
CONTINUOUS
  0
LAYER
  2
ｶﾞｽｹｯﾄ
 70
     0
 62
   143
  6
CONTINUOUS
  0
LAYER
  2
ｽｹｯﾁ
 70
     0
 62
    14
  6
CONTINUOUS
  0
LAYER
  2
0
 70
     0
 62
    17
  6
CONTINUOUS
  0
LAYER
  2
1
 70
     0
 62
    30
  6
CONTINUOUS
  0
LAYER
  2
4
 70
     0
 62
    33
  6
CONTINUOUS
  0
LAYER
  2
ﾚｲﾔ3
 70
     0
 62
    46
  6
CONTINUOUS
  0
LAYER
  2
外形線
 70
     0
 62
    49
  6
CONTINUOUS
  0
LAYER
  2
部品
 70
     0
 62
    14
  6
CONTINUOUS
  0
LAYER
  2
サッシ芯
 70
     0
 62
    17
  6
DASHDOTX2
  0
LAYER
  2
寸法線
 70
     0
 62
    62
  6
CONTINUOUS
  0
LAYER
  2
姿図外形線
 70
     0
 62
    65
  6
CONTINUOUS
  0
LAYER
  2
姿補助線
 70
     0
 62
    30
  6
CONTINUOUS
  0
LAYER
  2
透視線
 70
     0
 62
    78
  6
DOT
  0
LAYER
  2
用紙
 70
     0
 62
    81
  6
CONTINUOUS
  0
LAYER
  2
実線図枠
 70
     0
 62
    94
  6
CONTINUOUS
  0
LAYER
  2
補助図枠
 70
     0
 62
    97
  6
CONTINUOUS
  0
LAYER
  2
建具記号
 70
     0
 62
   110
  6
CONTINUOUS
  0
LAYER
  2
補助文字
 70
     0
 62
   113
  6
CONTINUOUS
  0
ENDTAB
  0
TABLE
  2
STYLE
 70
    10
  0
STYLE
  2
STANDARD
 70
     0
 40
1.0
 41
1.0
 42
1.0
 50
0.0
 71
     0
  3
TXT
  4
BIGFONT
  0
STYLE
  2
TATE
 70
     4
 40
1.0
 41
1.0
 42
1.0
 50
0.0
 71
     0
  3
TXT
  4
BIGFONT
  0
STYLE
  2
TextStyle03
 70
     0
 40
1.0
 41
1.0
 42
1.0
 50
0.0
 71
     0
  3
MONOTXT
  4
BIGFONT
  0
STYLE
  2
TextStyle04
 70
     0
 40
1.0
 41
1.0
 42
1.0
 50
0.0
 71
     0
  3
MONOTXT
  4
BIGFONT
  0
STYLE
  2
TextStyle05
 70
     0
 40
1.0
 41
1.0
 42
1.0
 50
0.0
 71
     0
  3
MONOTXT
  4
BIGFONT
  0
STYLE
  2
TextStyle06
 70
     0
 40
1.0
 41
1.0
 42
1.0
 50
0.0
 71
     0
  3
MONOTXT
  4
BIGFONT
  0
STYLE
  2
TextStyle07
 70
     0
 40
1.0
 41
1.0
 42
1.0
 50
0.0
 71
     0
  3
MONOTXT
  4
BIGFONT
  0
STYLE
  2
TextStyle08
 70
     0
 40
1.0
 41
1.0
 42
1.0
 50
0.0
 71
     0
  3
MONOTXT
  4
BIGFONT
  0
STYLE
  2
TextStyle09
 70
     0
 40
1.0
 41
1.0
 42
1.0
 50
0.0
 71
     0
  3
MONOTXT
  4
BIGFONT
  0
STYLE
  2
TextStyle10
 70
     0
 40
1.0
 41
1.0
 42
1.0
 50
0.0
 71
     0
  3
MONOTXT
  4
BIGFONT
  0
ENDTAB
  0
ENDSEC
  0
SECTION
  2
BLOCKS
  0
BLOCK
  2
*GRP_0001
 70
    65
 10
0.0
 20
0.0
  0
LINE
  8
型材断面
  6
CONTINUOUS
 10
195.0
 20
133.5
 11
195.0
 21
-133.5
  0
LINE
  8
型材断面
  6
CONTINUOUS
 10
195.0
 20
-133.5
 11
-185.0
 21
-133.5
  0
LINE
  8
型材断面
  6
CONTINUOUS
 10
-185.0
 20
-133.5
 11
-185.0
 21
133.5
  0
LINE
  8
型材断面
  6
CONTINUOUS
 10
195.0
 20
133.5
 11
-185.0
 21
133.5
  0
LINE
  8
型材断面
  6
CONTINUOUS
 10
145.0
 20
-133.5
 11
145.0
 21
-118.5
  0
LINE
  8
型材断面
  6
CONTINUOUS
 10
195.0
 20
-118.5
 11
145.0
 21
-118.5
  0
ENDBLK
  0
BLOCK
  2
*DIM_0002
 70
    65
 10
0.0
 20
0.0
  0
LINE
  8
寸法
  6
BYBLOCK
 62
     0
 10
-84.71685
 20
33.365232
 11
-84.71685
 21
28.223435
  0
LINE
  8
寸法
  6
BYBLOCK
 62
     0
 10
-1.383515
 20
33.365232
 11
-1.383515
 21
28.223435
  0
LINE
  8
寸法
  6
BYBLOCK
 62
     0
 10
-84.71685
 20
28.223435
 11
-1.383515
 21
28.223435
  0
POINT
  8
寸法
 62
     0
 10
-84.71685
 20
28.223435
  0
POINT
  8
寸法
 62
     0
 10
-1.383515
 20
28.223435
  0
TEXT
  7
TextStyle03
  8
寸法
  6
CONTINUOUS
 62
     0
 10
-46.33125
 20
28.575
  1
2500
 40
3.0
 72
     5
 11
-39.76875
 21
28.575
  0
ENDBLK
  0
BLOCK
  2
*DIM_0003
 70
    65
 10
0.0
 20
0.0
  0
LINE
  8
寸法
  6
BYBLOCK
 62
     0
 10
13.28315
 20
31.38855
 11
13.28315
 21
28.363508
  0
LINE
  8
寸法
  6
BYBLOCK
 62
     0
 10
15.28315
 20
28.363508
 11
13.28315
 21
28.363508
  0
POINT
  8
寸法
 62
     0
 10
15.28315
 20
28.363508
  0
POINT
  8
寸法
 62
     0
 10
13.28315
 20
28.363508
  0
TEXT
  7
TextStyle03
  8
寸法
  6
CONTINUOUS
 62
     0
 10
11.40625
 20
24.575
  1
60
 40
3.0
 72
     5
 11
14.59375
 21
24.575
  0
ENDBLK
  0
BLOCK
  2
*DIM_0004
 70
    65
 10
0.0
 20
0.0
  0
LINE
  8
寸法
  6
BYBLOCK
 62
     0
 10
-99.383515
 20
31.38855
 11
-99.383515
 21
28.363508
  0
LINE
  8
寸法
  6
BYBLOCK
 62
     0
 10
-101.383515
 20
28.363508
 11
-99.383515
 21
28.363508
  0
POINT
  8
寸法
 62
     0
 10
-101.383515
 20
28.363508
  0
POINT
  8
寸法
 62
     0
 10
-99.383515
 20
28.363508
  0
TEXT
  7
TextStyle03
  8
寸法
  6
CONTINUOUS
 62
     0
 10
-100.66875
 20
24.575
  1
60
 40
3.0
 72
     5
 11
-97.48125
 21
24.575
  0
ENDBLK
  0
BLOCK
  2
*DIM_0005
 70
    65
 10
0.0
 20
0.0
  0
LINE
  8
寸法
  6
BYBLOCK
 62
     0
 10
-104.383518
 20
53.66203
 11
-117.676355
 21
53.66203
  0
LINE
  8
寸法
  6
BYBLOCK
 62
     0
 10
-104.383518
 20
40.328695
 11
-117.676355
 21
40.328695
  0
LINE
  8
寸法
  6
BYBLOCK
 62
     0
 10
-117.676355
 20
53.66203
 11
-117.676355
 21
40.328695
  0
POINT
  8
寸法
 62
     0
 10
-117.676355
 20
53.66203
  0
POINT
  8
寸法
 62
     0
 10
-117.676355
 20
40.328695
  0
TEXT
  7
TextStyle03
  8
寸法
  6
CONTINUOUS
 62
     0
 10
-118.1
 20
44.5375
  1
400
 40
3.0
 50
90.0
 72
     5
 11
-118.1
 21
49.4125
  0
ENDBLK
  0
BLOCK
  2
*DIM_0006
 70
    65
 10
0.0
 20
0.0
  0
LINE
  8
寸法
  6
BYBLOCK
 62
     0
 10
-96.383515
 20
59.995363
 11
-96.383515
 21
89.103435
  0
LINE
  8
寸法
  6
BYBLOCK
 62
     0
 10
-69.71685
 20
59.995363
 11
-69.71685
 21
89.103435
  0
LINE
  8
寸法
  6
BYBLOCK
 62
     0
 10
-96.383515
 20
89.103435
 11
-69.71685
 21
89.103435
  0
POINT
  8
寸法
 62
     0
 10
-96.383515
 20
89.103435
  0
POINT
  8
寸法
 62
     0
 10
-69.71685
 20
89.103435
  0
TEXT
  7
TextStyle03
  8
寸法
  6
CONTINUOUS
 62
     0
 10
-85.4875
 20
89.475
  1
800
 40
3.0
 72
     5
 11
-80.6125
 21
89.475
  0
ENDBLK
  0
BLOCK
  2
*DIM_0007
 70
    65
 10
0.0
 20
0.0
  0
LINE
  8
寸法
  6
BYBLOCK
 62
     0
 10
-43.050183
 20
59.995363
 11
-43.050183
 21
89.103435
  0
LINE
  8
寸法
  6
BYBLOCK
 62
     0
 10
-69.71685
 20
89.103435
 11
-43.050183
 21
89.103435
  0
POINT
  8
寸法
 62
     0
 10
-43.050183
 20
89.103435
  0
TEXT
  7
TextStyle03
  8
寸法
  6
CONTINUOUS
 62
     0
 10
-58.8375
 20
89.475
  1
800
 40
3.0
 72
     5
 11
-53.9625
 21
89.475
  0
ENDBLK
  0
BLOCK
  2
*DIM_0008
 70
    65
 10
0.0
 20
0.0
  0
LINE
  8
寸法
  6
BYBLOCK
 62
     0
 10
-16.383515
 20
59.995363
 11
-16.383515
 21
89.103435
  0
LINE
  8
寸法
  6
BYBLOCK
 62
     0
 10
-43.050183
 20
89.103435
 11
-16.383515
 21
89.103435
  0
POINT
  8
寸法
 62
     0
 10
-16.383515
 20
89.103435
  0
TEXT
  7
TextStyle03
  8
寸法
  6
CONTINUOUS
 62
     0
 10
-32.1625
 20
89.475
  1
800
 40
3.0
 72
     5
 11
-27.2875
 21
89.475
  0
ENDBLK
  0
BLOCK
  2
*DIM_0009
 70
    65
 10
0.0
 20
0.0
  0
LINE
  8
寸法
  6
BYBLOCK
 62
     0
 10
10.28315
 20
59.995363
 11
10.28315
 21
89.103435
  0
LINE
  8
寸法
  6
BYBLOCK
 62
     0
 10
-16.383515
 20
89.103435
 11
10.28315
 21
89.103435
  0
POINT
  8
寸法
 62
     0
 10
10.28315
 20
89.103435
  0
TEXT
  7
TextStyle03
  8
寸法
  6
CONTINUOUS
 62
     0
 10
-5.4875
 20
89.475
  1
800
 40
3.0
 72
     5
 11
-0.6125
 21
89.475
  0
ENDBLK
  0
BLOCK
  2
*GRP_0010
 70
    65
 10
0.0
 20
0.0
  0
LINE
  8
別途部材
  6
CONTINUOUS
 62
    96
 10
-103.050185
 20
-55.177427
 11
-103.450185
 21
-56.177427
  0
ARC
  8
別途部材
  6
CONTINUOUS
 10
-91.383517
 20
-61.885761
 40
12.041668
 50
90.0
 51
146.144967
  0
LINE
  8
別途部材
  6
CONTINUOUS
 10
-103.450185
 20
-56.177427
 11
-43.050185
 21
-56.177427
  0
LINE
  8
別途部材
  6
CONTINUOUS
 62
    96
 10
-103.050185
 20
-55.177427
 11
-43.050185
 21
-55.177427
  0
LINE
  8
別途部材
  6
CONTINUOUS
 10
-43.550185
 20
-48.844095
 11
-44.550185
 21
-49.844095
  0
LINE
  8
別途部材
  6
CONTINUOUS
 10
-45.550185
 20
-49.844095
 11
-46.550185
 21
-48.844095
  0
LINE
  8
別途部材
  6
CONTINUOUS
 10
-47.550185
 20
-48.844095
 11
-48.550185
 21
-49.844095
  0
LINE
  8
別途部材
  6
CONTINUOUS
 10
-46.550185
 20
-48.844095
 11
-47.550185
 21
-48.844095
  0
LINE
  8
別途部材
  6
CONTINUOUS
 10
-43.550185
 20
-48.844095
 11
-43.050185
 21
-48.844095
  0
LINE
  8
別途部材
  6
CONTINUOUS
 10
-49.550185
 20
-49.844095
 11
-50.550185
 21
-48.844095
  0
LINE
  8
別途部材
  6
CONTINUOUS
 10
-51.550185
 20
-48.844095
 11
-52.550185
 21
-49.844095
  0
LINE
  8
別途部材
  6
CONTINUOUS
 10
-50.550185
 20
-48.844095
 11
-51.550185
 21
-48.844095
  0
LINE
  8
別途部材
  6
CONTINUOUS
 10
-53.550185
 20
-49.844095
 11
-54.550185
 21
-48.844095
  0
LINE
  8
別途部材
  6
CONTINUOUS
 10
-55.550185
 20
-48.844095
 11
-56.550185
 21
-49.844095
  0
LINE
  8
別途部材
  6
CONTINUOUS
 10
-54.550185
 20
-48.844095
 11
-55.550185
 21
-48.844095
  0
LINE
  8
別途部材
  6
CONTINUOUS
 10
-57.550185
 20
-49.844095
 11
-58.550185
 21
-48.844095
  0
LINE
  8
別途部材
  6
CONTINUOUS
 10
-59.550185
 20
-48.844095
 11
-60.550185
 21
-49.844095
  0
LINE
  8
別途部材
  6
CONTINUOUS
 10
-58.550185
 20
-48.844095
 11
-59.550185
 21
-48.844095
  0
LINE
  8
別途部材
  6
CONTINUOUS
 10
-61.550185
 20
-49.844095
 11
-62.550185
 21
-48.844095
  0
LINE
  8
別途部材
  6
CONTINUOUS
 10
-63.550185
 20
-48.844095
 11
-64.550185
 21
-49.844095
  0
LINE
  8
別途部材
  6
CONTINUOUS
 10
-62.550185
 20
-48.844095
 11
-63.550185
 21
-48.844095
  0
LINE
  8
別途部材
  6
CONTINUOUS
 10
-65.550185
 20
-49.844095
 11
-66.550185
 21
-48.844095
  0
LINE
  8
別途部材
  6
CONTINUOUS
 10
-67.550185
 20
-48.844095
 11
-68.550185
 21
-49.844095
  0
LINE
  8
別途部材
  6
CONTINUOUS
 10
-66.550185
 20
-48.844095
 11
-67.550185
 21
-48.844095
  0
LINE
  8
別途部材
  6
CONTINUOUS
 10
-69.550185
 20
-49.844095
 11
-70.550185
 21
-48.844095
  0
LINE
  8
別途部材
  6
CONTINUOUS
 10
-71.550185
 20
-48.844095
 11
-72.550185
 21
-49.844095
  0
LINE
  8
別途部材
  6
CONTINUOUS
 10
-70.550185
 20
-48.844095
 11
-71.550185
 21
-48.844095
  0
LINE
  8
別途部材
  6
CONTINUOUS
 10
-73.550185
 20
-49.844095
 11
-74.550185
 21
-48.844095
  0
LINE
  8
別途部材
  6
CONTINUOUS
 10
-75.550185
 20
-48.844095
 11
-76.550185
 21
-49.844095
  0
LINE
  8
別途部材
  6
CONTINUOUS
 10
-74.550185
 20
-48.844095
 11
-75.550185
 21
-48.844095
  0
LINE
  8
別途部材
  6
CONTINUOUS
 10
-77.550185
 20
-49.844095
 11
-78.550185
 21
-48.844095
  0
LINE
  8
別途部材
  6
CONTINUOUS
 10
-79.550185
 20
-48.844095
 11
-80.550185
 21
-49.844095
  0
LINE
  8
別途部材
  6
CONTINUOUS
 10
-78.550185
 20
-48.844095
 11
-79.550185
 21
-48.844095
  0
LINE
  8
別途部材
  6
CONTINUOUS
 10
-81.550185
 20
-49.844095
 11
-82.550185
 21
-48.844095
  0
LINE
  8
別途部材
  6
CONTINUOUS
 10
-83.550185
 20
-48.844095
 11
-84.550185
 21
-49.844095
  0
LINE
  8
別途部材
  6
CONTINUOUS
 10
-82.550185
 20
-48.844095
 11
-83.550185
 21
-48.844095
  0
LINE
  8
別途部材
  6
CONTINUOUS
 10
-85.550185
 20
-49.844095
 11
-86.550185
 21
-48.844095
  0
LINE
  8
別途部材
  6
CONTINUOUS
 10
-87.550185
 20
-48.844095
 11
-88.550185
 21
-49.844095
  0
LINE
  8
別途部材
  6
CONTINUOUS
 10
-86.550185
 20
-48.844095
 11
-87.550185
 21
-48.844095
  0
LINE
  8
別途部材
  6
CONTINUOUS
 10
-84.550185
 20
-49.844095
 11
-85.550185
 21
-49.844095
  0
LINE
  8
別途部材
  6
CONTINUOUS
 10
-80.550185
 20
-49.844095
 11
-81.550185
 21
-49.844095
  0
LINE
  8
別途部材
  6
CONTINUOUS
 10
-76.550185
 20
-49.844095
 11
-77.550185
 21
-49.844095
  0
LINE
  8
別途部材
  6
CONTINUOUS
 10
-72.550185
 20
-49.844095
 11
-73.550185
 21
-49.844095
  0
LINE
  8
別途部材
  6
CONTINUOUS
 10
-68.550185
 20
-49.844095
 11
-69.550185
 21
-49.844095
  0
LINE
  8
別途部材
  6
CONTINUOUS
 10
-64.550185
 20
-49.844095
 11
-65.550185
 21
-49.844095
  0
LINE
  8
別途部材
  6
CONTINUOUS
 10
-60.550185
 20
-49.844095
 11
-61.550185
 21
-49.844095
  0
LINE
  8
別途部材
  6
CONTINUOUS
 10
-56.550185
 20
-49.844095
 11
-57.550185
 21
-49.844095
  0
LINE
  8
別途部材
  6
CONTINUOUS
 10
-52.550185
 20
-49.844095
 11
-53.550185
 21
-49.844095
  0
LINE
  8
別途部材
  6
CONTINUOUS
 10
-48.550185
 20
-49.844095
 11
-49.550185
 21
-49.844095
  0
LINE
  8
別途部材
  6
CONTINUOUS
 10
-45.550185
 20
-49.844095
 11
-44.550185
 21
-49.844095
  0
LINE
  8
別途部材
  6
CONTINUOUS
 10
-87.550185
 20
-48.844095
 11
-87.550185
 21
-55.177427
  0
LINE
  8
別途部材
  6
CONTINUOUS
 10
-88.550185
 20
-49.844095
 11
-88.550185
 21
-55.177427
  0
LINE
  8
別途部材
  6
CONTINUOUS
 10
-86.550185
 20
-48.844095
 11
-86.550185
 21
-55.177427
  0
LINE
  8
別途部材
  6
CONTINUOUS
 10
-85.550185
 20
-49.844095
 11
-85.550185
 21
-55.177427
  0
LINE
  8
別途部材
  6
CONTINUOUS
 10
-83.550185
 20
-48.844095
 11
-83.550185
 21
-55.177427
  0
LINE
  8
別途部材
  6
CONTINUOUS
 10
-84.550185
 20
-49.844095
 11
-84.550185
 21
-55.177427
  0
LINE
  8
別途部材
  6
CONTINUOUS
 10
-80.550185
 20
-49.844095
 11
-80.550185
 21
-55.177427
  0
LINE
  8
別途部材
  6
CONTINUOUS
 10
-81.550185
 20
-49.844095
 11
-81.550185
 21
-55.177427
  0
LINE
  8
別途部材
  6
CONTINUOUS
 10
-82.550185
 20
-48.844095
 11
-82.550185
 21
-55.177427
  0
LINE
  8
別途部材
  6
CONTINUOUS
 10
-79.550185
 20
-48.844095
 11
-79.550185
 21
-55.177427
  0
LINE
  8
別途部材
  6
CONTINUOUS
 10
-78.550185
 20
-48.844095
 11
-78.550185
 21
-55.177427
  0
LINE
  8
別途部材
  6
CONTINUOUS
 10
-77.550185
 20
-49.844095
 11
-77.550185
 21
-55.177427
  0
LINE
  8
別途部材
  6
CONTINUOUS
 10
-75.550185
 20
-48.844095
 11
-75.550185
 21
-55.177427
  0
LINE
  8
別途部材
  6
CONTINUOUS
 10
-71.550185
 20
-48.844095
 11
-71.550185
 21
-55.177427
  0
LINE
  8
別途部材
  6
CONTINUOUS
 10
-72.550185
 20
-49.844095
 11
-72.550185
 21
-55.177427
  0
LINE
  8
別途部材
  6
CONTINUOUS
 10
-73.550185
 20
-49.844095
 11
-73.550185
 21
-55.177427
  0
LINE
  8
別途部材
  6
CONTINUOUS
 10
-74.550185
 20
-48.844095
 11
-74.550185
 21
-55.177427
  0
LINE
  8
別途部材
  6
CONTINUOUS
 10
-76.550185
 20
-49.844095
 11
-76.550185
 21
-55.177427
  0
LINE
  8
別途部材
  6
CONTINUOUS
 10
-69.550185
 20
-49.844095
 11
-69.550185
 21
-55.177427
  0
LINE
  8
別途部材
  6
CONTINUOUS
 10
-70.550185
 20
-48.844095
 11
-70.550185
 21
-55.177427
  0
LINE
  8
別途部材
  6
CONTINUOUS
 10
-68.550185
 20
-49.844095
 11
-68.550185
 21
-55.177427
  0
LINE
  8
別途部材
  6
CONTINUOUS
 10
-67.550185
 20
-48.844095
 11
-67.550185
 21
-55.177427
  0
LINE
  8
別途部材
  6
CONTINUOUS
 10
-63.550185
 20
-48.844095
 11
-63.550185
 21
-55.177427
  0
LINE
  8
別途部材
  6
CONTINUOUS
 10
-62.550185
 20
-48.844095
 11
-62.550185
 21
-55.177427
  0
LINE
  8
別途部材
  6
CONTINUOUS
 10
-64.550185
 20
-49.844095
 11
-64.550185
 21
-55.177427
  0
LINE
  8
別途部材
  6
CONTINUOUS
 10
-65.550185
 20
-49.844095
 11
-65.550185
 21
-55.177427
  0
LINE
  8
別途部材
  6
CONTINUOUS
 10
-66.550185
 20
-48.844095
 11
-66.550185
 21
-55.177427
  0
LINE
  8
別途部材
  6
CONTINUOUS
 10
-61.550185
 20
-49.844095
 11
-61.550185
 21
-55.177427
  0
LINE
  8
別途部材
  6
CONTINUOUS
 10
-59.550185
 20
-48.844095
 11
-59.550185
 21
-55.177427
  0
LINE
  8
別途部材
  6
CONTINUOUS
 10
-58.550185
 20
-48.844095
 11
-58.550185
 21
-55.177427
  0
LINE
  8
別途部材
  6
CONTINUOUS
 10
-57.550185
 20
-49.844095
 11
-57.550185
 21
-55.177427
  0
LINE
  8
別途部材
  6
CONTINUOUS
 10
-56.550185
 20
-49.844095
 11
-56.550185
 21
-55.177427
  0
LINE
  8
別途部材
  6
CONTINUOUS
 10
-55.550185
 20
-48.844095
 11
-55.550185
 21
-55.177427
  0
LINE
  8
別途部材
  6
CONTINUOUS
 10
-60.550185
 20
-49.844095
 11
-60.550185
 21
-55.177427
  0
LINE
  8
別途部材
  6
CONTINUOUS
 10
-54.550185
 20
-48.844095
 11
-54.550185
 21
-55.177427
  0
LINE
  8
別途部材
  6
CONTINUOUS
 10
-53.550185
 20
-49.844095
 11
-53.550185
 21
-55.177427
  0
LINE
  8
別途部材
  6
CONTINUOUS
 10
-52.550185
 20
-49.844095
 11
-52.550185
 21
-55.177427
  0
LINE
  8
別途部材
  6
CONTINUOUS
 10
-50.550185
 20
-48.844095
 11
-50.550185
 21
-55.177427
  0
LINE
  8
別途部材
  6
CONTINUOUS
 10
-48.550185
 20
-49.844095
 11
-48.550185
 21
-55.177427
  0
LINE
  8
別途部材
  6
CONTINUOUS
 10
-47.550185
 20
-48.844095
 11
-47.550185
 21
-55.177427
  0
LINE
  8
別途部材
  6
CONTINUOUS
 10
-45.550185
 20
-49.844095
 11
-45.550185
 21
-55.177427
  0
LINE
  8
別途部材
  6
CONTINUOUS
 10
-44.550185
 20
-49.844095
 11
-44.550185
 21
-55.177427
  0
LINE
  8
別途部材
  6
CONTINUOUS
 10
-43.550185
 20
-48.844095
 11
-43.550185
 21
-55.177427
  0
LINE
  8
別途部材
  6
CONTINUOUS
 10
-46.550185
 20
-48.844095
 11
-46.550185
 21
-55.177427
  0
LINE
  8
別途部材
  6
CONTINUOUS
 10
-49.550185
 20
-49.844095
 11
-49.550185
 21
-55.177427
  0
LINE
  8
別途部材
  6
CONTINUOUS
 10
-51.550185
 20
-48.844095
 11
-51.550185
 21
-55.177427
  0
LINE
  8
別途部材
  6
CONTINUOUS
 10
-88.550185
 20
-49.844095
 11
-91.383518
 21
-49.844095
  0
LINE
  8
別途部材
  6
CONTINUOUS
 62
    96
 10
16.949815
 20
-55.177427
 11
17.349815
 21
-56.177427
  0
ARC
  8
別途部材
  6
CONTINUOUS
 10
5.283147
 20
-61.885761
 40
12.041668
 50
33.855033
 51
90.0
  0
LINE
  8
別途部材
  6
CONTINUOUS
 10
17.349815
 20
-56.177427
 11
-43.050185
 21
-56.177427
  0
LINE
  8
別途部材
  6
CONTINUOUS
 62
    96
 10
16.949815
 20
-55.177427
 11
-43.050185
 21
-55.177427
  0
LINE
  8
別途部材
  6
CONTINUOUS
 10
-42.550185
 20
-48.844095
 11
-41.550185
 21
-49.844095
  0
LINE
  8
別途部材
  6
CONTINUOUS
 10
-40.550185
 20
-49.844095
 11
-39.550185
 21
-48.844095
  0
LINE
  8
別途部材
  6
CONTINUOUS
 10
-38.550185
 20
-48.844095
 11
-37.550185
 21
-49.844095
  0
LINE
  8
別途部材
  6
CONTINUOUS
 10
-39.550185
 20
-48.844095
 11
-38.550185
 21
-48.844095
  0
LINE
  8
別途部材
  6
CONTINUOUS
 10
-42.550185
 20
-48.844095
 11
-43.050185
 21
-48.844095
  0
LINE
  8
別途部材
  6
CONTINUOUS
 10
-36.550185
 20
-49.844095
 11
-35.550185
 21
-48.844095
  0
LINE
  8
別途部材
  6
CONTINUOUS
 10
-34.550185
 20
-48.844095
 11
-33.550185
 21
-49.844095
  0
LINE
  8
別途部材
  6
CONTINUOUS
 10
-35.550185
 20
-48.844095
 11
-34.550185
 21
-48.844095
  0
LINE
  8
別途部材
  6
CONTINUOUS
 10
-32.550185
 20
-49.844095
 11
-31.550185
 21
-48.844095
  0
LINE
  8
別途部材
  6
CONTINUOUS
 10
-30.550185
 20
-48.844095
 11
-29.550185
 21
-49.844095
  0
LINE
  8
別途部材
  6
CONTINUOUS
 10
-31.550185
 20
-48.844095
 11
-30.550185
 21
-48.844095
  0
LINE
  8
別途部材
  6
CONTINUOUS
 10
-28.550185
 20
-49.844095
 11
-27.550185
 21
-48.844095
  0
LINE
  8
別途部材
  6
CONTINUOUS
 10
-26.550185
 20
-48.844095
 11
-25.550185
 21
-49.844095
  0
LINE
  8
別途部材
  6
CONTINUOUS
 10
-27.550185
 20
-48.844095
 11
-26.550185
 21
-48.844095
  0
LINE
  8
別途部材
  6
CONTINUOUS
 10
-24.550185
 20
-49.844095
 11
-23.550185
 21
-48.844095
  0
LINE
  8
別途部材
  6
CONTINUOUS
 10
-22.550185
 20
-48.844095
 11
-21.550185
 21
-49.844095
  0
LINE
  8
別途部材
  6
CONTINUOUS
 10
-23.550185
 20
-48.844095
 11
-22.550185
 21
-48.844095
  0
LINE
  8
別途部材
  6
CONTINUOUS
 10
-20.550185
 20
-49.844095
 11
-19.550185
 21
-48.844095
  0
LINE
  8
別途部材
  6
CONTINUOUS
 10
-18.550185
 20
-48.844095
 11
-17.550185
 21
-49.844095
  0
LINE
  8
別途部材
  6
CONTINUOUS
 10
-19.550185
 20
-48.844095
 11
-18.550185
 21
-48.844095
  0
LINE
  8
別途部材
  6
CONTINUOUS
 10
-16.550185
 20
-49.844095
 11
-15.550185
 21
-48.844095
  0
LINE
  8
別途部材
  6
CONTINUOUS
 10
-14.550185
 20
-48.844095
 11
-13.550185
 21
-49.844095
  0
LINE
  8
別途部材
  6
CONTINUOUS
 10
-15.550185
 20
-48.844095
 11
-14.550185
 21
-48.844095
  0
LINE
  8
別途部材
  6
CONTINUOUS
 10
-12.550185
 20
-49.844095
 11
-11.550185
 21
-48.844095
  0
LINE
  8
別途部材
  6
CONTINUOUS
 10
-10.550185
 20
-48.844095
 11
-9.550185
 21
-49.844095
  0
LINE
  8
別途部材
  6
CONTINUOUS
 10
-11.550185
 20
-48.844095
 11
-10.550185
 21
-48.844095
  0
LINE
  8
別途部材
  6
CONTINUOUS
 10
-8.550185
 20
-49.844095
 11
-7.550185
 21
-48.844095
  0
LINE
  8
別途部材
  6
CONTINUOUS
 10
-6.550185
 20
-48.844095
 11
-5.550185
 21
-49.844095
  0
LINE
  8
別途部材
  6
CONTINUOUS
 10
-7.550185
 20
-48.844095
 11
-6.550185
 21
-48.844095
  0
LINE
  8
別途部材
  6
CONTINUOUS
 10
-4.550185
 20
-49.844095
 11
-3.550185
 21
-48.844095
  0
LINE
  8
別途部材
  6
CONTINUOUS
 10
-2.550185
 20
-48.844095
 11
-1.550185
 21
-49.844095
  0
LINE
  8
別途部材
  6
CONTINUOUS
 10
-3.550185
 20
-48.844095
 11
-2.550185
 21
-48.844095
  0
LINE
  8
別途部材
  6
CONTINUOUS
 10
-0.550185
 20
-49.844095
 11
0.449815
 21
-48.844095
  0
LINE
  8
別途部材
  6
CONTINUOUS
 10
1.449815
 20
-48.844095
 11
2.449815
 21
-49.844095
  0
LINE
  8
別途部材
  6
CONTINUOUS
 10
0.449815
 20
-48.844095
 11
1.449815
 21
-48.844095
  0
LINE
  8
別途部材
  6
CONTINUOUS
 10
-1.550185
 20
-49.844095
 11
-0.550185
 21
-49.844095
  0
LINE
  8
別途部材
  6
CONTINUOUS
 10
-5.550185
 20
-49.844095
 11
-4.550185
 21
-49.844095
  0
LINE
  8
別途部材
  6
CONTINUOUS
 10
-9.550185
 20
-49.844095
 11
-8.550185
 21
-49.844095
  0
LINE
  8
別途部材
  6
CONTINUOUS
 10
-13.550185
 20
-49.844095
 11
-12.550185
 21
-49.844095
  0
LINE
  8
別途部材
  6
CONTINUOUS
 10
-17.550185
 20
-49.844095
 11
-16.550185
 21
-49.844095
  0
LINE
  8
別途部材
  6
CONTINUOUS
 10
-21.550185
 20
-49.844095
 11
-20.550185
 21
-49.844095
  0
LINE
  8
別途部材
  6
CONTINUOUS
 10
-25.550185
 20
-49.844095
 11
-24.550185
 21
-49.844095
  0
LINE
  8
別途部材
  6
CONTINUOUS
 10
-29.550185
 20
-49.844095
 11
-28.550185
 21
-49.844095
  0
LINE
  8
別途部材
  6
CONTINUOUS
 10
-33.550185
 20
-49.844095
 11
-32.550185
 21
-49.844095
  0
LINE
  8
別途部材
  6
CONTINUOUS
 10
-37.550185
 20
-49.844095
 11
-36.550185
 21
-49.844095
  0
LINE
  8
別途部材
  6
CONTINUOUS
 10
-40.550185
 20
-49.844095
 11
-41.550185
 21
-49.844095
  0
LINE
  8
別途部材
  6
CONTINUOUS
 10
1.449815
 20
-48.844095
 11
1.449815
 21
-55.177427
  0
LINE
  8
別途部材
  6
CONTINUOUS
 10
2.449815
 20
-49.844095
 11
2.449815
 21
-55.177427
  0
LINE
  8
別途部材
  6
CONTINUOUS
 10
0.449815
 20
-48.844095
 11
0.449815
 21
-55.177427
  0
LINE
  8
別途部材
  6
CONTINUOUS
 10
-0.550185
 20
-49.844095
 11
-0.550185
 21
-55.177427
  0
LINE
  8
別途部材
  6
CONTINUOUS
 10
-2.550185
 20
-48.844095
 11
-2.550185
 21
-55.177427
  0
LINE
  8
別途部材
  6
CONTINUOUS
 10
-1.550185
 20
-49.844095
 11
-1.550185
 21
-55.177427
  0
LINE
  8
別途部材
  6
CONTINUOUS
 10
-5.550185
 20
-49.844095
 11
-5.550185
 21
-55.177427
  0
LINE
  8
別途部材
  6
CONTINUOUS
 10
-4.550185
 20
-49.844095
 11
-4.550185
 21
-55.177427
  0
LINE
  8
別途部材
  6
CONTINUOUS
 10
-3.550185
 20
-48.844095
 11
-3.550185
 21
-55.177427
  0
LINE
  8
別途部材
  6
CONTINUOUS
 10
-6.550185
 20
-48.844095
 11
-6.550185
 21
-55.177427
  0
LINE
  8
別途部材
  6
CONTINUOUS
 10
-7.550185
 20
-48.844095
 11
-7.550185
 21
-55.177427
  0
LINE
  8
別途部材
  6
CONTINUOUS
 10
-8.550185
 20
-49.844095
 11
-8.550185
 21
-55.177427
  0
LINE
  8
別途部材
  6
CONTINUOUS
 10
-10.550185
 20
-48.844095
 11
-10.550185
 21
-55.177427
  0
LINE
  8
別途部材
  6
CONTINUOUS
 10
-14.550185
 20
-48.844095
 11
-14.550185
 21
-55.177427
  0
LINE
  8
別途部材
  6
CONTINUOUS
 10
-13.550185
 20
-49.844095
 11
-13.550185
 21
-55.177427
  0
LINE
  8
別途部材
  6
CONTINUOUS
 10
-12.550185
 20
-49.844095
 11
-12.550185
 21
-55.177427
  0
LINE
  8
別途部材
  6
CONTINUOUS
 10
-11.550185
 20
-48.844095
 11
-11.550185
 21
-55.177427
  0
LINE
  8
別途部材
  6
CONTINUOUS
 10
-9.550185
 20
-49.844095
 11
-9.550185
 21
-55.177427
  0
LINE
  8
別途部材
  6
CONTINUOUS
 10
-16.550185
 20
-49.844095
 11
-16.550185
 21
-55.177427
  0
LINE
  8
別途部材
  6
CONTINUOUS
 10
-15.550185
 20
-48.844095
 11
-15.550185
 21
-55.177427
  0
LINE
  8
別途部材
  6
CONTINUOUS
 10
-17.550185
 20
-49.844095
 11
-17.550185
 21
-55.177427
  0
LINE
  8
別途部材
  6
CONTINUOUS
 10
-18.550185
 20
-48.844095
 11
-18.550185
 21
-55.177427
  0
LINE
  8
別途部材
  6
CONTINUOUS
 10
-22.550185
 20
-48.844095
 11
-22.550185
 21
-55.177427
  0
LINE
  8
別途部材
  6
CONTINUOUS
 10
-23.550185
 20
-48.844095
 11
-23.550185
 21
-55.177427
  0
LINE
  8
別途部材
  6
CONTINUOUS
 10
-21.550185
 20
-49.844095
 11
-21.550185
 21
-55.177427
  0
LINE
  8
別途部材
  6
CONTINUOUS
 10
-20.550185
 20
-49.844095
 11
-20.550185
 21
-55.177427
  0
LINE
  8
別途部材
  6
CONTINUOUS
 10
-19.550185
 20
-48.844095
 11
-19.550185
 21
-55.177427
  0
LINE
  8
別途部材
  6
CONTINUOUS
 10
-24.550185
 20
-49.844095
 11
-24.550185
 21
-55.177427
  0
LINE
  8
別途部材
  6
CONTINUOUS
 10
-26.550185
 20
-48.844095
 11
-26.550185
 21
-55.177427
  0
LINE
  8
別途部材
  6
CONTINUOUS
 10
-27.550185
 20
-48.844095
 11
-27.550185
 21
-55.177427
  0
LINE
  8
別途部材
  6
CONTINUOUS
 10
-28.550185
 20
-49.844095
 11
-28.550185
 21
-55.177427
  0
LINE
  8
別途部材
  6
CONTINUOUS
 10
-29.550185
 20
-49.844095
 11
-29.550185
 21
-55.177427
  0
LINE
  8
別途部材
  6
CONTINUOUS
 10
-30.550185
 20
-48.844095
 11
-30.550185
 21
-55.177427
  0
LINE
  8
別途部材
  6
CONTINUOUS
 10
-25.550185
 20
-49.844095
 11
-25.550185
 21
-55.177427
  0
LINE
  8
別途部材
  6
CONTINUOUS
 10
-31.550185
 20
-48.844095
 11
-31.550185
 21
-55.177427
  0
LINE
  8
別途部材
  6
CONTINUOUS
 10
-32.550185
 20
-49.844095
 11
-32.550185
 21
-55.177427
  0
LINE
  8
別途部材
  6
CONTINUOUS
 10
-33.550185
 20
-49.844095
 11
-33.550185
 21
-55.177427
  0
LINE
  8
別途部材
  6
CONTINUOUS
 10
-35.550185
 20
-48.844095
 11
-35.550185
 21
-55.177427
  0
LINE
  8
別途部材
  6
CONTINUOUS
 10
-37.550185
 20
-49.844095
 11
-37.550185
 21
-55.177427
  0
LINE
  8
別途部材
  6
CONTINUOUS
 10
-38.550185
 20
-48.844095
 11
-38.550185
 21
-55.177427
  0
LINE
  8
別途部材
  6
CONTINUOUS
 10
-40.550185
 20
-49.844095
 11
-40.550185
 21
-55.177427
  0
LINE
  8
別途部材
  6
CONTINUOUS
 10
-41.550185
 20
-49.844095
 11
-41.550185
 21
-55.177427
  0
LINE
  8
別途部材
  6
CONTINUOUS
 10
-42.550185
 20
-48.844095
 11
-42.550185
 21
-55.177427
  0
LINE
  8
別途部材
  6
CONTINUOUS
 10
-39.550185
 20
-48.844095
 11
-39.550185
 21
-55.177427
  0
LINE
  8
別途部材
  6
CONTINUOUS
 10
-36.550185
 20
-49.844095
 11
-36.550185
 21
-55.177427
  0
LINE
  8
別途部材
  6
CONTINUOUS
 10
-34.550185
 20
-48.844095
 11
-34.550185
 21
-55.177427
  0
LINE
  8
別途部材
  6
CONTINUOUS
 10
2.449815
 20
-49.844095
 11
5.283148
 21
-49.844095
  0
ENDBLK
  0
BLOCK
  2
*DIM_0011
 70
    65
 10
0.0
 20
0.0
  0
LINE
  8
寸法
  6
CONTINUOUS
 10
24.01651
 20
-61.677663
 11
43.973387
 21
-61.677663
  0
LINE
  8
寸法
  6
CONTINUOUS
 10
21.949815
 20
-55.177427
 11
43.973387
 21
-55.177427
  0
LINE
  8
寸法
  6
CONTINUOUS
 10
43.973387
 20
-61.677663
 11
43.973387
 21
-55.177427
  0
POINT
  8
寸法
 10
43.973387
 20
-61.677663
  0
POINT
  8
寸法
 10
43.973387
 20
-55.177427
  0
TEXT
  7
TextStyle03
  8
寸法
  6
CONTINUOUS
 10
43.575
 20
-60.8875
  1
195
 40
3.0
 50
90.0
 72
     5
 11
43.575
 21
-56.0125
  0
ENDBLK
  0
BLOCK
  2
*DIM_0012
 70
    65
 10
0.0
 20
0.0
  0
LINE
  8
寸法
  6
CONTINUOUS
 10
9.87988
 20
-49.844095
 11
43.973387
 21
-49.844095
  0
LINE
  8
寸法
  6
CONTINUOUS
 10
43.973387
 20
-55.177427
 11
43.973387
 21
-49.844095
  0
POINT
  8
寸法
 10
43.973387
 20
-49.844095
  0
TEXT
  7
TextStyle03
  8
寸法
  6
CONTINUOUS
 10
43.575
 20
-54.9625
  1
160
 40
3.0
 50
90.0
 72
     5
 11
43.575
 21
-50.0875
  0
ENDBLK
  0
BLOCK
  2
*DIM_0013
 70
    65
 10
0.0
 20
0.0
  0
LINE
  8
寸法
  6
CONTINUOUS
 10
-101.383515
 20
-31.074888
 11
15.283148
 21
-31.074888
  0
POINT
  8
寸法
 10
-101.383515
 20
-31.074888
  0
POINT
  8
寸法
 10
15.283148
 20
-31.074888
  0
TEXT
  7
TextStyle03
  8
寸法
  6
CONTINUOUS
 10
-54.79375
 20
-30.7
  1
呼称寸法　3500
 40
3.0
 72
     5
 11
-31.35625
 21
-30.7
  0
ENDBLK
  0
BLOCK
  2
*DIM_0014
 70
    65
 10
0.0
 20
0.0
  0
LINE
  8
寸法
  6
CONTINUOUS
 10
19.01651
 20
-56.327663
 11
19.01651
 21
-31.074888
  0
LINE
  8
寸法
  6
CONTINUOUS
 10
15.283148
 20
-31.074888
 11
19.01651
 21
-31.074888
  0
POINT
  8
寸法
 10
15.283148
 20
-31.074888
  0
POINT
  8
寸法
 10
19.01651
 20
-31.074888
  0
TEXT
  7
TextStyle03
  8
寸法
  6
CONTINUOUS
 10
15.9375
 20
-30.55
  1
112
 40
3.0
 72
     5
 11
20.8125
 21
-30.55
  0
ENDBLK
  0
BLOCK
  2
*DIM_0015
 70
    65
 10
0.0
 20
0.0
  0
LINE
  8
寸法
  6
CONTINUOUS
 10
-105.116875
 20
-56.327663
 11
-105.116875
 21
-31.074888
  0
LINE
  8
寸法
  6
CONTINUOUS
 10
-101.383515
 20
-31.074888
 11
-105.116875
 21
-31.074888
  0
POINT
  8
寸法
 10
-101.383515
 20
-31.074888
  0
POINT
  8
寸法
 10
-105.116875
 20
-31.074888
  0
TEXT
  7
TextStyle03
  8
寸法
  6
CONTINUOUS
 10
-106.7375
 20
-30.4
  1
112
 40
3.0
 72
     5
 11
-101.8625
 21
-30.4
  0
ENDBLK
  0
BLOCK
  2
*DIM_0016
 70
    65
 10
0.0
 20
0.0
  0
LINE
  8
寸法
  6
CONTINUOUS
 10
99.635668
 20
41.99536
 11
99.635668
 21
20.518102
  0
LINE
  8
寸法
  6
CONTINUOUS
 10
104.969002
 20
20.518102
 11
99.635668
 21
20.518102
  0
POINT
  8
寸法
 10
99.635668
 20
20.518102
  0
TEXT
  7
TextStyle03
  8
寸法
  6
CONTINUOUS
 10
99.7875
 20
20.875
  1
160
 40
3.0
 72
     5
 11
104.6625
 21
20.875
  0
ENDBLK
  0
BLOCK
  2
*DIM_0017
 70
    65
 10
0.0
 20
0.0
  0
LINE
  8
寸法
  6
CONTINUOUS
 10
111.469238
 20
28.262
 11
111.469238
 21
20.518102
  0
LINE
  8
寸法
  6
CONTINUOUS
 10
104.969002
 20
30.328695
 11
104.969002
 21
20.518102
  0
LINE
  8
寸法
  6
CONTINUOUS
 10
111.469238
 20
20.518102
 11
104.969002
 21
20.518102
  0
POINT
  8
寸法
 10
111.469238
 20
20.518102
  0
POINT
  8
寸法
 10
104.969002
 20
20.518102
  0
TEXT
  7
TextStyle03
  8
寸法
  6
CONTINUOUS
 10
105.7125
 20
20.875
  1
195
 40
3.0
 72
     5
 11
110.5875
 21
20.875
  0
ENDBLK
  0
BLOCK
  2
*DIM_0018
 70
    65
 10
0.0
 20
0.0
  0
LINE
  8
寸法
  6
CONTINUOUS
 10
74.799427
 20
36.995363
 11
74.799427
 21
56.995363
  0
POINT
  8
寸法
 10
74.799427
 20
36.995363
  0
POINT
  8
寸法
 10
74.799427
 20
56.995363
  0
TEXT
  7
TextStyle03
  8
寸法
  6
CONTINUOUS
 10
74.375
 20
36.1
  1
呼称寸法　600
 40
3.0
 50
90.0
 72
     5
 11
74.375
 21
57.85
  0
ENDBLK
  0
BLOCK
  2
*DIM_0019
 70
    65
 10
0.0
 20
0.0
  0
LINE
  8
寸法
  6
CONTINUOUS
 10
99.969
 20
56.995363
 11
74.799427
 21
56.995363
  0
LINE
  8
寸法
  6
CONTINUOUS
 10
105.969238
 20
60.728723
 11
74.799427
 21
60.728723
  0
LINE
  8
寸法
  6
CONTINUOUS
 10
74.799427
 20
56.995363
 11
74.799427
 21
60.728723
  0
POINT
  8
寸法
 10
74.799427
 20
56.995363
  0
POINT
  8
寸法
 10
74.799427
 20
60.728723
  0
TEXT
  7
TextStyle03
  8
寸法
  6
CONTINUOUS
 10
74.375
 20
61.4625
  1
112
 40
3.0
 50
90.0
 72
     5
 11
74.375
 21
66.3375
  0
ENDBLK
  0
BLOCK
  2
*DIM_0020
 70
    65
 10
0.0
 20
0.0
  0
LINE
  8
寸法
  6
CONTINUOUS
 10
105.969238
 20
33.262
 11
74.799427
 21
33.262
  0
LINE
  8
寸法
  6
CONTINUOUS
 10
74.799427
 20
36.995363
 11
74.799427
 21
33.262
  0
POINT
  8
寸法
 10
74.799427
 20
36.995363
  0
POINT
  8
寸法
 10
74.799427
 20
33.262
  0
TEXT
  7
TextStyle03
  8
寸法
  6
CONTINUOUS
 10
74.375
 20
27.6375
  1
112
 40
3.0
 50
90.0
 72
     5
 11
74.375
 21
32.5125
  0
ENDBLK
  0
BLOCK
  2
*GRP_0021
 70
    65
 10
0.0
 20
0.0
  0
LINE
  8
別途部材
  6
CONTINUOUS
 62
    96
 10
110.252445
 20
58.628905
 11
110.252445
 21
58.528905
  0
LINE
  8
別途部材
  6
CONTINUOUS
 62
    96
 10
108.151365
 20
58.728905
 11
108.221038
 21
60.05971
  0
LINE
  8
別途部材
  6
CONTINUOUS
 62
    96
 10
108.769112
 20
60.068905
 11
108.652445
 21
60.335572
  0
LINE
  8
別途部材
  6
CONTINUOUS
 62
    96
 10
108.669112
 20
60.04799
 11
108.601592
 21
60.202323
  0
LINE
  8
別途部材
  6
CONTINUOUS
 62
    96
 10
108.122268
 20
60.085828
 11
108.252717
 21
60.34603
  0
LINE
  8
別途部材
  6
CONTINUOUS
 62
    96
 10
108.221038
 20
60.05971
 11
108.353197
 21
60.323322
  0
LINE
  8
別途部材
  6
CONTINUOUS
 62
    96
 10
108.3888
 20
60.25844
 11
108.325152
 21
60.18131
  0
LINE
  8
別途部材
  6
DASHDOTX2
 62
    96
 10
108.452445
 20
60.335572
 11
108.13896
 21
60.335572
  0
LINE
  8
別途部材
  6
DASHDOTX2
 62
    96
 10
108.452445
 20
60.335572
 11
108.782905
 21
60.335572
  0
LINE
  8
別途部材
  6
DASHDOTX2
 62
    96
 10
108.452445
 20
60.335572
 11
108.452445
 21
60.0721
  0
LINE
  8
別途部材
  6
DASHDOTX2
 62
    96
 10
108.452445
 20
60.335572
 11
108.452445
 21
60.613883
  0
LINE
  8
別途部材
  6
CONTINUOUS
 62
    96
 10
108.669112
 20
58.528905
 11
108.669112
 21
60.04799
  0
LINE
  8
別途部材
  6
CONTINUOUS
 62
    96
 10
108.769112
 20
58.628905
 11
108.769112
 21
60.068905
  0
LINE
  8
別途部材
  6
CONTINUOUS
 62
    96
 10
106.918032
 20
58.828908
 11
108.056463
 21
58.828908
  0
LINE
  8
別途部材
  6
CONTINUOUS
 62
    96
 10
106.918032
 20
58.728905
 11
106.918032
 21
58.828908
  0
LINE
  8
別途部材
  6
CONTINUOUS
 62
    96
 10
106.918032
 20
58.728905
 11
108.151365
 21
58.728905
  0
CIRCLE
  8
別途部材
  6
CONTINUOUS
 62
    96
 10
108.452445
 20
60.335572
 40
0.1
  0
ARC
  8
別途部材
  6
CONTINUOUS
 62
    96
 10
108.452443
 20
60.335575
 40
0.2
 50
218.780606
 51
537.001556
  0
LINE
  8
別途部材
  6
CONTINUOUS
 62
    96
 10
108.669112
 20
58.528905
 11
110.252445
 21
58.528905
  0
LINE
  8
別途部材
  6
CONTINUOUS
 62
    96
 10
108.769112
 20
58.628905
 11
110.252445
 21
58.628905
  0
LINE
  8
別途部材
  6
CONTINUOUS
 62
    96
 10
108.122268
 20
60.085828
 11
108.056463
 21
58.828908
  0
ENDBLK
  0
BLOCK
  2
*DIM_0022
 70
    65
 10
0.0
 20
0.0
  0
LINE
  8
寸法
  6
CONTINUOUS
 10
95.953847
 20
-36.405127
 11
95.953847
 21
-24.025
  0
LINE
  8
寸法
  6
CONTINUOUS
 10
134.45718
 20
-36.405127
 11
134.45718
 21
-24.025
  0
LINE
  8
寸法
  6
CONTINUOUS
 10
95.953847
 20
-24.025
 11
134.45718
 21
-24.025
  0
POINT
  8
寸法
 10
95.953847
 20
-24.025
  0
POINT
  8
寸法
 10
134.45718
 20
-24.025
  0
TEXT
  7
TextStyle03
  8
寸法
  6
CONTINUOUS
 10
110.23125
 20
-23.65
  1
1155.1
 40
3.0
 72
     5
 11
120.16875
 21
-23.65
  0
ENDBLK
  0
BLOCK
  2
*DIM_0023
 70
    65
 10
0.0
 20
0.0
  0
LINE
  8
寸法
  6
CONTINUOUS
 10
139.45718
 20
-41.405127
 11
151.798078
 21
-41.405127
  0
LINE
  8
寸法
  6
CONTINUOUS
 10
139.45718
 20
-61.93846
 11
151.798078
 21
-61.93846
  0
LINE
  8
寸法
  6
CONTINUOUS
 10
151.798078
 20
-41.405127
 11
151.798078
 21
-61.93846
  0
POINT
  8
寸法
 10
151.798078
 20
-41.405127
  0
POINT
  8
寸法
 10
151.798078
 20
-61.93846
  0
TEXT
  7
TextStyle03
  8
寸法
  6
CONTINUOUS
 10
151.4
 20
-54.1125
  1
616
 40
3.0
 50
90.0
 72
     5
 11
151.4
 21
-49.2375
  0
ENDBLK
  0
BLOCK
  2
*GRP_0024
 70
    65
 10
0.0
 20
0.0
  0
LINE
  8
ボルト／ビス
  6
CONTINUOUS
 10
-102.050185
 20
-55.177427
 11
-102.050185
 21
-54.71076
  0
LINE
  8
ボルト／ビス
  6
CONTINUOUS
 10
-101.683518
 20
-55.177427
 11
-101.683518
 21
-55.11076
  0
LINE
  8
ボルト／ビス
  6
CONTINUOUS
 10
-101.683518
 20
-55.11076
 11
-102.416853
 21
-55.11076
  0
LINE
  8
ボルト／ビス
  6
CONTINUOUS
 10
-102.416853
 20
-55.11076
 11
-102.416853
 21
-55.177427
  0
LINE
  8
ボルト／ビス
  6
CONTINUOUS
 10
-101.683518
 20
-55.177427
 11
-102.416853
 21
-55.177427
  0
LINE
  8
ボルト／ビス
  6
CONTINUOUS
 10
-101.750185
 20
-55.077427
 11
-101.750185
 21
-55.11076
  0
LINE
  8
ボルト／ビス
  6
CONTINUOUS
 10
-101.750185
 20
-55.077427
 11
-102.350185
 21
-55.077427
  0
LINE
  8
ボルト／ビス
  6
CONTINUOUS
 10
-102.350185
 20
-55.077427
 11
-102.350185
 21
-55.11076
  0
LINE
  8
ボルト／ビス
  6
CONTINUOUS
 62
    64
 10
-101.88981
 20
-54.877427
 11
-101.857735
 21
-54.889102
  0
ARC
  8
ボルト／ビス
  6
CONTINUOUS
 62
    64
 10
-101.905847
 20
-54.982407
 40
0.104978
 50
90.0
 51
117.278033
  0
ARC
  8
ボルト／ビス
  6
CONTINUOUS
 62
    64
 10
-102.050184
 20
-55.279831
 40
0.402402
 50
76.165015
 51
103.834998
  0
LINE
  8
ボルト／ビス
  6
CONTINUOUS
 62
    64
 10
-102.21056
 20
-54.877427
 11
-102.242635
 21
-54.889102
  0
ARC
  8
ボルト／ビス
  6
CONTINUOUS
 62
    64
 10
-102.194522
 20
-54.982407
 40
0.104978
 50
62.721967
 51
90.0
  0
LINE
  8
ボルト／ビス
  6
CONTINUOUS
 62
    64
 10
-101.88981
 20
-54.877427
 11
-102.21056
 21
-54.877427
  0
LINE
  8
ボルト／ビス
  6
CONTINUOUS
 62
    64
 10
-102.242635
 20
-54.889102
 11
-102.242635
 21
-55.01076
  0
LINE
  8
ボルト／ビス
  6
CONTINUOUS
 62
    64
 10
-102.14641
 20
-54.889102
 11
-102.14641
 21
-55.01076
  0
LINE
  8
ボルト／ビス
  6
CONTINUOUS
 62
    64
 10
-101.857735
 20
-54.889102
 11
-101.857735
 21
-55.01076
  0
LINE
  8
ボルト／ビス
  6
CONTINUOUS
 62
    64
 10
-101.95396
 20
-54.889102
 11
-101.95396
 21
-55.01076
  0
LINE
  8
ボルト／ビス
  6
CONTINUOUS
 10
-101.857735
 20
-55.01076
 11
-102.242635
 21
-55.01076
  0
LINE
  8
ボルト／ビス
  6
CONTINUOUS
 10
-101.850185
 20
-55.01076
 11
-101.850185
 21
-55.077427
  0
LINE
  8
ボルト／ビス
  6
CONTINUOUS
 10
-101.850185
 20
-55.01076
 11
-102.250185
 21
-55.01076
  0
LINE
  8
ボルト／ビス
  6
CONTINUOUS
 10
-102.250185
 20
-55.01076
 11
-102.250185
 21
-55.077427
  0
ENDBLK
  0
BLOCK
  2
*GRP_0025
 70
    65
 10
0.0
 20
0.0
  0
LINE
  8
ボルト／ビス
  6
CONTINUOUS
 10
15.949815
 20
-55.177427
 11
15.949815
 21
-54.71076
  0
LINE
  8
ボルト／ビス
  6
CONTINUOUS
 10
16.316482
 20
-55.177427
 11
16.316482
 21
-55.11076
  0
LINE
  8
ボルト／ビス
  6
CONTINUOUS
 10
16.316482
 20
-55.11076
 11
15.583148
 21
-55.11076
  0
LINE
  8
ボルト／ビス
  6
CONTINUOUS
 10
15.583148
 20
-55.11076
 11
15.583148
 21
-55.177427
  0
LINE
  8
ボルト／ビス
  6
CONTINUOUS
 10
16.316482
 20
-55.177427
 11
15.583148
 21
-55.177427
  0
LINE
  8
ボルト／ビス
  6
CONTINUOUS
 10
16.249815
 20
-55.077427
 11
16.249815
 21
-55.11076
  0
LINE
  8
ボルト／ビス
  6
CONTINUOUS
 10
16.249815
 20
-55.077427
 11
15.649815
 21
-55.077427
  0
LINE
  8
ボルト／ビス
  6
CONTINUOUS
 10
15.649815
 20
-55.077427
 11
15.649815
 21
-55.11076
  0
LINE
  8
ボルト／ビス
  6
CONTINUOUS
 62
    64
 10
16.11019
 20
-54.877427
 11
16.142265
 21
-54.889102
  0
ARC
  8
ボルト／ビス
  6
CONTINUOUS
 62
    64
 10
16.094153
 20
-54.982407
 40
0.104978
 50
90.0
 51
117.278033
  0
ARC
  8
ボルト／ビス
  6
CONTINUOUS
 62
    64
 10
15.949816
 20
-55.279831
 40
0.402402
 50
76.165015
 51
103.834998
  0
LINE
  8
ボルト／ビス
  6
CONTINUOUS
 62
    64
 10
15.78944
 20
-54.877427
 11
15.757365
 21
-54.889102
  0
ARC
  8
ボルト／ビス
  6
CONTINUOUS
 62
    64
 10
15.805478
 20
-54.982407
 40
0.104978
 50
62.721967
 51
90.0
  0
LINE
  8
ボルト／ビス
  6
CONTINUOUS
 62
    64
 10
16.11019
 20
-54.877427
 11
15.78944
 21
-54.877427
  0
LINE
  8
ボルト／ビス
  6
CONTINUOUS
 62
    64
 10
15.757365
 20
-54.889102
 11
15.757365
 21
-55.01076
  0
LINE
  8
ボルト／ビス
  6
CONTINUOUS
 62
    64
 10
15.85359
 20
-54.889102
 11
15.85359
 21
-55.01076
  0
LINE
  8
ボルト／ビス
  6
CONTINUOUS
 62
    64
 10
16.142265
 20
-54.889102
 11
16.142265
 21
-55.01076
  0
LINE
  8
ボルト／ビス
  6
CONTINUOUS
 62
    64
 10
16.04604
 20
-54.889102
 11
16.04604
 21
-55.01076
  0
LINE
  8
ボルト／ビス
  6
CONTINUOUS
 10
16.142265
 20
-55.01076
 11
15.757365
 21
-55.01076
  0
LINE
  8
ボルト／ビス
  6
CONTINUOUS
 10
16.149815
 20
-55.01076
 11
16.149815
 21
-55.077427
  0
LINE
  8
ボルト／ビス
  6
CONTINUOUS
 10
16.149815
 20
-55.01076
 11
15.749815
 21
-55.01076
  0
LINE
  8
ボルト／ビス
  6
CONTINUOUS
 10
15.749815
 20
-55.01076
 11
15.749815
 21
-55.077427
  0
ENDBLK
  0
BLOCK
  2
*GRP_0026
 70
    65
 10
0.0
 20
0.0
  0
LINE
  8
ボルト／ビス
  6
CONTINUOUS
 10
104.969002
 20
36.328695
 11
104.502335
 21
36.328695
  0
LINE
  8
ボルト／ビス
  6
CONTINUOUS
 10
104.969002
 20
36.695363
 11
104.902335
 21
36.695363
  0
LINE
  8
ボルト／ビス
  6
CONTINUOUS
 10
104.902335
 20
36.695363
 11
104.902335
 21
35.962027
  0
LINE
  8
ボルト／ビス
  6
CONTINUOUS
 10
104.902335
 20
35.962027
 11
104.969002
 21
35.962027
  0
LINE
  8
ボルト／ビス
  6
CONTINUOUS
 10
104.969002
 20
36.695363
 11
104.969002
 21
35.962027
  0
LINE
  8
ボルト／ビス
  6
CONTINUOUS
 10
104.869002
 20
36.628695
 11
104.902335
 21
36.628695
  0
LINE
  8
ボルト／ビス
  6
CONTINUOUS
 10
104.869002
 20
36.628695
 11
104.869002
 21
36.028695
  0
LINE
  8
ボルト／ビス
  6
CONTINUOUS
 10
104.869002
 20
36.028695
 11
104.902335
 21
36.028695
  0
LINE
  8
ボルト／ビス
  6
CONTINUOUS
 62
    64
 10
104.669002
 20
36.48907
 11
104.680677
 21
36.521145
  0
ARC
  8
ボルト／ビス
  6
CONTINUOUS
 62
    64
 10
104.773982
 20
36.473031
 40
0.104978
 50
180.0
 51
207.278033
  0
ARC
  8
ボルト／ビス
  6
CONTINUOUS
 62
    64
 10
105.071406
 20
36.328693
 40
0.402402
 50
166.165015
 51
193.834998
  0
LINE
  8
ボルト／ビス
  6
CONTINUOUS
 62
    64
 10
104.669002
 20
36.16832
 11
104.680677
 21
36.136245
  0
ARC
  8
ボルト／ビス
  6
CONTINUOUS
 62
    64
 10
104.773982
 20
36.184355
 40
0.104978
 50
152.721967
 51
180.0
  0
LINE
  8
ボルト／ビス
  6
CONTINUOUS
 62
    64
 10
104.669002
 20
36.48907
 11
104.669002
 21
36.16832
  0
LINE
  8
ボルト／ビス
  6
CONTINUOUS
 62
    64
 10
104.680677
 20
36.136245
 11
104.802335
 21
36.136245
  0
LINE
  8
ボルト／ビス
  6
CONTINUOUS
 62
    64
 10
104.680677
 20
36.23247
 11
104.802335
 21
36.23247
  0
LINE
  8
ボルト／ビス
  6
CONTINUOUS
 62
    64
 10
104.680677
 20
36.521145
 11
104.802335
 21
36.521145
  0
LINE
  8
ボルト／ビス
  6
CONTINUOUS
 62
    64
 10
104.680677
 20
36.42492
 11
104.802335
 21
36.42492
  0
LINE
  8
ボルト／ビス
  6
CONTINUOUS
 10
104.802335
 20
36.521145
 11
104.802335
 21
36.136245
  0
LINE
  8
ボルト／ビス
  6
CONTINUOUS
 10
104.802335
 20
36.528695
 11
104.869002
 21
36.528695
  0
LINE
  8
ボルト／ビス
  6
CONTINUOUS
 10
104.802335
 20
36.528695
 11
104.802335
 21
36.128695
  0
LINE
  8
ボルト／ビス
  6
CONTINUOUS
 10
104.802335
 20
36.128695
 11
104.869002
 21
36.128695
  0
ENDBLK
  0
BLOCK
  2
*GRP_0027
 70
    65
 10
0.0
 20
0.0
  0
LINE
  8
ボルト／ビス
  6
CONTINUOUS
 10
104.969002
 20
57.662027
 11
104.502335
 21
57.662027
  0
LINE
  8
ボルト／ビス
  6
CONTINUOUS
 10
104.969002
 20
58.028695
 11
104.902335
 21
58.028695
  0
LINE
  8
ボルト／ビス
  6
CONTINUOUS
 10
104.902335
 20
58.028695
 11
104.902335
 21
57.29536
  0
LINE
  8
ボルト／ビス
  6
CONTINUOUS
 10
104.902335
 20
57.29536
 11
104.969002
 21
57.29536
  0
LINE
  8
ボルト／ビス
  6
CONTINUOUS
 10
104.969002
 20
58.028695
 11
104.969002
 21
57.29536
  0
LINE
  8
ボルト／ビス
  6
CONTINUOUS
 10
104.869002
 20
57.962027
 11
104.902335
 21
57.962027
  0
LINE
  8
ボルト／ビス
  6
CONTINUOUS
 10
104.869002
 20
57.962027
 11
104.869002
 21
57.362027
  0
LINE
  8
ボルト／ビス
  6
CONTINUOUS
 10
104.869002
 20
57.362027
 11
104.902335
 21
57.362027
  0
LINE
  8
ボルト／ビス
  6
CONTINUOUS
 62
    64
 10
104.669002
 20
57.822402
 11
104.680677
 21
57.854478
  0
ARC
  8
ボルト／ビス
  6
CONTINUOUS
 62
    64
 10
104.773982
 20
57.806363
 40
0.104978
 50
180.0
 51
207.278033
  0
ARC
  8
ボルト／ビス
  6
CONTINUOUS
 62
    64
 10
105.071406
 20
57.662026
 40
0.402402
 50
166.165015
 51
193.834998
  0
LINE
  8
ボルト／ビス
  6
CONTINUOUS
 62
    64
 10
104.669002
 20
57.501652
 11
104.680677
 21
57.469578
  0
ARC
  8
ボルト／ビス
  6
CONTINUOUS
 62
    64
 10
104.773982
 20
57.517688
 40
0.104978
 50
152.721967
 51
180.0
  0
LINE
  8
ボルト／ビス
  6
CONTINUOUS
 62
    64
 10
104.669002
 20
57.822402
 11
104.669002
 21
57.501652
  0
LINE
  8
ボルト／ビス
  6
CONTINUOUS
 62
    64
 10
104.680677
 20
57.469578
 11
104.802335
 21
57.469578
  0
LINE
  8
ボルト／ビス
  6
CONTINUOUS
 62
    64
 10
104.680677
 20
57.565803
 11
104.802335
 21
57.565803
  0
LINE
  8
ボルト／ビス
  6
CONTINUOUS
 62
    64
 10
104.680677
 20
57.854478
 11
104.802335
 21
57.854478
  0
LINE
  8
ボルト／ビス
  6
CONTINUOUS
 62
    64
 10
104.680677
 20
57.758252
 11
104.802335
 21
57.758252
  0
LINE
  8
ボルト／ビス
  6
CONTINUOUS
 10
104.802335
 20
57.854478
 11
104.802335
 21
57.469578
  0
LINE
  8
ボルト／ビス
  6
CONTINUOUS
 10
104.802335
 20
57.862027
 11
104.869002
 21
57.862027
  0
LINE
  8
ボルト／ビス
  6
CONTINUOUS
 10
104.802335
 20
57.862027
 11
104.802335
 21
57.462027
  0
LINE
  8
ボルト／ビス
  6
CONTINUOUS
 10
104.802335
 20
57.462027
 11
104.869002
 21
57.462027
  0
ENDBLK
  0
BLOCK
  2
*GRP_0028
 70
    65
 10
0.0
 20
0.0
  0
LINE
  8
ボルト／ビス
  6
DOT
 10
103.992733
 20
61.01432
 11
103.66275
 21
61.344305
  0
LINE
  8
ボルト／ビス
  6
DOT
 10
104.252008
 20
61.273593
 11
104.204865
 21
61.320735
  0
LINE
  8
ボルト／ビス
  6
DOT
 10
104.204865
 20
61.320735
 11
103.68632
 21
60.802188
  0
LINE
  8
ボルト／ビス
  6
DOT
 10
103.68632
 20
60.802188
 11
103.73346
 21
60.755048
  0
LINE
  8
ボルト／ビス
  6
DOT
 10
104.252008
 20
61.273593
 11
103.73346
 21
60.755048
  0
LINE
  8
ボルト／ビス
  6
DOT
 10
104.134155
 20
61.297163
 11
104.157725
 21
61.273593
  0
LINE
  8
ボルト／ビス
  6
DOT
 10
104.134155
 20
61.297163
 11
103.70989
 21
60.8729
  0
LINE
  8
ボルト／ビス
  6
DOT
 10
103.70989
 20
60.8729
 11
103.73346
 21
60.84933
  0
LINE
  8
ボルト／ビス
  6
DOT
 62
    64
 10
103.894002
 20
61.339855
 11
103.92494
 21
61.35428
  0
ARC
  8
ボルト／ビス
  6
DOT
 62
    64
 10
103.956895
 20
61.254282
 40
0.104978
 50
135.0
 51
162.278033
  0
ARC
  8
ボルト／ビス
  6
DOT
 62
    64
 10
104.065143
 20
60.941909
 40
0.402402
 50
121.165015
 51
148.834998
  0
LINE
  8
ボルト／ビス
  6
DOT
 62
    64
 10
103.6672
 20
61.11305
 11
103.652775
 21
61.082115
  0
ARC
  8
ボルト／ビス
  6
DOT
 62
    64
 10
103.752771
 20
61.050157
 40
0.104978
 50
107.721967
 51
135.0
  0
LINE
  8
ボルト／ビス
  6
DOT
 62
    64
 10
103.894002
 20
61.339855
 11
103.6672
 21
61.11305
  0
LINE
  8
ボルト／ビス
  6
DOT
 62
    64
 10
103.652775
 20
61.082115
 11
103.7388
 21
60.99609
  0
LINE
  8
ボルト／ビス
  6
DOT
 62
    64
 10
103.720815
 20
61.150155
 11
103.80684
 21
61.06413
  0
LINE
  8
ボルト／ビス
  6
DOT
 62
    64
 10
103.92494
 20
61.35428
 11
104.010965
 21
61.268255
  0
LINE
  8
ボルト／ビス
  6
DOT
 62
    64
 10
103.856898
 20
61.286238
 11
103.942922
 21
61.200213
  0
LINE
  8
ボルト／ビス
  6
DOT
 10
104.010965
 20
61.268255
 11
103.7388
 21
60.99609
  0
LINE
  8
ボルト／ビス
  6
DOT
 10
104.016302
 20
61.273593
 11
104.063445
 21
61.226453
  0
LINE
  8
ボルト／ビス
  6
DOT
 10
104.016302
 20
61.273593
 11
103.73346
 21
60.99075
  0
LINE
  8
ボルト／ビス
  6
DOT
 10
103.73346
 20
60.99075
 11
103.7806
 21
60.94361
  0
ENDBLK
  0
BLOCK
  2
*GRP_0029
 70
    65
 10
0.0
 20
0.0
  0
LINE
  8
ボルト／ビス
  6
DOT
 10
88.907788
 20
45.929378
 11
88.577805
 21
46.259362
  0
LINE
  8
ボルト／ビス
  6
DOT
 10
89.167063
 20
46.18865
 11
89.11992
 21
46.235793
  0
LINE
  8
ボルト／ビス
  6
DOT
 10
89.11992
 20
46.235793
 11
88.601375
 21
45.717245
  0
LINE
  8
ボルト／ビス
  6
DOT
 10
88.601375
 20
45.717245
 11
88.648515
 21
45.670105
  0
LINE
  8
ボルト／ビス
  6
DOT
 10
89.167063
 20
46.18865
 11
88.648515
 21
45.670105
  0
LINE
  8
ボルト／ビス
  6
DOT
 10
89.04921
 20
46.21222
 11
89.07278
 21
46.18865
  0
LINE
  8
ボルト／ビス
  6
DOT
 10
89.04921
 20
46.21222
 11
88.624945
 21
45.787958
  0
LINE
  8
ボルト／ビス
  6
DOT
 10
88.624945
 20
45.787958
 11
88.648515
 21
45.764387
  0
LINE
  8
ボルト／ビス
  6
DOT
 62
    64
 10
88.809058
 20
46.254912
 11
88.839995
 21
46.269338
  0
ARC
  8
ボルト／ビス
  6
DOT
 62
    64
 10
88.871949
 20
46.16934
 40
0.104978
 50
135.0
 51
162.278033
  0
ARC
  8
ボルト／ビス
  6
DOT
 62
    64
 10
88.980198
 20
45.856967
 40
0.402402
 50
121.165015
 51
148.834998
  0
LINE
  8
ボルト／ビス
  6
DOT
 62
    64
 10
88.582255
 20
46.028108
 11
88.56783
 21
45.997172
  0
ARC
  8
ボルト／ビス
  6
DOT
 62
    64
 10
88.667825
 20
45.965216
 40
0.104978
 50
107.721967
 51
135.0
  0
LINE
  8
ボルト／ビス
  6
DOT
 62
    64
 10
88.809058
 20
46.254912
 11
88.582255
 21
46.028108
  0
LINE
  8
ボルト／ビス
  6
DOT
 62
    64
 10
88.56783
 20
45.997172
 11
88.653855
 21
45.911147
  0
LINE
  8
ボルト／ビス
  6
DOT
 62
    64
 10
88.63587
 20
46.065213
 11
88.721895
 21
45.979188
  0
LINE
  8
ボルト／ビス
  6
DOT
 62
    64
 10
88.839995
 20
46.269338
 11
88.92602
 21
46.183312
  0
LINE
  8
ボルト／ビス
  6
DOT
 62
    64
 10
88.771953
 20
46.201295
 11
88.857978
 21
46.11527
  0
LINE
  8
ボルト／ビス
  6
DOT
 10
88.92602
 20
46.183312
 11
88.653855
 21
45.911147
  0
LINE
  8
ボルト／ビス
  6
DOT
 10
88.931358
 20
46.18865
 11
88.9785
 21
46.14151
  0
LINE
  8
ボルト／ビス
  6
DOT
 10
88.931358
 20
46.18865
 11
88.648515
 21
45.905808
  0
LINE
  8
ボルト／ビス
  6
DOT
 10
88.648515
 20
45.905808
 11
88.695655
 21
45.858668
  0
ENDBLK
  0
ENDSEC
  0
SECTION
  2
ENTITIES
  0
POLYLINE
  8
通り芯
  6
CONTINUOUS
 66
     1
 70
     1
  0
VERTEX
  8
通り芯
 10
-210.0
 20
-148.5
  0
VERTEX
  8
通り芯
 10
210.0
 20
-148.5
  0
VERTEX
  8
通り芯
 10
210.0
 20
148.5
  0
VERTEX
  8
通り芯
 10
-210.0
 20
148.5
  0
SEQEND
  0
INSERT
  2
*GRP_0001
  8
型材断面
  6
CONTINUOUS
 10
0.0
 20
0.0
  0
LINE
  8
型材断面
  6
DASHDOT
 10
-43.050183
 20
-66.258275
 11
-43.050183
 21
56.995363
  0
LINE
  8
型材断面
  6
CONTINUOUS
 62
    47
 10
16.32984
 20
-58.610877
 11
17.050055
 21
-58.610877
  0
LINE
  8
型材断面
  6
CONTINUOUS
 62
    47
 10
17.00669
 20
-57.317558
 11
17.01669
 21
-57.307557
  0
LINE
  8
型材断面
  6
CONTINUOUS
 62
    47
 10
17.00669
 20
-57.317558
 11
17.01669
 21
-57.327557
  0
LINE
  8
型材断面
  6
CONTINUOUS
 62
    47
 10
17.00669
 20
-57.95979
 11
17.01669
 21
-57.94979
  0
LINE
  8
型材断面
  6
CONTINUOUS
 62
    47
 10
17.00669
 20
-57.95979
 11
17.01669
 21
-57.96979
  0
LINE
  8
型材断面
  6
CONTINUOUS
 62
    47
 10
17.01669
 20
-58.377575
 11
17.01669
 21
-57.96979
  0
LINE
  8
型材断面
  6
CONTINUOUS
 62
    47
 10
17.01669
 20
-57.94979
 11
17.01669
 21
-57.327557
  0
LINE
  8
型材断面
  6
CONTINUOUS
 62
    47
 10
18.516518
 20
-62.010995
 11
18.516518
 21
-61.677663
  0
LINE
  8
型材断面
  6
CONTINUOUS
 62
    47
 10
16.583355
 20
-61.010992
 11
15.98651
 21
-61.010992
  0
LINE
  8
型材断面
  6
CONTINUOUS
 62
    47
 10
16.81651
 20
-61.01098
 11
19.01651
 21
-61.177663
  0
LINE
  8
型材断面
  6
CONTINUOUS
 62
    47
 10
19.01651
 20
-61.677663
 11
19.01651
 21
-61.177663
  0
LINE
  8
型材断面
  6
CONTINUOUS
 62
    47
 10
18.283175
 20
-58.444232
 11
18.283175
 21
-58.610877
  0
LINE
  8
型材断面
  6
CONTINUOUS
 62
    47
 10
18.283175
 20
-58.877538
 11
18.283175
 21
-58.74422
  0
LINE
  8
型材断面
  6
CONTINUOUS
 62
    47
 10
17.01669
 20
-58.377575
 11
18.289862
 21
-58.444232
  0
LINE
  8
型材断面
  6
CONTINUOUS
 62
    47
 10
16.81651
 20
-58.877538
 11
16.81651
 21
-61.010992
  0
LINE
  8
型材断面
  6
CONTINUOUS
 62
    47
 10
17.01669
 20
-57.307557
 11
17.01669
 21
-56.177427
  0
LINE
  8
型材断面
  6
CONTINUOUS
 62
    47
 10
18.283175
 20
-58.74422
 11
-43.050183
 21
-58.74422
  0
LINE
  8
型材断面
  6
CONTINUOUS
 10
17.01669
 20
-58.377575
 11
-43.050183
 21
-58.377575
  0
LINE
  8
型材断面
  6
CONTINUOUS
 10
18.283175
 20
-58.444232
 11
-43.050183
 21
-58.444232
  0
LINE
  8
型材断面
  6
CONTINUOUS
 62
    47
 10
18.283175
 20
-58.877538
 11
-43.050183
 21
-58.877538
  0
LINE
  8
型材断面
  6
CONTINUOUS
 62
    47
 10
18.283175
 20
-58.610877
 11
-43.050183
 21
-58.610877
  0
LINE
  8
型材断面
  6
CONTINUOUS
 10
19.01651
 20
-61.677663
 11
-43.050183
 21
-61.677663
  0
LINE
  8
型材断面
  6
CONTINUOUS
 10
19.01651
 20
-61.177663
 11
-43.050183
 21
-61.177663
  0
LINE
  8
型材断面
  6
CONTINUOUS
 10
18.516518
 20
-62.010995
 11
-43.050183
 21
-62.010995
  0
LINE
  8
型材断面
  6
CONTINUOUS
 10
16.81651
 20
-61.010992
 11
-43.050183
 21
-61.010992
  0
LINE
  8
型材断面
  6
CONTINUOUS
 10
17.349815
 20
34.928698
 11
19.01651
 21
33.262003
  0
LINE
  8
型材断面
  6
CONTINUOUS
 10
19.01651
 20
33.262003
 11
19.01651
 21
46.995363
  0
LINE
  8
型材断面
  6
CONTINUOUS
 10
18.283175
 20
33.995335
 11
18.283175
 21
46.995363
  0
LINE
  8
型材断面
  6
CONTINUOUS
 10
17.349815
 20
59.06203
 11
19.01651
 21
60.728725
  0
LINE
  8
型材断面
  6
CONTINUOUS
 10
19.01651
 20
60.728725
 11
19.01651
 21
46.995363
  0
LINE
  8
型材断面
  6
CONTINUOUS
 10
18.283175
 20
59.995392
 11
18.283175
 21
46.995363
  0
LINE
  8
型材断面
  6
DASHDOT
 10
15.283148
 20
-66.258275
 11
15.283148
 21
56.995363
  0
LINE
  8
型材断面
  6
CONTINUOUS
 62
    47
 10
-102.430207
 20
-58.610877
 11
-103.15042
 21
-58.610877
  0
LINE
  8
型材断面
  6
CONTINUOUS
 62
    47
 10
-103.107057
 20
-57.317558
 11
-103.117058
 21
-57.307557
  0
LINE
  8
型材断面
  6
CONTINUOUS
 62
    47
 10
-103.107057
 20
-57.317558
 11
-103.117058
 21
-57.327557
  0
LINE
  8
型材断面
  6
CONTINUOUS
 62
    47
 10
-103.107057
 20
-57.95979
 11
-103.117058
 21
-57.94979
  0
LINE
  8
型材断面
  6
CONTINUOUS
 62
    47
 10
-103.107057
 20
-57.95979
 11
-103.117058
 21
-57.96979
  0
LINE
  8
型材断面
  6
CONTINUOUS
 62
    47
 10
-103.117058
 20
-58.377575
 11
-103.117058
 21
-57.96979
  0
LINE
  8
型材断面
  6
CONTINUOUS
 62
    47
 10
-103.117058
 20
-57.94979
 11
-103.117058
 21
-57.327557
  0
LINE
  8
型材断面
  6
CONTINUOUS
 62
    47
 10
-104.616885
 20
-62.010995
 11
-104.616885
 21
-61.677663
  0
LINE
  8
型材断面
  6
CONTINUOUS
 62
    47
 10
-102.683723
 20
-61.010992
 11
-102.086875
 21
-61.010992
  0
LINE
  8
型材断面
  6
CONTINUOUS
 62
    47
 10
-102.916875
 20
-61.01098
 11
-105.116875
 21
-61.177663
  0
LINE
  8
型材断面
  6
CONTINUOUS
 62
    47
 10
-105.116875
 20
-61.677663
 11
-105.116875
 21
-61.177663
  0
LINE
  8
型材断面
  6
CONTINUOUS
 62
    47
 10
-104.383543
 20
-58.444232
 11
-104.383543
 21
-58.610877
  0
LINE
  8
型材断面
  6
CONTINUOUS
 62
    47
 10
-104.383543
 20
-58.877538
 11
-104.383543
 21
-58.74422
  0
LINE
  8
型材断面
  6
CONTINUOUS
 62
    47
 10
-103.117058
 20
-58.377575
 11
-104.39023
 21
-58.444232
  0
LINE
  8
型材断面
  6
CONTINUOUS
 62
    47
 10
-102.916875
 20
-58.877538
 11
-102.916875
 21
-61.010992
  0
LINE
  8
型材断面
  6
CONTINUOUS
 62
    47
 10
-103.117058
 20
-57.307557
 11
-103.117058
 21
-56.177427
  0
LINE
  8
型材断面
  6
CONTINUOUS
 62
    47
 10
-104.383543
 20
-58.74422
 11
-43.050183
 21
-58.74422
  0
LINE
  8
型材断面
  6
CONTINUOUS
 10
-103.117058
 20
-58.377575
 11
-43.050183
 21
-58.377575
  0
LINE
  8
型材断面
  6
CONTINUOUS
 10
-104.383543
 20
-58.444232
 11
-43.050183
 21
-58.444232
  0
LINE
  8
型材断面
  6
CONTINUOUS
 62
    47
 10
-104.383543
 20
-58.877538
 11
-43.050183
 21
-58.877538
  0
LINE
  8
型材断面
  6
CONTINUOUS
 62
    47
 10
-104.383543
 20
-58.610877
 11
-43.050183
 21
-58.610877
  0
LINE
  8
型材断面
  6
CONTINUOUS
 10
-105.116875
 20
-61.677663
 11
-43.050183
 21
-61.677663
  0
LINE
  8
型材断面
  6
CONTINUOUS
 10
-105.116875
 20
-61.177663
 11
-43.050183
 21
-61.177663
  0
LINE
  8
型材断面
  6
CONTINUOUS
 10
-104.616885
 20
-62.010995
 11
-43.050183
 21
-62.010995
  0
LINE
  8
型材断面
  6
CONTINUOUS
 10
-102.916875
 20
-61.010992
 11
-43.050183
 21
-61.010992
  0
LINE
  8
型材断面
  6
CONTINUOUS
 10
-103.45018
 20
34.928698
 11
-105.116875
 21
33.262003
  0
LINE
  8
型材断面
  6
CONTINUOUS
 10
-105.116875
 20
33.262003
 11
-105.116875
 21
46.995363
  0
LINE
  8
型材断面
  6
CONTINUOUS
 10
-104.383543
 20
33.995335
 11
-104.383543
 21
46.995363
  0
LINE
  8
型材断面
  6
CONTINUOUS
 10
-105.116875
 20
33.262003
 11
-91.383515
 21
33.262003
  0
LINE
  8
型材断面
  6
CONTINUOUS
 10
-104.383543
 20
33.995335
 11
-91.383515
 21
33.995335
  0
LINE
  8
型材断面
  6
CONTINUOUS
 10
-103.45018
 20
59.06203
 11
-105.116875
 21
60.728725
  0
LINE
  8
型材断面
  6
CONTINUOUS
 10
-105.116875
 20
60.728725
 11
-105.116875
 21
46.995363
  0
LINE
  8
型材断面
  6
CONTINUOUS
 10
-104.383543
 20
59.995392
 11
-104.383543
 21
46.995363
  0
LINE
  8
型材断面
  6
CONTINUOUS
 10
-105.116875
 20
60.728725
 11
-91.383515
 21
60.728725
  0
LINE
  8
型材断面
  6
CONTINUOUS
 10
-104.383543
 20
59.995392
 11
-91.383515
 21
59.995392
  0
LINE
  8
型材断面
  6
DASHDOT
 10
114.059035
 20
36.995363
 11
-101.383515
 21
36.995363
  0
LINE
  8
型材断面
  6
DASHDOT
 10
114.059035
 20
46.995363
 11
-101.383515
 21
46.995363
  0
LINE
  8
型材断面
  6
DASHDOT
 10
114.059035
 20
56.995363
 11
-101.383515
 21
56.995363
  0
LINE
  8
型材断面
  6
DASHDOT
 10
-101.383515
 20
-66.258275
 11
-101.383515
 21
56.995363
  0
LINE
  8
型材断面
  6
CONTINUOUS
 10
19.01651
 20
33.262003
 11
-91.383515
 21
33.262003
  0
LINE
  8
型材断面
  6
CONTINUOUS
 10
18.283175
 20
33.995335
 11
-91.383515
 21
33.995335
  0
LINE
  8
型材断面
  6
CONTINUOUS
 10
19.01651
 20
60.728725
 11
-91.383515
 21
60.728725
  0
LINE
  8
型材断面
  6
CONTINUOUS
 10
18.283175
 20
59.995392
 11
-91.383515
 21
59.995392
  0
LINE
  8
型材断面
  6
CONTINUOUS
 10
-84.71685
 20
59.625492
 11
-86.21248
 21
62.216
  0
LINE
  8
型材断面
  6
CONTINUOUS
 10
-84.71685
 20
59.625492
 11
-83.22122
 21
62.216
  0
LINE
  8
型材断面
  6
CONTINUOUS
 10
-83.22122
 20
62.216
 11
-86.21248
 21
62.216
  0
LINE
  8
型材断面
  6
CONTINUOUS
 10
-142.235725
 20
94.972835
 11
-141.63967
 21
92.382328
  0
LINE
  8
型材断面
  6
CONTINUOUS
 10
-142.235725
 20
94.972835
 11
-142.831783
 21
92.382328
  0
LINE
  8
型材断面
  6
CONTINUOUS
 10
-142.831783
 20
92.382328
 11
-141.63967
 21
92.382328
  0
LINE
  8
型材断面
  6
CONTINUOUS
 10
-148.258313
 20
89.103435
 11
-102.016535
 21
89.103435
  0
LINE
  8
型材断面
  6
CONTINUOUS
 10
-142.235725
 20
101.50271
 11
-143.731355
 21
98.912203
  0
LINE
  8
型材断面
  6
CONTINUOUS
 10
-142.235725
 20
101.50271
 11
-140.740095
 21
98.912203
  0
LINE
  8
型材断面
  6
CONTINUOUS
 10
-140.740095
 20
98.912203
 11
-143.731355
 21
98.912203
  0
LINE
  8
型材断面
  6
CONTINUOUS
 10
-148.258313
 20
97.973608
 11
-102.016535
 21
97.973608
  0
LINE
  8
型材断面
  6
CONTINUOUS
 10
-148.258313
 20
83.315402
 11
-102.016535
 21
83.315402
  0
LINE
  8
型材断面
  6
CONTINUOUS
 10
-104.013648
 20
46.995363
 11
-106.604155
 21
48.490992
  0
LINE
  8
型材断面
  6
CONTINUOUS
 10
-104.013648
 20
46.995363
 11
-106.604155
 21
45.499733
  0
LINE
  8
型材断面
  6
CONTINUOUS
 10
-106.604155
 20
45.499733
 11
-106.604155
 21
48.490992
  0
LINE
  8
型材断面
  6
CONTINUOUS
 10
-84.71685
 20
34.365232
 11
-86.21248
 21
31.774725
  0
LINE
  8
型材断面
  6
CONTINUOUS
 10
-84.71685
 20
34.365232
 11
-83.22122
 21
31.774725
  0
LINE
  8
型材断面
  6
CONTINUOUS
 10
-83.22122
 20
31.774725
 11
-86.21248
 21
31.774725
  0
LINE
  8
型材断面
  6
CONTINUOUS
 10
-1.383515
 20
59.625492
 11
0.112115
 21
62.216
  0
LINE
  8
型材断面
  6
CONTINUOUS
 10
-1.383515
 20
59.625492
 11
-2.879145
 21
62.216
  0
LINE
  8
型材断面
  6
CONTINUOUS
 10
-2.879145
 20
62.216
 11
0.112115
 21
62.216
  0
LINE
  8
型材断面
  6
CONTINUOUS
 10
17.913283
 20
46.995363
 11
20.50379
 21
48.490992
  0
LINE
  8
型材断面
  6
CONTINUOUS
 10
17.913283
 20
46.995363
 11
20.50379
 21
45.499733
  0
LINE
  8
型材断面
  6
CONTINUOUS
 10
20.50379
 20
45.499733
 11
20.50379
 21
48.490992
  0
LINE
  8
型材断面
  6
CONTINUOUS
 10
-1.383515
 20
34.365232
 11
0.112115
 21
31.774725
  0
LINE
  8
型材断面
  6
CONTINUOUS
 10
-1.383515
 20
34.365232
 11
-2.879145
 21
31.774725
  0
LINE
  8
型材断面
  6
CONTINUOUS
 10
-2.879145
 20
31.774725
 11
0.112115
 21
31.774725
  0
POLYLINE
  8
型材断面
  6
DASHDOT
 66
     1
  0
VERTEX
  8
型材断面
 10
-101.383518
 20
36.995363
  0
VERTEX
  8
型材断面
 10
-43.050183
 20
56.995363
  0
VERTEX
  8
型材断面
 10
15.28315
 20
36.995363
  0
SEQEND
  0
LINE
  8
型材断面
  6
CONTINUOUS
 10
13.28315
 20
34.38855
 11
12.687092
 21
31.798045
  0
LINE
  8
型材断面
  6
CONTINUOUS
 10
13.28315
 20
34.38855
 11
13.879207
 21
31.798045
  0
LINE
  8
型材断面
  6
CONTINUOUS
 10
13.879207
 20
31.798045
 11
12.687092
 21
31.798045
  0
LINE
  8
型材断面
  6
CONTINUOUS
 10
-99.383515
 20
34.38855
 11
-98.787457
 21
31.798045
  0
LINE
  8
型材断面
  6
CONTINUOUS
 10
-99.383515
 20
34.38855
 11
-99.979572
 21
31.798045
  0
LINE
  8
型材断面
  6
CONTINUOUS
 10
-99.979572
 20
31.798045
 11
-98.787457
 21
31.798045
  0
LINE
  8
型材断面
  6
DOT
 10
-61.473517
 20
36.995363
 11
-61.473517
 21
56.995363
  0
LINE
  8
型材断面
  6
DASHDOT
 10
-62.723517
 20
36.995363
 11
-62.723517
 21
56.995363
  0
LINE
  8
型材断面
  6
DOT
 10
-63.973517
 20
36.995363
 11
-63.973517
 21
56.995363
  0
LINE
  8
型材断面
  6
DOT
 10
-24.626847
 20
36.995363
 11
-24.626847
 21
56.995363
  0
LINE
  8
型材断面
  6
DASHDOT
 10
-23.376847
 20
36.995363
 11
-23.376847
 21
56.995363
  0
LINE
  8
型材断面
  6
DOT
 10
-22.126847
 20
36.995363
 11
-22.126847
 21
56.995363
  0
LINE
  8
型材断面
  6
CONTINUOUS
 62
    47
 10
108.402453
 20
58.042055
 11
108.402453
 21
58.762268
  0
LINE
  8
型材断面
  6
CONTINUOUS
 62
    47
 10
107.109132
 20
58.718905
 11
107.099133
 21
58.728905
  0
LINE
  8
型材断面
  6
CONTINUOUS
 62
    47
 10
107.109132
 20
58.718905
 11
107.119132
 21
58.728905
  0
LINE
  8
型材断面
  6
CONTINUOUS
 62
    47
 10
107.751365
 20
58.718905
 11
107.741365
 21
58.728905
  0
LINE
  8
型材断面
  6
CONTINUOUS
 62
    47
 10
107.751365
 20
58.718905
 11
107.761365
 21
58.728905
  0
LINE
  8
型材断面
  6
CONTINUOUS
 62
    47
 10
108.16915
 20
58.728905
 11
107.761365
 21
58.728905
  0
LINE
  8
型材断面
  6
CONTINUOUS
 62
    47
 10
107.741365
 20
58.728905
 11
107.119132
 21
58.728905
  0
LINE
  8
型材断面
  6
CONTINUOUS
 62
    47
 10
111.80257
 20
60.22873
 11
111.469238
 21
60.22873
  0
LINE
  8
型材断面
  6
CONTINUOUS
 62
    47
 10
110.802568
 20
58.29557
 11
110.802568
 21
57.698723
  0
LINE
  8
型材断面
  6
CONTINUOUS
 62
    47
 10
110.802555
 20
58.528723
 11
110.969238
 21
60.728723
  0
LINE
  8
型材断面
  6
CONTINUOUS
 62
    47
 10
111.469238
 20
60.728723
 11
110.969238
 21
60.728723
  0
LINE
  8
型材断面
  6
CONTINUOUS
 62
    47
 10
108.669112
 20
59.99539
 11
108.669112
 21
46.99536
  0
LINE
  8
型材断面
  6
CONTINUOUS
 10
110.802568
 20
46.99536
 11
110.802568
 21
58.528723
  0
LINE
  8
型材断面
  6
CONTINUOUS
 10
111.80257
 20
46.99536
 11
111.80257
 21
60.22873
  0
LINE
  8
型材断面
  6
CONTINUOUS
 10
111.469238
 20
46.99536
 11
111.469238
 21
60.728723
  0
LINE
  8
型材断面
  6
CONTINUOUS
 62
    47
 10
108.402453
 20
46.99536
 11
108.402453
 21
59.99539
  0
LINE
  8
型材断面
  6
CONTINUOUS
 62
    47
 10
108.235808
 20
59.99539
 11
108.402453
 21
59.99539
  0
LINE
  8
型材断面
  6
CONTINUOUS
 62
    47
 10
108.535795
 20
46.99536
 11
108.535795
 21
59.99539
  0
LINE
  8
型材断面
  6
CONTINUOUS
 62
    47
 10
108.669112
 20
59.99539
 11
108.535795
 21
59.99539
  0
LINE
  8
型材断面
  6
CONTINUOUS
 62
    47
 10
108.16915
 20
58.728905
 11
108.235808
 21
60.002075
  0
LINE
  8
型材断面
  6
CONTINUOUS
 62
    47
 10
108.669112
 20
58.528723
 11
110.802568
 21
58.528723
  0
LINE
  8
型材断面
  6
CONTINUOUS
 10
110.969238
 20
46.99536
 11
110.969238
 21
60.728723
  0
LINE
  8
型材断面
  6
CONTINUOUS
 10
108.16915
 20
58.728905
 11
108.16915
 21
46.99536
  0
LINE
  8
型材断面
  6
CONTINUOUS
 10
108.235808
 20
59.99539
 11
108.235808
 21
46.99536
  0
LINE
  8
型材断面
  6
CONTINUOUS
 62
    47
 10
108.402453
 20
35.948668
 11
108.402453
 21
35.228455
  0
LINE
  8
型材断面
  6
CONTINUOUS
 62
    47
 10
107.109132
 20
35.271817
 11
107.099133
 21
35.261817
  0
LINE
  8
型材断面
  6
CONTINUOUS
 62
    47
 10
107.109132
 20
35.271817
 11
107.119132
 21
35.261817
  0
LINE
  8
型材断面
  6
CONTINUOUS
 62
    47
 10
107.751365
 20
35.271817
 11
107.741365
 21
35.261817
  0
LINE
  8
型材断面
  6
CONTINUOUS
 62
    47
 10
107.751365
 20
35.271817
 11
107.761365
 21
35.261817
  0
LINE
  8
型材断面
  6
CONTINUOUS
 62
    47
 10
108.16915
 20
35.261817
 11
107.761365
 21
35.261817
  0
LINE
  8
型材断面
  6
CONTINUOUS
 62
    47
 10
107.741365
 20
35.261817
 11
107.119132
 21
35.261817
  0
LINE
  8
型材断面
  6
CONTINUOUS
 62
    47
 10
111.80257
 20
33.76199
 11
111.469238
 21
33.76199
  0
LINE
  8
型材断面
  6
CONTINUOUS
 62
    47
 10
110.802568
 20
35.695153
 11
110.802568
 21
36.292
  0
LINE
  8
型材断面
  6
CONTINUOUS
 62
    47
 10
110.802555
 20
35.462
 11
110.969238
 21
33.262
  0
LINE
  8
型材断面
  6
CONTINUOUS
 62
    47
 10
111.469238
 20
33.262
 11
110.969238
 21
33.262
  0
LINE
  8
型材断面
  6
CONTINUOUS
 62
    47
 10
108.669112
 20
33.995333
 11
108.669112
 21
46.99536
  0
LINE
  8
型材断面
  6
CONTINUOUS
 10
110.802568
 20
46.99536
 11
110.802568
 21
35.462
  0
LINE
  8
型材断面
  6
CONTINUOUS
 10
111.80257
 20
46.99536
 11
111.80257
 21
33.76199
  0
LINE
  8
型材断面
  6
CONTINUOUS
 10
111.469238
 20
46.99536
 11
111.469238
 21
33.262
  0
LINE
  8
型材断面
  6
CONTINUOUS
 62
    47
 10
108.402453
 20
46.99536
 11
108.402453
 21
33.995333
  0
LINE
  8
型材断面
  6
CONTINUOUS
 62
    47
 10
108.235808
 20
33.995333
 11
108.402453
 21
33.995333
  0
LINE
  8
型材断面
  6
CONTINUOUS
 62
    47
 10
108.535795
 20
46.99536
 11
108.535795
 21
33.995333
  0
LINE
  8
型材断面
  6
CONTINUOUS
 62
    47
 10
108.669112
 20
33.995333
 11
108.535795
 21
33.995333
  0
LINE
  8
型材断面
  6
CONTINUOUS
 62
    47
 10
108.16915
 20
35.261817
 11
108.235808
 21
33.988645
  0
LINE
  8
型材断面
  6
CONTINUOUS
 62
    47
 10
108.669112
 20
35.462
 11
110.802568
 21
35.462
  0
LINE
  8
型材断面
  6
CONTINUOUS
 10
110.969238
 20
46.99536
 11
110.969238
 21
33.262
  0
LINE
  8
型材断面
  6
CONTINUOUS
 10
108.16915
 20
35.261817
 11
108.16915
 21
46.99536
  0
LINE
  8
型材断面
  6
CONTINUOUS
 10
108.235808
 20
33.995333
 11
108.235808
 21
46.99536
  0
LINE
  8
型材断面
  6
DOT
 62
    47
 10
106.795333
 20
58.74916
 11
107.304602
 21
59.258427
  0
LINE
  8
型材断面
  6
DOT
 62
    47
 10
106.359423
 20
60.14228
 11
106.359423
 21
60.156423
  0
LINE
  8
型材断面
  6
DOT
 62
    47
 10
106.359423
 20
60.14228
 11
106.373565
 21
60.14228
  0
LINE
  8
型材断面
  6
DOT
 62
    47
 10
106.81355
 20
59.688155
 11
106.81355
 21
59.702295
  0
LINE
  8
型材断面
  6
DOT
 62
    47
 10
106.81355
 20
59.688155
 11
106.827693
 21
59.688155
  0
LINE
  8
型材断面
  6
DOT
 62
    47
 10
107.116037
 20
59.399805
 11
106.827693
 21
59.688155
  0
LINE
  8
型材断面
  6
DOT
 62
    47
 10
106.81355
 20
59.702295
 11
106.373565
 21
60.14228
  0
LINE
  8
型材断面
  6
DOT
 62
    47
 10
106.359423
 20
60.156423
 11
105.454233
 21
61.061613
  0
LINE
  8
型材断面
  6
DOT
 62
    47
 10
98.984143
 20
50.937968
 11
108.17655
 21
60.130375
  0
LINE
  8
型材断面
  6
DOT
 62
    47
 10
108.058713
 20
60.248213
 11
108.17655
 21
60.130375
  0
LINE
  8
型材断面
  6
DOT
 62
    47
 10
107.116037
 20
59.399805
 11
108.063443
 21
60.25294
  0
LINE
  8
型材断面
  6
DOT
 10
107.116037
 20
59.399805
 11
98.819173
 21
51.102938
  0
LINE
  8
型材断面
  6
DOT
 10
108.058713
 20
60.248213
 11
98.866305
 21
51.055805
  0
LINE
  8
型材断面
  6
DOT
 62
    47
 10
91.17295
 20
43.126775
 11
90.663682
 21
42.617507
  0
LINE
  8
型材断面
  6
DOT
 62
    47
 10
89.779827
 20
43.562685
 11
89.765688
 21
43.562685
  0
LINE
  8
型材断面
  6
DOT
 62
    47
 10
89.779827
 20
43.562685
 11
89.779827
 21
43.548545
  0
LINE
  8
型材断面
  6
DOT
 62
    47
 10
90.233955
 20
43.10856
 11
90.219813
 21
43.10856
  0
LINE
  8
型材断面
  6
DOT
 62
    47
 10
90.233955
 20
43.10856
 11
90.233955
 21
43.094418
  0
LINE
  8
型材断面
  6
DOT
 62
    47
 10
90.522302
 20
42.80607
 11
90.233955
 21
43.094418
  0
LINE
  8
型材断面
  6
DOT
 62
    47
 10
90.219813
 20
43.10856
 11
89.779827
 21
43.548545
  0
LINE
  8
型材断面
  6
DOT
 62
    47
 10
89.765688
 20
43.562685
 11
88.860498
 21
44.467875
  0
LINE
  8
型材断面
  6
DOT
 62
    47
 10
98.984143
 20
50.937968
 11
89.791733
 21
41.74556
  0
LINE
  8
型材断面
  6
DOT
 62
    47
 10
89.673898
 20
41.863395
 11
89.791733
 21
41.74556
  0
LINE
  8
型材断面
  6
DOT
 62
    47
 10
90.522302
 20
42.80607
 11
89.66917
 21
41.858668
  0
LINE
  8
型材断面
  6
DOT
 10
90.522302
 20
42.80607
 11
98.819173
 21
51.102938
  0
LINE
  8
型材断面
  6
DOT
 10
89.673898
 20
41.863395
 11
98.866305
 21
51.055805
  0
ARC
  8
型材断面
  6
DASHDOT
 10
108.452444
 20
60.335575
 40
26.340287
 50
224.891258
 51
269.891257
  0
LINE
  8
型材断面
  6
CONTINUOUS
 62
    47
 10
107.099133
 20
58.728905
 11
105.969002
 21
58.728905
  0
LINE
  8
型材断面
  6
CONTINUOUS
 62
    47
 10
107.099133
 20
35.261817
 11
105.969002
 21
35.261817
  0
POLYLINE
  8
ガラス
  6
CONTINUOUS
 66
     1
 70
     1
  0
VERTEX
  8
ガラス
 10
134.45718
 20
-41.405127
  0
VERTEX
  8
ガラス
 10
95.953847
 20
-41.405127
  0
VERTEX
  8
ガラス
 10
95.953847
 20
-61.93846
  0
VERTEX
  8
ガラス
 10
134.45718
 20
-61.93846
  0
SEQEND
  0
TEXT
  7
TextStyle03
  8
文字
  6
CONTINUOUS
 10
80.875
 20
94.425
  1
ＮＳコード：ＮＳＨＬ
 40
5.0
 72
     5
 11
136.5
 21
94.425
  0
TEXT
  7
TextStyle03
  8
文字
  6
CONTINUOUS
 10
-139.425
 20
99.125
  1
は排水穴位置を示す
 40
3.0
 72
     5
 11
-109.425
 21
99.125
  0
TEXT
  7
TextStyle03
  8
文字
  6
CONTINUOUS
 10
-139.425
 20
93.6
  1
はケーシング位置を示す
 40
3.0
 72
     5
 11
-102.675
 21
93.6
  0
TEXT
  7
TextStyle03
  8
文字
  6
CONTINUOUS
 10
-139.425
 20
90.225
  1
２ヶ所中1ヶ所に設定
 40
3.0
 72
     5
 11
-107.7375
 21
90.225
  0
TEXT
  7
TextStyle03
  8
文字
  6
CONTINUOUS
 10
-122.45
 20
25.45
  1
アンカーピッチ
 40
3.0
 50
90.0
 72
     5
 11
-122.45
 21
48.7
  0
TEXT
  7
TextStyle03
  8
文字
  6
CONTINUOUS
 10
-90.225
 20
93.95
  1
アンカーピッチ
 40
3.0
 72
     5
 11
-66.975
 21
93.95
  0
TEXT
  7
TextStyle03
  8
文字
  6
CONTINUOUS
 10
-143.15
 20
84.25
  1
アンカー数量　１４ヶ所
 40
3.0
 72
     5
 11
-106.4
 21
84.25
  0
TEXT
  7
TextStyle03
  8
文字
  6
CONTINUOUS
 10
81.225
 20
116.5
  1
シリーズ：ＴＤ１ＨＬ
 40
5.0
 72
     5
 11
136.85
 21
116.5
  0
TEXT
  7
TextStyle03
  8
文字
  6
CONTINUOUS
 10
81.225
 20
110.875
  1
　　　　　（片側開閉）600×3500タイプ
 40
5.0
 72
     5
 11
184.6625
 21
110.875
  0
TEXT
  7
TextStyle03
  8
文字
  6
CONTINUOUS
 10
81.225
 20
105.25
  1
図面名　：外観姿図
 40
5.0
 72
     5
 11
131.225
 21
105.25
  0
TEXT
  7
TextStyle03
  8
文字
  6
CONTINUOUS
 10
81.225
 20
99.625
  1
　　　　　　
 40
5.0
 72
     5
 11
114.35
 21
99.625
  0
TEXT
  7
TextStyle03
  8
文字
  6
CONTINUOUS
 10
84.525
 20
37.675
  1
45°
 40
3.0
 72
     5
 11
90.9
 21
37.675
  0
TEXT
  7
TextStyle03
  8
文字
  6
CONTINUOUS
 10
115.4
 20
-54.95
  1
網入り6.8t
 40
3.0
 72
     5
 11
132.0875
 21
-54.95
  0
TEXT
  7
TextStyle03
  8
文字
  6
CONTINUOUS
 10
122.025
 20
-60.2
  1
×３枚
 40
3.0
 72
     5
 11
131.775
 21
-60.2
  0
INSERT
  2
*DIM_0002
  8
寸法
  6
CONTINUOUS
 10
0.0
 20
0.0
  0
INSERT
  2
*DIM_0003
  8
寸法
  6
CONTINUOUS
 10
0.0
 20
0.0
  0
INSERT
  2
*DIM_0004
  8
寸法
  6
CONTINUOUS
 10
0.0
 20
0.0
  0
INSERT
  2
*DIM_0005
  8
寸法
  6
CONTINUOUS
 10
0.0
 20
0.0
  0
INSERT
  2
*DIM_0006
  8
寸法
  6
CONTINUOUS
 10
0.0
 20
0.0
  0
INSERT
  2
*DIM_0007
  8
寸法
  6
CONTINUOUS
 10
0.0
 20
0.0
  0
INSERT
  2
*DIM_0008
  8
寸法
  6
CONTINUOUS
 10
0.0
 20
0.0
  0
INSERT
  2
*DIM_0009
  8
寸法
  6
CONTINUOUS
 10
0.0
 20
0.0
  0
INSERT
  2
*DIM_0011
  8
寸法
  6
CONTINUOUS
 10
0.0
 20
0.0
  0
INSERT
  2
*DIM_0012
  8
寸法
  6
CONTINUOUS
 10
0.0
 20
0.0
  0
INSERT
  2
*DIM_0013
  8
寸法
  6
CONTINUOUS
 10
0.0
 20
0.0
  0
INSERT
  2
*DIM_0014
  8
寸法
  6
CONTINUOUS
 10
0.0
 20
0.0
  0
INSERT
  2
*DIM_0015
  8
寸法
  6
CONTINUOUS
 10
0.0
 20
0.0
  0
INSERT
  2
*DIM_0016
  8
寸法
  6
CONTINUOUS
 10
0.0
 20
0.0
  0
INSERT
  2
*DIM_0017
  8
寸法
  6
CONTINUOUS
 10
0.0
 20
0.0
  0
INSERT
  2
*DIM_0018
  8
寸法
  6
CONTINUOUS
 10
0.0
 20
0.0
  0
INSERT
  2
*DIM_0019
  8
寸法
  6
CONTINUOUS
 10
0.0
 20
0.0
  0
INSERT
  2
*DIM_0020
  8
寸法
  6
CONTINUOUS
 10
0.0
 20
0.0
  0
INSERT
  2
*DIM_0022
  8
寸法
  6
CONTINUOUS
 10
0.0
 20
0.0
  0
INSERT
  2
*DIM_0023
  8
寸法
  6
CONTINUOUS
 10
0.0
 20
0.0
  0
LINE
  8
別途部材
  6
CONTINUOUS
 10
17.349818
 20
34.928695
 11
16.949818
 21
35.328695
  0
LINE
  8
別途部材
  6
CONTINUOUS
 10
15.28315
 20
36.995363
 11
7.223895
 21
45.05462
  0
LINE
  8
別途部材
  6
CONTINUOUS
 10
16.949818
 20
35.328695
 11
16.949818
 21
46.995363
  0
LINE
  8
別途部材
  6
CONTINUOUS
 10
17.349818
 20
34.928695
 11
17.349818
 21
46.995363
  0
LINE
  8
別途部材
  6
CONTINUOUS
 10
17.349818
 20
59.06203
 11
16.949818
 21
58.66203
  0
LINE
  8
別途部材
  6
CONTINUOUS
 10
15.28315
 20
56.995363
 11
7.223895
 21
48.936105
  0
LINE
  8
別途部材
  6
CONTINUOUS
 10
16.949818
 20
58.66203
 11
16.949818
 21
46.995363
  0
LINE
  8
別途部材
  6
CONTINUOUS
 10
17.349818
 20
59.06203
 11
17.349818
 21
46.995363
  0
LINE
  8
別途部材
  6
CONTINUOUS
 10
16.949818
 20
58.66203
 11
-43.050183
 21
58.66203
  0
LINE
  8
別途部材
  6
CONTINUOUS
 10
17.349818
 20
59.06203
 11
-43.050183
 21
59.06203
  0
LINE
  8
別途部材
  6
CONTINUOUS
 10
17.349818
 20
34.928695
 11
-43.050183
 21
34.928695
  0
LINE
  8
別途部材
  6
CONTINUOUS
 10
16.949818
 20
35.328695
 11
-43.050183
 21
35.328695
  0
LINE
  8
別途部材
  6
CONTINUOUS
 10
-103.450183
 20
34.928695
 11
-103.050183
 21
35.328695
  0
LINE
  8
別途部材
  6
CONTINUOUS
 10
-101.383515
 20
36.995363
 11
-93.32426
 21
45.05462
  0
LINE
  8
別途部材
  6
CONTINUOUS
 10
-103.050183
 20
35.328695
 11
-103.050183
 21
46.995363
  0
LINE
  8
別途部材
  6
CONTINUOUS
 10
-103.450183
 20
34.928695
 11
-103.450183
 21
46.995363
  0
LINE
  8
別途部材
  6
CONTINUOUS
 10
-103.450183
 20
59.06203
 11
-103.050183
 21
58.66203
  0
LINE
  8
別途部材
  6
CONTINUOUS
 10
-101.383515
 20
56.995363
 11
-93.32426
 21
48.936105
  0
LINE
  8
別途部材
  6
CONTINUOUS
 10
-103.050183
 20
58.66203
 11
-103.050183
 21
46.995363
  0
LINE
  8
別途部材
  6
CONTINUOUS
 10
-103.450183
 20
59.06203
 11
-103.450183
 21
46.995363
  0
LINE
  8
別途部材
  6
CONTINUOUS
 10
-103.050183
 20
58.66203
 11
-43.050183
 21
58.66203
  0
LINE
  8
別途部材
  6
CONTINUOUS
 10
-103.450183
 20
59.06203
 11
-43.050183
 21
59.06203
  0
LINE
  8
別途部材
  6
CONTINUOUS
 10
-103.450183
 20
34.928695
 11
-43.050183
 21
34.928695
  0
LINE
  8
別途部材
  6
CONTINUOUS
 10
-103.050183
 20
35.328695
 11
-43.050183
 21
35.328695
  0
INSERT
  2
*GRP_0010
  8
別途部材
  6
CONTINUOUS
 10
0.0
 20
0.0
  0
INSERT
  2
*GRP_0021
  8
別途部材
  6
CONTINUOUS
 10
0.0
 20
0.0
  0
LINE
  8
別途部材
  6
DOT
 62
    96
 10
104.699837
 20
61.72143
 11
105.689788
 21
61.297165
  0
LINE
  8
別途部材
  6
DOT
 62
    96
 10
104.699837
 20
61.72143
 11
96.450258
 21
53.47185
  0
LINE
  8
別途部材
  6
DOT
 10
105.689788
 20
61.297165
 11
97.157365
 21
52.764745
  0
LINE
  8
別途部材
  6
DOT
 62
    96
 10
88.20068
 20
45.222272
 11
88.624943
 21
44.232323
  0
LINE
  8
別途部材
  6
DOT
 62
    96
 10
88.20068
 20
45.222272
 11
96.450258
 21
53.47185
  0
LINE
  8
別途部材
  6
DOT
 10
88.624943
 20
44.232323
 11
97.157365
 21
52.764745
  0
ARC
  8
別途部材
  6
DOT
 10
101.193765
 20
48.728345
 40
12.041667
 50
78.855026
 51
191.144974
  0
LINE
  8
別途部材
  6
CONTINUOUS
 62
    96
 10
104.969002
 20
58.662027
 11
105.969002
 21
59.062027
  0
LINE
  8
別途部材
  6
CONTINUOUS
 62
    96
 10
104.969002
 20
58.662027
 11
104.969002
 21
46.99536
  0
LINE
  8
別途部材
  6
CONTINUOUS
 10
105.969002
 20
59.062027
 11
105.969002
 21
46.99536
  0
LINE
  8
別途部材
  6
CONTINUOUS
 62
    96
 10
104.969002
 20
35.328695
 11
105.969002
 21
34.928695
  0
LINE
  8
別途部材
  6
CONTINUOUS
 62
    96
 10
104.969002
 20
35.328695
 11
104.969002
 21
46.99536
  0
LINE
  8
別途部材
  6
CONTINUOUS
 10
105.969002
 20
34.928695
 11
105.969002
 21
46.99536
  0
ARC
  8
別途部材
  6
CONTINUOUS
 10
111.677333
 20
46.995362
 40
12.041667
 50
123.855026
 51
236.144974
  0
INSERT
  2
*GRP_0024
  8
別途部材
  6
DOT
 10
0.0
 20
0.0
  0
INSERT
  2
*GRP_0025
  8
別途部材
  6
DOT
 10
0.0
 20
0.0
  0
INSERT
  2
*GRP_0026
  8
別途部材
  6
DOT
 10
0.0
 20
0.0
  0
INSERT
  2
*GRP_0027
  8
別途部材
  6
DOT
 10
0.0
 20
0.0
  0
INSERT
  2
*GRP_0028
  8
別途部材
  6
DOT
 10
0.0
 20
0.0
  0
INSERT
  2
*GRP_0029
  8
別途部材
  6
DOT
 10
0.0
 20
0.0
  0
ENDSEC
  0
EOF
