  0
SECTION
  2
HEADER
  9
$EXTMIN
 10
-210.0
 20
-148.5
  9
$EXTMAX
 10
210.0
 20
148.5
  9
$PDMODE
 70
    32
  9
$PDSIZE
 40
1.5
  9
$LTSCALE
 40
10.0
  0
ENDSEC
  0
SECTION
  2
TABLES
  0
TABLE
  2
LTYPE
 70
    15
  0
LTYPE
  2
CONTINUOUS
 70
    64
  3
実線
 72
    65
 73
     0
 40
0.0
  0
LTYPE
  2
DASHED
 70
    64
  3
破線A
 72
    65
 73
     2
 40
0.6
 49
0.4
 49
-0.2
  0
LTYPE
  2
DASHEDX2
 70
    64
  3
破線B
 72
    65
 73
     2
 40
1.3
 49
0.9
 49
-0.4
  0
LTYPE
  2
DASHDOT
 70
    64
  3
１点鎖線A
 72
    65
 73
     4
 40
0.5375
 49
0.375
 49
-0.05
 49
0.0625
 49
-0.05
  0
LTYPE
  2
DASHDOTX2
 70
    64
  3
１点鎖線B
 72
    65
 73
     4
 40
1.075
 49
0.75
 49
-0.1
 49
0.125
 49
-0.1
  0
LTYPE
  2
DIVIDE2
 70
    64
  3
２点鎖線A
 72
    65
 73
     6
 40
0.5125
 49
0.3
 49
-0.0375
 49
0.05
 49
-0.0375
 49
0.05
 49
-0.0375
  0
LTYPE
  2
DIVIDE
 70
    64
  3
２点鎖線B
 72
    65
 73
     6
 40
1.05
 49
0.55
 49
-0.1
 49
0.1
 49
-0.1
 49
0.1
 49
-0.1
  0
LTYPE
  2
DOT
 70
    64
  3
点線A
 72
    65
 73
     2
 40
0.1125
 49
0.0625
 49
-0.05
  0
LTYPE
  2
DOTX2
 70
    64
  3
点線B
 72
    65
 73
     2
 40
0.275
 49
0.15
 49
-0.125
  0
LTYPE
  2
CONTINUOUS
 70
    64
  3
実線
 72
    65
 73
     0
 40
0.0
  0
LTYPE
  2
CONTINUOUS
 70
    64
  3
実線
 72
    65
 73
     0
 40
0.0
  0
LTYPE
  2
CONTINUOUS
 70
    64
  3
実線
 72
    65
 73
     0
 40
0.0
  0
LTYPE
  2
CONTINUOUS
 70
    64
  3
実線
 72
    65
 73
     0
 40
0.0
  0
LTYPE
  2
CONTINUOUS
 70
    64
  3
実線
 72
    65
 73
     0
 40
0.0
  0
LTYPE
  2
CONTINUOUS
 70
    64
  3
実線
 72
    65
 73
     0
 40
0.0
  0
ENDTAB
  0
TABLE
  2
LAYER
 70
    34
  0
LAYER
  2
通り芯
 70
     0
 62
    15
  6
CONTINUOUS
  0
LAYER
  2
補助線
 70
     0
 62
    16
  6
DOT
  0
LAYER
  2
躯体
 70
     0
 62
    31
  6
CONTINUOUS
  0
LAYER
  2
型材
 70
     0
 62
    32
  6
CONTINUOUS
  0
LAYER
  2
型材断面
 70
     0
 62
    47
  6
CONTINUOUS
  0
LAYER
  2
ガラス
 70
     0
 62
    48
  6
CONTINUOUS
  0
LAYER
  2
ゴム等
 70
     0
 62
    63
  6
CONTINUOUS
  0
LAYER
  2
ボルト／ビス
 70
     0
 62
    64
  6
CONTINUOUS
  0
LAYER
  2
文字
 70
     0
 62
    79
  6
CONTINUOUS
  0
LAYER
  2
寸法
 70
     0
 62
    80
  6
CONTINUOUS
  0
LAYER
  2
ﾊｯﾁﾝｸﾞ
 70
     0
 62
    95
  6
CONTINUOUS
  0
LAYER
  2
別途部材
 70
     0
 62
    96
  6
CONTINUOUS
  0
LAYER
  2
曲げ物
 70
     0
 62
   111
  6
CONTINUOUS
  0
LAYER
  2
鉄骨等
 70
     0
 62
   112
  6
CONTINUOUS
  0
LAYER
  2
St
 70
     0
 62
   127
  6
CONTINUOUS
  0
LAYER
  2
その他部品等
 70
     0
 62
   128
  6
CONTINUOUS
  0
LAYER
  2
ｶﾞｽｹｯﾄ
 70
     0
 62
   143
  6
CONTINUOUS
  0
LAYER
  2
ｽｹｯﾁ
 70
     0
 62
    14
  6
CONTINUOUS
  0
LAYER
  2
0
 70
     0
 62
    17
  6
CONTINUOUS
  0
LAYER
  2
1
 70
     0
 62
    30
  6
CONTINUOUS
  0
LAYER
  2
4
 70
     0
 62
    33
  6
CONTINUOUS
  0
LAYER
  2
ﾚｲﾔ3
 70
     0
 62
    46
  6
CONTINUOUS
  0
LAYER
  2
外形線
 70
     0
 62
    49
  6
CONTINUOUS
  0
LAYER
  2
部品
 70
     0
 62
    14
  6
CONTINUOUS
  0
LAYER
  2
サッシ芯
 70
     0
 62
    17
  6
DASHDOTX2
  0
LAYER
  2
寸法線
 70
     0
 62
    62
  6
CONTINUOUS
  0
LAYER
  2
姿図外形線
 70
     0
 62
    65
  6
CONTINUOUS
  0
LAYER
  2
姿補助線
 70
     0
 62
    30
  6
CONTINUOUS
  0
LAYER
  2
透視線
 70
     0
 62
    78
  6
DOT
  0
LAYER
  2
用紙
 70
     0
 62
    81
  6
CONTINUOUS
  0
LAYER
  2
実線図枠
 70
     0
 62
    94
  6
CONTINUOUS
  0
LAYER
  2
補助図枠
 70
     0
 62
    97
  6
CONTINUOUS
  0
LAYER
  2
建具記号
 70
     0
 62
   110
  6
CONTINUOUS
  0
LAYER
  2
補助文字
 70
     0
 62
   113
  6
CONTINUOUS
  0
ENDTAB
  0
TABLE
  2
STYLE
 70
    10
  0
STYLE
  2
STANDARD
 70
     0
 40
1.0
 41
1.0
 42
1.0
 50
0.0
 71
     0
  3
TXT
  4
BIGFONT
  0
STYLE
  2
TATE
 70
     4
 40
1.0
 41
1.0
 42
1.0
 50
0.0
 71
     0
  3
TXT
  4
BIGFONT
  0
STYLE
  2
TextStyle03
 70
     0
 40
1.0
 41
1.0
 42
1.0
 50
0.0
 71
     0
  3
MONOTXT
  4
BIGFONT
  0
STYLE
  2
TextStyle04
 70
     0
 40
1.0
 41
1.0
 42
1.0
 50
0.0
 71
     0
  3
MONOTXT
  4
BIGFONT
  0
STYLE
  2
TextStyle05
 70
     0
 40
1.0
 41
1.0
 42
1.0
 50
0.0
 71
     0
  3
MONOTXT
  4
BIGFONT
  0
STYLE
  2
TextStyle06
 70
     0
 40
1.0
 41
1.0
 42
1.0
 50
0.0
 71
     0
  3
MONOTXT
  4
BIGFONT
  0
STYLE
  2
TextStyle07
 70
     0
 40
1.0
 41
1.0
 42
1.0
 50
0.0
 71
     0
  3
MONOTXT
  4
BIGFONT
  0
STYLE
  2
TextStyle08
 70
     0
 40
1.0
 41
1.0
 42
1.0
 50
0.0
 71
     0
  3
MONOTXT
  4
BIGFONT
  0
STYLE
  2
TextStyle09
 70
     0
 40
1.0
 41
1.0
 42
1.0
 50
0.0
 71
     0
  3
MONOTXT
  4
BIGFONT
  0
STYLE
  2
TextStyle10
 70
     0
 40
1.0
 41
1.0
 42
1.0
 50
0.0
 71
     0
  3
MONOTXT
  4
BIGFONT
  0
ENDTAB
  0
ENDSEC
  0
SECTION
  2
BLOCKS
  0
BLOCK
  2
*GRP_0001
 70
    65
 10
0.0
 20
0.0
  0
LINE
  8
型材断面
  6
CONTINUOUS
 10
195.0
 20
133.5
 11
195.0
 21
-133.5
  0
LINE
  8
型材断面
  6
CONTINUOUS
 10
195.0
 20
-133.5
 11
-185.0
 21
-133.5
  0
LINE
  8
型材断面
  6
CONTINUOUS
 10
-185.0
 20
-133.5
 11
-185.0
 21
133.5
  0
LINE
  8
型材断面
  6
CONTINUOUS
 10
195.0
 20
133.5
 11
-185.0
 21
133.5
  0
LINE
  8
型材断面
  6
CONTINUOUS
 10
145.0
 20
-133.5
 11
145.0
 21
-118.5
  0
LINE
  8
型材断面
  6
CONTINUOUS
 10
195.0
 20
-118.5
 11
145.0
 21
-118.5
  0
ENDBLK
  0
BLOCK
  2
*DIM_0002
 70
    65
 10
0.0
 20
0.0
  0
LINE
  8
寸法
  6
CONTINUOUS
 10
10.683178
 20
-60.327663
 11
10.683178
 21
-31.074888
  0
LINE
  8
寸法
  6
CONTINUOUS
 10
6.949815
 20
-31.074888
 11
10.683178
 21
-31.074888
  0
POINT
  8
寸法
 10
6.949815
 20
-31.074888
  0
POINT
  8
寸法
 10
10.683178
 20
-31.074888
  0
TEXT
  7
TextStyle03
  8
寸法
  6
CONTINUOUS
 10
6.3625
 20
-30.7
  1
112
 40
3.0
 72
     5
 11
11.2375
 21
-30.7
  0
ENDBLK
  0
BLOCK
  2
*DIM_0003
 70
    65
 10
0.0
 20
0.0
  0
LINE
  8
寸法
  6
CONTINUOUS
 10
-96.783543
 20
-60.327663
 11
-96.783543
 21
-31.074888
  0
LINE
  8
寸法
  6
CONTINUOUS
 10
-93.050183
 20
-31.074888
 11
-96.783543
 21
-31.074888
  0
POINT
  8
寸法
 10
-93.050183
 20
-31.074888
  0
POINT
  8
寸法
 10
-96.783543
 20
-31.074888
  0
TEXT
  7
TextStyle03
  8
寸法
  6
CONTINUOUS
 10
-97.3625
 20
-30.7
  1
112
 40
3.0
 72
     5
 11
-92.4875
 21
-30.7
  0
ENDBLK
  0
BLOCK
  2
*DIM_0004
 70
    65
 10
0.0
 20
0.0
  0
LINE
  8
寸法
  6
BYBLOCK
 62
     0
 10
-76.383515
 20
33.365232
 11
-76.383515
 21
28.28462
  0
LINE
  8
寸法
  6
BYBLOCK
 62
     0
 10
-9.71685
 20
33.365232
 11
-9.71685
 21
28.28462
  0
LINE
  8
寸法
  6
BYBLOCK
 62
     0
 10
-76.383515
 20
28.28462
 11
-9.71685
 21
28.28462
  0
POINT
  8
寸法
 62
     0
 10
-76.383515
 20
28.28462
  0
POINT
  8
寸法
 62
     0
 10
-9.71685
 20
28.28462
  0
TEXT
  7
TextStyle03
  8
寸法
  6
CONTINUOUS
 62
     0
 10
-46.33125
 20
28.65
  1
2000
 40
3.0
 72
     5
 11
-39.76875
 21
28.65
  0
ENDBLK
  0
BLOCK
  2
*DIM_0005
 70
    65
 10
0.0
 20
0.0
  0
LINE
  8
寸法
  6
BYBLOCK
 62
     0
 10
4.949818
 20
31.38855
 11
4.949818
 21
28.363508
  0
LINE
  8
寸法
  6
BYBLOCK
 62
     0
 10
6.949818
 20
28.363508
 11
4.949818
 21
28.363508
  0
POINT
  8
寸法
 62
     0
 10
6.949818
 20
28.363508
  0
POINT
  8
寸法
 62
     0
 10
4.949818
 20
28.363508
  0
TEXT
  7
TextStyle03
  8
寸法
  6
CONTINUOUS
 62
     0
 10
3.05625
 20
24.575
  1
60
 40
3.0
 72
     5
 11
6.24375
 21
24.575
  0
ENDBLK
  0
BLOCK
  2
*DIM_0006
 70
    65
 10
0.0
 20
0.0
  0
LINE
  8
寸法
  6
BYBLOCK
 62
     0
 10
-91.050183
 20
31.38855
 11
-91.050183
 21
28.363508
  0
LINE
  8
寸法
  6
BYBLOCK
 62
     0
 10
-93.050183
 20
28.363508
 11
-91.050183
 21
28.363508
  0
POINT
  8
寸法
 62
     0
 10
-93.050183
 20
28.363508
  0
POINT
  8
寸法
 62
     0
 10
-91.050183
 20
28.363508
  0
TEXT
  7
TextStyle03
  8
寸法
  6
CONTINUOUS
 62
     0
 10
-92.36875
 20
24.575
  1
60
 40
3.0
 72
     5
 11
-89.18125
 21
24.575
  0
ENDBLK
  0
BLOCK
  2
*DIM_0007
 70
    65
 10
0.0
 20
0.0
  0
LINE
  8
寸法
  6
BYBLOCK
 62
     0
 10
-96.050183
 20
53.66203
 11
-109.34302
 21
53.66203
  0
LINE
  8
寸法
  6
BYBLOCK
 62
     0
 10
-96.050183
 20
40.328695
 11
-109.34302
 21
40.328695
  0
LINE
  8
寸法
  6
BYBLOCK
 62
     0
 10
-109.34302
 20
53.66203
 11
-109.34302
 21
40.328695
  0
POINT
  8
寸法
 62
     0
 10
-109.34302
 20
53.66203
  0
POINT
  8
寸法
 62
     0
 10
-109.34302
 20
40.328695
  0
TEXT
  7
TextStyle03
  8
寸法
  6
CONTINUOUS
 62
     0
 10
-109.775
 20
44.5375
  1
400
 40
3.0
 50
90.0
 72
     5
 11
-109.775
 21
49.4125
  0
ENDBLK
  0
BLOCK
  2
*DIM_0008
 70
    65
 10
0.0
 20
0.0
  0
LINE
  8
寸法
  6
BYBLOCK
 62
     0
 10
-83.050183
 20
59.995363
 11
-83.050183
 21
89.103435
  0
LINE
  8
寸法
  6
BYBLOCK
 62
     0
 10
-56.383515
 20
59.995363
 11
-56.383515
 21
89.103435
  0
LINE
  8
寸法
  6
BYBLOCK
 62
     0
 10
-83.050183
 20
89.103435
 11
-56.383515
 21
89.103435
  0
POINT
  8
寸法
 62
     0
 10
-83.050183
 20
89.103435
  0
POINT
  8
寸法
 62
     0
 10
-56.383515
 20
89.103435
  0
TEXT
  7
TextStyle03
  8
寸法
  6
CONTINUOUS
 62
     0
 10
-72.1875
 20
89.45
  1
800
 40
3.0
 72
     5
 11
-67.3125
 21
89.45
  0
ENDBLK
  0
BLOCK
  2
*DIM_0009
 70
    65
 10
0.0
 20
0.0
  0
LINE
  8
寸法
  6
BYBLOCK
 62
     0
 10
-29.71685
 20
59.995363
 11
-29.71685
 21
89.103435
  0
LINE
  8
寸法
  6
BYBLOCK
 62
     0
 10
-56.383515
 20
89.103435
 11
-29.71685
 21
89.103435
  0
POINT
  8
寸法
 62
     0
 10
-29.71685
 20
89.103435
  0
TEXT
  7
TextStyle03
  8
寸法
  6
CONTINUOUS
 62
     0
 10
-45.5125
 20
89.45
  1
800
 40
3.0
 72
     5
 11
-40.6375
 21
89.45
  0
ENDBLK
  0
BLOCK
  2
*DIM_0010
 70
    65
 10
0.0
 20
0.0
  0
LINE
  8
寸法
  6
BYBLOCK
 62
     0
 10
-3.050183
 20
59.995363
 11
-3.050183
 21
89.103435
  0
LINE
  8
寸法
  6
BYBLOCK
 62
     0
 10
-29.71685
 20
89.103435
 11
-3.050183
 21
89.103435
  0
POINT
  8
寸法
 62
     0
 10
-3.050183
 20
89.103435
  0
TEXT
  7
TextStyle03
  8
寸法
  6
CONTINUOUS
 62
     0
 10
-18.8375
 20
89.45
  1
800
 40
3.0
 72
     5
 11
-13.9625
 21
89.45
  0
ENDBLK
  0
BLOCK
  2
*GRP_0011
 70
    65
 10
0.0
 20
0.0
  0
LINE
  8
別途部材
  6
CONTINUOUS
 62
    96
 10
8.616482
 20
-55.177425
 11
9.016482
 21
-56.177425
  0
ARC
  8
別途部材
  6
CONTINUOUS
 10
-3.050184
 20
-61.885763
 40
12.041668
 50
33.855033
 51
90.0
  0
LINE
  8
別途部材
  6
CONTINUOUS
 10
9.016482
 20
-56.177425
 11
-43.050185
 21
-56.177425
  0
LINE
  8
別途部材
  6
CONTINUOUS
 62
    96
 10
8.616482
 20
-55.177425
 11
-43.050185
 21
-55.177425
  0
LINE
  8
別途部材
  6
CONTINUOUS
 10
-42.550185
 20
-48.844092
 11
-41.550185
 21
-49.844092
  0
LINE
  8
別途部材
  6
CONTINUOUS
 10
-40.550185
 20
-49.844092
 11
-39.550185
 21
-48.844092
  0
LINE
  8
別途部材
  6
CONTINUOUS
 10
-38.550185
 20
-48.844092
 11
-37.550185
 21
-49.844092
  0
LINE
  8
別途部材
  6
CONTINUOUS
 10
-39.550185
 20
-48.844092
 11
-38.550185
 21
-48.844092
  0
LINE
  8
別途部材
  6
CONTINUOUS
 10
-42.550185
 20
-48.844092
 11
-43.050185
 21
-48.844092
  0
LINE
  8
別途部材
  6
CONTINUOUS
 10
-36.550185
 20
-49.844092
 11
-35.550185
 21
-48.844092
  0
LINE
  8
別途部材
  6
CONTINUOUS
 10
-34.550185
 20
-48.844092
 11
-33.550185
 21
-49.844092
  0
LINE
  8
別途部材
  6
CONTINUOUS
 10
-35.550185
 20
-48.844092
 11
-34.550185
 21
-48.844092
  0
LINE
  8
別途部材
  6
CONTINUOUS
 10
-32.550185
 20
-49.844092
 11
-31.550185
 21
-48.844092
  0
LINE
  8
別途部材
  6
CONTINUOUS
 10
-30.550185
 20
-48.844092
 11
-29.550185
 21
-49.844092
  0
LINE
  8
別途部材
  6
CONTINUOUS
 10
-31.550185
 20
-48.844092
 11
-30.550185
 21
-48.844092
  0
LINE
  8
別途部材
  6
CONTINUOUS
 10
-28.550185
 20
-49.844092
 11
-27.550185
 21
-48.844092
  0
LINE
  8
別途部材
  6
CONTINUOUS
 10
-26.550185
 20
-48.844092
 11
-25.550185
 21
-49.844092
  0
LINE
  8
別途部材
  6
CONTINUOUS
 10
-27.550185
 20
-48.844092
 11
-26.550185
 21
-48.844092
  0
LINE
  8
別途部材
  6
CONTINUOUS
 10
-24.550185
 20
-49.844092
 11
-23.550185
 21
-48.844092
  0
LINE
  8
別途部材
  6
CONTINUOUS
 10
-22.550185
 20
-48.844092
 11
-21.550185
 21
-49.844092
  0
LINE
  8
別途部材
  6
CONTINUOUS
 10
-23.550185
 20
-48.844092
 11
-22.550185
 21
-48.844092
  0
LINE
  8
別途部材
  6
CONTINUOUS
 10
-20.550185
 20
-49.844092
 11
-19.550185
 21
-48.844092
  0
LINE
  8
別途部材
  6
CONTINUOUS
 10
-18.550185
 20
-48.844092
 11
-17.550185
 21
-49.844092
  0
LINE
  8
別途部材
  6
CONTINUOUS
 10
-19.550185
 20
-48.844092
 11
-18.550185
 21
-48.844092
  0
LINE
  8
別途部材
  6
CONTINUOUS
 10
-16.550185
 20
-49.844092
 11
-15.550185
 21
-48.844092
  0
LINE
  8
別途部材
  6
CONTINUOUS
 10
-14.550185
 20
-48.844092
 11
-13.550185
 21
-49.844092
  0
LINE
  8
別途部材
  6
CONTINUOUS
 10
-15.550185
 20
-48.844092
 11
-14.550185
 21
-48.844092
  0
LINE
  8
別途部材
  6
CONTINUOUS
 10
-12.550185
 20
-49.844092
 11
-11.550185
 21
-48.844092
  0
LINE
  8
別途部材
  6
CONTINUOUS
 10
-10.550185
 20
-48.844092
 11
-9.550185
 21
-49.844092
  0
LINE
  8
別途部材
  6
CONTINUOUS
 10
-11.550185
 20
-48.844092
 11
-10.550185
 21
-48.844092
  0
LINE
  8
別途部材
  6
CONTINUOUS
 10
-8.550185
 20
-49.844092
 11
-7.550185
 21
-48.844092
  0
LINE
  8
別途部材
  6
CONTINUOUS
 10
-6.550185
 20
-48.844092
 11
-5.550185
 21
-49.844092
  0
LINE
  8
別途部材
  6
CONTINUOUS
 10
-7.550185
 20
-48.844092
 11
-6.550185
 21
-48.844092
  0
LINE
  8
別途部材
  6
CONTINUOUS
 10
-9.550185
 20
-49.844092
 11
-8.550185
 21
-49.844092
  0
LINE
  8
別途部材
  6
CONTINUOUS
 10
-13.550185
 20
-49.844092
 11
-12.550185
 21
-49.844092
  0
LINE
  8
別途部材
  6
CONTINUOUS
 10
-17.550185
 20
-49.844092
 11
-16.550185
 21
-49.844092
  0
LINE
  8
別途部材
  6
CONTINUOUS
 10
-21.550185
 20
-49.844092
 11
-20.550185
 21
-49.844092
  0
LINE
  8
別途部材
  6
CONTINUOUS
 10
-25.550185
 20
-49.844092
 11
-24.550185
 21
-49.844092
  0
LINE
  8
別途部材
  6
CONTINUOUS
 10
-29.550185
 20
-49.844092
 11
-28.550185
 21
-49.844092
  0
LINE
  8
別途部材
  6
CONTINUOUS
 10
-33.550185
 20
-49.844092
 11
-32.550185
 21
-49.844092
  0
LINE
  8
別途部材
  6
CONTINUOUS
 10
-37.550185
 20
-49.844092
 11
-36.550185
 21
-49.844092
  0
LINE
  8
別途部材
  6
CONTINUOUS
 10
-40.550185
 20
-49.844092
 11
-41.550185
 21
-49.844092
  0
LINE
  8
別途部材
  6
CONTINUOUS
 10
-5.550185
 20
-49.844092
 11
-5.550185
 21
-55.177425
  0
LINE
  8
別途部材
  6
CONTINUOUS
 10
-6.550185
 20
-48.844092
 11
-6.550185
 21
-55.177425
  0
LINE
  8
別途部材
  6
CONTINUOUS
 10
-7.550185
 20
-48.844092
 11
-7.550185
 21
-55.177425
  0
LINE
  8
別途部材
  6
CONTINUOUS
 10
-8.550185
 20
-49.844092
 11
-8.550185
 21
-55.177425
  0
LINE
  8
別途部材
  6
CONTINUOUS
 10
-10.550185
 20
-48.844092
 11
-10.550185
 21
-55.177425
  0
LINE
  8
別途部材
  6
CONTINUOUS
 10
-14.550185
 20
-48.844092
 11
-14.550185
 21
-55.177425
  0
LINE
  8
別途部材
  6
CONTINUOUS
 10
-13.550185
 20
-49.844092
 11
-13.550185
 21
-55.177425
  0
LINE
  8
別途部材
  6
CONTINUOUS
 10
-12.550185
 20
-49.844092
 11
-12.550185
 21
-55.177425
  0
LINE
  8
別途部材
  6
CONTINUOUS
 10
-11.550185
 20
-48.844092
 11
-11.550185
 21
-55.177425
  0
LINE
  8
別途部材
  6
CONTINUOUS
 10
-9.550185
 20
-49.844092
 11
-9.550185
 21
-55.177425
  0
LINE
  8
別途部材
  6
CONTINUOUS
 10
-16.550185
 20
-49.844092
 11
-16.550185
 21
-55.177425
  0
LINE
  8
別途部材
  6
CONTINUOUS
 10
-15.550185
 20
-48.844092
 11
-15.550185
 21
-55.177425
  0
LINE
  8
別途部材
  6
CONTINUOUS
 10
-17.550185
 20
-49.844092
 11
-17.550185
 21
-55.177425
  0
LINE
  8
別途部材
  6
CONTINUOUS
 10
-18.550185
 20
-48.844092
 11
-18.550185
 21
-55.177425
  0
LINE
  8
別途部材
  6
CONTINUOUS
 10
-22.550185
 20
-48.844092
 11
-22.550185
 21
-55.177425
  0
LINE
  8
別途部材
  6
CONTINUOUS
 10
-23.550185
 20
-48.844092
 11
-23.550185
 21
-55.177425
  0
LINE
  8
別途部材
  6
CONTINUOUS
 10
-21.550185
 20
-49.844092
 11
-21.550185
 21
-55.177425
  0
LINE
  8
別途部材
  6
CONTINUOUS
 10
-20.550185
 20
-49.844092
 11
-20.550185
 21
-55.177425
  0
LINE
  8
別途部材
  6
CONTINUOUS
 10
-19.550185
 20
-48.844092
 11
-19.550185
 21
-55.177425
  0
LINE
  8
別途部材
  6
CONTINUOUS
 10
-24.550185
 20
-49.844092
 11
-24.550185
 21
-55.177425
  0
LINE
  8
別途部材
  6
CONTINUOUS
 10
-26.550185
 20
-48.844092
 11
-26.550185
 21
-55.177425
  0
LINE
  8
別途部材
  6
CONTINUOUS
 10
-27.550185
 20
-48.844092
 11
-27.550185
 21
-55.177425
  0
LINE
  8
別途部材
  6
CONTINUOUS
 10
-28.550185
 20
-49.844092
 11
-28.550185
 21
-55.177425
  0
LINE
  8
別途部材
  6
CONTINUOUS
 10
-29.550185
 20
-49.844092
 11
-29.550185
 21
-55.177425
  0
LINE
  8
別途部材
  6
CONTINUOUS
 10
-30.550185
 20
-48.844092
 11
-30.550185
 21
-55.177425
  0
LINE
  8
別途部材
  6
CONTINUOUS
 10
-25.550185
 20
-49.844092
 11
-25.550185
 21
-55.177425
  0
LINE
  8
別途部材
  6
CONTINUOUS
 10
-31.550185
 20
-48.844092
 11
-31.550185
 21
-55.177425
  0
LINE
  8
別途部材
  6
CONTINUOUS
 10
-32.550185
 20
-49.844092
 11
-32.550185
 21
-55.177425
  0
LINE
  8
別途部材
  6
CONTINUOUS
 10
-33.550185
 20
-49.844092
 11
-33.550185
 21
-55.177425
  0
LINE
  8
別途部材
  6
CONTINUOUS
 10
-35.550185
 20
-48.844092
 11
-35.550185
 21
-55.177425
  0
LINE
  8
別途部材
  6
CONTINUOUS
 10
-37.550185
 20
-49.844092
 11
-37.550185
 21
-55.177425
  0
LINE
  8
別途部材
  6
CONTINUOUS
 10
-38.550185
 20
-48.844092
 11
-38.550185
 21
-55.177425
  0
LINE
  8
別途部材
  6
CONTINUOUS
 10
-40.550185
 20
-49.844092
 11
-40.550185
 21
-55.177425
  0
LINE
  8
別途部材
  6
CONTINUOUS
 10
-41.550185
 20
-49.844092
 11
-41.550185
 21
-55.177425
  0
LINE
  8
別途部材
  6
CONTINUOUS
 10
-42.550185
 20
-48.844092
 11
-42.550185
 21
-55.177425
  0
LINE
  8
別途部材
  6
CONTINUOUS
 10
-39.550185
 20
-48.844092
 11
-39.550185
 21
-55.177425
  0
LINE
  8
別途部材
  6
CONTINUOUS
 10
-36.550185
 20
-49.844092
 11
-36.550185
 21
-55.177425
  0
LINE
  8
別途部材
  6
CONTINUOUS
 10
-34.550185
 20
-48.844092
 11
-34.550185
 21
-55.177425
  0
LINE
  8
別途部材
  6
CONTINUOUS
 10
-5.550185
 20
-49.844092
 11
-3.050185
 21
-49.844092
  0
LINE
  8
別途部材
  6
CONTINUOUS
 62
    96
 10
-94.71685
 20
-55.177425
 11
-95.11685
 21
-56.177425
  0
ARC
  8
別途部材
  6
CONTINUOUS
 10
-83.050184
 20
-61.885763
 40
12.041668
 50
90.0
 51
146.144967
  0
LINE
  8
別途部材
  6
CONTINUOUS
 10
-95.11685
 20
-56.177425
 11
-43.050185
 21
-56.177425
  0
LINE
  8
別途部材
  6
CONTINUOUS
 62
    96
 10
-94.71685
 20
-55.177425
 11
-43.050185
 21
-55.177425
  0
LINE
  8
別途部材
  6
CONTINUOUS
 10
-43.550185
 20
-48.844092
 11
-44.550185
 21
-49.844092
  0
LINE
  8
別途部材
  6
CONTINUOUS
 10
-45.550185
 20
-49.844092
 11
-46.550185
 21
-48.844092
  0
LINE
  8
別途部材
  6
CONTINUOUS
 10
-47.550185
 20
-48.844092
 11
-48.550185
 21
-49.844092
  0
LINE
  8
別途部材
  6
CONTINUOUS
 10
-46.550185
 20
-48.844092
 11
-47.550185
 21
-48.844092
  0
LINE
  8
別途部材
  6
CONTINUOUS
 10
-43.550185
 20
-48.844092
 11
-43.050185
 21
-48.844092
  0
LINE
  8
別途部材
  6
CONTINUOUS
 10
-49.550185
 20
-49.844092
 11
-50.550185
 21
-48.844092
  0
LINE
  8
別途部材
  6
CONTINUOUS
 10
-51.550185
 20
-48.844092
 11
-52.550185
 21
-49.844092
  0
LINE
  8
別途部材
  6
CONTINUOUS
 10
-50.550185
 20
-48.844092
 11
-51.550185
 21
-48.844092
  0
LINE
  8
別途部材
  6
CONTINUOUS
 10
-53.550185
 20
-49.844092
 11
-54.550185
 21
-48.844092
  0
LINE
  8
別途部材
  6
CONTINUOUS
 10
-55.550185
 20
-48.844092
 11
-56.550185
 21
-49.844092
  0
LINE
  8
別途部材
  6
CONTINUOUS
 10
-54.550185
 20
-48.844092
 11
-55.550185
 21
-48.844092
  0
LINE
  8
別途部材
  6
CONTINUOUS
 10
-57.550185
 20
-49.844092
 11
-58.550185
 21
-48.844092
  0
LINE
  8
別途部材
  6
CONTINUOUS
 10
-59.550185
 20
-48.844092
 11
-60.550185
 21
-49.844092
  0
LINE
  8
別途部材
  6
CONTINUOUS
 10
-58.550185
 20
-48.844092
 11
-59.550185
 21
-48.844092
  0
LINE
  8
別途部材
  6
CONTINUOUS
 10
-61.550185
 20
-49.844092
 11
-62.550185
 21
-48.844092
  0
LINE
  8
別途部材
  6
CONTINUOUS
 10
-63.550185
 20
-48.844092
 11
-64.550185
 21
-49.844092
  0
LINE
  8
別途部材
  6
CONTINUOUS
 10
-62.550185
 20
-48.844092
 11
-63.550185
 21
-48.844092
  0
LINE
  8
別途部材
  6
CONTINUOUS
 10
-65.550185
 20
-49.844092
 11
-66.550185
 21
-48.844092
  0
LINE
  8
別途部材
  6
CONTINUOUS
 10
-67.550185
 20
-48.844092
 11
-68.550185
 21
-49.844092
  0
LINE
  8
別途部材
  6
CONTINUOUS
 10
-66.550185
 20
-48.844092
 11
-67.550185
 21
-48.844092
  0
LINE
  8
別途部材
  6
CONTINUOUS
 10
-69.550185
 20
-49.844092
 11
-70.550185
 21
-48.844092
  0
LINE
  8
別途部材
  6
CONTINUOUS
 10
-71.550185
 20
-48.844092
 11
-72.550185
 21
-49.844092
  0
LINE
  8
別途部材
  6
CONTINUOUS
 10
-70.550185
 20
-48.844092
 11
-71.550185
 21
-48.844092
  0
LINE
  8
別途部材
  6
CONTINUOUS
 10
-73.550185
 20
-49.844092
 11
-74.550185
 21
-48.844092
  0
LINE
  8
別途部材
  6
CONTINUOUS
 10
-75.550185
 20
-48.844092
 11
-76.550185
 21
-49.844092
  0
LINE
  8
別途部材
  6
CONTINUOUS
 10
-74.550185
 20
-48.844092
 11
-75.550185
 21
-48.844092
  0
LINE
  8
別途部材
  6
CONTINUOUS
 10
-77.550185
 20
-49.844092
 11
-78.550185
 21
-48.844092
  0
LINE
  8
別途部材
  6
CONTINUOUS
 10
-79.550185
 20
-48.844092
 11
-80.550185
 21
-49.844092
  0
LINE
  8
別途部材
  6
CONTINUOUS
 10
-78.550185
 20
-48.844092
 11
-79.550185
 21
-48.844092
  0
LINE
  8
別途部材
  6
CONTINUOUS
 10
-76.550185
 20
-49.844092
 11
-77.550185
 21
-49.844092
  0
LINE
  8
別途部材
  6
CONTINUOUS
 10
-72.550185
 20
-49.844092
 11
-73.550185
 21
-49.844092
  0
LINE
  8
別途部材
  6
CONTINUOUS
 10
-68.550185
 20
-49.844092
 11
-69.550185
 21
-49.844092
  0
LINE
  8
別途部材
  6
CONTINUOUS
 10
-64.550185
 20
-49.844092
 11
-65.550185
 21
-49.844092
  0
LINE
  8
別途部材
  6
CONTINUOUS
 10
-60.550185
 20
-49.844092
 11
-61.550185
 21
-49.844092
  0
LINE
  8
別途部材
  6
CONTINUOUS
 10
-56.550185
 20
-49.844092
 11
-57.550185
 21
-49.844092
  0
LINE
  8
別途部材
  6
CONTINUOUS
 10
-52.550185
 20
-49.844092
 11
-53.550185
 21
-49.844092
  0
LINE
  8
別途部材
  6
CONTINUOUS
 10
-48.550185
 20
-49.844092
 11
-49.550185
 21
-49.844092
  0
LINE
  8
別途部材
  6
CONTINUOUS
 10
-45.550185
 20
-49.844092
 11
-44.550185
 21
-49.844092
  0
LINE
  8
別途部材
  6
CONTINUOUS
 10
-80.550185
 20
-49.844092
 11
-80.550185
 21
-55.177425
  0
LINE
  8
別途部材
  6
CONTINUOUS
 10
-79.550185
 20
-48.844092
 11
-79.550185
 21
-55.177425
  0
LINE
  8
別途部材
  6
CONTINUOUS
 10
-78.550185
 20
-48.844092
 11
-78.550185
 21
-55.177425
  0
LINE
  8
別途部材
  6
CONTINUOUS
 10
-77.550185
 20
-49.844092
 11
-77.550185
 21
-55.177425
  0
LINE
  8
別途部材
  6
CONTINUOUS
 10
-75.550185
 20
-48.844092
 11
-75.550185
 21
-55.177425
  0
LINE
  8
別途部材
  6
CONTINUOUS
 10
-71.550185
 20
-48.844092
 11
-71.550185
 21
-55.177425
  0
LINE
  8
別途部材
  6
CONTINUOUS
 10
-72.550185
 20
-49.844092
 11
-72.550185
 21
-55.177425
  0
LINE
  8
別途部材
  6
CONTINUOUS
 10
-73.550185
 20
-49.844092
 11
-73.550185
 21
-55.177425
  0
LINE
  8
別途部材
  6
CONTINUOUS
 10
-74.550185
 20
-48.844092
 11
-74.550185
 21
-55.177425
  0
LINE
  8
別途部材
  6
CONTINUOUS
 10
-76.550185
 20
-49.844092
 11
-76.550185
 21
-55.177425
  0
LINE
  8
別途部材
  6
CONTINUOUS
 10
-69.550185
 20
-49.844092
 11
-69.550185
 21
-55.177425
  0
LINE
  8
別途部材
  6
CONTINUOUS
 10
-70.550185
 20
-48.844092
 11
-70.550185
 21
-55.177425
  0
LINE
  8
別途部材
  6
CONTINUOUS
 10
-68.550185
 20
-49.844092
 11
-68.550185
 21
-55.177425
  0
LINE
  8
別途部材
  6
CONTINUOUS
 10
-67.550185
 20
-48.844092
 11
-67.550185
 21
-55.177425
  0
LINE
  8
別途部材
  6
CONTINUOUS
 10
-63.550185
 20
-48.844092
 11
-63.550185
 21
-55.177425
  0
LINE
  8
別途部材
  6
CONTINUOUS
 10
-62.550185
 20
-48.844092
 11
-62.550185
 21
-55.177425
  0
LINE
  8
別途部材
  6
CONTINUOUS
 10
-64.550185
 20
-49.844092
 11
-64.550185
 21
-55.177425
  0
LINE
  8
別途部材
  6
CONTINUOUS
 10
-65.550185
 20
-49.844092
 11
-65.550185
 21
-55.177425
  0
LINE
  8
別途部材
  6
CONTINUOUS
 10
-66.550185
 20
-48.844092
 11
-66.550185
 21
-55.177425
  0
LINE
  8
別途部材
  6
CONTINUOUS
 10
-61.550185
 20
-49.844092
 11
-61.550185
 21
-55.177425
  0
LINE
  8
別途部材
  6
CONTINUOUS
 10
-59.550185
 20
-48.844092
 11
-59.550185
 21
-55.177425
  0
LINE
  8
別途部材
  6
CONTINUOUS
 10
-58.550185
 20
-48.844092
 11
-58.550185
 21
-55.177425
  0
LINE
  8
別途部材
  6
CONTINUOUS
 10
-57.550185
 20
-49.844092
 11
-57.550185
 21
-55.177425
  0
LINE
  8
別途部材
  6
CONTINUOUS
 10
-56.550185
 20
-49.844092
 11
-56.550185
 21
-55.177425
  0
LINE
  8
別途部材
  6
CONTINUOUS
 10
-55.550185
 20
-48.844092
 11
-55.550185
 21
-55.177425
  0
LINE
  8
別途部材
  6
CONTINUOUS
 10
-60.550185
 20
-49.844092
 11
-60.550185
 21
-55.177425
  0
LINE
  8
別途部材
  6
CONTINUOUS
 10
-54.550185
 20
-48.844092
 11
-54.550185
 21
-55.177425
  0
LINE
  8
別途部材
  6
CONTINUOUS
 10
-53.550185
 20
-49.844092
 11
-53.550185
 21
-55.177425
  0
LINE
  8
別途部材
  6
CONTINUOUS
 10
-52.550185
 20
-49.844092
 11
-52.550185
 21
-55.177425
  0
LINE
  8
別途部材
  6
CONTINUOUS
 10
-50.550185
 20
-48.844092
 11
-50.550185
 21
-55.177425
  0
LINE
  8
別途部材
  6
CONTINUOUS
 10
-48.550185
 20
-49.844092
 11
-48.550185
 21
-55.177425
  0
LINE
  8
別途部材
  6
CONTINUOUS
 10
-47.550185
 20
-48.844092
 11
-47.550185
 21
-55.177425
  0
LINE
  8
別途部材
  6
CONTINUOUS
 10
-45.550185
 20
-49.844092
 11
-45.550185
 21
-55.177425
  0
LINE
  8
別途部材
  6
CONTINUOUS
 10
-44.550185
 20
-49.844092
 11
-44.550185
 21
-55.177425
  0
LINE
  8
別途部材
  6
CONTINUOUS
 10
-43.550185
 20
-48.844092
 11
-43.550185
 21
-55.177425
  0
LINE
  8
別途部材
  6
CONTINUOUS
 10
-46.550185
 20
-48.844092
 11
-46.550185
 21
-55.177425
  0
LINE
  8
別途部材
  6
CONTINUOUS
 10
-49.550185
 20
-49.844092
 11
-49.550185
 21
-55.177425
  0
LINE
  8
別途部材
  6
CONTINUOUS
 10
-51.550185
 20
-48.844092
 11
-51.550185
 21
-55.177425
  0
LINE
  8
別途部材
  6
CONTINUOUS
 10
-80.550185
 20
-49.844092
 11
-83.050185
 21
-49.844092
  0
ENDBLK
  0
BLOCK
  2
*DIM_0012
 70
    65
 10
0.0
 20
0.0
  0
LINE
  8
寸法
  6
CONTINUOUS
 10
15.683178
 20
-61.677663
 11
27.595658
 21
-61.677663
  0
LINE
  8
寸法
  6
CONTINUOUS
 10
13.616482
 20
-55.177425
 11
27.595658
 21
-55.177425
  0
LINE
  8
寸法
  6
CONTINUOUS
 10
27.595658
 20
-61.677663
 11
27.595658
 21
-55.177425
  0
POINT
  8
寸法
 10
27.595658
 20
-61.677663
  0
POINT
  8
寸法
 10
27.595658
 20
-55.177425
  0
TEXT
  7
TextStyle03
  8
寸法
  6
CONTINUOUS
 10
27.2
 20
-60.8875
  1
195
 40
3.0
 50
90.0
 72
     5
 11
27.2
 21
-56.0125
  0
ENDBLK
  0
BLOCK
  2
*DIM_0013
 70
    65
 10
0.0
 20
0.0
  0
LINE
  8
寸法
  6
CONTINUOUS
 10
1.111782
 20
-49.844092
 11
27.595658
 21
-49.844092
  0
LINE
  8
寸法
  6
CONTINUOUS
 10
27.595658
 20
-55.177425
 11
27.595658
 21
-49.844092
  0
POINT
  8
寸法
 10
27.595658
 20
-49.844092
  0
TEXT
  7
TextStyle03
  8
寸法
  6
CONTINUOUS
 10
27.2
 20
-54.9625
  1
160
 40
3.0
 50
90.0
 72
     5
 11
27.2
 21
-50.0875
  0
ENDBLK
  0
BLOCK
  2
*DIM_0014
 70
    65
 10
0.0
 20
0.0
  0
LINE
  8
寸法
  6
CONTINUOUS
 10
-93.050183
 20
-31.074888
 11
6.949815
 21
-31.074888
  0
POINT
  8
寸法
 10
-93.050183
 20
-31.074888
  0
POINT
  8
寸法
 10
6.949815
 20
-31.074888
  0
TEXT
  7
TextStyle03
  8
寸法
  6
CONTINUOUS
 10
-54.79375
 20
-30.7
  1
呼称寸法　3000
 40
3.0
 72
     5
 11
-31.35625
 21
-30.7
  0
ENDBLK
  0
BLOCK
  2
*DIM_0015
 70
    65
 10
0.0
 20
0.0
  0
LINE
  8
寸法
  6
CONTINUOUS
 10
98.602828
 20
41.99536
 11
98.602828
 21
20.518102
  0
LINE
  8
寸法
  6
CONTINUOUS
 10
103.936162
 20
20.518102
 11
98.602828
 21
20.518102
  0
POINT
  8
寸法
 10
98.602828
 20
20.518102
  0
TEXT
  7
TextStyle03
  8
寸法
  6
CONTINUOUS
 10
98.7625
 20
20.875
  1
160
 40
3.0
 72
     5
 11
103.6375
 21
20.875
  0
ENDBLK
  0
BLOCK
  2
*DIM_0016
 70
    65
 10
0.0
 20
0.0
  0
LINE
  8
寸法
  6
CONTINUOUS
 10
110.436398
 20
28.262
 11
110.436398
 21
20.518102
  0
LINE
  8
寸法
  6
CONTINUOUS
 10
103.936162
 20
30.328695
 11
103.936162
 21
20.518102
  0
LINE
  8
寸法
  6
CONTINUOUS
 10
110.436398
 20
20.518102
 11
103.936162
 21
20.518102
  0
POINT
  8
寸法
 10
110.436398
 20
20.518102
  0
POINT
  8
寸法
 10
103.936162
 20
20.518102
  0
TEXT
  7
TextStyle03
  8
寸法
  6
CONTINUOUS
 10
104.6875
 20
20.875
  1
195
 40
3.0
 72
     5
 11
109.5625
 21
20.875
  0
ENDBLK
  0
BLOCK
  2
*DIM_0017
 70
    65
 10
0.0
 20
0.0
  0
LINE
  8
寸法
  6
CONTINUOUS
 10
73.766588
 20
36.995363
 11
73.766588
 21
56.995363
  0
POINT
  8
寸法
 10
73.766588
 20
36.995363
  0
POINT
  8
寸法
 10
73.766588
 20
56.995363
  0
TEXT
  7
TextStyle03
  8
寸法
  6
CONTINUOUS
 10
73.35
 20
36.1
  1
呼称寸法　600
 40
3.0
 50
90.0
 72
     5
 11
73.35
 21
57.85
  0
ENDBLK
  0
BLOCK
  2
*DIM_0018
 70
    65
 10
0.0
 20
0.0
  0
LINE
  8
寸法
  6
CONTINUOUS
 10
98.93616
 20
56.995363
 11
73.766588
 21
56.995363
  0
LINE
  8
寸法
  6
CONTINUOUS
 10
104.936398
 20
60.728723
 11
73.766588
 21
60.728723
  0
LINE
  8
寸法
  6
CONTINUOUS
 10
73.766588
 20
56.995363
 11
73.766588
 21
60.728723
  0
POINT
  8
寸法
 10
73.766588
 20
56.995363
  0
POINT
  8
寸法
 10
73.766588
 20
60.728723
  0
TEXT
  7
TextStyle03
  8
寸法
  6
CONTINUOUS
 10
73.35
 20
61.4625
  1
112
 40
3.0
 50
90.0
 72
     5
 11
73.35
 21
66.3375
  0
ENDBLK
  0
BLOCK
  2
*DIM_0019
 70
    65
 10
0.0
 20
0.0
  0
LINE
  8
寸法
  6
CONTINUOUS
 10
104.936398
 20
33.262
 11
73.766588
 21
33.262
  0
LINE
  8
寸法
  6
CONTINUOUS
 10
73.766588
 20
36.995363
 11
73.766588
 21
33.262
  0
POINT
  8
寸法
 10
73.766588
 20
36.995363
  0
POINT
  8
寸法
 10
73.766588
 20
33.262
  0
TEXT
  7
TextStyle03
  8
寸法
  6
CONTINUOUS
 10
73.35
 20
27.6375
  1
112
 40
3.0
 50
90.0
 72
     5
 11
73.35
 21
32.5125
  0
ENDBLK
  0
BLOCK
  2
*GRP_0020
 70
    65
 10
0.0
 20
0.0
  0
LINE
  8
別途部材
  6
CONTINUOUS
 62
    96
 10
109.219605
 20
58.628905
 11
109.219605
 21
58.528905
  0
LINE
  8
別途部材
  6
CONTINUOUS
 62
    96
 10
107.118525
 20
58.728905
 11
107.188198
 21
60.05971
  0
LINE
  8
別途部材
  6
CONTINUOUS
 62
    96
 10
107.736273
 20
60.068905
 11
107.619605
 21
60.335572
  0
LINE
  8
別途部材
  6
CONTINUOUS
 62
    96
 10
107.636273
 20
60.04799
 11
107.568752
 21
60.202323
  0
LINE
  8
別途部材
  6
CONTINUOUS
 62
    96
 10
107.089428
 20
60.085828
 11
107.219878
 21
60.34603
  0
LINE
  8
別途部材
  6
CONTINUOUS
 62
    96
 10
107.188198
 20
60.05971
 11
107.320357
 21
60.323322
  0
LINE
  8
別途部材
  6
CONTINUOUS
 62
    96
 10
107.35596
 20
60.25844
 11
107.292312
 21
60.18131
  0
LINE
  8
別途部材
  6
DASHDOTX2
 62
    96
 10
107.419605
 20
60.335572
 11
107.10612
 21
60.335572
  0
LINE
  8
別途部材
  6
DASHDOTX2
 62
    96
 10
107.419605
 20
60.335572
 11
107.750065
 21
60.335572
  0
LINE
  8
別途部材
  6
DASHDOTX2
 62
    96
 10
107.419605
 20
60.335572
 11
107.419605
 21
60.0721
  0
LINE
  8
別途部材
  6
DASHDOTX2
 62
    96
 10
107.419605
 20
60.335572
 11
107.419605
 21
60.613883
  0
LINE
  8
別途部材
  6
CONTINUOUS
 62
    96
 10
107.636273
 20
58.528905
 11
107.636273
 21
60.04799
  0
LINE
  8
別途部材
  6
CONTINUOUS
 62
    96
 10
107.736273
 20
58.628905
 11
107.736273
 21
60.068905
  0
LINE
  8
別途部材
  6
CONTINUOUS
 62
    96
 10
105.885193
 20
58.828908
 11
107.023623
 21
58.828908
  0
LINE
  8
別途部材
  6
CONTINUOUS
 62
    96
 10
105.885193
 20
58.728905
 11
105.885193
 21
58.828908
  0
LINE
  8
別途部材
  6
CONTINUOUS
 62
    96
 10
105.885193
 20
58.728905
 11
107.118525
 21
58.728905
  0
CIRCLE
  8
別途部材
  6
CONTINUOUS
 62
    96
 10
107.419605
 20
60.335572
 40
0.1
  0
ARC
  8
別途部材
  6
CONTINUOUS
 62
    96
 10
107.4196
 20
60.335576
 40
0.2
 50
218.780606
 51
537.001556
  0
LINE
  8
別途部材
  6
CONTINUOUS
 62
    96
 10
107.636273
 20
58.528905
 11
109.219605
 21
58.528905
  0
LINE
  8
別途部材
  6
CONTINUOUS
 62
    96
 10
107.736273
 20
58.628905
 11
109.219605
 21
58.628905
  0
LINE
  8
別途部材
  6
CONTINUOUS
 62
    96
 10
107.089428
 20
60.085828
 11
107.023623
 21
58.828908
  0
ENDBLK
  0
BLOCK
  2
*DIM_0021
 70
    65
 10
0.0
 20
0.0
  0
LINE
  8
寸法
  6
CONTINUOUS
 10
79.200002
 20
-42.158972
 11
79.200002
 21
-33.675
  0
LINE
  8
寸法
  6
CONTINUOUS
 10
112.146667
 20
-42.158972
 11
112.146667
 21
-33.675
  0
LINE
  8
寸法
  6
CONTINUOUS
 10
79.200002
 20
-33.675
 11
112.146667
 21
-33.675
  0
POINT
  8
寸法
 10
79.200002
 20
-33.675
  0
POINT
  8
寸法
 10
112.146667
 20
-33.675
  0
TEXT
  7
TextStyle03
  8
寸法
  6
CONTINUOUS
 10
91.525
 20
-33.3
  1
988.4
 40
3.0
 72
     5
 11
99.775
 21
-33.3
  0
ENDBLK
  0
BLOCK
  2
*DIM_0022
 70
    65
 10
0.0
 20
0.0
  0
LINE
  8
寸法
  6
CONTINUOUS
 10
117.146667
 20
-47.158972
 11
129.788463
 21
-47.158972
  0
LINE
  8
寸法
  6
CONTINUOUS
 10
117.146667
 20
-67.692307
 11
129.788463
 21
-67.692307
  0
LINE
  8
寸法
  6
CONTINUOUS
 10
129.788463
 20
-47.158972
 11
129.788463
 21
-67.692307
  0
POINT
  8
寸法
 10
129.788463
 20
-47.158972
  0
POINT
  8
寸法
 10
129.788463
 20
-67.692307
  0
TEXT
  7
TextStyle03
  8
寸法
  6
CONTINUOUS
 10
129.4
 20
-59.8875
  1
616
 40
3.0
 50
90.0
 72
     5
 11
129.4
 21
-55.0125
  0
ENDBLK
  0
BLOCK
  2
*GRP_0023
 70
    65
 10
0.0
 20
0.0
  0
LINE
  8
ボルト／ビス
  6
CONTINUOUS
 10
-93.716853
 20
-55.177425
 11
-93.716853
 21
-54.710758
  0
LINE
  8
ボルト／ビス
  6
CONTINUOUS
 10
-93.350185
 20
-55.177425
 11
-93.350185
 21
-55.110757
  0
LINE
  8
ボルト／ビス
  6
CONTINUOUS
 10
-93.350185
 20
-55.110757
 11
-94.08352
 21
-55.110757
  0
LINE
  8
ボルト／ビス
  6
CONTINUOUS
 10
-94.08352
 20
-55.110757
 11
-94.08352
 21
-55.177425
  0
LINE
  8
ボルト／ビス
  6
CONTINUOUS
 10
-93.350185
 20
-55.177425
 11
-94.08352
 21
-55.177425
  0
LINE
  8
ボルト／ビス
  6
CONTINUOUS
 10
-93.416853
 20
-55.077425
 11
-93.416853
 21
-55.110757
  0
LINE
  8
ボルト／ビス
  6
CONTINUOUS
 10
-93.416853
 20
-55.077425
 11
-94.016852
 21
-55.077425
  0
LINE
  8
ボルト／ビス
  6
CONTINUOUS
 10
-94.016852
 20
-55.077425
 11
-94.016852
 21
-55.110757
  0
LINE
  8
ボルト／ビス
  6
CONTINUOUS
 62
    64
 10
-93.556477
 20
-54.877425
 11
-93.524402
 21
-54.8891
  0
ARC
  8
ボルト／ビス
  6
CONTINUOUS
 62
    64
 10
-93.572516
 20
-54.982404
 40
0.104978
 50
90.0
 51
117.278033
  0
ARC
  8
ボルト／ビス
  6
CONTINUOUS
 62
    64
 10
-93.716854
 20
-55.279828
 40
0.402402
 50
76.165015
 51
103.834998
  0
LINE
  8
ボルト／ビス
  6
CONTINUOUS
 62
    64
 10
-93.877228
 20
-54.877425
 11
-93.909303
 21
-54.8891
  0
ARC
  8
ボルト／ビス
  6
CONTINUOUS
 62
    64
 10
-93.861191
 20
-54.982404
 40
0.104978
 50
62.721967
 51
90.0
  0
LINE
  8
ボルト／ビス
  6
CONTINUOUS
 62
    64
 10
-93.556477
 20
-54.877425
 11
-93.877228
 21
-54.877425
  0
LINE
  8
ボルト／ビス
  6
CONTINUOUS
 62
    64
 10
-93.909303
 20
-54.8891
 11
-93.909303
 21
-55.010757
  0
LINE
  8
ボルト／ビス
  6
CONTINUOUS
 62
    64
 10
-93.813077
 20
-54.8891
 11
-93.813077
 21
-55.010757
  0
LINE
  8
ボルト／ビス
  6
CONTINUOUS
 62
    64
 10
-93.524402
 20
-54.8891
 11
-93.524402
 21
-55.010757
  0
LINE
  8
ボルト／ビス
  6
CONTINUOUS
 62
    64
 10
-93.620627
 20
-54.8891
 11
-93.620627
 21
-55.010757
  0
LINE
  8
ボルト／ビス
  6
CONTINUOUS
 10
-93.524402
 20
-55.010757
 11
-93.909303
 21
-55.010757
  0
LINE
  8
ボルト／ビス
  6
CONTINUOUS
 10
-93.516852
 20
-55.010757
 11
-93.516852
 21
-55.077425
  0
LINE
  8
ボルト／ビス
  6
CONTINUOUS
 10
-93.516852
 20
-55.010757
 11
-93.916853
 21
-55.010757
  0
LINE
  8
ボルト／ビス
  6
CONTINUOUS
 10
-93.916853
 20
-55.010757
 11
-93.916853
 21
-55.077425
  0
ENDBLK
  0
BLOCK
  2
*GRP_0024
 70
    65
 10
0.0
 20
0.0
  0
LINE
  8
ボルト／ビス
  6
CONTINUOUS
 10
7.616482
 20
-55.177425
 11
7.616482
 21
-54.710758
  0
LINE
  8
ボルト／ビス
  6
CONTINUOUS
 10
7.98315
 20
-55.177425
 11
7.98315
 21
-55.110757
  0
LINE
  8
ボルト／ビス
  6
CONTINUOUS
 10
7.98315
 20
-55.110757
 11
7.249815
 21
-55.110757
  0
LINE
  8
ボルト／ビス
  6
CONTINUOUS
 10
7.249815
 20
-55.110757
 11
7.249815
 21
-55.177425
  0
LINE
  8
ボルト／ビス
  6
CONTINUOUS
 10
7.98315
 20
-55.177425
 11
7.249815
 21
-55.177425
  0
LINE
  8
ボルト／ビス
  6
CONTINUOUS
 10
7.916482
 20
-55.077425
 11
7.916482
 21
-55.110757
  0
LINE
  8
ボルト／ビス
  6
CONTINUOUS
 10
7.916482
 20
-55.077425
 11
7.316482
 21
-55.077425
  0
LINE
  8
ボルト／ビス
  6
CONTINUOUS
 10
7.316482
 20
-55.077425
 11
7.316482
 21
-55.110757
  0
LINE
  8
ボルト／ビス
  6
CONTINUOUS
 62
    64
 10
7.776858
 20
-54.877425
 11
7.808933
 21
-54.8891
  0
ARC
  8
ボルト／ビス
  6
CONTINUOUS
 62
    64
 10
7.760819
 20
-54.982404
 40
0.104978
 50
90.0
 51
117.278033
  0
ARC
  8
ボルト／ビス
  6
CONTINUOUS
 62
    64
 10
7.616481
 20
-55.279828
 40
0.402402
 50
76.165015
 51
103.834998
  0
LINE
  8
ボルト／ビス
  6
CONTINUOUS
 62
    64
 10
7.456107
 20
-54.877425
 11
7.424033
 21
-54.8891
  0
ARC
  8
ボルト／ビス
  6
CONTINUOUS
 62
    64
 10
7.472144
 20
-54.982404
 40
0.104978
 50
62.721967
 51
90.0
  0
LINE
  8
ボルト／ビス
  6
CONTINUOUS
 62
    64
 10
7.776858
 20
-54.877425
 11
7.456107
 21
-54.877425
  0
LINE
  8
ボルト／ビス
  6
CONTINUOUS
 62
    64
 10
7.424033
 20
-54.8891
 11
7.424033
 21
-55.010757
  0
LINE
  8
ボルト／ビス
  6
CONTINUOUS
 62
    64
 10
7.520257
 20
-54.8891
 11
7.520257
 21
-55.010757
  0
LINE
  8
ボルト／ビス
  6
CONTINUOUS
 62
    64
 10
7.808933
 20
-54.8891
 11
7.808933
 21
-55.010757
  0
LINE
  8
ボルト／ビス
  6
CONTINUOUS
 62
    64
 10
7.712708
 20
-54.8891
 11
7.712708
 21
-55.010757
  0
LINE
  8
ボルト／ビス
  6
CONTINUOUS
 10
7.808933
 20
-55.010757
 11
7.424033
 21
-55.010757
  0
LINE
  8
ボルト／ビス
  6
CONTINUOUS
 10
7.816482
 20
-55.010757
 11
7.816482
 21
-55.077425
  0
LINE
  8
ボルト／ビス
  6
CONTINUOUS
 10
7.816482
 20
-55.010757
 11
7.416482
 21
-55.010757
  0
LINE
  8
ボルト／ビス
  6
CONTINUOUS
 10
7.416482
 20
-55.010757
 11
7.416482
 21
-55.077425
  0
ENDBLK
  0
BLOCK
  2
*GRP_0025
 70
    65
 10
0.0
 20
0.0
  0
LINE
  8
ボルト／ビス
  6
CONTINUOUS
 10
103.936162
 20
36.328695
 11
103.469495
 21
36.328695
  0
LINE
  8
ボルト／ビス
  6
CONTINUOUS
 10
103.936162
 20
36.695363
 11
103.869495
 21
36.695363
  0
LINE
  8
ボルト／ビス
  6
CONTINUOUS
 10
103.869495
 20
36.695363
 11
103.869495
 21
35.962027
  0
LINE
  8
ボルト／ビス
  6
CONTINUOUS
 10
103.869495
 20
35.962027
 11
103.936162
 21
35.962027
  0
LINE
  8
ボルト／ビス
  6
CONTINUOUS
 10
103.936162
 20
36.695363
 11
103.936162
 21
35.962027
  0
LINE
  8
ボルト／ビス
  6
CONTINUOUS
 10
103.836162
 20
36.628695
 11
103.869495
 21
36.628695
  0
LINE
  8
ボルト／ビス
  6
CONTINUOUS
 10
103.836162
 20
36.628695
 11
103.836162
 21
36.028695
  0
LINE
  8
ボルト／ビス
  6
CONTINUOUS
 10
103.836162
 20
36.028695
 11
103.869495
 21
36.028695
  0
LINE
  8
ボルト／ビス
  6
CONTINUOUS
 62
    64
 10
103.636162
 20
36.48907
 11
103.647838
 21
36.521145
  0
ARC
  8
ボルト／ビス
  6
CONTINUOUS
 62
    64
 10
103.741141
 20
36.473031
 40
0.104978
 50
180.0
 51
207.278033
  0
ARC
  8
ボルト／ビス
  6
CONTINUOUS
 62
    64
 10
104.038565
 20
36.328694
 40
0.402402
 50
166.165015
 51
193.834998
  0
LINE
  8
ボルト／ビス
  6
CONTINUOUS
 62
    64
 10
103.636162
 20
36.16832
 11
103.647838
 21
36.136245
  0
ARC
  8
ボルト／ビス
  6
CONTINUOUS
 62
    64
 10
103.741141
 20
36.184356
 40
0.104978
 50
152.721967
 51
180.0
  0
LINE
  8
ボルト／ビス
  6
CONTINUOUS
 62
    64
 10
103.636162
 20
36.48907
 11
103.636162
 21
36.16832
  0
LINE
  8
ボルト／ビス
  6
CONTINUOUS
 62
    64
 10
103.647838
 20
36.136245
 11
103.769495
 21
36.136245
  0
LINE
  8
ボルト／ビス
  6
CONTINUOUS
 62
    64
 10
103.647838
 20
36.23247
 11
103.769495
 21
36.23247
  0
LINE
  8
ボルト／ビス
  6
CONTINUOUS
 62
    64
 10
103.647838
 20
36.521145
 11
103.769495
 21
36.521145
  0
LINE
  8
ボルト／ビス
  6
CONTINUOUS
 62
    64
 10
103.647838
 20
36.42492
 11
103.769495
 21
36.42492
  0
LINE
  8
ボルト／ビス
  6
CONTINUOUS
 10
103.769495
 20
36.521145
 11
103.769495
 21
36.136245
  0
LINE
  8
ボルト／ビス
  6
CONTINUOUS
 10
103.769495
 20
36.528695
 11
103.836162
 21
36.528695
  0
LINE
  8
ボルト／ビス
  6
CONTINUOUS
 10
103.769495
 20
36.528695
 11
103.769495
 21
36.128695
  0
LINE
  8
ボルト／ビス
  6
CONTINUOUS
 10
103.769495
 20
36.128695
 11
103.836162
 21
36.128695
  0
ENDBLK
  0
BLOCK
  2
*GRP_0026
 70
    65
 10
0.0
 20
0.0
  0
LINE
  8
ボルト／ビス
  6
CONTINUOUS
 10
103.936162
 20
57.662027
 11
103.469495
 21
57.662027
  0
LINE
  8
ボルト／ビス
  6
CONTINUOUS
 10
103.936162
 20
58.028695
 11
103.869495
 21
58.028695
  0
LINE
  8
ボルト／ビス
  6
CONTINUOUS
 10
103.869495
 20
58.028695
 11
103.869495
 21
57.29536
  0
LINE
  8
ボルト／ビス
  6
CONTINUOUS
 10
103.869495
 20
57.29536
 11
103.936162
 21
57.29536
  0
LINE
  8
ボルト／ビス
  6
CONTINUOUS
 10
103.936162
 20
58.028695
 11
103.936162
 21
57.29536
  0
LINE
  8
ボルト／ビス
  6
CONTINUOUS
 10
103.836162
 20
57.962027
 11
103.869495
 21
57.962027
  0
LINE
  8
ボルト／ビス
  6
CONTINUOUS
 10
103.836162
 20
57.962027
 11
103.836162
 21
57.362027
  0
LINE
  8
ボルト／ビス
  6
CONTINUOUS
 10
103.836162
 20
57.362027
 11
103.869495
 21
57.362027
  0
LINE
  8
ボルト／ビス
  6
CONTINUOUS
 62
    64
 10
103.636162
 20
57.822402
 11
103.647838
 21
57.854478
  0
ARC
  8
ボルト／ビス
  6
CONTINUOUS
 62
    64
 10
103.741141
 20
57.806364
 40
0.104978
 50
180.0
 51
207.278033
  0
ARC
  8
ボルト／ビス
  6
CONTINUOUS
 62
    64
 10
104.038565
 20
57.662026
 40
0.402402
 50
166.165015
 51
193.834998
  0
LINE
  8
ボルト／ビス
  6
CONTINUOUS
 62
    64
 10
103.636162
 20
57.501652
 11
103.647838
 21
57.469578
  0
ARC
  8
ボルト／ビス
  6
CONTINUOUS
 62
    64
 10
103.741141
 20
57.517688
 40
0.104978
 50
152.721967
 51
180.0
  0
LINE
  8
ボルト／ビス
  6
CONTINUOUS
 62
    64
 10
103.636162
 20
57.822402
 11
103.636162
 21
57.501652
  0
LINE
  8
ボルト／ビス
  6
CONTINUOUS
 62
    64
 10
103.647838
 20
57.469578
 11
103.769495
 21
57.469578
  0
LINE
  8
ボルト／ビス
  6
CONTINUOUS
 62
    64
 10
103.647838
 20
57.565803
 11
103.769495
 21
57.565803
  0
LINE
  8
ボルト／ビス
  6
CONTINUOUS
 62
    64
 10
103.647838
 20
57.854478
 11
103.769495
 21
57.854478
  0
LINE
  8
ボルト／ビス
  6
CONTINUOUS
 62
    64
 10
103.647838
 20
57.758252
 11
103.769495
 21
57.758252
  0
LINE
  8
ボルト／ビス
  6
CONTINUOUS
 10
103.769495
 20
57.854478
 11
103.769495
 21
57.469578
  0
LINE
  8
ボルト／ビス
  6
CONTINUOUS
 10
103.769495
 20
57.862027
 11
103.836162
 21
57.862027
  0
LINE
  8
ボルト／ビス
  6
CONTINUOUS
 10
103.769495
 20
57.862027
 11
103.769495
 21
57.462027
  0
LINE
  8
ボルト／ビス
  6
CONTINUOUS
 10
103.769495
 20
57.462027
 11
103.836162
 21
57.462027
  0
ENDBLK
  0
BLOCK
  2
*GRP_0027
 70
    65
 10
0.0
 20
0.0
  0
LINE
  8
ボルト／ビス
  6
DOT
 10
102.959893
 20
61.01432
 11
102.62991
 21
61.344305
  0
LINE
  8
ボルト／ビス
  6
DOT
 10
103.219168
 20
61.273593
 11
103.172025
 21
61.320735
  0
LINE
  8
ボルト／ビス
  6
DOT
 10
103.172025
 20
61.320735
 11
102.65348
 21
60.802188
  0
LINE
  8
ボルト／ビス
  6
DOT
 10
102.65348
 20
60.802188
 11
102.70062
 21
60.755048
  0
LINE
  8
ボルト／ビス
  6
DOT
 10
103.219168
 20
61.273593
 11
102.70062
 21
60.755048
  0
LINE
  8
ボルト／ビス
  6
DOT
 10
103.101315
 20
61.297163
 11
103.124885
 21
61.273593
  0
LINE
  8
ボルト／ビス
  6
DOT
 10
103.101315
 20
61.297163
 11
102.67705
 21
60.8729
  0
LINE
  8
ボルト／ビス
  6
DOT
 10
102.67705
 20
60.8729
 11
102.70062
 21
60.84933
  0
LINE
  8
ボルト／ビス
  6
DOT
 62
    64
 10
102.861162
 20
61.339855
 11
102.8921
 21
61.35428
  0
ARC
  8
ボルト／ビス
  6
DOT
 62
    64
 10
102.924054
 20
61.254283
 40
0.104978
 50
135.0
 51
162.278033
  0
ARC
  8
ボルト／ビス
  6
DOT
 62
    64
 10
103.032303
 20
60.941911
 40
0.402402
 50
121.165015
 51
148.834998
  0
LINE
  8
ボルト／ビス
  6
DOT
 62
    64
 10
102.63436
 20
61.11305
 11
102.619935
 21
61.082115
  0
ARC
  8
ボルト／ビス
  6
DOT
 62
    64
 10
102.71993
 20
61.050159
 40
0.104978
 50
107.721967
 51
135.0
  0
LINE
  8
ボルト／ビス
  6
DOT
 62
    64
 10
102.861162
 20
61.339855
 11
102.63436
 21
61.11305
  0
LINE
  8
ボルト／ビス
  6
DOT
 62
    64
 10
102.619935
 20
61.082115
 11
102.70596
 21
60.99609
  0
LINE
  8
ボルト／ビス
  6
DOT
 62
    64
 10
102.687975
 20
61.150155
 11
102.774
 21
61.06413
  0
LINE
  8
ボルト／ビス
  6
DOT
 62
    64
 10
102.8921
 20
61.35428
 11
102.978125
 21
61.268255
  0
LINE
  8
ボルト／ビス
  6
DOT
 62
    64
 10
102.824057
 20
61.286238
 11
102.910082
 21
61.200213
  0
LINE
  8
ボルト／ビス
  6
DOT
 10
102.978125
 20
61.268255
 11
102.70596
 21
60.99609
  0
LINE
  8
ボルト／ビス
  6
DOT
 10
102.983462
 20
61.273593
 11
103.030605
 21
61.226453
  0
LINE
  8
ボルト／ビス
  6
DOT
 10
102.983462
 20
61.273593
 11
102.70062
 21
60.99075
  0
LINE
  8
ボルト／ビス
  6
DOT
 10
102.70062
 20
60.99075
 11
102.74776
 21
60.94361
  0
ENDBLK
  0
BLOCK
  2
*GRP_0028
 70
    65
 10
0.0
 20
0.0
  0
LINE
  8
ボルト／ビス
  6
DOT
 10
87.874948
 20
45.929378
 11
87.544965
 21
46.259362
  0
LINE
  8
ボルト／ビス
  6
DOT
 10
88.134223
 20
46.18865
 11
88.08708
 21
46.235793
  0
LINE
  8
ボルト／ビス
  6
DOT
 10
88.08708
 20
46.235793
 11
87.568535
 21
45.717245
  0
LINE
  8
ボルト／ビス
  6
DOT
 10
87.568535
 20
45.717245
 11
87.615675
 21
45.670105
  0
LINE
  8
ボルト／ビス
  6
DOT
 10
88.134223
 20
46.18865
 11
87.615675
 21
45.670105
  0
LINE
  8
ボルト／ビス
  6
DOT
 10
88.01637
 20
46.21222
 11
88.03994
 21
46.18865
  0
LINE
  8
ボルト／ビス
  6
DOT
 10
88.01637
 20
46.21222
 11
87.592105
 21
45.787958
  0
LINE
  8
ボルト／ビス
  6
DOT
 10
87.592105
 20
45.787958
 11
87.615675
 21
45.764387
  0
LINE
  8
ボルト／ビス
  6
DOT
 62
    64
 10
87.776217
 20
46.254912
 11
87.807155
 21
46.269338
  0
ARC
  8
ボルト／ビス
  6
DOT
 62
    64
 10
87.839109
 20
46.169341
 40
0.104978
 50
135.0
 51
162.278033
  0
ARC
  8
ボルト／ビス
  6
DOT
 62
    64
 10
87.947357
 20
45.856969
 40
0.402402
 50
121.165015
 51
148.834998
  0
LINE
  8
ボルト／ビス
  6
DOT
 62
    64
 10
87.549415
 20
46.028108
 11
87.53499
 21
45.997172
  0
ARC
  8
ボルト／ビス
  6
DOT
 62
    64
 10
87.634985
 20
45.965217
 40
0.104978
 50
107.721967
 51
135.0
  0
LINE
  8
ボルト／ビス
  6
DOT
 62
    64
 10
87.776217
 20
46.254912
 11
87.549415
 21
46.028108
  0
LINE
  8
ボルト／ビス
  6
DOT
 62
    64
 10
87.53499
 20
45.997172
 11
87.621015
 21
45.911147
  0
LINE
  8
ボルト／ビス
  6
DOT
 62
    64
 10
87.60303
 20
46.065213
 11
87.689055
 21
45.979188
  0
LINE
  8
ボルト／ビス
  6
DOT
 62
    64
 10
87.807155
 20
46.269338
 11
87.89318
 21
46.183312
  0
LINE
  8
ボルト／ビス
  6
DOT
 62
    64
 10
87.739113
 20
46.201295
 11
87.825137
 21
46.11527
  0
LINE
  8
ボルト／ビス
  6
DOT
 10
87.89318
 20
46.183312
 11
87.621015
 21
45.911147
  0
LINE
  8
ボルト／ビス
  6
DOT
 10
87.898517
 20
46.18865
 11
87.94566
 21
46.14151
  0
LINE
  8
ボルト／ビス
  6
DOT
 10
87.898517
 20
46.18865
 11
87.615675
 21
45.905808
  0
LINE
  8
ボルト／ビス
  6
DOT
 10
87.615675
 20
45.905808
 11
87.662815
 21
45.858668
  0
ENDBLK
  0
ENDSEC
  0
SECTION
  2
ENTITIES
  0
POLYLINE
  8
通り芯
  6
CONTINUOUS
 66
     1
 70
     1
  0
VERTEX
  8
通り芯
 10
-210.0
 20
-148.5
  0
VERTEX
  8
通り芯
 10
210.0
 20
-148.5
  0
VERTEX
  8
通り芯
 10
210.0
 20
148.5
  0
VERTEX
  8
通り芯
 10
-210.0
 20
148.5
  0
SEQEND
  0
INSERT
  2
*GRP_0001
  8
型材断面
  6
CONTINUOUS
 10
0.0
 20
0.0
  0
LINE
  8
型材断面
  6
DASHDOT
 10
-43.050183
 20
-66.258275
 11
-43.050183
 21
56.995363
  0
LINE
  8
型材断面
  6
CONTINUOUS
 62
    47
 10
7.996508
 20
-58.610877
 11
8.716722
 21
-58.610877
  0
LINE
  8
型材断面
  6
CONTINUOUS
 62
    47
 10
8.673358
 20
-57.317558
 11
8.683358
 21
-57.307557
  0
LINE
  8
型材断面
  6
CONTINUOUS
 62
    47
 10
8.673358
 20
-57.317558
 11
8.683358
 21
-57.327557
  0
LINE
  8
型材断面
  6
CONTINUOUS
 62
    47
 10
8.673358
 20
-57.95979
 11
8.683358
 21
-57.94979
  0
LINE
  8
型材断面
  6
CONTINUOUS
 62
    47
 10
8.673358
 20
-57.95979
 11
8.683358
 21
-57.96979
  0
LINE
  8
型材断面
  6
CONTINUOUS
 62
    47
 10
8.683358
 20
-58.377575
 11
8.683358
 21
-57.96979
  0
LINE
  8
型材断面
  6
CONTINUOUS
 62
    47
 10
8.683358
 20
-57.94979
 11
8.683358
 21
-57.327557
  0
LINE
  8
型材断面
  6
CONTINUOUS
 62
    47
 10
10.183185
 20
-62.010995
 11
10.183185
 21
-61.677663
  0
LINE
  8
型材断面
  6
CONTINUOUS
 62
    47
 10
8.250022
 20
-61.010992
 11
7.653177
 21
-61.010992
  0
LINE
  8
型材断面
  6
CONTINUOUS
 62
    47
 10
8.483178
 20
-61.01098
 11
10.683178
 21
-61.177663
  0
LINE
  8
型材断面
  6
CONTINUOUS
 62
    47
 10
10.683178
 20
-61.677663
 11
10.683178
 21
-61.177663
  0
LINE
  8
型材断面
  6
CONTINUOUS
 62
    47
 10
9.949842
 20
-58.444232
 11
9.949842
 21
-58.610877
  0
LINE
  8
型材断面
  6
CONTINUOUS
 62
    47
 10
9.949842
 20
-58.877538
 11
9.949842
 21
-58.74422
  0
LINE
  8
型材断面
  6
CONTINUOUS
 62
    47
 10
8.683358
 20
-58.377575
 11
9.95653
 21
-58.444232
  0
LINE
  8
型材断面
  6
CONTINUOUS
 62
    47
 10
8.483178
 20
-58.877538
 11
8.483178
 21
-61.010992
  0
LINE
  8
型材断面
  6
CONTINUOUS
 62
    47
 10
8.683358
 20
-57.307557
 11
8.683358
 21
-56.177427
  0
LINE
  8
型材断面
  6
CONTINUOUS
 62
    47
 10
9.949842
 20
-58.74422
 11
-43.050183
 21
-58.74422
  0
LINE
  8
型材断面
  6
CONTINUOUS
 10
8.683358
 20
-58.377575
 11
-43.050183
 21
-58.377575
  0
LINE
  8
型材断面
  6
CONTINUOUS
 10
9.949842
 20
-58.444232
 11
-43.050183
 21
-58.444232
  0
LINE
  8
型材断面
  6
CONTINUOUS
 62
    47
 10
9.949842
 20
-58.877538
 11
-43.050183
 21
-58.877538
  0
LINE
  8
型材断面
  6
CONTINUOUS
 62
    47
 10
9.949842
 20
-58.610877
 11
-43.050183
 21
-58.610877
  0
LINE
  8
型材断面
  6
CONTINUOUS
 10
10.683178
 20
-61.677663
 11
-43.050183
 21
-61.677663
  0
LINE
  8
型材断面
  6
CONTINUOUS
 10
10.683178
 20
-61.177663
 11
-43.050183
 21
-61.177663
  0
LINE
  8
型材断面
  6
CONTINUOUS
 10
10.183185
 20
-62.010995
 11
-43.050183
 21
-62.010995
  0
LINE
  8
型材断面
  6
CONTINUOUS
 10
8.483178
 20
-61.010992
 11
-43.050183
 21
-61.010992
  0
LINE
  8
型材断面
  6
CONTINUOUS
 10
9.016482
 20
34.928698
 11
10.683178
 21
33.262003
  0
LINE
  8
型材断面
  6
CONTINUOUS
 10
10.683178
 20
33.262003
 11
10.683178
 21
46.995363
  0
LINE
  8
型材断面
  6
CONTINUOUS
 10
9.949842
 20
33.995335
 11
9.949842
 21
46.995363
  0
LINE
  8
型材断面
  6
CONTINUOUS
 10
9.016482
 20
59.06203
 11
10.683178
 21
60.728725
  0
LINE
  8
型材断面
  6
CONTINUOUS
 10
10.683178
 20
60.728725
 11
10.683178
 21
46.995363
  0
LINE
  8
型材断面
  6
CONTINUOUS
 10
9.949842
 20
59.995392
 11
9.949842
 21
46.995363
  0
LINE
  8
型材断面
  6
DASHDOT
 10
6.949815
 20
-66.258275
 11
6.949815
 21
56.995363
  0
LINE
  8
型材断面
  6
CONTINUOUS
 62
    47
 10
-94.096875
 20
-58.610877
 11
-94.817087
 21
-58.610877
  0
LINE
  8
型材断面
  6
CONTINUOUS
 62
    47
 10
-94.773725
 20
-57.317558
 11
-94.783725
 21
-57.307557
  0
LINE
  8
型材断面
  6
CONTINUOUS
 62
    47
 10
-94.773725
 20
-57.317558
 11
-94.783725
 21
-57.327557
  0
LINE
  8
型材断面
  6
CONTINUOUS
 62
    47
 10
-94.773725
 20
-57.95979
 11
-94.783725
 21
-57.94979
  0
LINE
  8
型材断面
  6
CONTINUOUS
 62
    47
 10
-94.773725
 20
-57.95979
 11
-94.783725
 21
-57.96979
  0
LINE
  8
型材断面
  6
CONTINUOUS
 62
    47
 10
-94.783725
 20
-58.377575
 11
-94.783725
 21
-57.96979
  0
LINE
  8
型材断面
  6
CONTINUOUS
 62
    47
 10
-94.783725
 20
-57.94979
 11
-94.783725
 21
-57.327557
  0
LINE
  8
型材断面
  6
CONTINUOUS
 62
    47
 10
-96.283553
 20
-62.010995
 11
-96.283553
 21
-61.677663
  0
LINE
  8
型材断面
  6
CONTINUOUS
 62
    47
 10
-94.35039
 20
-61.010992
 11
-93.753543
 21
-61.010992
  0
LINE
  8
型材断面
  6
CONTINUOUS
 62
    47
 10
-94.583543
 20
-61.01098
 11
-96.783543
 21
-61.177663
  0
LINE
  8
型材断面
  6
CONTINUOUS
 62
    47
 10
-96.783543
 20
-61.677663
 11
-96.783543
 21
-61.177663
  0
LINE
  8
型材断面
  6
CONTINUOUS
 62
    47
 10
-96.05021
 20
-58.444232
 11
-96.05021
 21
-58.610877
  0
LINE
  8
型材断面
  6
CONTINUOUS
 62
    47
 10
-96.05021
 20
-58.877538
 11
-96.05021
 21
-58.74422
  0
LINE
  8
型材断面
  6
CONTINUOUS
 62
    47
 10
-94.783725
 20
-58.377575
 11
-96.056898
 21
-58.444232
  0
LINE
  8
型材断面
  6
CONTINUOUS
 62
    47
 10
-94.583543
 20
-58.877538
 11
-94.583543
 21
-61.010992
  0
LINE
  8
型材断面
  6
CONTINUOUS
 62
    47
 10
-94.783725
 20
-57.307557
 11
-94.783725
 21
-56.177427
  0
LINE
  8
型材断面
  6
CONTINUOUS
 62
    47
 10
-96.05021
 20
-58.74422
 11
-43.050183
 21
-58.74422
  0
LINE
  8
型材断面
  6
CONTINUOUS
 10
-94.783725
 20
-58.377575
 11
-43.050183
 21
-58.377575
  0
LINE
  8
型材断面
  6
CONTINUOUS
 10
-96.05021
 20
-58.444232
 11
-43.050183
 21
-58.444232
  0
LINE
  8
型材断面
  6
CONTINUOUS
 62
    47
 10
-96.05021
 20
-58.877538
 11
-43.050183
 21
-58.877538
  0
LINE
  8
型材断面
  6
CONTINUOUS
 62
    47
 10
-96.05021
 20
-58.610877
 11
-43.050183
 21
-58.610877
  0
LINE
  8
型材断面
  6
CONTINUOUS
 10
-96.783543
 20
-61.677663
 11
-43.050183
 21
-61.677663
  0
LINE
  8
型材断面
  6
CONTINUOUS
 10
-96.783543
 20
-61.177663
 11
-43.050183
 21
-61.177663
  0
LINE
  8
型材断面
  6
CONTINUOUS
 10
-96.283553
 20
-62.010995
 11
-43.050183
 21
-62.010995
  0
LINE
  8
型材断面
  6
CONTINUOUS
 10
-94.583543
 20
-61.010992
 11
-43.050183
 21
-61.010992
  0
LINE
  8
型材断面
  6
CONTINUOUS
 10
-95.116848
 20
34.928698
 11
-96.783543
 21
33.262003
  0
LINE
  8
型材断面
  6
CONTINUOUS
 10
-96.783543
 20
33.262003
 11
-96.783543
 21
46.995363
  0
LINE
  8
型材断面
  6
CONTINUOUS
 10
-96.05021
 20
33.995335
 11
-96.05021
 21
46.995363
  0
LINE
  8
型材断面
  6
CONTINUOUS
 10
-96.783543
 20
33.262003
 11
-83.050183
 21
33.262003
  0
LINE
  8
型材断面
  6
CONTINUOUS
 10
-96.05021
 20
33.995335
 11
-83.050183
 21
33.995335
  0
LINE
  8
型材断面
  6
CONTINUOUS
 10
-95.116848
 20
59.06203
 11
-96.783543
 21
60.728725
  0
LINE
  8
型材断面
  6
CONTINUOUS
 10
-96.783543
 20
60.728725
 11
-96.783543
 21
46.995363
  0
LINE
  8
型材断面
  6
CONTINUOUS
 10
-96.05021
 20
59.995392
 11
-96.05021
 21
46.995363
  0
LINE
  8
型材断面
  6
CONTINUOUS
 10
-96.783543
 20
60.728725
 11
-83.050183
 21
60.728725
  0
LINE
  8
型材断面
  6
CONTINUOUS
 10
-96.05021
 20
59.995392
 11
-83.050183
 21
59.995392
  0
LINE
  8
型材断面
  6
DASHDOT
 10
114.059035
 20
36.995363
 11
-93.050183
 21
36.995363
  0
LINE
  8
型材断面
  6
DASHDOT
 10
114.059035
 20
46.995363
 11
-93.050183
 21
46.995363
  0
LINE
  8
型材断面
  6
DASHDOT
 10
114.059035
 20
56.995363
 11
-93.050183
 21
56.995363
  0
LINE
  8
型材断面
  6
DASHDOT
 10
-93.050183
 20
-66.258275
 11
-93.050183
 21
56.995363
  0
LINE
  8
型材断面
  6
CONTINUOUS
 10
10.683178
 20
33.262003
 11
-83.050183
 21
33.262003
  0
LINE
  8
型材断面
  6
CONTINUOUS
 10
9.949842
 20
33.995335
 11
-83.050183
 21
33.995335
  0
LINE
  8
型材断面
  6
CONTINUOUS
 10
10.683178
 20
60.728725
 11
-83.050183
 21
60.728725
  0
LINE
  8
型材断面
  6
CONTINUOUS
 10
9.949842
 20
59.995392
 11
-83.050183
 21
59.995392
  0
LINE
  8
型材断面
  6
CONTINUOUS
 10
-76.383515
 20
59.625492
 11
-77.879145
 21
62.216
  0
LINE
  8
型材断面
  6
CONTINUOUS
 10
-76.383515
 20
59.625492
 11
-74.887885
 21
62.216
  0
LINE
  8
型材断面
  6
CONTINUOUS
 10
-74.887885
 20
62.216
 11
-77.879145
 21
62.216
  0
LINE
  8
型材断面
  6
CONTINUOUS
 10
-133.90239
 20
94.972835
 11
-133.306335
 21
92.382328
  0
LINE
  8
型材断面
  6
CONTINUOUS
 10
-133.90239
 20
94.972835
 11
-134.498448
 21
92.382328
  0
LINE
  8
型材断面
  6
CONTINUOUS
 10
-134.498448
 20
92.382328
 11
-133.306335
 21
92.382328
  0
LINE
  8
型材断面
  6
CONTINUOUS
 10
-139.924978
 20
89.103435
 11
-93.6832
 21
89.103435
  0
LINE
  8
型材断面
  6
CONTINUOUS
 10
-133.90239
 20
101.50271
 11
-135.39802
 21
98.912203
  0
LINE
  8
型材断面
  6
CONTINUOUS
 10
-133.90239
 20
101.50271
 11
-132.40676
 21
98.912203
  0
LINE
  8
型材断面
  6
CONTINUOUS
 10
-132.40676
 20
98.912203
 11
-135.39802
 21
98.912203
  0
LINE
  8
型材断面
  6
CONTINUOUS
 10
-139.924978
 20
97.973608
 11
-93.6832
 21
97.973608
  0
LINE
  8
型材断面
  6
CONTINUOUS
 10
-139.924978
 20
83.315402
 11
-93.6832
 21
83.315402
  0
LINE
  8
型材断面
  6
CONTINUOUS
 10
-95.680313
 20
46.995363
 11
-98.27082
 21
48.490992
  0
LINE
  8
型材断面
  6
CONTINUOUS
 10
-95.680313
 20
46.995363
 11
-98.27082
 21
45.499733
  0
LINE
  8
型材断面
  6
CONTINUOUS
 10
-98.27082
 20
45.499733
 11
-98.27082
 21
48.490992
  0
LINE
  8
型材断面
  6
CONTINUOUS
 10
-76.383515
 20
34.365232
 11
-77.879145
 21
31.774725
  0
LINE
  8
型材断面
  6
CONTINUOUS
 10
-76.383515
 20
34.365232
 11
-74.887885
 21
31.774725
  0
LINE
  8
型材断面
  6
CONTINUOUS
 10
-74.887885
 20
31.774725
 11
-77.879145
 21
31.774725
  0
LINE
  8
型材断面
  6
CONTINUOUS
 10
-9.71685
 20
59.625492
 11
-8.22122
 21
62.216
  0
LINE
  8
型材断面
  6
CONTINUOUS
 10
-9.71685
 20
59.625492
 11
-11.21248
 21
62.216
  0
LINE
  8
型材断面
  6
CONTINUOUS
 10
-11.21248
 20
62.216
 11
-8.22122
 21
62.216
  0
LINE
  8
型材断面
  6
CONTINUOUS
 10
-9.71685
 20
34.365232
 11
-8.22122
 21
31.774725
  0
LINE
  8
型材断面
  6
CONTINUOUS
 10
-9.71685
 20
34.365232
 11
-11.21248
 21
31.774725
  0
LINE
  8
型材断面
  6
CONTINUOUS
 10
-11.21248
 20
31.774725
 11
-8.22122
 21
31.774725
  0
LINE
  8
型材断面
  6
CONTINUOUS
 10
9.579947
 20
46.995363
 11
12.170455
 21
48.490992
  0
LINE
  8
型材断面
  6
CONTINUOUS
 10
9.579947
 20
46.995363
 11
12.170455
 21
45.499733
  0
LINE
  8
型材断面
  6
CONTINUOUS
 10
12.170455
 20
45.499733
 11
12.170455
 21
48.490992
  0
POLYLINE
  8
型材断面
  6
DASHDOT
 66
     1
  0
VERTEX
  8
型材断面
 10
-93.050183
 20
36.995363
  0
VERTEX
  8
型材断面
 10
-43.050183
 20
56.995363
  0
VERTEX
  8
型材断面
 10
6.949818
 20
36.995363
  0
SEQEND
  0
LINE
  8
型材断面
  6
CONTINUOUS
 10
4.949818
 20
34.38855
 11
4.35376
 21
31.798045
  0
LINE
  8
型材断面
  6
CONTINUOUS
 10
4.949818
 20
34.38855
 11
5.545875
 21
31.798045
  0
LINE
  8
型材断面
  6
CONTINUOUS
 10
5.545875
 20
31.798045
 11
4.35376
 21
31.798045
  0
LINE
  8
型材断面
  6
CONTINUOUS
 10
-91.050183
 20
34.38855
 11
-90.454125
 21
31.798045
  0
LINE
  8
型材断面
  6
CONTINUOUS
 10
-91.050183
 20
34.38855
 11
-91.64624
 21
31.798045
  0
LINE
  8
型材断面
  6
CONTINUOUS
 10
-91.64624
 20
31.798045
 11
-90.454125
 21
31.798045
  0
LINE
  8
型材断面
  6
DOT
 10
-58.696847
 20
36.995363
 11
-58.696847
 21
56.995363
  0
LINE
  8
型材断面
  6
DASHDOT
 10
-59.946847
 20
36.995363
 11
-59.946847
 21
56.995363
  0
LINE
  8
型材断面
  6
DOT
 10
-61.196847
 20
36.995363
 11
-61.196847
 21
56.995363
  0
LINE
  8
型材断面
  6
DOT
 10
-27.403518
 20
36.995363
 11
-27.403518
 21
56.995363
  0
LINE
  8
型材断面
  6
DASHDOT
 10
-26.153518
 20
36.995363
 11
-26.153518
 21
56.995363
  0
LINE
  8
型材断面
  6
DOT
 10
-24.903518
 20
36.995363
 11
-24.903518
 21
56.995363
  0
LINE
  8
型材断面
  6
CONTINUOUS
 62
    47
 10
107.369613
 20
58.042055
 11
107.369613
 21
58.762268
  0
LINE
  8
型材断面
  6
CONTINUOUS
 62
    47
 10
106.076293
 20
58.718905
 11
106.066293
 21
58.728905
  0
LINE
  8
型材断面
  6
CONTINUOUS
 62
    47
 10
106.076293
 20
58.718905
 11
106.086292
 21
58.728905
  0
LINE
  8
型材断面
  6
CONTINUOUS
 62
    47
 10
106.718525
 20
58.718905
 11
106.708525
 21
58.728905
  0
LINE
  8
型材断面
  6
CONTINUOUS
 62
    47
 10
106.718525
 20
58.718905
 11
106.728525
 21
58.728905
  0
LINE
  8
型材断面
  6
CONTINUOUS
 62
    47
 10
107.13631
 20
58.728905
 11
106.728525
 21
58.728905
  0
LINE
  8
型材断面
  6
CONTINUOUS
 62
    47
 10
106.708525
 20
58.728905
 11
106.086292
 21
58.728905
  0
LINE
  8
型材断面
  6
CONTINUOUS
 62
    47
 10
110.76973
 20
60.22873
 11
110.436398
 21
60.22873
  0
LINE
  8
型材断面
  6
CONTINUOUS
 62
    47
 10
109.769728
 20
58.29557
 11
109.769728
 21
57.698723
  0
LINE
  8
型材断面
  6
CONTINUOUS
 62
    47
 10
109.769715
 20
58.528723
 11
109.936398
 21
60.728723
  0
LINE
  8
型材断面
  6
CONTINUOUS
 62
    47
 10
110.436398
 20
60.728723
 11
109.936398
 21
60.728723
  0
LINE
  8
型材断面
  6
CONTINUOUS
 62
    47
 10
107.636273
 20
59.99539
 11
107.636273
 21
46.99536
  0
LINE
  8
型材断面
  6
CONTINUOUS
 10
109.769728
 20
46.99536
 11
109.769728
 21
58.528723
  0
LINE
  8
型材断面
  6
CONTINUOUS
 10
110.76973
 20
46.99536
 11
110.76973
 21
60.22873
  0
LINE
  8
型材断面
  6
CONTINUOUS
 10
110.436398
 20
46.99536
 11
110.436398
 21
60.728723
  0
LINE
  8
型材断面
  6
CONTINUOUS
 62
    47
 10
107.369613
 20
46.99536
 11
107.369613
 21
59.99539
  0
LINE
  8
型材断面
  6
CONTINUOUS
 62
    47
 10
107.202967
 20
59.99539
 11
107.369613
 21
59.99539
  0
LINE
  8
型材断面
  6
CONTINUOUS
 62
    47
 10
107.502955
 20
46.99536
 11
107.502955
 21
59.99539
  0
LINE
  8
型材断面
  6
CONTINUOUS
 62
    47
 10
107.636273
 20
59.99539
 11
107.502955
 21
59.99539
  0
LINE
  8
型材断面
  6
CONTINUOUS
 62
    47
 10
107.13631
 20
58.728905
 11
107.202967
 21
60.002075
  0
LINE
  8
型材断面
  6
CONTINUOUS
 62
    47
 10
107.636273
 20
58.528723
 11
109.769728
 21
58.528723
  0
LINE
  8
型材断面
  6
CONTINUOUS
 10
109.936398
 20
46.99536
 11
109.936398
 21
60.728723
  0
LINE
  8
型材断面
  6
CONTINUOUS
 10
107.13631
 20
58.728905
 11
107.13631
 21
46.99536
  0
LINE
  8
型材断面
  6
CONTINUOUS
 10
107.202967
 20
59.99539
 11
107.202967
 21
46.99536
  0
LINE
  8
型材断面
  6
CONTINUOUS
 62
    47
 10
107.369613
 20
35.948668
 11
107.369613
 21
35.228455
  0
LINE
  8
型材断面
  6
CONTINUOUS
 62
    47
 10
106.076293
 20
35.271817
 11
106.066293
 21
35.261817
  0
LINE
  8
型材断面
  6
CONTINUOUS
 62
    47
 10
106.076293
 20
35.271817
 11
106.086292
 21
35.261817
  0
LINE
  8
型材断面
  6
CONTINUOUS
 62
    47
 10
106.718525
 20
35.271817
 11
106.708525
 21
35.261817
  0
LINE
  8
型材断面
  6
CONTINUOUS
 62
    47
 10
106.718525
 20
35.271817
 11
106.728525
 21
35.261817
  0
LINE
  8
型材断面
  6
CONTINUOUS
 62
    47
 10
107.13631
 20
35.261817
 11
106.728525
 21
35.261817
  0
LINE
  8
型材断面
  6
CONTINUOUS
 62
    47
 10
106.708525
 20
35.261817
 11
106.086292
 21
35.261817
  0
LINE
  8
型材断面
  6
CONTINUOUS
 62
    47
 10
110.76973
 20
33.76199
 11
110.436398
 21
33.76199
  0
LINE
  8
型材断面
  6
CONTINUOUS
 62
    47
 10
109.769728
 20
35.695153
 11
109.769728
 21
36.292
  0
LINE
  8
型材断面
  6
CONTINUOUS
 62
    47
 10
109.769715
 20
35.462
 11
109.936398
 21
33.262
  0
LINE
  8
型材断面
  6
CONTINUOUS
 62
    47
 10
110.436398
 20
33.262
 11
109.936398
 21
33.262
  0
LINE
  8
型材断面
  6
CONTINUOUS
 62
    47
 10
107.636273
 20
33.995333
 11
107.636273
 21
46.99536
  0
LINE
  8
型材断面
  6
CONTINUOUS
 10
109.769728
 20
46.99536
 11
109.769728
 21
35.462
  0
LINE
  8
型材断面
  6
CONTINUOUS
 10
110.76973
 20
46.99536
 11
110.76973
 21
33.76199
  0
LINE
  8
型材断面
  6
CONTINUOUS
 10
110.436398
 20
46.99536
 11
110.436398
 21
33.262
  0
LINE
  8
型材断面
  6
CONTINUOUS
 62
    47
 10
107.369613
 20
46.99536
 11
107.369613
 21
33.995333
  0
LINE
  8
型材断面
  6
CONTINUOUS
 62
    47
 10
107.202967
 20
33.995333
 11
107.369613
 21
33.995333
  0
LINE
  8
型材断面
  6
CONTINUOUS
 62
    47
 10
107.502955
 20
46.99536
 11
107.502955
 21
33.995333
  0
LINE
  8
型材断面
  6
CONTINUOUS
 62
    47
 10
107.636273
 20
33.995333
 11
107.502955
 21
33.995333
  0
LINE
  8
型材断面
  6
CONTINUOUS
 62
    47
 10
107.13631
 20
35.261817
 11
107.202967
 21
33.988645
  0
LINE
  8
型材断面
  6
CONTINUOUS
 62
    47
 10
107.636273
 20
35.462
 11
109.769728
 21
35.462
  0
LINE
  8
型材断面
  6
CONTINUOUS
 10
109.936398
 20
46.99536
 11
109.936398
 21
33.262
  0
LINE
  8
型材断面
  6
CONTINUOUS
 10
107.13631
 20
35.261817
 11
107.13631
 21
46.99536
  0
LINE
  8
型材断面
  6
CONTINUOUS
 10
107.202967
 20
33.995333
 11
107.202967
 21
46.99536
  0
LINE
  8
型材断面
  6
DOT
 62
    47
 10
105.762493
 20
58.74916
 11
106.271762
 21
59.258427
  0
LINE
  8
型材断面
  6
DOT
 62
    47
 10
105.326583
 20
60.14228
 11
105.326583
 21
60.156423
  0
LINE
  8
型材断面
  6
DOT
 62
    47
 10
105.326583
 20
60.14228
 11
105.340725
 21
60.14228
  0
LINE
  8
型材断面
  6
DOT
 62
    47
 10
105.78071
 20
59.688155
 11
105.78071
 21
59.702295
  0
LINE
  8
型材断面
  6
DOT
 62
    47
 10
105.78071
 20
59.688155
 11
105.794852
 21
59.688155
  0
LINE
  8
型材断面
  6
DOT
 62
    47
 10
106.083197
 20
59.399805
 11
105.794852
 21
59.688155
  0
LINE
  8
型材断面
  6
DOT
 62
    47
 10
105.78071
 20
59.702295
 11
105.340725
 21
60.14228
  0
LINE
  8
型材断面
  6
DOT
 62
    47
 10
105.326583
 20
60.156423
 11
104.421393
 21
61.061613
  0
LINE
  8
型材断面
  6
DOT
 62
    47
 10
97.951303
 20
50.937968
 11
107.14371
 21
60.130375
  0
LINE
  8
型材断面
  6
DOT
 62
    47
 10
107.025872
 20
60.248213
 11
107.14371
 21
60.130375
  0
LINE
  8
型材断面
  6
DOT
 62
    47
 10
106.083197
 20
59.399805
 11
107.030602
 21
60.25294
  0
LINE
  8
型材断面
  6
DOT
 10
106.083197
 20
59.399805
 11
97.786333
 21
51.102938
  0
LINE
  8
型材断面
  6
DOT
 10
107.025872
 20
60.248213
 11
97.833465
 21
51.055805
  0
LINE
  8
型材断面
  6
DOT
 62
    47
 10
90.14011
 20
43.126775
 11
89.630842
 21
42.617507
  0
LINE
  8
型材断面
  6
DOT
 62
    47
 10
88.746988
 20
43.562685
 11
88.732848
 21
43.562685
  0
LINE
  8
型材断面
  6
DOT
 62
    47
 10
88.746988
 20
43.562685
 11
88.746988
 21
43.548545
  0
LINE
  8
型材断面
  6
DOT
 62
    47
 10
89.201115
 20
43.10856
 11
89.186973
 21
43.10856
  0
LINE
  8
型材断面
  6
DOT
 62
    47
 10
89.201115
 20
43.10856
 11
89.201115
 21
43.094418
  0
LINE
  8
型材断面
  6
DOT
 62
    47
 10
89.489463
 20
42.80607
 11
89.201115
 21
43.094418
  0
LINE
  8
型材断面
  6
DOT
 62
    47
 10
89.186973
 20
43.10856
 11
88.746988
 21
43.548545
  0
LINE
  8
型材断面
  6
DOT
 62
    47
 10
88.732848
 20
43.562685
 11
87.827657
 21
44.467875
  0
LINE
  8
型材断面
  6
DOT
 62
    47
 10
97.951303
 20
50.937968
 11
88.758893
 21
41.74556
  0
LINE
  8
型材断面
  6
DOT
 62
    47
 10
88.641057
 20
41.863395
 11
88.758893
 21
41.74556
  0
LINE
  8
型材断面
  6
DOT
 62
    47
 10
89.489463
 20
42.80607
 11
88.63633
 21
41.858668
  0
LINE
  8
型材断面
  6
DOT
 10
89.489463
 20
42.80607
 11
97.786333
 21
51.102938
  0
LINE
  8
型材断面
  6
DOT
 10
88.641057
 20
41.863395
 11
97.833465
 21
51.055805
  0
ARC
  8
型材断面
  6
DASHDOT
 10
107.419601
 20
60.335576
 40
26.340287
 50
224.891258
 51
269.891257
  0
LINE
  8
型材断面
  6
CONTINUOUS
 62
    47
 10
106.066293
 20
58.728905
 11
104.936162
 21
58.728905
  0
LINE
  8
型材断面
  6
CONTINUOUS
 62
    47
 10
106.066293
 20
35.261817
 11
104.936162
 21
35.261817
  0
POLYLINE
  8
ガラス
  6
CONTINUOUS
 66
     1
 70
     1
  0
VERTEX
  8
ガラス
 10
112.146667
 20
-47.158972
  0
VERTEX
  8
ガラス
 10
79.200002
 20
-47.158972
  0
VERTEX
  8
ガラス
 10
79.200002
 20
-67.692307
  0
VERTEX
  8
ガラス
 10
112.146667
 20
-67.692307
  0
SEQEND
  0
TEXT
  7
TextStyle03
  8
文字
  6
CONTINUOUS
 10
80.875
 20
94.425
  1
ＮＳコード：ＮＳＨＬ
 40
5.0
 72
     5
 11
136.5
 21
94.425
  0
TEXT
  7
TextStyle03
  8
文字
  6
CONTINUOUS
 10
-131.1
 20
99.125
  1
は排水穴位置を示す
 40
3.0
 72
     5
 11
-101.1
 21
99.125
  0
TEXT
  7
TextStyle03
  8
文字
  6
CONTINUOUS
 10
-131.1
 20
93.6
  1
はケーシング位置を示す
 40
3.0
 72
     5
 11
-94.35
 21
93.6
  0
TEXT
  7
TextStyle03
  8
文字
  6
CONTINUOUS
 10
-131.1
 20
90.225
  1
２ヶ所中1ヶ所に設定
 40
3.0
 72
     5
 11
-99.4125
 21
90.225
  0
TEXT
  7
TextStyle03
  8
文字
  6
CONTINUOUS
 10
-114.125
 20
25.45
  1
アンカーピッチ
 40
3.0
 50
90.0
 72
     5
 11
-114.125
 21
48.7
  0
TEXT
  7
TextStyle03
  8
文字
  6
CONTINUOUS
 10
-83.1
 20
94.375
  1
アンカーピッチ
 40
3.0
 72
     5
 11
-59.85
 21
94.375
  0
TEXT
  7
TextStyle03
  8
文字
  6
CONTINUOUS
 10
-134.825
 20
84.25
  1
アンカー数量　１２ヶ所
 40
3.0
 72
     5
 11
-98.075
 21
84.25
  0
TEXT
  7
TextStyle03
  8
文字
  6
CONTINUOUS
 10
81.225
 20
116.5
  1
シリーズ：ＴＤ１ＨＬ
 40
5.0
 72
     5
 11
136.85
 21
116.5
  0
TEXT
  7
TextStyle03
  8
文字
  6
CONTINUOUS
 10
81.225
 20
110.875
  1
　　　　　（片側開閉）600×3000タイプ
 40
5.0
 72
     5
 11
184.6625
 21
110.875
  0
TEXT
  7
TextStyle03
  8
文字
  6
CONTINUOUS
 10
81.225
 20
105.25
  1
図面名　：外観姿図
 40
5.0
 72
     5
 11
131.225
 21
105.25
  0
TEXT
  7
TextStyle03
  8
文字
  6
CONTINUOUS
 10
81.225
 20
99.625
  1
　　　　　　
 40
5.0
 72
     5
 11
114.35
 21
99.625
  0
TEXT
  7
TextStyle03
  8
文字
  6
CONTINUOUS
 10
83.5
 20
37.675
  1
45°
 40
3.0
 72
     5
 11
89.875
 21
37.675
  0
TEXT
  7
TextStyle03
  8
文字
  6
CONTINUOUS
 10
93.05
 20
-60.25
  1
網入り6.8t
 40
3.0
 72
     5
 11
109.7375
 21
-60.25
  0
TEXT
  7
TextStyle03
  8
文字
  6
CONTINUOUS
 10
99.675
 20
-65.5
  1
×３枚
 40
3.0
 72
     5
 11
109.425
 21
-65.5
  0
INSERT
  2
*DIM_0002
  8
寸法
  6
CONTINUOUS
 10
0.0
 20
0.0
  0
INSERT
  2
*DIM_0003
  8
寸法
  6
CONTINUOUS
 10
0.0
 20
0.0
  0
INSERT
  2
*DIM_0004
  8
寸法
  6
CONTINUOUS
 10
0.0
 20
0.0
  0
INSERT
  2
*DIM_0005
  8
寸法
  6
CONTINUOUS
 10
0.0
 20
0.0
  0
INSERT
  2
*DIM_0006
  8
寸法
  6
CONTINUOUS
 10
0.0
 20
0.0
  0
INSERT
  2
*DIM_0007
  8
寸法
  6
CONTINUOUS
 10
0.0
 20
0.0
  0
INSERT
  2
*DIM_0008
  8
寸法
  6
CONTINUOUS
 10
0.0
 20
0.0
  0
INSERT
  2
*DIM_0009
  8
寸法
  6
CONTINUOUS
 10
0.0
 20
0.0
  0
INSERT
  2
*DIM_0010
  8
寸法
  6
CONTINUOUS
 10
0.0
 20
0.0
  0
INSERT
  2
*DIM_0012
  8
寸法
  6
CONTINUOUS
 10
0.0
 20
0.0
  0
INSERT
  2
*DIM_0013
  8
寸法
  6
CONTINUOUS
 10
0.0
 20
0.0
  0
INSERT
  2
*DIM_0014
  8
寸法
  6
CONTINUOUS
 10
0.0
 20
0.0
  0
INSERT
  2
*DIM_0015
  8
寸法
  6
CONTINUOUS
 10
0.0
 20
0.0
  0
INSERT
  2
*DIM_0016
  8
寸法
  6
CONTINUOUS
 10
0.0
 20
0.0
  0
INSERT
  2
*DIM_0017
  8
寸法
  6
CONTINUOUS
 10
0.0
 20
0.0
  0
INSERT
  2
*DIM_0018
  8
寸法
  6
CONTINUOUS
 10
0.0
 20
0.0
  0
INSERT
  2
*DIM_0019
  8
寸法
  6
CONTINUOUS
 10
0.0
 20
0.0
  0
INSERT
  2
*DIM_0021
  8
寸法
  6
CONTINUOUS
 10
0.0
 20
0.0
  0
INSERT
  2
*DIM_0022
  8
寸法
  6
CONTINUOUS
 10
0.0
 20
0.0
  0
LINE
  8
別途部材
  6
CONTINUOUS
 10
9.016485
 20
34.928695
 11
8.616485
 21
35.328695
  0
LINE
  8
別途部材
  6
CONTINUOUS
 10
6.949818
 20
36.995363
 11
-1.109437
 21
45.05462
  0
LINE
  8
別途部材
  6
CONTINUOUS
 10
8.616485
 20
35.328695
 11
8.616485
 21
46.995363
  0
LINE
  8
別途部材
  6
CONTINUOUS
 10
9.016485
 20
34.928695
 11
9.016485
 21
46.995363
  0
LINE
  8
別途部材
  6
CONTINUOUS
 10
9.016485
 20
59.06203
 11
8.616485
 21
58.66203
  0
LINE
  8
別途部材
  6
CONTINUOUS
 10
6.949818
 20
56.995363
 11
-1.109437
 21
48.936105
  0
LINE
  8
別途部材
  6
CONTINUOUS
 10
8.616485
 20
58.66203
 11
8.616485
 21
46.995363
  0
LINE
  8
別途部材
  6
CONTINUOUS
 10
9.016485
 20
59.06203
 11
9.016485
 21
46.995363
  0
LINE
  8
別途部材
  6
CONTINUOUS
 10
9.016485
 20
59.06203
 11
-43.050183
 21
59.06203
  0
LINE
  8
別途部材
  6
CONTINUOUS
 10
8.616485
 20
58.66203
 11
-43.050183
 21
58.66203
  0
LINE
  8
別途部材
  6
CONTINUOUS
 10
8.616485
 20
35.328695
 11
-43.050183
 21
35.328695
  0
LINE
  8
別途部材
  6
CONTINUOUS
 10
9.016485
 20
34.928695
 11
-43.050183
 21
34.928695
  0
LINE
  8
別途部材
  6
CONTINUOUS
 10
-95.11685
 20
34.928695
 11
-94.71685
 21
35.328695
  0
LINE
  8
別途部材
  6
CONTINUOUS
 10
-93.050183
 20
36.995363
 11
-84.990927
 21
45.05462
  0
LINE
  8
別途部材
  6
CONTINUOUS
 10
-94.71685
 20
35.328695
 11
-94.71685
 21
46.995363
  0
LINE
  8
別途部材
  6
CONTINUOUS
 10
-95.11685
 20
34.928695
 11
-95.11685
 21
46.995363
  0
LINE
  8
別途部材
  6
CONTINUOUS
 10
-95.11685
 20
59.06203
 11
-94.71685
 21
58.66203
  0
LINE
  8
別途部材
  6
CONTINUOUS
 10
-93.050183
 20
56.995363
 11
-84.990927
 21
48.936105
  0
LINE
  8
別途部材
  6
CONTINUOUS
 10
-94.71685
 20
58.66203
 11
-94.71685
 21
46.995363
  0
LINE
  8
別途部材
  6
CONTINUOUS
 10
-95.11685
 20
59.06203
 11
-95.11685
 21
46.995363
  0
LINE
  8
別途部材
  6
CONTINUOUS
 10
-95.11685
 20
59.06203
 11
-43.050183
 21
59.06203
  0
LINE
  8
別途部材
  6
CONTINUOUS
 10
-94.71685
 20
58.66203
 11
-43.050183
 21
58.66203
  0
LINE
  8
別途部材
  6
CONTINUOUS
 10
-94.71685
 20
35.328695
 11
-43.050183
 21
35.328695
  0
LINE
  8
別途部材
  6
CONTINUOUS
 10
-95.11685
 20
34.928695
 11
-43.050183
 21
34.928695
  0
INSERT
  2
*GRP_0011
  8
別途部材
  6
CONTINUOUS
 10
0.0
 20
0.0
  0
INSERT
  2
*GRP_0020
  8
別途部材
  6
CONTINUOUS
 10
0.0
 20
0.0
  0
LINE
  8
別途部材
  6
DOT
 62
    96
 10
103.666998
 20
61.72143
 11
104.656948
 21
61.297165
  0
LINE
  8
別途部材
  6
DOT
 62
    96
 10
103.666998
 20
61.72143
 11
95.417418
 21
53.47185
  0
LINE
  8
別途部材
  6
DOT
 10
104.656948
 20
61.297165
 11
96.124525
 21
52.764745
  0
LINE
  8
別途部材
  6
DOT
 62
    96
 10
87.16784
 20
45.222272
 11
87.592102
 21
44.232323
  0
LINE
  8
別途部材
  6
DOT
 62
    96
 10
87.16784
 20
45.222272
 11
95.417418
 21
53.47185
  0
LINE
  8
別途部材
  6
DOT
 10
87.592102
 20
44.232323
 11
96.124525
 21
52.764745
  0
ARC
  8
別途部材
  6
DOT
 10
100.160922
 20
48.728346
 40
12.041667
 50
78.855026
 51
191.144974
  0
LINE
  8
別途部材
  6
CONTINUOUS
 62
    96
 10
103.936162
 20
58.662027
 11
104.936162
 21
59.062027
  0
LINE
  8
別途部材
  6
CONTINUOUS
 62
    96
 10
103.936162
 20
58.662027
 11
103.936162
 21
46.99536
  0
LINE
  8
別途部材
  6
CONTINUOUS
 10
104.936162
 20
59.062027
 11
104.936162
 21
46.99536
  0
LINE
  8
別途部材
  6
CONTINUOUS
 62
    96
 10
103.936162
 20
35.328695
 11
104.936162
 21
34.928695
  0
LINE
  8
別途部材
  6
CONTINUOUS
 62
    96
 10
103.936162
 20
35.328695
 11
103.936162
 21
46.99536
  0
LINE
  8
別途部材
  6
CONTINUOUS
 10
104.936162
 20
34.928695
 11
104.936162
 21
46.99536
  0
ARC
  8
別途部材
  6
CONTINUOUS
 10
110.64449
 20
46.995363
 40
12.041667
 50
123.855026
 51
236.144974
  0
INSERT
  2
*GRP_0023
  8
別途部材
  6
DOT
 10
0.0
 20
0.0
  0
INSERT
  2
*GRP_0024
  8
別途部材
  6
DOT
 10
0.0
 20
0.0
  0
INSERT
  2
*GRP_0025
  8
別途部材
  6
DOT
 10
0.0
 20
0.0
  0
INSERT
  2
*GRP_0026
  8
別途部材
  6
DOT
 10
0.0
 20
0.0
  0
INSERT
  2
*GRP_0027
  8
別途部材
  6
DOT
 10
0.0
 20
0.0
  0
INSERT
  2
*GRP_0028
  8
別途部材
  6
DOT
 10
0.0
 20
0.0
  0
ENDSEC
  0
EOF
