  0
SECTION
  2
HEADER
  9
$EXTMIN
 10
-210.0
 20
-148.5
  9
$EXTMAX
 10
210.0
 20
148.5
  9
$PDMODE
 70
    32
  9
$PDSIZE
 40
1.5
  9
$LTSCALE
 40
10.0
  0
ENDSEC
  0
SECTION
  2
TABLES
  0
TABLE
  2
LTYPE
 70
    15
  0
LTYPE
  2
CONTINUOUS
 70
    64
  3
実線
 72
    65
 73
     0
 40
0.0
  0
LTYPE
  2
DASHED
 70
    64
  3
破線A
 72
    65
 73
     2
 40
0.6
 49
0.4
 49
-0.2
  0
LTYPE
  2
DASHEDX2
 70
    64
  3
破線B
 72
    65
 73
     2
 40
1.3
 49
0.9
 49
-0.4
  0
LTYPE
  2
DASHDOT
 70
    64
  3
１点鎖線A
 72
    65
 73
     4
 40
0.5375
 49
0.375
 49
-0.05
 49
0.0625
 49
-0.05
  0
LTYPE
  2
DASHDOTX2
 70
    64
  3
１点鎖線B
 72
    65
 73
     4
 40
1.075
 49
0.75
 49
-0.1
 49
0.125
 49
-0.1
  0
LTYPE
  2
DIVIDE2
 70
    64
  3
２点鎖線A
 72
    65
 73
     6
 40
0.5125
 49
0.3
 49
-0.0375
 49
0.05
 49
-0.0375
 49
0.05
 49
-0.0375
  0
LTYPE
  2
DIVIDE
 70
    64
  3
２点鎖線B
 72
    65
 73
     6
 40
1.05
 49
0.55
 49
-0.1
 49
0.1
 49
-0.1
 49
0.1
 49
-0.1
  0
LTYPE
  2
DOT
 70
    64
  3
点線A
 72
    65
 73
     2
 40
0.1125
 49
0.0625
 49
-0.05
  0
LTYPE
  2
DOTX2
 70
    64
  3
点線B
 72
    65
 73
     2
 40
0.275
 49
0.15
 49
-0.125
  0
LTYPE
  2
CONTINUOUS
 70
    64
  3
実線
 72
    65
 73
     0
 40
0.0
  0
LTYPE
  2
CONTINUOUS
 70
    64
  3
実線
 72
    65
 73
     0
 40
0.0
  0
LTYPE
  2
CONTINUOUS
 70
    64
  3
実線
 72
    65
 73
     0
 40
0.0
  0
LTYPE
  2
CONTINUOUS
 70
    64
  3
実線
 72
    65
 73
     0
 40
0.0
  0
LTYPE
  2
CONTINUOUS
 70
    64
  3
実線
 72
    65
 73
     0
 40
0.0
  0
LTYPE
  2
CONTINUOUS
 70
    64
  3
実線
 72
    65
 73
     0
 40
0.0
  0
ENDTAB
  0
TABLE
  2
LAYER
 70
    34
  0
LAYER
  2
通り芯
 70
     0
 62
    15
  6
CONTINUOUS
  0
LAYER
  2
補助線
 70
     0
 62
    16
  6
DOT
  0
LAYER
  2
躯体
 70
     0
 62
    31
  6
CONTINUOUS
  0
LAYER
  2
型材
 70
     0
 62
    32
  6
CONTINUOUS
  0
LAYER
  2
型材断面
 70
     0
 62
    47
  6
CONTINUOUS
  0
LAYER
  2
ガラス
 70
     0
 62
    48
  6
CONTINUOUS
  0
LAYER
  2
ゴム等
 70
     0
 62
    63
  6
CONTINUOUS
  0
LAYER
  2
ボルト／ビス
 70
     0
 62
    64
  6
CONTINUOUS
  0
LAYER
  2
文字
 70
     0
 62
    79
  6
CONTINUOUS
  0
LAYER
  2
寸法
 70
     0
 62
    80
  6
CONTINUOUS
  0
LAYER
  2
ﾊｯﾁﾝｸﾞ
 70
     0
 62
    95
  6
CONTINUOUS
  0
LAYER
  2
別途部材
 70
     0
 62
    96
  6
CONTINUOUS
  0
LAYER
  2
曲げ物
 70
     0
 62
   111
  6
CONTINUOUS
  0
LAYER
  2
鉄骨等
 70
     0
 62
   112
  6
CONTINUOUS
  0
LAYER
  2
St
 70
     0
 62
   127
  6
CONTINUOUS
  0
LAYER
  2
その他部品等
 70
     0
 62
   128
  6
CONTINUOUS
  0
LAYER
  2
ｶﾞｽｹｯﾄ
 70
     0
 62
   143
  6
CONTINUOUS
  0
LAYER
  2
ｽｹｯﾁ
 70
     0
 62
    14
  6
CONTINUOUS
  0
LAYER
  2
0
 70
     0
 62
    17
  6
CONTINUOUS
  0
LAYER
  2
1
 70
     0
 62
    30
  6
CONTINUOUS
  0
LAYER
  2
4
 70
     0
 62
    33
  6
CONTINUOUS
  0
LAYER
  2
ﾚｲﾔ3
 70
     0
 62
    46
  6
CONTINUOUS
  0
LAYER
  2
外形線
 70
     0
 62
    49
  6
CONTINUOUS
  0
LAYER
  2
部品
 70
     0
 62
    14
  6
CONTINUOUS
  0
LAYER
  2
サッシ芯
 70
     0
 62
    17
  6
DASHDOTX2
  0
LAYER
  2
寸法線
 70
     0
 62
    62
  6
CONTINUOUS
  0
LAYER
  2
姿図外形線
 70
     0
 62
    65
  6
CONTINUOUS
  0
LAYER
  2
姿補助線
 70
     0
 62
    30
  6
CONTINUOUS
  0
LAYER
  2
透視線
 70
     0
 62
    78
  6
DOT
  0
LAYER
  2
用紙
 70
     0
 62
    81
  6
CONTINUOUS
  0
LAYER
  2
実線図枠
 70
     0
 62
    94
  6
CONTINUOUS
  0
LAYER
  2
補助図枠
 70
     0
 62
    97
  6
CONTINUOUS
  0
LAYER
  2
建具記号
 70
     0
 62
   110
  6
CONTINUOUS
  0
LAYER
  2
補助文字
 70
     0
 62
   113
  6
CONTINUOUS
  0
ENDTAB
  0
TABLE
  2
STYLE
 70
    10
  0
STYLE
  2
STANDARD
 70
     0
 40
1.0
 41
1.0
 42
1.0
 50
0.0
 71
     0
  3
TXT
  4
BIGFONT
  0
STYLE
  2
TATE
 70
     4
 40
1.0
 41
1.0
 42
1.0
 50
0.0
 71
     0
  3
TXT
  4
BIGFONT
  0
STYLE
  2
TextStyle03
 70
     0
 40
1.0
 41
1.0
 42
1.0
 50
0.0
 71
     0
  3
MONOTXT
  4
BIGFONT
  0
STYLE
  2
TextStyle04
 70
     0
 40
1.0
 41
1.0
 42
1.0
 50
0.0
 71
     0
  3
MONOTXT
  4
BIGFONT
  0
STYLE
  2
TextStyle05
 70
     0
 40
1.0
 41
1.0
 42
1.0
 50
0.0
 71
     0
  3
MONOTXT
  4
BIGFONT
  0
STYLE
  2
TextStyle06
 70
     0
 40
1.0
 41
1.0
 42
1.0
 50
0.0
 71
     0
  3
MONOTXT
  4
BIGFONT
  0
STYLE
  2
TextStyle07
 70
     0
 40
1.0
 41
1.0
 42
1.0
 50
0.0
 71
     0
  3
MONOTXT
  4
BIGFONT
  0
STYLE
  2
TextStyle08
 70
     0
 40
1.0
 41
1.0
 42
1.0
 50
0.0
 71
     0
  3
MONOTXT
  4
BIGFONT
  0
STYLE
  2
TextStyle09
 70
     0
 40
1.0
 41
1.0
 42
1.0
 50
0.0
 71
     0
  3
MONOTXT
  4
BIGFONT
  0
STYLE
  2
TextStyle10
 70
     0
 40
1.0
 41
1.0
 42
1.0
 50
0.0
 71
     0
  3
MONOTXT
  4
BIGFONT
  0
ENDTAB
  0
ENDSEC
  0
SECTION
  2
BLOCKS
  0
BLOCK
  2
*GRP_0001
 70
    65
 10
0.0
 20
0.0
  0
LINE
  8
型材断面
  6
CONTINUOUS
 10
195.0
 20
133.5
 11
195.0
 21
-133.5
  0
LINE
  8
型材断面
  6
CONTINUOUS
 10
195.0
 20
-133.5
 11
-185.0
 21
-133.5
  0
LINE
  8
型材断面
  6
CONTINUOUS
 10
-185.0
 20
-133.5
 11
-185.0
 21
133.5
  0
LINE
  8
型材断面
  6
CONTINUOUS
 10
195.0
 20
133.5
 11
-185.0
 21
133.5
  0
LINE
  8
型材断面
  6
CONTINUOUS
 10
145.0
 20
-133.5
 11
145.0
 21
-118.5
  0
LINE
  8
型材断面
  6
CONTINUOUS
 10
195.0
 20
-118.5
 11
145.0
 21
-118.5
  0
ENDBLK
  0
BLOCK
  2
*DIM_0002
 70
    65
 10
0.0
 20
0.0
  0
LINE
  8
寸法
  6
CONTINUOUS
 10
-76.383518
 20
-31.074888
 11
-9.71685
 21
-31.074888
  0
POINT
  8
寸法
 10
-76.383518
 20
-31.074888
  0
POINT
  8
寸法
 10
-9.71685
 20
-31.074888
  0
TEXT
  7
TextStyle03
  8
寸法
  6
CONTINUOUS
 10
-54.76875
 20
-30.675
  1
呼称寸法　2000
 40
3.0
 72
     5
 11
-31.33125
 21
-30.675
  0
ENDBLK
  0
BLOCK
  2
*DIM_0003
 70
    65
 10
0.0
 20
0.0
  0
LINE
  8
寸法
  6
CONTINUOUS
 10
-0.983487
 20
-61.677663
 11
9.115402
 21
-61.677663
  0
LINE
  8
寸法
  6
CONTINUOUS
 10
-3.050185
 20
-55.177423
 11
9.115402
 21
-55.177423
  0
LINE
  8
寸法
  6
CONTINUOUS
 10
9.115402
 20
-61.677663
 11
9.115402
 21
-55.177423
  0
POINT
  8
寸法
 10
9.115402
 20
-61.677663
  0
POINT
  8
寸法
 10
9.115402
 20
-55.177423
  0
TEXT
  7
TextStyle03
  8
寸法
  6
CONTINUOUS
 10
8.725
 20
-60.8875
  1
195
 40
3.0
 50
90.0
 72
     5
 11
8.725
 21
-56.0125
  0
ENDBLK
  0
BLOCK
  2
*DIM_0004
 70
    65
 10
0.0
 20
0.0
  0
LINE
  8
寸法
  6
CONTINUOUS
 10
-15.633518
 20
-49.84409
 11
9.115402
 21
-49.84409
  0
LINE
  8
寸法
  6
CONTINUOUS
 10
9.115402
 20
-55.177423
 11
9.115402
 21
-49.84409
  0
POINT
  8
寸法
 10
9.115402
 20
-49.84409
  0
TEXT
  7
TextStyle03
  8
寸法
  6
CONTINUOUS
 10
8.725
 20
-54.9625
  1
160
 40
3.0
 50
90.0
 72
     5
 11
8.725
 21
-50.0875
  0
ENDBLK
  0
BLOCK
  2
*DIM_0005
 70
    65
 10
0.0
 20
0.0
  0
LINE
  8
寸法
  6
CONTINUOUS
 10
-5.983487
 20
-56.327663
 11
-5.983487
 21
-31.074888
  0
LINE
  8
寸法
  6
CONTINUOUS
 10
-9.71685
 20
-31.074888
 11
-5.983487
 21
-31.074888
  0
POINT
  8
寸法
 10
-9.71685
 20
-31.074888
  0
POINT
  8
寸法
 10
-5.983487
 20
-31.074888
  0
TEXT
  7
TextStyle03
  8
寸法
  6
CONTINUOUS
 10
-9.1375
 20
-30.2
  1
112
 40
3.0
 72
     5
 11
-4.2625
 21
-30.2
  0
ENDBLK
  0
BLOCK
  2
*DIM_0006
 70
    65
 10
0.0
 20
0.0
  0
LINE
  8
寸法
  6
CONTINUOUS
 10
-80.116878
 20
-56.327663
 11
-80.116878
 21
-31.074888
  0
LINE
  8
寸法
  6
CONTINUOUS
 10
-76.383518
 20
-31.074888
 11
-80.116878
 21
-31.074888
  0
POINT
  8
寸法
 10
-76.383518
 20
-31.074888
  0
POINT
  8
寸法
 10
-80.116878
 20
-31.074888
  0
TEXT
  7
TextStyle03
  8
寸法
  6
CONTINUOUS
 10
-82.1125
 20
-30.35
  1
112
 40
3.0
 72
     5
 11
-77.2375
 21
-30.35
  0
ENDBLK
  0
BLOCK
  2
*DIM_0007
 70
    65
 10
0.0
 20
0.0
  0
LINE
  8
寸法
  6
CONTINUOUS
 10
144.308975
 20
41.99536
 11
144.308975
 21
20.518102
  0
LINE
  8
寸法
  6
CONTINUOUS
 10
149.64231
 20
20.518102
 11
144.308975
 21
20.518102
  0
POINT
  8
寸法
 10
144.308975
 20
20.518102
  0
TEXT
  7
TextStyle03
  8
寸法
  6
CONTINUOUS
 10
144.4875
 20
20.875
  1
160
 40
3.0
 72
     5
 11
149.3625
 21
20.875
  0
ENDBLK
  0
BLOCK
  2
*DIM_0008
 70
    65
 10
0.0
 20
0.0
  0
LINE
  8
寸法
  6
CONTINUOUS
 10
156.142545
 20
28.262
 11
156.142545
 21
20.518102
  0
LINE
  8
寸法
  6
CONTINUOUS
 10
149.64231
 20
30.328695
 11
149.64231
 21
20.518102
  0
LINE
  8
寸法
  6
CONTINUOUS
 10
156.142545
 20
20.518102
 11
149.64231
 21
20.518102
  0
POINT
  8
寸法
 10
156.142545
 20
20.518102
  0
POINT
  8
寸法
 10
149.64231
 20
20.518102
  0
TEXT
  7
TextStyle03
  8
寸法
  6
CONTINUOUS
 10
150.4125
 20
20.875
  1
195
 40
3.0
 72
     5
 11
155.2875
 21
20.875
  0
ENDBLK
  0
BLOCK
  2
*GRP_0009
 70
    65
 10
0.0
 20
0.0
  0
LINE
  8
別途部材
  6
CONTINUOUS
 62
    96
 10
154.925753
 20
58.628905
 11
154.925753
 21
58.528905
  0
LINE
  8
別途部材
  6
CONTINUOUS
 62
    96
 10
152.824673
 20
58.728905
 11
152.894345
 21
60.05971
  0
LINE
  8
別途部材
  6
CONTINUOUS
 62
    96
 10
153.44242
 20
60.068905
 11
153.325753
 21
60.335572
  0
LINE
  8
別途部材
  6
CONTINUOUS
 62
    96
 10
153.34242
 20
60.04799
 11
153.2749
 21
60.202323
  0
LINE
  8
別途部材
  6
CONTINUOUS
 62
    96
 10
152.795575
 20
60.085828
 11
152.926025
 21
60.34603
  0
LINE
  8
別途部材
  6
CONTINUOUS
 62
    96
 10
152.894345
 20
60.05971
 11
153.026505
 21
60.323322
  0
LINE
  8
別途部材
  6
CONTINUOUS
 62
    96
 10
153.062107
 20
60.25844
 11
152.99846
 21
60.18131
  0
LINE
  8
別途部材
  6
DASHDOTX2
 62
    96
 10
153.125753
 20
60.335572
 11
152.812268
 21
60.335572
  0
LINE
  8
別途部材
  6
DASHDOTX2
 62
    96
 10
153.125753
 20
60.335572
 11
153.456213
 21
60.335572
  0
LINE
  8
別途部材
  6
DASHDOTX2
 62
    96
 10
153.125753
 20
60.335572
 11
153.125753
 21
60.0721
  0
LINE
  8
別途部材
  6
DASHDOTX2
 62
    96
 10
153.125753
 20
60.335572
 11
153.125753
 21
60.613883
  0
LINE
  8
別途部材
  6
CONTINUOUS
 62
    96
 10
153.34242
 20
58.528905
 11
153.34242
 21
60.04799
  0
LINE
  8
別途部材
  6
CONTINUOUS
 62
    96
 10
153.44242
 20
58.628905
 11
153.44242
 21
60.068905
  0
LINE
  8
別途部材
  6
CONTINUOUS
 62
    96
 10
151.59134
 20
58.828908
 11
152.72977
 21
58.828908
  0
LINE
  8
別途部材
  6
CONTINUOUS
 62
    96
 10
151.59134
 20
58.728905
 11
151.59134
 21
58.828908
  0
LINE
  8
別途部材
  6
CONTINUOUS
 62
    96
 10
151.59134
 20
58.728905
 11
152.824673
 21
58.728905
  0
CIRCLE
  8
別途部材
  6
CONTINUOUS
 62
    96
 10
153.125753
 20
60.335572
 40
0.1
  0
ARC
  8
別途部材
  6
CONTINUOUS
 62
    96
 10
153.125749
 20
60.335574
 40
0.2
 50
218.780606
 51
537.001556
  0
LINE
  8
別途部材
  6
CONTINUOUS
 62
    96
 10
153.34242
 20
58.528905
 11
154.925753
 21
58.528905
  0
LINE
  8
別途部材
  6
CONTINUOUS
 62
    96
 10
153.44242
 20
58.628905
 11
154.925753
 21
58.628905
  0
LINE
  8
別途部材
  6
CONTINUOUS
 62
    96
 10
152.795575
 20
60.085828
 11
152.72977
 21
58.828908
  0
ENDBLK
  0
BLOCK
  2
*DIM_0010
 70
    65
 10
0.0
 20
0.0
  0
LINE
  8
寸法
  6
BYBLOCK
 62
     0
 10
-59.71685
 20
33.365232
 11
-59.71685
 21
28.363508
  0
LINE
  8
寸法
  6
BYBLOCK
 62
     0
 10
-26.383515
 20
33.365232
 11
-26.383515
 21
28.363508
  0
LINE
  8
寸法
  6
BYBLOCK
 62
     0
 10
-59.71685
 20
28.363508
 11
-26.383515
 21
28.363508
  0
POINT
  8
寸法
 62
     0
 10
-59.71685
 20
28.363508
  0
POINT
  8
寸法
 62
     0
 10
-26.383515
 20
28.363508
  0
TEXT
  7
TextStyle03
  8
寸法
  6
CONTINUOUS
 62
     0
 10
-46.33125
 20
28.725
  1
1000
 40
3.0
 72
     5
 11
-39.76875
 21
28.725
  0
ENDBLK
  0
BLOCK
  2
*DIM_0011
 70
    65
 10
0.0
 20
0.0
  0
LINE
  8
寸法
  6
BYBLOCK
 62
     0
 10
-11.71685
 20
31.38855
 11
-11.71685
 21
28.363508
  0
LINE
  8
寸法
  6
BYBLOCK
 62
     0
 10
-9.71685
 20
28.363508
 11
-11.71685
 21
28.363508
  0
POINT
  8
寸法
 62
     0
 10
-9.71685
 20
28.363508
  0
POINT
  8
寸法
 62
     0
 10
-11.71685
 20
28.363508
  0
TEXT
  7
TextStyle03
  8
寸法
  6
CONTINUOUS
 62
     0
 10
-13.59375
 20
24.575
  1
60
 40
3.0
 72
     5
 11
-10.40625
 21
24.575
  0
ENDBLK
  0
BLOCK
  2
*DIM_0012
 70
    65
 10
0.0
 20
0.0
  0
LINE
  8
寸法
  6
BYBLOCK
 62
     0
 10
-74.383515
 20
31.38855
 11
-74.383515
 21
28.363508
  0
LINE
  8
寸法
  6
BYBLOCK
 62
     0
 10
-76.383515
 20
28.363508
 11
-74.383515
 21
28.363508
  0
POINT
  8
寸法
 62
     0
 10
-76.383515
 20
28.363508
  0
POINT
  8
寸法
 62
     0
 10
-74.383515
 20
28.363508
  0
TEXT
  7
TextStyle03
  8
寸法
  6
CONTINUOUS
 62
     0
 10
-75.69375
 20
24.575
  1
60
 40
3.0
 72
     5
 11
-72.50625
 21
24.575
  0
ENDBLK
  0
BLOCK
  2
*DIM_0013
 70
    65
 10
0.0
 20
0.0
  0
LINE
  8
寸法
  6
BYBLOCK
 62
     0
 10
-79.383518
 20
53.66203
 11
-92.676355
 21
53.66203
  0
LINE
  8
寸法
  6
BYBLOCK
 62
     0
 10
-79.383518
 20
40.328695
 11
-92.676355
 21
40.328695
  0
LINE
  8
寸法
  6
BYBLOCK
 62
     0
 10
-92.676355
 20
53.66203
 11
-92.676355
 21
40.328695
  0
POINT
  8
寸法
 62
     0
 10
-92.676355
 20
53.66203
  0
POINT
  8
寸法
 62
     0
 10
-92.676355
 20
40.328695
  0
TEXT
  7
TextStyle03
  8
寸法
  6
CONTINUOUS
 62
     0
 10
-93.125
 20
44.5375
  1
400
 40
3.0
 50
90.0
 72
     5
 11
-93.125
 21
49.4125
  0
ENDBLK
  0
BLOCK
  2
*DIM_0014
 70
    65
 10
0.0
 20
0.0
  0
LINE
  8
寸法
  6
BYBLOCK
 62
     0
 10
-66.383515
 20
59.995363
 11
-66.383515
 21
88.922983
  0
LINE
  8
寸法
  6
BYBLOCK
 62
     0
 10
-43.050183
 20
59.995363
 11
-43.050183
 21
88.922983
  0
LINE
  8
寸法
  6
BYBLOCK
 62
     0
 10
-66.383515
 20
88.922983
 11
-43.050183
 21
88.922983
  0
POINT
  8
寸法
 62
     0
 10
-66.383515
 20
88.922983
  0
POINT
  8
寸法
 62
     0
 10
-43.050183
 20
88.922983
  0
TEXT
  7
TextStyle03
  8
寸法
  6
CONTINUOUS
 62
     0
 10
-57.1625
 20
89.3
  1
700
 40
3.0
 72
     5
 11
-52.2875
 21
89.3
  0
ENDBLK
  0
BLOCK
  2
*DIM_0015
 70
    65
 10
0.0
 20
0.0
  0
LINE
  8
寸法
  6
BYBLOCK
 62
     0
 10
-19.71685
 20
59.995363
 11
-19.71685
 21
88.922983
  0
LINE
  8
寸法
  6
BYBLOCK
 62
     0
 10
-43.050183
 20
88.922983
 11
-19.71685
 21
88.922983
  0
POINT
  8
寸法
 62
     0
 10
-19.71685
 20
88.922983
  0
TEXT
  7
TextStyle03
  8
寸法
  6
CONTINUOUS
 62
     0
 10
-33.8375
 20
89.3
  1
700
 40
3.0
 72
     5
 11
-28.9625
 21
89.3
  0
ENDBLK
  0
BLOCK
  2
*GRP_0016
 70
    65
 10
0.0
 20
0.0
  0
LINE
  8
別途部材
  6
CONTINUOUS
 62
    96
 10
-78.050185
 20
-55.177417
 11
-78.450185
 21
-56.177417
  0
ARC
  8
別途部材
  6
CONTINUOUS
 10
-66.383521
 20
-61.885757
 40
12.041668
 50
90.0
 51
146.144967
  0
LINE
  8
別途部材
  6
CONTINUOUS
 10
-78.450185
 20
-56.177417
 11
-43.050185
 21
-56.177417
  0
LINE
  8
別途部材
  6
CONTINUOUS
 62
    96
 10
-78.050185
 20
-55.177417
 11
-43.050185
 21
-55.177417
  0
LINE
  8
別途部材
  6
CONTINUOUS
 10
-43.550185
 20
-48.844085
 11
-44.550185
 21
-49.844085
  0
LINE
  8
別途部材
  6
CONTINUOUS
 10
-45.550185
 20
-49.844085
 11
-46.550185
 21
-48.844085
  0
LINE
  8
別途部材
  6
CONTINUOUS
 10
-47.550185
 20
-48.844085
 11
-48.550185
 21
-49.844085
  0
LINE
  8
別途部材
  6
CONTINUOUS
 10
-46.550185
 20
-48.844085
 11
-47.550185
 21
-48.844085
  0
LINE
  8
別途部材
  6
CONTINUOUS
 10
-43.550185
 20
-48.844085
 11
-43.050185
 21
-48.844085
  0
LINE
  8
別途部材
  6
CONTINUOUS
 10
-49.550185
 20
-49.844085
 11
-50.550185
 21
-48.844085
  0
LINE
  8
別途部材
  6
CONTINUOUS
 10
-51.550185
 20
-48.844085
 11
-52.550185
 21
-49.844085
  0
LINE
  8
別途部材
  6
CONTINUOUS
 10
-50.550185
 20
-48.844085
 11
-51.550185
 21
-48.844085
  0
LINE
  8
別途部材
  6
CONTINUOUS
 10
-53.550185
 20
-49.844085
 11
-54.550185
 21
-48.844085
  0
LINE
  8
別途部材
  6
CONTINUOUS
 10
-55.550185
 20
-48.844085
 11
-56.550185
 21
-49.844085
  0
LINE
  8
別途部材
  6
CONTINUOUS
 10
-54.550185
 20
-48.844085
 11
-55.550185
 21
-48.844085
  0
LINE
  8
別途部材
  6
CONTINUOUS
 10
-57.550185
 20
-49.844085
 11
-58.550185
 21
-48.844085
  0
LINE
  8
別途部材
  6
CONTINUOUS
 10
-59.550185
 20
-48.844085
 11
-60.550185
 21
-49.844085
  0
LINE
  8
別途部材
  6
CONTINUOUS
 10
-58.550185
 20
-48.844085
 11
-59.550185
 21
-48.844085
  0
LINE
  8
別途部材
  6
CONTINUOUS
 10
-61.550185
 20
-49.844085
 11
-62.550185
 21
-48.844085
  0
LINE
  8
別途部材
  6
CONTINUOUS
 10
-63.550185
 20
-48.844085
 11
-64.550185
 21
-49.844085
  0
LINE
  8
別途部材
  6
CONTINUOUS
 10
-62.550185
 20
-48.844085
 11
-63.550185
 21
-48.844085
  0
LINE
  8
別途部材
  6
CONTINUOUS
 10
-60.550185
 20
-49.844085
 11
-61.550185
 21
-49.844085
  0
LINE
  8
別途部材
  6
CONTINUOUS
 10
-56.550185
 20
-49.844085
 11
-57.550185
 21
-49.844085
  0
LINE
  8
別途部材
  6
CONTINUOUS
 10
-52.550185
 20
-49.844085
 11
-53.550185
 21
-49.844085
  0
LINE
  8
別途部材
  6
CONTINUOUS
 10
-48.550185
 20
-49.844085
 11
-49.550185
 21
-49.844085
  0
LINE
  8
別途部材
  6
CONTINUOUS
 10
-45.550185
 20
-49.844085
 11
-44.550185
 21
-49.844085
  0
LINE
  8
別途部材
  6
CONTINUOUS
 10
-63.550185
 20
-48.844085
 11
-63.550185
 21
-55.177417
  0
LINE
  8
別途部材
  6
CONTINUOUS
 10
-62.550185
 20
-48.844085
 11
-62.550185
 21
-55.177417
  0
LINE
  8
別途部材
  6
CONTINUOUS
 10
-64.550185
 20
-49.844085
 11
-64.550185
 21
-55.177417
  0
LINE
  8
別途部材
  6
CONTINUOUS
 10
-61.550185
 20
-49.844085
 11
-61.550185
 21
-55.177417
  0
LINE
  8
別途部材
  6
CONTINUOUS
 10
-59.550185
 20
-48.844085
 11
-59.550185
 21
-55.177417
  0
LINE
  8
別途部材
  6
CONTINUOUS
 10
-58.550185
 20
-48.844085
 11
-58.550185
 21
-55.177417
  0
LINE
  8
別途部材
  6
CONTINUOUS
 10
-57.550185
 20
-49.844085
 11
-57.550185
 21
-55.177417
  0
LINE
  8
別途部材
  6
CONTINUOUS
 10
-56.550185
 20
-49.844085
 11
-56.550185
 21
-55.177417
  0
LINE
  8
別途部材
  6
CONTINUOUS
 10
-55.550185
 20
-48.844085
 11
-55.550185
 21
-55.177417
  0
LINE
  8
別途部材
  6
CONTINUOUS
 10
-60.550185
 20
-49.844085
 11
-60.550185
 21
-55.177417
  0
LINE
  8
別途部材
  6
CONTINUOUS
 10
-54.550185
 20
-48.844085
 11
-54.550185
 21
-55.177417
  0
LINE
  8
別途部材
  6
CONTINUOUS
 10
-53.550185
 20
-49.844085
 11
-53.550185
 21
-55.177417
  0
LINE
  8
別途部材
  6
CONTINUOUS
 10
-52.550185
 20
-49.844085
 11
-52.550185
 21
-55.177417
  0
LINE
  8
別途部材
  6
CONTINUOUS
 10
-50.550185
 20
-48.844085
 11
-50.550185
 21
-55.177417
  0
LINE
  8
別途部材
  6
CONTINUOUS
 10
-48.550185
 20
-49.844085
 11
-48.550185
 21
-55.177417
  0
LINE
  8
別途部材
  6
CONTINUOUS
 10
-47.550185
 20
-48.844085
 11
-47.550185
 21
-55.177417
  0
LINE
  8
別途部材
  6
CONTINUOUS
 10
-45.550185
 20
-49.844085
 11
-45.550185
 21
-55.177417
  0
LINE
  8
別途部材
  6
CONTINUOUS
 10
-44.550185
 20
-49.844085
 11
-44.550185
 21
-55.177417
  0
LINE
  8
別途部材
  6
CONTINUOUS
 10
-43.550185
 20
-48.844085
 11
-43.550185
 21
-55.177417
  0
LINE
  8
別途部材
  6
CONTINUOUS
 10
-46.550185
 20
-48.844085
 11
-46.550185
 21
-55.177417
  0
LINE
  8
別途部材
  6
CONTINUOUS
 10
-49.550185
 20
-49.844085
 11
-49.550185
 21
-55.177417
  0
LINE
  8
別途部材
  6
CONTINUOUS
 10
-51.550185
 20
-48.844085
 11
-51.550185
 21
-55.177417
  0
LINE
  8
別途部材
  6
CONTINUOUS
 10
-64.550185
 20
-49.844085
 11
-66.383518
 21
-49.844085
  0
LINE
  8
別途部材
  6
CONTINUOUS
 62
    96
 10
-8.050185
 20
-55.177417
 11
-7.650185
 21
-56.177417
  0
ARC
  8
別途部材
  6
CONTINUOUS
 10
-19.716849
 20
-61.885757
 40
12.041668
 50
33.855033
 51
90.0
  0
LINE
  8
別途部材
  6
CONTINUOUS
 10
-7.650185
 20
-56.177417
 11
-43.050185
 21
-56.177417
  0
LINE
  8
別途部材
  6
CONTINUOUS
 62
    96
 10
-8.050185
 20
-55.177417
 11
-43.050185
 21
-55.177417
  0
LINE
  8
別途部材
  6
CONTINUOUS
 10
-42.550185
 20
-48.844085
 11
-41.550185
 21
-49.844085
  0
LINE
  8
別途部材
  6
CONTINUOUS
 10
-40.550185
 20
-49.844085
 11
-39.550185
 21
-48.844085
  0
LINE
  8
別途部材
  6
CONTINUOUS
 10
-38.550185
 20
-48.844085
 11
-37.550185
 21
-49.844085
  0
LINE
  8
別途部材
  6
CONTINUOUS
 10
-39.550185
 20
-48.844085
 11
-38.550185
 21
-48.844085
  0
LINE
  8
別途部材
  6
CONTINUOUS
 10
-42.550185
 20
-48.844085
 11
-43.050185
 21
-48.844085
  0
LINE
  8
別途部材
  6
CONTINUOUS
 10
-36.550185
 20
-49.844085
 11
-35.550185
 21
-48.844085
  0
LINE
  8
別途部材
  6
CONTINUOUS
 10
-34.550185
 20
-48.844085
 11
-33.550185
 21
-49.844085
  0
LINE
  8
別途部材
  6
CONTINUOUS
 10
-35.550185
 20
-48.844085
 11
-34.550185
 21
-48.844085
  0
LINE
  8
別途部材
  6
CONTINUOUS
 10
-32.550185
 20
-49.844085
 11
-31.550185
 21
-48.844085
  0
LINE
  8
別途部材
  6
CONTINUOUS
 10
-30.550185
 20
-48.844085
 11
-29.550185
 21
-49.844085
  0
LINE
  8
別途部材
  6
CONTINUOUS
 10
-31.550185
 20
-48.844085
 11
-30.550185
 21
-48.844085
  0
LINE
  8
別途部材
  6
CONTINUOUS
 10
-28.550185
 20
-49.844085
 11
-27.550185
 21
-48.844085
  0
LINE
  8
別途部材
  6
CONTINUOUS
 10
-26.550185
 20
-48.844085
 11
-25.550185
 21
-49.844085
  0
LINE
  8
別途部材
  6
CONTINUOUS
 10
-27.550185
 20
-48.844085
 11
-26.550185
 21
-48.844085
  0
LINE
  8
別途部材
  6
CONTINUOUS
 10
-24.550185
 20
-49.844085
 11
-23.550185
 21
-48.844085
  0
LINE
  8
別途部材
  6
CONTINUOUS
 10
-22.550185
 20
-48.844085
 11
-21.550185
 21
-49.844085
  0
LINE
  8
別途部材
  6
CONTINUOUS
 10
-23.550185
 20
-48.844085
 11
-22.550185
 21
-48.844085
  0
LINE
  8
別途部材
  6
CONTINUOUS
 10
-25.550185
 20
-49.844085
 11
-24.550185
 21
-49.844085
  0
LINE
  8
別途部材
  6
CONTINUOUS
 10
-29.550185
 20
-49.844085
 11
-28.550185
 21
-49.844085
  0
LINE
  8
別途部材
  6
CONTINUOUS
 10
-33.550185
 20
-49.844085
 11
-32.550185
 21
-49.844085
  0
LINE
  8
別途部材
  6
CONTINUOUS
 10
-37.550185
 20
-49.844085
 11
-36.550185
 21
-49.844085
  0
LINE
  8
別途部材
  6
CONTINUOUS
 10
-40.550185
 20
-49.844085
 11
-41.550185
 21
-49.844085
  0
LINE
  8
別途部材
  6
CONTINUOUS
 10
-22.550185
 20
-48.844085
 11
-22.550185
 21
-55.177417
  0
LINE
  8
別途部材
  6
CONTINUOUS
 10
-23.550185
 20
-48.844085
 11
-23.550185
 21
-55.177417
  0
LINE
  8
別途部材
  6
CONTINUOUS
 10
-21.550185
 20
-49.844085
 11
-21.550185
 21
-55.177417
  0
LINE
  8
別途部材
  6
CONTINUOUS
 10
-24.550185
 20
-49.844085
 11
-24.550185
 21
-55.177417
  0
LINE
  8
別途部材
  6
CONTINUOUS
 10
-26.550185
 20
-48.844085
 11
-26.550185
 21
-55.177417
  0
LINE
  8
別途部材
  6
CONTINUOUS
 10
-27.550185
 20
-48.844085
 11
-27.550185
 21
-55.177417
  0
LINE
  8
別途部材
  6
CONTINUOUS
 10
-28.550185
 20
-49.844085
 11
-28.550185
 21
-55.177417
  0
LINE
  8
別途部材
  6
CONTINUOUS
 10
-29.550185
 20
-49.844085
 11
-29.550185
 21
-55.177417
  0
LINE
  8
別途部材
  6
CONTINUOUS
 10
-30.550185
 20
-48.844085
 11
-30.550185
 21
-55.177417
  0
LINE
  8
別途部材
  6
CONTINUOUS
 10
-25.550185
 20
-49.844085
 11
-25.550185
 21
-55.177417
  0
LINE
  8
別途部材
  6
CONTINUOUS
 10
-31.550185
 20
-48.844085
 11
-31.550185
 21
-55.177417
  0
LINE
  8
別途部材
  6
CONTINUOUS
 10
-32.550185
 20
-49.844085
 11
-32.550185
 21
-55.177417
  0
LINE
  8
別途部材
  6
CONTINUOUS
 10
-33.550185
 20
-49.844085
 11
-33.550185
 21
-55.177417
  0
LINE
  8
別途部材
  6
CONTINUOUS
 10
-35.550185
 20
-48.844085
 11
-35.550185
 21
-55.177417
  0
LINE
  8
別途部材
  6
CONTINUOUS
 10
-37.550185
 20
-49.844085
 11
-37.550185
 21
-55.177417
  0
LINE
  8
別途部材
  6
CONTINUOUS
 10
-38.550185
 20
-48.844085
 11
-38.550185
 21
-55.177417
  0
LINE
  8
別途部材
  6
CONTINUOUS
 10
-40.550185
 20
-49.844085
 11
-40.550185
 21
-55.177417
  0
LINE
  8
別途部材
  6
CONTINUOUS
 10
-41.550185
 20
-49.844085
 11
-41.550185
 21
-55.177417
  0
LINE
  8
別途部材
  6
CONTINUOUS
 10
-42.550185
 20
-48.844085
 11
-42.550185
 21
-55.177417
  0
LINE
  8
別途部材
  6
CONTINUOUS
 10
-39.550185
 20
-48.844085
 11
-39.550185
 21
-55.177417
  0
LINE
  8
別途部材
  6
CONTINUOUS
 10
-36.550185
 20
-49.844085
 11
-36.550185
 21
-55.177417
  0
LINE
  8
別途部材
  6
CONTINUOUS
 10
-34.550185
 20
-48.844085
 11
-34.550185
 21
-55.177417
  0
LINE
  8
別途部材
  6
CONTINUOUS
 10
-21.550185
 20
-49.844085
 11
-19.716853
 21
-49.844085
  0
ENDBLK
  0
BLOCK
  2
*DIM_0017
 70
    65
 10
0.0
 20
0.0
  0
LINE
  8
寸法
  6
CONTINUOUS
 10
119.472735
 20
36.995363
 11
119.472735
 21
56.995363
  0
POINT
  8
寸法
 10
119.472735
 20
36.995363
  0
POINT
  8
寸法
 10
119.472735
 20
56.995363
  0
TEXT
  7
TextStyle03
  8
寸法
  6
CONTINUOUS
 10
119.075
 20
36.1
  1
呼称寸法　600
 40
3.0
 50
90.0
 72
     5
 11
119.075
 21
57.85
  0
ENDBLK
  0
BLOCK
  2
*DIM_0018
 70
    65
 10
0.0
 20
0.0
  0
LINE
  8
寸法
  6
CONTINUOUS
 10
144.642308
 20
56.995363
 11
119.472735
 21
56.995363
  0
LINE
  8
寸法
  6
CONTINUOUS
 10
150.642545
 20
60.728723
 11
119.472735
 21
60.728723
  0
LINE
  8
寸法
  6
CONTINUOUS
 10
119.472735
 20
56.995363
 11
119.472735
 21
60.728723
  0
POINT
  8
寸法
 10
119.472735
 20
56.995363
  0
POINT
  8
寸法
 10
119.472735
 20
60.728723
  0
TEXT
  7
TextStyle03
  8
寸法
  6
CONTINUOUS
 10
119.075
 20
61.4625
  1
112
 40
3.0
 50
90.0
 72
     5
 11
119.075
 21
66.3375
  0
ENDBLK
  0
BLOCK
  2
*DIM_0019
 70
    65
 10
0.0
 20
0.0
  0
LINE
  8
寸法
  6
CONTINUOUS
 10
150.642545
 20
33.262
 11
119.472735
 21
33.262
  0
LINE
  8
寸法
  6
CONTINUOUS
 10
119.472735
 20
36.995363
 11
119.472735
 21
33.262
  0
POINT
  8
寸法
 10
119.472735
 20
36.995363
  0
POINT
  8
寸法
 10
119.472735
 20
33.262
  0
TEXT
  7
TextStyle03
  8
寸法
  6
CONTINUOUS
 10
119.075
 20
27.6375
  1
112
 40
3.0
 50
90.0
 72
     5
 11
119.075
 21
32.5125
  0
ENDBLK
  0
BLOCK
  2
*DIM_0020
 70
    65
 10
0.0
 20
0.0
  0
LINE
  8
寸法
  6
CONTINUOUS
 10
96.46154
 20
-45.035898
 11
96.46154
 21
-35.707693
  0
LINE
  8
寸法
  6
CONTINUOUS
 10
129.638207
 20
-45.035898
 11
129.638207
 21
-35.707693
  0
LINE
  8
寸法
  6
CONTINUOUS
 10
96.46154
 20
-35.707693
 11
129.638207
 21
-35.707693
  0
POINT
  8
寸法
 10
96.46154
 20
-35.707693
  0
POINT
  8
寸法
 10
129.638207
 20
-35.707693
  0
TEXT
  7
TextStyle03
  8
寸法
  6
CONTINUOUS
 10
108.9
 20
-35.35
  1
995.3
 40
3.0
 72
     5
 11
117.15
 21
-35.35
  0
ENDBLK
  0
BLOCK
  2
*DIM_0021
 70
    65
 10
0.0
 20
0.0
  0
LINE
  8
寸法
  6
CONTINUOUS
 10
134.638207
 20
-50.035898
 11
143.636537
 21
-50.035898
  0
LINE
  8
寸法
  6
CONTINUOUS
 10
134.638207
 20
-70.569232
 11
143.636537
 21
-70.569232
  0
LINE
  8
寸法
  6
CONTINUOUS
 10
143.636537
 20
-50.035898
 11
143.636537
 21
-70.569232
  0
POINT
  8
寸法
 10
143.636537
 20
-50.035898
  0
POINT
  8
寸法
 10
143.636537
 20
-70.569232
  0
TEXT
  7
TextStyle03
  8
寸法
  6
CONTINUOUS
 10
143.25
 20
-62.7625
  1
616
 40
3.0
 50
90.0
 72
     5
 11
143.25
 21
-57.8875
  0
ENDBLK
  0
BLOCK
  2
*GRP_0022
 70
    65
 10
0.0
 20
0.0
  0
LINE
  8
ボルト／ビス
  6
CONTINUOUS
 10
-9.050185
 20
-55.177417
 11
-9.050185
 21
-54.71075
  0
LINE
  8
ボルト／ビス
  6
CONTINUOUS
 10
-8.683518
 20
-55.177417
 11
-8.683518
 21
-55.11075
  0
LINE
  8
ボルト／ビス
  6
CONTINUOUS
 10
-8.683518
 20
-55.11075
 11
-9.416853
 21
-55.11075
  0
LINE
  8
ボルト／ビス
  6
CONTINUOUS
 10
-9.416853
 20
-55.11075
 11
-9.416853
 21
-55.177417
  0
LINE
  8
ボルト／ビス
  6
CONTINUOUS
 10
-8.683518
 20
-55.177417
 11
-9.416853
 21
-55.177417
  0
LINE
  8
ボルト／ビス
  6
CONTINUOUS
 10
-8.750185
 20
-55.077417
 11
-8.750185
 21
-55.11075
  0
LINE
  8
ボルト／ビス
  6
CONTINUOUS
 10
-8.750185
 20
-55.077417
 11
-9.350185
 21
-55.077417
  0
LINE
  8
ボルト／ビス
  6
CONTINUOUS
 10
-9.350185
 20
-55.077417
 11
-9.350185
 21
-55.11075
  0
LINE
  8
ボルト／ビス
  6
CONTINUOUS
 62
    64
 10
-8.88981
 20
-54.877417
 11
-8.857735
 21
-54.889092
  0
ARC
  8
ボルト／ビス
  6
CONTINUOUS
 62
    64
 10
-8.905847
 20
-54.982396
 40
0.104978
 50
90.0
 51
117.278033
  0
ARC
  8
ボルト／ビス
  6
CONTINUOUS
 62
    64
 10
-9.050185
 20
-55.27982
 40
0.402402
 50
76.165015
 51
103.834998
  0
LINE
  8
ボルト／ビス
  6
CONTINUOUS
 62
    64
 10
-9.21056
 20
-54.877417
 11
-9.242635
 21
-54.889092
  0
ARC
  8
ボルト／ビス
  6
CONTINUOUS
 62
    64
 10
-9.194522
 20
-54.982396
 40
0.104978
 50
62.721967
 51
90.0
  0
LINE
  8
ボルト／ビス
  6
CONTINUOUS
 62
    64
 10
-8.88981
 20
-54.877417
 11
-9.21056
 21
-54.877417
  0
LINE
  8
ボルト／ビス
  6
CONTINUOUS
 62
    64
 10
-9.242635
 20
-54.889092
 11
-9.242635
 21
-55.01075
  0
LINE
  8
ボルト／ビス
  6
CONTINUOUS
 62
    64
 10
-9.14641
 20
-54.889092
 11
-9.14641
 21
-55.01075
  0
LINE
  8
ボルト／ビス
  6
CONTINUOUS
 62
    64
 10
-8.857735
 20
-54.889092
 11
-8.857735
 21
-55.01075
  0
LINE
  8
ボルト／ビス
  6
CONTINUOUS
 62
    64
 10
-8.95396
 20
-54.889092
 11
-8.95396
 21
-55.01075
  0
LINE
  8
ボルト／ビス
  6
CONTINUOUS
 10
-8.857735
 20
-55.01075
 11
-9.242635
 21
-55.01075
  0
LINE
  8
ボルト／ビス
  6
CONTINUOUS
 10
-8.850185
 20
-55.01075
 11
-8.850185
 21
-55.077417
  0
LINE
  8
ボルト／ビス
  6
CONTINUOUS
 10
-8.850185
 20
-55.01075
 11
-9.250185
 21
-55.01075
  0
LINE
  8
ボルト／ビス
  6
CONTINUOUS
 10
-9.250185
 20
-55.01075
 11
-9.250185
 21
-55.077417
  0
ENDBLK
  0
BLOCK
  2
*GRP_0023
 70
    65
 10
0.0
 20
0.0
  0
LINE
  8
ボルト／ビス
  6
CONTINUOUS
 10
-77.050185
 20
-55.177417
 11
-77.050185
 21
-54.71075
  0
LINE
  8
ボルト／ビス
  6
CONTINUOUS
 10
-76.683518
 20
-55.177417
 11
-76.683518
 21
-55.11075
  0
LINE
  8
ボルト／ビス
  6
CONTINUOUS
 10
-76.683518
 20
-55.11075
 11
-77.416853
 21
-55.11075
  0
LINE
  8
ボルト／ビス
  6
CONTINUOUS
 10
-77.416853
 20
-55.11075
 11
-77.416853
 21
-55.177417
  0
LINE
  8
ボルト／ビス
  6
CONTINUOUS
 10
-76.683518
 20
-55.177417
 11
-77.416853
 21
-55.177417
  0
LINE
  8
ボルト／ビス
  6
CONTINUOUS
 10
-76.750185
 20
-55.077417
 11
-76.750185
 21
-55.11075
  0
LINE
  8
ボルト／ビス
  6
CONTINUOUS
 10
-76.750185
 20
-55.077417
 11
-77.350185
 21
-55.077417
  0
LINE
  8
ボルト／ビス
  6
CONTINUOUS
 10
-77.350185
 20
-55.077417
 11
-77.350185
 21
-55.11075
  0
LINE
  8
ボルト／ビス
  6
CONTINUOUS
 62
    64
 10
-76.88981
 20
-54.877417
 11
-76.857735
 21
-54.889092
  0
ARC
  8
ボルト／ビス
  6
CONTINUOUS
 62
    64
 10
-76.905847
 20
-54.982395
 40
0.104978
 50
90.0
 51
117.278033
  0
ARC
  8
ボルト／ビス
  6
CONTINUOUS
 62
    64
 10
-77.050185
 20
-55.279819
 40
0.402402
 50
76.165015
 51
103.834998
  0
LINE
  8
ボルト／ビス
  6
CONTINUOUS
 62
    64
 10
-77.21056
 20
-54.877417
 11
-77.242635
 21
-54.889092
  0
ARC
  8
ボルト／ビス
  6
CONTINUOUS
 62
    64
 10
-77.194522
 20
-54.982395
 40
0.104978
 50
62.721967
 51
90.0
  0
LINE
  8
ボルト／ビス
  6
CONTINUOUS
 62
    64
 10
-76.88981
 20
-54.877417
 11
-77.21056
 21
-54.877417
  0
LINE
  8
ボルト／ビス
  6
CONTINUOUS
 62
    64
 10
-77.242635
 20
-54.889092
 11
-77.242635
 21
-55.01075
  0
LINE
  8
ボルト／ビス
  6
CONTINUOUS
 62
    64
 10
-77.14641
 20
-54.889092
 11
-77.14641
 21
-55.01075
  0
LINE
  8
ボルト／ビス
  6
CONTINUOUS
 62
    64
 10
-76.857735
 20
-54.889092
 11
-76.857735
 21
-55.01075
  0
LINE
  8
ボルト／ビス
  6
CONTINUOUS
 62
    64
 10
-76.95396
 20
-54.889092
 11
-76.95396
 21
-55.01075
  0
LINE
  8
ボルト／ビス
  6
CONTINUOUS
 10
-76.857735
 20
-55.01075
 11
-77.242635
 21
-55.01075
  0
LINE
  8
ボルト／ビス
  6
CONTINUOUS
 10
-76.850185
 20
-55.01075
 11
-76.850185
 21
-55.077417
  0
LINE
  8
ボルト／ビス
  6
CONTINUOUS
 10
-76.850185
 20
-55.01075
 11
-77.250185
 21
-55.01075
  0
LINE
  8
ボルト／ビス
  6
CONTINUOUS
 10
-77.250185
 20
-55.01075
 11
-77.250185
 21
-55.077417
  0
ENDBLK
  0
BLOCK
  2
*GRP_0024
 70
    65
 10
0.0
 20
0.0
  0
LINE
  8
ボルト／ビス
  6
CONTINUOUS
 10
149.64231
 20
36.328695
 11
149.175642
 21
36.328695
  0
LINE
  8
ボルト／ビス
  6
CONTINUOUS
 10
149.64231
 20
36.695363
 11
149.575642
 21
36.695363
  0
LINE
  8
ボルト／ビス
  6
CONTINUOUS
 10
149.575642
 20
36.695363
 11
149.575642
 21
35.962027
  0
LINE
  8
ボルト／ビス
  6
CONTINUOUS
 10
149.575642
 20
35.962027
 11
149.64231
 21
35.962027
  0
LINE
  8
ボルト／ビス
  6
CONTINUOUS
 10
149.64231
 20
36.695363
 11
149.64231
 21
35.962027
  0
LINE
  8
ボルト／ビス
  6
CONTINUOUS
 10
149.54231
 20
36.628695
 11
149.575642
 21
36.628695
  0
LINE
  8
ボルト／ビス
  6
CONTINUOUS
 10
149.54231
 20
36.628695
 11
149.54231
 21
36.028695
  0
LINE
  8
ボルト／ビス
  6
CONTINUOUS
 10
149.54231
 20
36.028695
 11
149.575642
 21
36.028695
  0
LINE
  8
ボルト／ビス
  6
CONTINUOUS
 62
    64
 10
149.34231
 20
36.48907
 11
149.353985
 21
36.521145
  0
ARC
  8
ボルト／ビス
  6
CONTINUOUS
 62
    64
 10
149.44729
 20
36.473032
 40
0.104978
 50
180.0
 51
207.278033
  0
ARC
  8
ボルト／ビス
  6
CONTINUOUS
 62
    64
 10
149.744714
 20
36.328694
 40
0.402402
 50
166.165015
 51
193.834998
  0
LINE
  8
ボルト／ビス
  6
CONTINUOUS
 62
    64
 10
149.34231
 20
36.16832
 11
149.353985
 21
36.136245
  0
ARC
  8
ボルト／ビス
  6
CONTINUOUS
 62
    64
 10
149.44729
 20
36.184357
 40
0.104978
 50
152.721967
 51
180.0
  0
LINE
  8
ボルト／ビス
  6
CONTINUOUS
 62
    64
 10
149.34231
 20
36.48907
 11
149.34231
 21
36.16832
  0
LINE
  8
ボルト／ビス
  6
CONTINUOUS
 62
    64
 10
149.353985
 20
36.136245
 11
149.475642
 21
36.136245
  0
LINE
  8
ボルト／ビス
  6
CONTINUOUS
 62
    64
 10
149.353985
 20
36.23247
 11
149.475642
 21
36.23247
  0
LINE
  8
ボルト／ビス
  6
CONTINUOUS
 62
    64
 10
149.353985
 20
36.521145
 11
149.475642
 21
36.521145
  0
LINE
  8
ボルト／ビス
  6
CONTINUOUS
 62
    64
 10
149.353985
 20
36.42492
 11
149.475642
 21
36.42492
  0
LINE
  8
ボルト／ビス
  6
CONTINUOUS
 10
149.475642
 20
36.521145
 11
149.475642
 21
36.136245
  0
LINE
  8
ボルト／ビス
  6
CONTINUOUS
 10
149.475642
 20
36.528695
 11
149.54231
 21
36.528695
  0
LINE
  8
ボルト／ビス
  6
CONTINUOUS
 10
149.475642
 20
36.528695
 11
149.475642
 21
36.128695
  0
LINE
  8
ボルト／ビス
  6
CONTINUOUS
 10
149.475642
 20
36.128695
 11
149.54231
 21
36.128695
  0
ENDBLK
  0
BLOCK
  2
*GRP_0025
 70
    65
 10
0.0
 20
0.0
  0
LINE
  8
ボルト／ビス
  6
CONTINUOUS
 10
149.64231
 20
57.662027
 11
149.175642
 21
57.662027
  0
LINE
  8
ボルト／ビス
  6
CONTINUOUS
 10
149.64231
 20
58.028695
 11
149.575642
 21
58.028695
  0
LINE
  8
ボルト／ビス
  6
CONTINUOUS
 10
149.575642
 20
58.028695
 11
149.575642
 21
57.29536
  0
LINE
  8
ボルト／ビス
  6
CONTINUOUS
 10
149.575642
 20
57.29536
 11
149.64231
 21
57.29536
  0
LINE
  8
ボルト／ビス
  6
CONTINUOUS
 10
149.64231
 20
58.028695
 11
149.64231
 21
57.29536
  0
LINE
  8
ボルト／ビス
  6
CONTINUOUS
 10
149.54231
 20
57.962027
 11
149.575642
 21
57.962027
  0
LINE
  8
ボルト／ビス
  6
CONTINUOUS
 10
149.54231
 20
57.962027
 11
149.54231
 21
57.362027
  0
LINE
  8
ボルト／ビス
  6
CONTINUOUS
 10
149.54231
 20
57.362027
 11
149.575642
 21
57.362027
  0
LINE
  8
ボルト／ビス
  6
CONTINUOUS
 62
    64
 10
149.34231
 20
57.822402
 11
149.353985
 21
57.854478
  0
ARC
  8
ボルト／ビス
  6
CONTINUOUS
 62
    64
 10
149.44729
 20
57.806364
 40
0.104978
 50
180.0
 51
207.278033
  0
ARC
  8
ボルト／ビス
  6
CONTINUOUS
 62
    64
 10
149.744714
 20
57.662027
 40
0.402402
 50
166.165015
 51
193.834998
  0
LINE
  8
ボルト／ビス
  6
CONTINUOUS
 62
    64
 10
149.34231
 20
57.501652
 11
149.353985
 21
57.469578
  0
ARC
  8
ボルト／ビス
  6
CONTINUOUS
 62
    64
 10
149.44729
 20
57.517689
 40
0.104978
 50
152.721967
 51
180.0
  0
LINE
  8
ボルト／ビス
  6
CONTINUOUS
 62
    64
 10
149.34231
 20
57.822402
 11
149.34231
 21
57.501652
  0
LINE
  8
ボルト／ビス
  6
CONTINUOUS
 62
    64
 10
149.353985
 20
57.469578
 11
149.475642
 21
57.469578
  0
LINE
  8
ボルト／ビス
  6
CONTINUOUS
 62
    64
 10
149.353985
 20
57.565803
 11
149.475642
 21
57.565803
  0
LINE
  8
ボルト／ビス
  6
CONTINUOUS
 62
    64
 10
149.353985
 20
57.854478
 11
149.475642
 21
57.854478
  0
LINE
  8
ボルト／ビス
  6
CONTINUOUS
 62
    64
 10
149.353985
 20
57.758252
 11
149.475642
 21
57.758252
  0
LINE
  8
ボルト／ビス
  6
CONTINUOUS
 10
149.475642
 20
57.854478
 11
149.475642
 21
57.469578
  0
LINE
  8
ボルト／ビス
  6
CONTINUOUS
 10
149.475642
 20
57.862027
 11
149.54231
 21
57.862027
  0
LINE
  8
ボルト／ビス
  6
CONTINUOUS
 10
149.475642
 20
57.862027
 11
149.475642
 21
57.462027
  0
LINE
  8
ボルト／ビス
  6
CONTINUOUS
 10
149.475642
 20
57.462027
 11
149.54231
 21
57.462027
  0
ENDBLK
  0
BLOCK
  2
*GRP_0026
 70
    65
 10
0.0
 20
0.0
  0
LINE
  8
ボルト／ビス
  6
DOT
 10
148.66604
 20
61.01432
 11
148.336058
 21
61.344305
  0
LINE
  8
ボルト／ビス
  6
DOT
 10
148.925315
 20
61.273593
 11
148.878173
 21
61.320735
  0
LINE
  8
ボルト／ビス
  6
DOT
 10
148.878173
 20
61.320735
 11
148.359627
 21
60.802188
  0
LINE
  8
ボルト／ビス
  6
DOT
 10
148.359627
 20
60.802188
 11
148.406768
 21
60.755048
  0
LINE
  8
ボルト／ビス
  6
DOT
 10
148.925315
 20
61.273593
 11
148.406768
 21
60.755048
  0
LINE
  8
ボルト／ビス
  6
DOT
 10
148.807462
 20
61.297163
 11
148.831033
 21
61.273593
  0
LINE
  8
ボルト／ビス
  6
DOT
 10
148.807462
 20
61.297163
 11
148.383197
 21
60.8729
  0
LINE
  8
ボルト／ビス
  6
DOT
 10
148.383197
 20
60.8729
 11
148.406768
 21
60.84933
  0
LINE
  8
ボルト／ビス
  6
DOT
 62
    64
 10
148.56731
 20
61.339855
 11
148.598248
 21
61.35428
  0
ARC
  8
ボルト／ビス
  6
DOT
 62
    64
 10
148.630201
 20
61.254283
 40
0.104978
 50
135.0
 51
162.278033
  0
ARC
  8
ボルト／ビス
  6
DOT
 62
    64
 10
148.73845
 20
60.94191
 40
0.402402
 50
121.165015
 51
148.834998
  0
LINE
  8
ボルト／ビス
  6
DOT
 62
    64
 10
148.340508
 20
61.11305
 11
148.326082
 21
61.082115
  0
ARC
  8
ボルト／ビス
  6
DOT
 62
    64
 10
148.426077
 20
61.050158
 40
0.104978
 50
107.721967
 51
135.0
  0
LINE
  8
ボルト／ビス
  6
DOT
 62
    64
 10
148.56731
 20
61.339855
 11
148.340508
 21
61.11305
  0
LINE
  8
ボルト／ビス
  6
DOT
 62
    64
 10
148.326082
 20
61.082115
 11
148.412107
 21
60.99609
  0
LINE
  8
ボルト／ビス
  6
DOT
 62
    64
 10
148.394123
 20
61.150155
 11
148.480148
 21
61.06413
  0
LINE
  8
ボルト／ビス
  6
DOT
 62
    64
 10
148.598248
 20
61.35428
 11
148.684273
 21
61.268255
  0
LINE
  8
ボルト／ビス
  6
DOT
 62
    64
 10
148.530205
 20
61.286238
 11
148.61623
 21
61.200213
  0
LINE
  8
ボルト／ビス
  6
DOT
 10
148.684273
 20
61.268255
 11
148.412107
 21
60.99609
  0
LINE
  8
ボルト／ビス
  6
DOT
 10
148.68961
 20
61.273593
 11
148.736752
 21
61.226453
  0
LINE
  8
ボルト／ビス
  6
DOT
 10
148.68961
 20
61.273593
 11
148.406768
 21
60.99075
  0
LINE
  8
ボルト／ビス
  6
DOT
 10
148.406768
 20
60.99075
 11
148.453908
 21
60.94361
  0
ENDBLK
  0
BLOCK
  2
*GRP_0027
 70
    65
 10
0.0
 20
0.0
  0
LINE
  8
ボルト／ビス
  6
DOT
 10
133.581095
 20
45.929378
 11
133.251113
 21
46.259362
  0
LINE
  8
ボルト／ビス
  6
DOT
 10
133.84037
 20
46.18865
 11
133.793227
 21
46.235793
  0
LINE
  8
ボルト／ビス
  6
DOT
 10
133.793227
 20
46.235793
 11
133.274683
 21
45.717245
  0
LINE
  8
ボルト／ビス
  6
DOT
 10
133.274683
 20
45.717245
 11
133.321823
 21
45.670105
  0
LINE
  8
ボルト／ビス
  6
DOT
 10
133.84037
 20
46.18865
 11
133.321823
 21
45.670105
  0
LINE
  8
ボルト／ビス
  6
DOT
 10
133.722517
 20
46.21222
 11
133.746088
 21
46.18865
  0
LINE
  8
ボルト／ビス
  6
DOT
 10
133.722517
 20
46.21222
 11
133.298252
 21
45.787958
  0
LINE
  8
ボルト／ビス
  6
DOT
 10
133.298252
 20
45.787958
 11
133.321823
 21
45.764387
  0
LINE
  8
ボルト／ビス
  6
DOT
 62
    64
 10
133.482365
 20
46.254912
 11
133.513302
 21
46.269338
  0
ARC
  8
ボルト／ビス
  6
DOT
 62
    64
 10
133.545256
 20
46.169341
 40
0.104978
 50
135.0
 51
162.278033
  0
ARC
  8
ボルト／ビス
  6
DOT
 62
    64
 10
133.653504
 20
45.856968
 40
0.402402
 50
121.165015
 51
148.834998
  0
LINE
  8
ボルト／ビス
  6
DOT
 62
    64
 10
133.255563
 20
46.028108
 11
133.241137
 21
45.997172
  0
ARC
  8
ボルト／ビス
  6
DOT
 62
    64
 10
133.341132
 20
45.965217
 40
0.104978
 50
107.721967
 51
135.0
  0
LINE
  8
ボルト／ビス
  6
DOT
 62
    64
 10
133.482365
 20
46.254912
 11
133.255563
 21
46.028108
  0
LINE
  8
ボルト／ビス
  6
DOT
 62
    64
 10
133.241137
 20
45.997172
 11
133.327162
 21
45.911147
  0
LINE
  8
ボルト／ビス
  6
DOT
 62
    64
 10
133.309178
 20
46.065213
 11
133.395203
 21
45.979188
  0
LINE
  8
ボルト／ビス
  6
DOT
 62
    64
 10
133.513302
 20
46.269338
 11
133.599328
 21
46.183312
  0
LINE
  8
ボルト／ビス
  6
DOT
 62
    64
 10
133.44526
 20
46.201295
 11
133.531285
 21
46.11527
  0
LINE
  8
ボルト／ビス
  6
DOT
 10
133.599328
 20
46.183312
 11
133.327162
 21
45.911147
  0
LINE
  8
ボルト／ビス
  6
DOT
 10
133.604665
 20
46.18865
 11
133.651807
 21
46.14151
  0
LINE
  8
ボルト／ビス
  6
DOT
 10
133.604665
 20
46.18865
 11
133.321823
 21
45.905808
  0
LINE
  8
ボルト／ビス
  6
DOT
 10
133.321823
 20
45.905808
 11
133.368963
 21
45.858668
  0
ENDBLK
  0
ENDSEC
  0
SECTION
  2
ENTITIES
  0
POLYLINE
  8
通り芯
  6
CONTINUOUS
 66
     1
 70
     1
  0
VERTEX
  8
通り芯
 10
-210.0
 20
-148.5
  0
VERTEX
  8
通り芯
 10
210.0
 20
-148.5
  0
VERTEX
  8
通り芯
 10
210.0
 20
148.5
  0
VERTEX
  8
通り芯
 10
-210.0
 20
148.5
  0
SEQEND
  0
INSERT
  2
*GRP_0001
  8
型材断面
  6
CONTINUOUS
 10
0.0
 20
0.0
  0
LINE
  8
型材断面
  6
CONTINUOUS
 62
    47
 10
-8.670158
 20
-58.610877
 11
-7.949942
 21
-58.610877
  0
LINE
  8
型材断面
  6
CONTINUOUS
 62
    47
 10
-7.993307
 20
-57.317558
 11
-7.983307
 21
-57.307557
  0
LINE
  8
型材断面
  6
CONTINUOUS
 62
    47
 10
-7.993307
 20
-57.317558
 11
-7.983307
 21
-57.327557
  0
LINE
  8
型材断面
  6
CONTINUOUS
 62
    47
 10
-7.993307
 20
-57.95979
 11
-7.983307
 21
-57.94979
  0
LINE
  8
型材断面
  6
CONTINUOUS
 62
    47
 10
-7.993307
 20
-57.95979
 11
-7.983307
 21
-57.96979
  0
LINE
  8
型材断面
  6
CONTINUOUS
 62
    47
 10
-7.983307
 20
-58.377575
 11
-7.983307
 21
-57.96979
  0
LINE
  8
型材断面
  6
CONTINUOUS
 62
    47
 10
-7.983307
 20
-57.94979
 11
-7.983307
 21
-57.327557
  0
LINE
  8
型材断面
  6
CONTINUOUS
 62
    47
 10
-6.48348
 20
-62.010995
 11
-6.48348
 21
-61.677663
  0
LINE
  8
型材断面
  6
CONTINUOUS
 62
    47
 10
-8.416643
 20
-61.010992
 11
-9.013487
 21
-61.010992
  0
LINE
  8
型材断面
  6
CONTINUOUS
 62
    47
 10
-8.183487
 20
-61.01098
 11
-5.983487
 21
-61.177663
  0
LINE
  8
型材断面
  6
CONTINUOUS
 62
    47
 10
-5.983487
 20
-61.677663
 11
-5.983487
 21
-61.177663
  0
LINE
  8
型材断面
  6
CONTINUOUS
 62
    47
 10
-6.716823
 20
-58.444232
 11
-6.716823
 21
-58.610877
  0
LINE
  8
型材断面
  6
CONTINUOUS
 62
    47
 10
-6.716823
 20
-58.877538
 11
-6.716823
 21
-58.74422
  0
LINE
  8
型材断面
  6
CONTINUOUS
 62
    47
 10
-7.983307
 20
-58.377575
 11
-6.710135
 21
-58.444232
  0
LINE
  8
型材断面
  6
CONTINUOUS
 62
    47
 10
-8.183487
 20
-58.877538
 11
-8.183487
 21
-61.010992
  0
LINE
  8
型材断面
  6
CONTINUOUS
 62
    47
 10
-7.983307
 20
-57.307557
 11
-7.983307
 21
-56.177427
  0
LINE
  8
型材断面
  6
CONTINUOUS
 62
    47
 10
-6.716823
 20
-58.74422
 11
-43.050183
 21
-58.74422
  0
LINE
  8
型材断面
  6
CONTINUOUS
 10
-7.983307
 20
-58.377575
 11
-43.050183
 21
-58.377575
  0
LINE
  8
型材断面
  6
CONTINUOUS
 10
-6.716823
 20
-58.444232
 11
-43.050183
 21
-58.444232
  0
LINE
  8
型材断面
  6
CONTINUOUS
 62
    47
 10
-6.716823
 20
-58.877538
 11
-43.050183
 21
-58.877538
  0
LINE
  8
型材断面
  6
CONTINUOUS
 62
    47
 10
-6.716823
 20
-58.610877
 11
-43.050183
 21
-58.610877
  0
LINE
  8
型材断面
  6
CONTINUOUS
 10
-5.983487
 20
-61.677663
 11
-43.050183
 21
-61.677663
  0
LINE
  8
型材断面
  6
CONTINUOUS
 10
-5.983487
 20
-61.177663
 11
-43.050183
 21
-61.177663
  0
LINE
  8
型材断面
  6
CONTINUOUS
 10
-6.48348
 20
-62.010995
 11
-43.050183
 21
-62.010995
  0
LINE
  8
型材断面
  6
CONTINUOUS
 10
-8.183487
 20
-61.010992
 11
-43.050183
 21
-61.010992
  0
LINE
  8
型材断面
  6
CONTINUOUS
 62
    47
 10
-77.43021
 20
-58.610877
 11
-78.150422
 21
-58.610877
  0
LINE
  8
型材断面
  6
CONTINUOUS
 62
    47
 10
-78.10706
 20
-57.317558
 11
-78.11706
 21
-57.307557
  0
LINE
  8
型材断面
  6
CONTINUOUS
 62
    47
 10
-78.10706
 20
-57.317558
 11
-78.11706
 21
-57.327557
  0
LINE
  8
型材断面
  6
CONTINUOUS
 62
    47
 10
-78.10706
 20
-57.95979
 11
-78.11706
 21
-57.94979
  0
LINE
  8
型材断面
  6
CONTINUOUS
 62
    47
 10
-78.10706
 20
-57.95979
 11
-78.11706
 21
-57.96979
  0
LINE
  8
型材断面
  6
CONTINUOUS
 62
    47
 10
-78.11706
 20
-58.377575
 11
-78.11706
 21
-57.96979
  0
LINE
  8
型材断面
  6
CONTINUOUS
 62
    47
 10
-78.11706
 20
-57.94979
 11
-78.11706
 21
-57.327557
  0
LINE
  8
型材断面
  6
CONTINUOUS
 62
    47
 10
-79.616888
 20
-62.010995
 11
-79.616888
 21
-61.677663
  0
LINE
  8
型材断面
  6
CONTINUOUS
 62
    47
 10
-77.683725
 20
-61.010992
 11
-77.086877
 21
-61.010992
  0
LINE
  8
型材断面
  6
CONTINUOUS
 62
    47
 10
-77.916878
 20
-61.01098
 11
-80.116878
 21
-61.177663
  0
LINE
  8
型材断面
  6
CONTINUOUS
 62
    47
 10
-80.116878
 20
-61.677663
 11
-80.116878
 21
-61.177663
  0
LINE
  8
型材断面
  6
CONTINUOUS
 62
    47
 10
-79.383545
 20
-58.444232
 11
-79.383545
 21
-58.610877
  0
LINE
  8
型材断面
  6
CONTINUOUS
 62
    47
 10
-79.383545
 20
-58.877538
 11
-79.383545
 21
-58.74422
  0
LINE
  8
型材断面
  6
CONTINUOUS
 62
    47
 10
-78.11706
 20
-58.377575
 11
-79.390232
 21
-58.444232
  0
LINE
  8
型材断面
  6
CONTINUOUS
 62
    47
 10
-77.916878
 20
-58.877538
 11
-77.916878
 21
-61.010992
  0
LINE
  8
型材断面
  6
CONTINUOUS
 62
    47
 10
-78.11706
 20
-57.307557
 11
-78.11706
 21
-56.177427
  0
LINE
  8
型材断面
  6
CONTINUOUS
 62
    47
 10
-79.383545
 20
-58.74422
 11
-43.050183
 21
-58.74422
  0
LINE
  8
型材断面
  6
CONTINUOUS
 10
-78.11706
 20
-58.377575
 11
-43.050183
 21
-58.377575
  0
LINE
  8
型材断面
  6
CONTINUOUS
 10
-79.383545
 20
-58.444232
 11
-43.050183
 21
-58.444232
  0
LINE
  8
型材断面
  6
CONTINUOUS
 62
    47
 10
-79.383545
 20
-58.877538
 11
-43.050183
 21
-58.877538
  0
LINE
  8
型材断面
  6
CONTINUOUS
 62
    47
 10
-79.383545
 20
-58.610877
 11
-43.050183
 21
-58.610877
  0
LINE
  8
型材断面
  6
CONTINUOUS
 10
-80.116878
 20
-61.677663
 11
-43.050183
 21
-61.677663
  0
LINE
  8
型材断面
  6
CONTINUOUS
 10
-80.116878
 20
-61.177663
 11
-43.050183
 21
-61.177663
  0
LINE
  8
型材断面
  6
CONTINUOUS
 10
-79.616888
 20
-62.010995
 11
-43.050183
 21
-62.010995
  0
LINE
  8
型材断面
  6
CONTINUOUS
 10
-77.916878
 20
-61.010992
 11
-43.050183
 21
-61.010992
  0
LINE
  8
型材断面
  6
CONTINUOUS
 10
-78.450183
 20
34.928698
 11
-80.116878
 21
33.262003
  0
LINE
  8
型材断面
  6
CONTINUOUS
 10
-80.116878
 20
33.262003
 11
-80.116878
 21
46.995363
  0
LINE
  8
型材断面
  6
CONTINUOUS
 10
-79.383545
 20
33.995335
 11
-79.383545
 21
46.995363
  0
LINE
  8
型材断面
  6
CONTINUOUS
 10
-80.116878
 20
33.262003
 11
-66.383518
 21
33.262003
  0
LINE
  8
型材断面
  6
CONTINUOUS
 10
-79.383545
 20
33.995335
 11
-66.383518
 21
33.995335
  0
LINE
  8
型材断面
  6
CONTINUOUS
 10
-7.650183
 20
34.928698
 11
-5.983487
 21
33.262003
  0
LINE
  8
型材断面
  6
CONTINUOUS
 10
-5.983487
 20
33.262003
 11
-5.983487
 21
46.995363
  0
LINE
  8
型材断面
  6
CONTINUOUS
 10
-6.716823
 20
33.995335
 11
-6.716823
 21
46.995363
  0
LINE
  8
型材断面
  6
CONTINUOUS
 10
-5.983487
 20
33.262003
 11
-66.383518
 21
33.262003
  0
LINE
  8
型材断面
  6
CONTINUOUS
 10
-6.716823
 20
33.995335
 11
-66.383518
 21
33.995335
  0
LINE
  8
型材断面
  6
DASHDOT
 10
-76.383518
 20
36.995363
 11
159.10577
 21
36.995363
  0
LINE
  8
型材断面
  6
CONTINUOUS
 62
    47
 10
153.07576
 20
58.042055
 11
153.07576
 21
58.762268
  0
LINE
  8
型材断面
  6
CONTINUOUS
 62
    47
 10
151.78244
 20
58.718905
 11
151.77244
 21
58.728905
  0
LINE
  8
型材断面
  6
CONTINUOUS
 62
    47
 10
151.78244
 20
58.718905
 11
151.79244
 21
58.728905
  0
LINE
  8
型材断面
  6
CONTINUOUS
 62
    47
 10
152.424673
 20
58.718905
 11
152.414673
 21
58.728905
  0
LINE
  8
型材断面
  6
CONTINUOUS
 62
    47
 10
152.424673
 20
58.718905
 11
152.434672
 21
58.728905
  0
LINE
  8
型材断面
  6
CONTINUOUS
 62
    47
 10
152.842457
 20
58.728905
 11
152.434672
 21
58.728905
  0
LINE
  8
型材断面
  6
CONTINUOUS
 62
    47
 10
152.414673
 20
58.728905
 11
151.79244
 21
58.728905
  0
LINE
  8
型材断面
  6
CONTINUOUS
 62
    47
 10
156.475878
 20
60.22873
 11
156.142545
 21
60.22873
  0
LINE
  8
型材断面
  6
CONTINUOUS
 62
    47
 10
155.475875
 20
58.29557
 11
155.475875
 21
57.698723
  0
LINE
  8
型材断面
  6
CONTINUOUS
 62
    47
 10
155.475863
 20
58.528723
 11
155.642545
 21
60.728723
  0
LINE
  8
型材断面
  6
CONTINUOUS
 62
    47
 10
156.142545
 20
60.728723
 11
155.642545
 21
60.728723
  0
LINE
  8
型材断面
  6
CONTINUOUS
 62
    47
 10
153.34242
 20
59.99539
 11
153.34242
 21
46.99536
  0
LINE
  8
型材断面
  6
CONTINUOUS
 10
155.475875
 20
46.99536
 11
155.475875
 21
58.528723
  0
LINE
  8
型材断面
  6
CONTINUOUS
 10
156.475878
 20
46.99536
 11
156.475878
 21
60.22873
  0
LINE
  8
型材断面
  6
CONTINUOUS
 10
156.142545
 20
46.99536
 11
156.142545
 21
60.728723
  0
LINE
  8
型材断面
  6
CONTINUOUS
 62
    47
 10
153.07576
 20
46.99536
 11
153.07576
 21
59.99539
  0
LINE
  8
型材断面
  6
CONTINUOUS
 62
    47
 10
152.909115
 20
59.99539
 11
153.07576
 21
59.99539
  0
LINE
  8
型材断面
  6
CONTINUOUS
 62
    47
 10
153.209102
 20
46.99536
 11
153.209102
 21
59.99539
  0
LINE
  8
型材断面
  6
CONTINUOUS
 62
    47
 10
153.34242
 20
59.99539
 11
153.209102
 21
59.99539
  0
LINE
  8
型材断面
  6
CONTINUOUS
 62
    47
 10
152.842457
 20
58.728905
 11
152.909115
 21
60.002075
  0
LINE
  8
型材断面
  6
CONTINUOUS
 62
    47
 10
153.34242
 20
58.528723
 11
155.475875
 21
58.528723
  0
LINE
  8
型材断面
  6
CONTINUOUS
 10
155.642545
 20
46.99536
 11
155.642545
 21
60.728723
  0
LINE
  8
型材断面
  6
CONTINUOUS
 10
152.842457
 20
58.728905
 11
152.842457
 21
46.99536
  0
LINE
  8
型材断面
  6
CONTINUOUS
 10
152.909115
 20
59.99539
 11
152.909115
 21
46.99536
  0
LINE
  8
型材断面
  6
CONTINUOUS
 62
    47
 10
153.07576
 20
35.948668
 11
153.07576
 21
35.228455
  0
LINE
  8
型材断面
  6
CONTINUOUS
 62
    47
 10
151.78244
 20
35.271817
 11
151.77244
 21
35.261817
  0
LINE
  8
型材断面
  6
CONTINUOUS
 62
    47
 10
151.78244
 20
35.271817
 11
151.79244
 21
35.261817
  0
LINE
  8
型材断面
  6
CONTINUOUS
 62
    47
 10
152.424673
 20
35.271817
 11
152.414673
 21
35.261817
  0
LINE
  8
型材断面
  6
CONTINUOUS
 62
    47
 10
152.424673
 20
35.271817
 11
152.434672
 21
35.261817
  0
LINE
  8
型材断面
  6
CONTINUOUS
 62
    47
 10
152.842457
 20
35.261817
 11
152.434672
 21
35.261817
  0
LINE
  8
型材断面
  6
CONTINUOUS
 62
    47
 10
152.414673
 20
35.261817
 11
151.79244
 21
35.261817
  0
LINE
  8
型材断面
  6
CONTINUOUS
 62
    47
 10
156.475878
 20
33.76199
 11
156.142545
 21
33.76199
  0
LINE
  8
型材断面
  6
CONTINUOUS
 62
    47
 10
155.475875
 20
35.695153
 11
155.475875
 21
36.292
  0
LINE
  8
型材断面
  6
CONTINUOUS
 62
    47
 10
155.475863
 20
35.462
 11
155.642545
 21
33.262
  0
LINE
  8
型材断面
  6
CONTINUOUS
 62
    47
 10
156.142545
 20
33.262
 11
155.642545
 21
33.262
  0
LINE
  8
型材断面
  6
CONTINUOUS
 62
    47
 10
153.34242
 20
33.995333
 11
153.34242
 21
46.99536
  0
LINE
  8
型材断面
  6
CONTINUOUS
 10
155.475875
 20
46.99536
 11
155.475875
 21
35.462
  0
LINE
  8
型材断面
  6
CONTINUOUS
 10
156.475878
 20
46.99536
 11
156.475878
 21
33.76199
  0
LINE
  8
型材断面
  6
CONTINUOUS
 10
156.142545
 20
46.99536
 11
156.142545
 21
33.262
  0
LINE
  8
型材断面
  6
CONTINUOUS
 62
    47
 10
153.07576
 20
46.99536
 11
153.07576
 21
33.995333
  0
LINE
  8
型材断面
  6
CONTINUOUS
 62
    47
 10
152.909115
 20
33.995333
 11
153.07576
 21
33.995333
  0
LINE
  8
型材断面
  6
CONTINUOUS
 62
    47
 10
153.209102
 20
46.99536
 11
153.209102
 21
33.995333
  0
LINE
  8
型材断面
  6
CONTINUOUS
 62
    47
 10
153.34242
 20
33.995333
 11
153.209102
 21
33.995333
  0
LINE
  8
型材断面
  6
CONTINUOUS
 62
    47
 10
152.842457
 20
35.261817
 11
152.909115
 21
33.988645
  0
LINE
  8
型材断面
  6
CONTINUOUS
 62
    47
 10
153.34242
 20
35.462
 11
155.475875
 21
35.462
  0
LINE
  8
型材断面
  6
CONTINUOUS
 10
155.642545
 20
46.99536
 11
155.642545
 21
33.262
  0
LINE
  8
型材断面
  6
CONTINUOUS
 10
152.842457
 20
35.261817
 11
152.842457
 21
46.99536
  0
LINE
  8
型材断面
  6
CONTINUOUS
 10
152.909115
 20
33.995333
 11
152.909115
 21
46.99536
  0
LINE
  8
型材断面
  6
DOT
 62
    47
 10
151.46864
 20
58.74916
 11
151.97791
 21
59.258427
  0
LINE
  8
型材断面
  6
DOT
 62
    47
 10
151.03273
 20
60.14228
 11
151.03273
 21
60.156423
  0
LINE
  8
型材断面
  6
DOT
 62
    47
 10
151.03273
 20
60.14228
 11
151.046873
 21
60.14228
  0
LINE
  8
型材断面
  6
DOT
 62
    47
 10
151.486858
 20
59.688155
 11
151.486858
 21
59.702295
  0
LINE
  8
型材断面
  6
DOT
 62
    47
 10
151.486858
 20
59.688155
 11
151.501
 21
59.688155
  0
LINE
  8
型材断面
  6
DOT
 62
    47
 10
151.789345
 20
59.399805
 11
151.501
 21
59.688155
  0
LINE
  8
型材断面
  6
DOT
 62
    47
 10
151.486858
 20
59.702295
 11
151.046873
 21
60.14228
  0
LINE
  8
型材断面
  6
DOT
 62
    47
 10
151.03273
 20
60.156423
 11
150.12754
 21
61.061613
  0
LINE
  8
型材断面
  6
DOT
 62
    47
 10
143.65745
 20
50.937968
 11
152.849857
 21
60.130375
  0
LINE
  8
型材断面
  6
DOT
 62
    47
 10
152.73202
 20
60.248213
 11
152.849857
 21
60.130375
  0
LINE
  8
型材断面
  6
DOT
 62
    47
 10
151.789345
 20
59.399805
 11
152.73675
 21
60.25294
  0
LINE
  8
型材断面
  6
DOT
 10
151.789345
 20
59.399805
 11
143.49248
 21
51.102938
  0
LINE
  8
型材断面
  6
DOT
 10
152.73202
 20
60.248213
 11
143.539612
 21
51.055805
  0
LINE
  8
型材断面
  6
DOT
 62
    47
 10
135.846257
 20
43.126775
 11
135.33699
 21
42.617507
  0
LINE
  8
型材断面
  6
DOT
 62
    47
 10
134.453135
 20
43.562685
 11
134.438995
 21
43.562685
  0
LINE
  8
型材断面
  6
DOT
 62
    47
 10
134.453135
 20
43.562685
 11
134.453135
 21
43.548545
  0
LINE
  8
型材断面
  6
DOT
 62
    47
 10
134.907263
 20
43.10856
 11
134.89312
 21
43.10856
  0
LINE
  8
型材断面
  6
DOT
 62
    47
 10
134.907263
 20
43.10856
 11
134.907263
 21
43.094418
  0
LINE
  8
型材断面
  6
DOT
 62
    47
 10
135.19561
 20
42.80607
 11
134.907263
 21
43.094418
  0
LINE
  8
型材断面
  6
DOT
 62
    47
 10
134.89312
 20
43.10856
 11
134.453135
 21
43.548545
  0
LINE
  8
型材断面
  6
DOT
 62
    47
 10
134.438995
 20
43.562685
 11
133.533805
 21
44.467875
  0
LINE
  8
型材断面
  6
DOT
 62
    47
 10
143.65745
 20
50.937968
 11
134.46504
 21
41.74556
  0
LINE
  8
型材断面
  6
DOT
 62
    47
 10
134.347205
 20
41.863395
 11
134.46504
 21
41.74556
  0
LINE
  8
型材断面
  6
DOT
 62
    47
 10
135.19561
 20
42.80607
 11
134.342477
 21
41.858668
  0
LINE
  8
型材断面
  6
DOT
 10
135.19561
 20
42.80607
 11
143.49248
 21
51.102938
  0
LINE
  8
型材断面
  6
DOT
 10
134.347205
 20
41.863395
 11
143.539612
 21
51.055805
  0
ARC
  8
型材断面
  6
DASHDOT
 10
153.125751
 20
60.335574
 40
26.340287
 50
224.891258
 51
269.891257
  0
LINE
  8
型材断面
  6
CONTINUOUS
 62
    47
 10
151.77244
 20
58.728905
 11
150.64231
 21
58.728905
  0
LINE
  8
型材断面
  6
CONTINUOUS
 62
    47
 10
151.77244
 20
35.261817
 11
150.64231
 21
35.261817
  0
LINE
  8
型材断面
  6
CONTINUOUS
 10
-78.450183
 20
59.06203
 11
-80.116878
 21
60.728725
  0
LINE
  8
型材断面
  6
CONTINUOUS
 10
-80.116878
 20
60.728725
 11
-66.383518
 21
60.728725
  0
LINE
  8
型材断面
  6
CONTINUOUS
 10
-79.383545
 20
59.995392
 11
-66.383518
 21
59.995392
  0
LINE
  8
型材断面
  6
CONTINUOUS
 10
-7.650183
 20
59.06203
 11
-5.983487
 21
60.728725
  0
LINE
  8
型材断面
  6
CONTINUOUS
 10
-5.983487
 20
60.728725
 11
-66.383518
 21
60.728725
  0
LINE
  8
型材断面
  6
CONTINUOUS
 10
-6.716823
 20
59.995392
 11
-66.383518
 21
59.995392
  0
LINE
  8
型材断面
  6
DASHDOT
 10
-76.383518
 20
56.995363
 11
159.10577
 21
56.995363
  0
LINE
  8
型材断面
  6
DASHDOT
 10
-76.383518
 20
46.995363
 11
159.10577
 21
46.995363
  0
LINE
  8
型材断面
  6
CONTINUOUS
 10
-6.716823
 20
46.995363
 11
-6.716823
 21
59.99539
  0
LINE
  8
型材断面
  6
CONTINUOUS
 10
-5.983487
 20
46.995363
 11
-5.983487
 21
60.728725
  0
LINE
  8
型材断面
  6
DASHDOT
 10
-9.71685
 20
-66.258275
 11
-9.71685
 21
56.995363
  0
LINE
  8
型材断面
  6
DASHDOT
 10
-43.050183
 20
-66.258275
 11
-43.050183
 21
56.995363
  0
LINE
  8
型材断面
  6
DASHDOT
 10
-76.383518
 20
-66.258275
 11
-76.383518
 21
56.995365
  0
LINE
  8
型材断面
  6
CONTINUOUS
 10
-79.383545
 20
46.995363
 11
-79.383545
 21
59.995392
  0
LINE
  8
型材断面
  6
CONTINUOUS
 10
-80.116878
 20
46.995363
 11
-80.116878
 21
60.728725
  0
LINE
  8
型材断面
  6
DOT
 10
-41.800183
 20
36.995363
 11
-41.800183
 21
56.995363
  0
LINE
  8
型材断面
  6
DASHDOT
 10
-43.050183
 20
36.995363
 11
-43.050183
 21
56.995363
  0
LINE
  8
型材断面
  6
DOT
 10
-44.300183
 20
36.995363
 11
-44.300183
 21
56.995363
  0
LINE
  8
型材断面
  6
CONTINUOUS
 10
-59.71685
 20
59.625492
 11
-61.21248
 21
62.216
  0
LINE
  8
型材断面
  6
CONTINUOUS
 10
-59.71685
 20
59.625492
 11
-58.22122
 21
62.216
  0
LINE
  8
型材断面
  6
CONTINUOUS
 10
-58.22122
 20
62.216
 11
-61.21248
 21
62.216
  0
LINE
  8
型材断面
  6
CONTINUOUS
 10
-117.235725
 20
94.972835
 11
-116.63967
 21
92.382328
  0
LINE
  8
型材断面
  6
CONTINUOUS
 10
-117.235725
 20
94.972835
 11
-117.831783
 21
92.382328
  0
LINE
  8
型材断面
  6
CONTINUOUS
 10
-117.831783
 20
92.382328
 11
-116.63967
 21
92.382328
  0
LINE
  8
型材断面
  6
CONTINUOUS
 10
-123.258313
 20
89.103435
 11
-77.016535
 21
89.103435
  0
LINE
  8
型材断面
  6
CONTINUOUS
 10
-117.235725
 20
101.50271
 11
-118.731355
 21
98.912203
  0
LINE
  8
型材断面
  6
CONTINUOUS
 10
-117.235725
 20
101.50271
 11
-115.740095
 21
98.912203
  0
LINE
  8
型材断面
  6
CONTINUOUS
 10
-115.740095
 20
98.912203
 11
-118.731355
 21
98.912203
  0
LINE
  8
型材断面
  6
CONTINUOUS
 10
-123.258313
 20
97.973608
 11
-77.016535
 21
97.973608
  0
LINE
  8
型材断面
  6
CONTINUOUS
 10
-123.258313
 20
83.315402
 11
-77.016535
 21
83.315402
  0
LINE
  8
型材断面
  6
CONTINUOUS
 10
-79.013648
 20
46.995363
 11
-81.604155
 21
48.490992
  0
LINE
  8
型材断面
  6
CONTINUOUS
 10
-79.013648
 20
46.995363
 11
-81.604155
 21
45.499733
  0
LINE
  8
型材断面
  6
CONTINUOUS
 10
-81.604155
 20
45.499733
 11
-81.604155
 21
48.490992
  0
LINE
  8
型材断面
  6
CONTINUOUS
 10
-59.71685
 20
34.365232
 11
-61.21248
 21
31.774725
  0
LINE
  8
型材断面
  6
CONTINUOUS
 10
-59.71685
 20
34.365232
 11
-58.22122
 21
31.774725
  0
LINE
  8
型材断面
  6
CONTINUOUS
 10
-58.22122
 20
31.774725
 11
-61.21248
 21
31.774725
  0
LINE
  8
型材断面
  6
CONTINUOUS
 10
-26.383515
 20
59.625492
 11
-24.887885
 21
62.216
  0
LINE
  8
型材断面
  6
CONTINUOUS
 10
-26.383515
 20
59.625492
 11
-27.879145
 21
62.216
  0
LINE
  8
型材断面
  6
CONTINUOUS
 10
-27.879145
 20
62.216
 11
-24.887885
 21
62.216
  0
LINE
  8
型材断面
  6
CONTINUOUS
 10
-7.086718
 20
46.995363
 11
-4.49621
 21
48.490992
  0
LINE
  8
型材断面
  6
CONTINUOUS
 10
-7.086718
 20
46.995363
 11
-4.49621
 21
45.499733
  0
LINE
  8
型材断面
  6
CONTINUOUS
 10
-4.49621
 20
45.499733
 11
-4.49621
 21
48.490992
  0
LINE
  8
型材断面
  6
CONTINUOUS
 10
-26.383515
 20
34.365232
 11
-24.887885
 21
31.774725
  0
LINE
  8
型材断面
  6
CONTINUOUS
 10
-26.383515
 20
34.365232
 11
-27.879145
 21
31.774725
  0
LINE
  8
型材断面
  6
CONTINUOUS
 10
-27.879145
 20
31.774725
 11
-24.887885
 21
31.774725
  0
POLYLINE
  8
型材断面
  6
DASHDOT
 66
     1
  0
VERTEX
  8
型材断面
 10
-76.383518
 20
36.995363
  0
VERTEX
  8
型材断面
 10
-43.050183
 20
56.995363
  0
VERTEX
  8
型材断面
 10
-9.71685
 20
36.995363
  0
SEQEND
  0
LINE
  8
型材断面
  6
CONTINUOUS
 10
-11.71685
 20
34.38855
 11
-12.312907
 21
31.798045
  0
LINE
  8
型材断面
  6
CONTINUOUS
 10
-11.71685
 20
34.38855
 11
-11.120792
 21
31.798045
  0
LINE
  8
型材断面
  6
CONTINUOUS
 10
-11.120792
 20
31.798045
 11
-12.312907
 21
31.798045
  0
LINE
  8
型材断面
  6
CONTINUOUS
 10
-74.383515
 20
34.38855
 11
-73.787457
 21
31.798045
  0
LINE
  8
型材断面
  6
CONTINUOUS
 10
-74.383515
 20
34.38855
 11
-74.979572
 21
31.798045
  0
LINE
  8
型材断面
  6
CONTINUOUS
 10
-74.979572
 20
31.798045
 11
-73.787457
 21
31.798045
  0
POLYLINE
  8
ガラス
  6
CONTINUOUS
 66
     1
 70
     1
  0
VERTEX
  8
ガラス
 10
129.638207
 20
-50.035898
  0
VERTEX
  8
ガラス
 10
96.46154
 20
-50.035898
  0
VERTEX
  8
ガラス
 10
96.46154
 20
-70.569232
  0
VERTEX
  8
ガラス
 10
129.638207
 20
-70.569232
  0
SEQEND
  0
TEXT
  7
TextStyle03
  8
文字
  6
CONTINUOUS
 10
80.875
 20
94.425
  1
ＮＳコード：ＮＳＨＬ
 40
5.0
 72
     5
 11
136.5
 21
94.425
  0
TEXT
  7
TextStyle03
  8
文字
  6
CONTINUOUS
 10
-114.45
 20
99.125
  1
は排水穴位置を示す
 40
3.0
 72
     5
 11
-84.45
 21
99.125
  0
TEXT
  7
TextStyle03
  8
文字
  6
CONTINUOUS
 10
-114.45
 20
93.6
  1
はケーシング位置を示す
 40
3.0
 72
     5
 11
-77.7
 21
93.6
  0
TEXT
  7
TextStyle03
  8
文字
  6
CONTINUOUS
 10
-114.45
 20
90.225
  1
２ヶ所中1ヶ所に設定
 40
3.0
 72
     5
 11
-82.7625
 21
90.225
  0
TEXT
  7
TextStyle03
  8
文字
  6
CONTINUOUS
 10
-97.475
 20
25.45
  1
アンカーピッチ
 40
3.0
 50
90.0
 72
     5
 11
-97.475
 21
48.7
  0
TEXT
  7
TextStyle03
  8
文字
  6
CONTINUOUS
 10
-68.95
 20
93.85
  1
アンカーピッチ
 40
3.0
 72
     5
 11
-45.7
 21
93.85
  0
TEXT
  7
TextStyle03
  8
文字
  6
CONTINUOUS
 10
-118.175
 20
84.25
  1
アンカー数量　１０ヶ所
 40
3.0
 72
     5
 11
-81.425
 21
84.25
  0
TEXT
  7
TextStyle03
  8
文字
  6
CONTINUOUS
 10
81.225
 20
116.5
  1
シリーズ：ＴＤ１ＨＬ
 40
5.0
 72
     5
 11
136.85
 21
116.5
  0
TEXT
  7
TextStyle03
  8
文字
  6
CONTINUOUS
 10
81.225
 20
110.875
  1
　　　　　（片側開閉）600×2000タイプ
 40
5.0
 72
     5
 11
184.6625
 21
110.875
  0
TEXT
  7
TextStyle03
  8
文字
  6
CONTINUOUS
 10
81.225
 20
105.25
  1
図面名　：外観姿図
 40
5.0
 72
     5
 11
131.225
 21
105.25
  0
TEXT
  7
TextStyle03
  8
文字
  6
CONTINUOUS
 10
81.225
 20
99.625
  1
　　　　　　
 40
5.0
 72
     5
 11
114.35
 21
99.625
  0
TEXT
  7
TextStyle03
  8
文字
  6
CONTINUOUS
 10
129.225
 20
37.675
  1
45°
 40
3.0
 72
     5
 11
135.6
 21
37.675
  0
TEXT
  7
TextStyle03
  8
文字
  6
CONTINUOUS
 10
111.225
 20
-63.75
  1
網入り6.8t
 40
3.0
 72
     5
 11
127.9125
 21
-63.75
  0
TEXT
  7
TextStyle03
  8
文字
  6
CONTINUOUS
 10
117.85
 20
-69.0
  1
×２枚
 40
3.0
 72
     5
 11
127.6
 21
-69.0
  0
INSERT
  2
*DIM_0002
  8
寸法
  6
CONTINUOUS
 10
0.0
 20
0.0
  0
INSERT
  2
*DIM_0003
  8
寸法
  6
CONTINUOUS
 10
0.0
 20
0.0
  0
INSERT
  2
*DIM_0004
  8
寸法
  6
CONTINUOUS
 10
0.0
 20
0.0
  0
INSERT
  2
*DIM_0005
  8
寸法
  6
CONTINUOUS
 10
0.0
 20
0.0
  0
INSERT
  2
*DIM_0006
  8
寸法
  6
CONTINUOUS
 10
0.0
 20
0.0
  0
INSERT
  2
*DIM_0007
  8
寸法
  6
CONTINUOUS
 10
0.0
 20
0.0
  0
INSERT
  2
*DIM_0008
  8
寸法
  6
CONTINUOUS
 10
0.0
 20
0.0
  0
INSERT
  2
*DIM_0010
  8
寸法
  6
CONTINUOUS
 10
0.0
 20
0.0
  0
INSERT
  2
*DIM_0011
  8
寸法
  6
CONTINUOUS
 10
0.0
 20
0.0
  0
INSERT
  2
*DIM_0012
  8
寸法
  6
CONTINUOUS
 10
0.0
 20
0.0
  0
INSERT
  2
*DIM_0013
  8
寸法
  6
CONTINUOUS
 10
0.0
 20
0.0
  0
INSERT
  2
*DIM_0014
  8
寸法
  6
CONTINUOUS
 10
0.0
 20
0.0
  0
INSERT
  2
*DIM_0015
  8
寸法
  6
CONTINUOUS
 10
0.0
 20
0.0
  0
INSERT
  2
*DIM_0017
  8
寸法
  6
CONTINUOUS
 10
0.0
 20
0.0
  0
INSERT
  2
*DIM_0018
  8
寸法
  6
CONTINUOUS
 10
0.0
 20
0.0
  0
INSERT
  2
*DIM_0019
  8
寸法
  6
CONTINUOUS
 10
0.0
 20
0.0
  0
INSERT
  2
*DIM_0020
  8
寸法
  6
CONTINUOUS
 10
0.0
 20
0.0
  0
INSERT
  2
*DIM_0021
  8
寸法
  6
CONTINUOUS
 10
0.0
 20
0.0
  0
INSERT
  2
*GRP_0009
  8
別途部材
  6
CONTINUOUS
 10
0.0
 20
0.0
  0
LINE
  8
別途部材
  6
DOT
 62
    96
 10
149.373145
 20
61.72143
 11
150.363095
 21
61.297165
  0
LINE
  8
別途部材
  6
DOT
 62
    96
 10
149.373145
 20
61.72143
 11
141.123565
 21
53.47185
  0
LINE
  8
別途部材
  6
DOT
 10
150.363095
 20
61.297165
 11
141.830673
 21
52.764745
  0
LINE
  8
別途部材
  6
DOT
 62
    96
 10
132.873987
 20
45.222272
 11
133.29825
 21
44.232323
  0
LINE
  8
別途部材
  6
DOT
 62
    96
 10
132.873987
 20
45.222272
 11
141.123565
 21
53.47185
  0
LINE
  8
別途部材
  6
DOT
 10
133.29825
 20
44.232323
 11
141.830673
 21
52.764745
  0
ARC
  8
別途部材
  6
DOT
 10
145.867071
 20
48.728345
 40
12.041667
 50
78.855026
 51
191.144974
  0
LINE
  8
別途部材
  6
CONTINUOUS
 62
    96
 10
149.64231
 20
58.662027
 11
150.64231
 21
59.062027
  0
LINE
  8
別途部材
  6
CONTINUOUS
 62
    96
 10
149.64231
 20
58.662027
 11
149.64231
 21
46.99536
  0
LINE
  8
別途部材
  6
CONTINUOUS
 10
150.64231
 20
59.062027
 11
150.64231
 21
46.99536
  0
LINE
  8
別途部材
  6
CONTINUOUS
 62
    96
 10
149.64231
 20
35.328695
 11
150.64231
 21
34.928695
  0
LINE
  8
別途部材
  6
CONTINUOUS
 62
    96
 10
149.64231
 20
35.328695
 11
149.64231
 21
46.99536
  0
LINE
  8
別途部材
  6
CONTINUOUS
 10
150.64231
 20
34.928695
 11
150.64231
 21
46.99536
  0
ARC
  8
別途部材
  6
CONTINUOUS
 10
156.35064
 20
46.995362
 40
12.041667
 50
123.855026
 51
236.144974
  0
LINE
  8
別途部材
  6
CONTINUOUS
 10
-7.650183
 20
34.928695
 11
-8.050183
 21
35.328695
  0
LINE
  8
別途部材
  6
CONTINUOUS
 10
-9.71685
 20
36.995363
 11
-17.776105
 21
45.05462
  0
LINE
  8
別途部材
  6
CONTINUOUS
 10
-8.050183
 20
35.328695
 11
-8.050183
 21
46.995363
  0
LINE
  8
別途部材
  6
CONTINUOUS
 10
-7.650183
 20
34.928695
 11
-7.650183
 21
46.995363
  0
LINE
  8
別途部材
  6
CONTINUOUS
 10
-7.650183
 20
59.06203
 11
-8.050183
 21
58.66203
  0
LINE
  8
別途部材
  6
CONTINUOUS
 10
-9.71685
 20
56.995363
 11
-17.776105
 21
48.936105
  0
LINE
  8
別途部材
  6
CONTINUOUS
 10
-8.050183
 20
58.66203
 11
-8.050183
 21
46.995363
  0
LINE
  8
別途部材
  6
CONTINUOUS
 10
-7.650183
 20
59.06203
 11
-7.650183
 21
46.995363
  0
LINE
  8
別途部材
  6
CONTINUOUS
 10
-8.050183
 20
58.66203
 11
-43.050183
 21
58.66203
  0
LINE
  8
別途部材
  6
CONTINUOUS
 10
-7.650183
 20
59.06203
 11
-43.050183
 21
59.06203
  0
LINE
  8
別途部材
  6
CONTINUOUS
 10
-7.650183
 20
34.928695
 11
-43.050183
 21
34.928695
  0
LINE
  8
別途部材
  6
CONTINUOUS
 10
-8.050183
 20
35.328695
 11
-43.050183
 21
35.328695
  0
LINE
  8
別途部材
  6
CONTINUOUS
 10
-78.450183
 20
34.928695
 11
-78.050183
 21
35.328695
  0
LINE
  8
別途部材
  6
CONTINUOUS
 10
-76.383515
 20
36.995363
 11
-68.32426
 21
45.05462
  0
LINE
  8
別途部材
  6
CONTINUOUS
 10
-78.050183
 20
35.328695
 11
-78.050183
 21
46.995363
  0
LINE
  8
別途部材
  6
CONTINUOUS
 10
-78.450183
 20
34.928695
 11
-78.450183
 21
46.995363
  0
LINE
  8
別途部材
  6
CONTINUOUS
 10
-78.450183
 20
59.06203
 11
-78.050183
 21
58.66203
  0
LINE
  8
別途部材
  6
CONTINUOUS
 10
-76.383515
 20
56.995363
 11
-68.32426
 21
48.936105
  0
LINE
  8
別途部材
  6
CONTINUOUS
 10
-78.050183
 20
58.66203
 11
-78.050183
 21
46.995363
  0
LINE
  8
別途部材
  6
CONTINUOUS
 10
-78.450183
 20
59.06203
 11
-78.450183
 21
46.995363
  0
LINE
  8
別途部材
  6
CONTINUOUS
 10
-78.050183
 20
58.66203
 11
-43.050183
 21
58.66203
  0
LINE
  8
別途部材
  6
CONTINUOUS
 10
-78.450183
 20
59.06203
 11
-43.050183
 21
59.06203
  0
LINE
  8
別途部材
  6
CONTINUOUS
 10
-78.450183
 20
34.928695
 11
-43.050183
 21
34.928695
  0
LINE
  8
別途部材
  6
CONTINUOUS
 10
-78.050183
 20
35.328695
 11
-43.050183
 21
35.328695
  0
INSERT
  2
*GRP_0016
  8
別途部材
  6
CONTINUOUS
 10
0.0
 20
0.0
  0
INSERT
  2
*GRP_0022
  8
別途部材
  6
DOT
 10
0.0
 20
0.0
  0
INSERT
  2
*GRP_0023
  8
別途部材
  6
DOT
 10
0.0
 20
0.0
  0
INSERT
  2
*GRP_0024
  8
別途部材
  6
DOT
 10
0.0
 20
0.0
  0
INSERT
  2
*GRP_0025
  8
別途部材
  6
DOT
 10
0.0
 20
0.0
  0
INSERT
  2
*GRP_0026
  8
別途部材
  6
DOT
 10
0.0
 20
0.0
  0
INSERT
  2
*GRP_0027
  8
別途部材
  6
DOT
 10
0.0
 20
0.0
  0
ENDSEC
  0
EOF
