  0
SECTION
  2
HEADER
  9
$EXTMIN
 10
-210.0
 20
-148.5
  9
$EXTMAX
 10
210.0
 20
148.5
  9
$PDMODE
 70
    32
  9
$PDSIZE
 40
1.5
  9
$LTSCALE
 40
10.0
  0
ENDSEC
  0
SECTION
  2
TABLES
  0
TABLE
  2
LTYPE
 70
    15
  0
LTYPE
  2
CONTINUOUS
 70
    64
  3
実線
 72
    65
 73
     0
 40
0.0
  0
LTYPE
  2
DASHED
 70
    64
  3
破線A
 72
    65
 73
     2
 40
0.6
 49
0.4
 49
-0.2
  0
LTYPE
  2
DASHEDX2
 70
    64
  3
破線B
 72
    65
 73
     2
 40
1.3
 49
0.9
 49
-0.4
  0
LTYPE
  2
DASHDOT
 70
    64
  3
１点鎖線A
 72
    65
 73
     4
 40
0.5375
 49
0.375
 49
-0.05
 49
0.0625
 49
-0.05
  0
LTYPE
  2
DASHDOTX2
 70
    64
  3
１点鎖線B
 72
    65
 73
     4
 40
1.075
 49
0.75
 49
-0.1
 49
0.125
 49
-0.1
  0
LTYPE
  2
DIVIDE2
 70
    64
  3
２点鎖線A
 72
    65
 73
     6
 40
0.5125
 49
0.3
 49
-0.0375
 49
0.05
 49
-0.0375
 49
0.05
 49
-0.0375
  0
LTYPE
  2
DIVIDE
 70
    64
  3
２点鎖線B
 72
    65
 73
     6
 40
1.05
 49
0.55
 49
-0.1
 49
0.1
 49
-0.1
 49
0.1
 49
-0.1
  0
LTYPE
  2
DOT
 70
    64
  3
点線A
 72
    65
 73
     2
 40
0.1125
 49
0.0625
 49
-0.05
  0
LTYPE
  2
DOTX2
 70
    64
  3
点線B
 72
    65
 73
     2
 40
0.275
 49
0.15
 49
-0.125
  0
LTYPE
  2
CONTINUOUS
 70
    64
  3
実線
 72
    65
 73
     0
 40
0.0
  0
LTYPE
  2
CONTINUOUS
 70
    64
  3
実線
 72
    65
 73
     0
 40
0.0
  0
LTYPE
  2
CONTINUOUS
 70
    64
  3
実線
 72
    65
 73
     0
 40
0.0
  0
LTYPE
  2
CONTINUOUS
 70
    64
  3
実線
 72
    65
 73
     0
 40
0.0
  0
LTYPE
  2
CONTINUOUS
 70
    64
  3
実線
 72
    65
 73
     0
 40
0.0
  0
LTYPE
  2
CONTINUOUS
 70
    64
  3
実線
 72
    65
 73
     0
 40
0.0
  0
ENDTAB
  0
TABLE
  2
LAYER
 70
    34
  0
LAYER
  2
通り芯
 70
     0
 62
    15
  6
CONTINUOUS
  0
LAYER
  2
補助線
 70
     0
 62
    16
  6
DOT
  0
LAYER
  2
躯体
 70
     0
 62
    31
  6
CONTINUOUS
  0
LAYER
  2
型材
 70
     0
 62
    32
  6
CONTINUOUS
  0
LAYER
  2
型材断面
 70
     0
 62
    47
  6
CONTINUOUS
  0
LAYER
  2
ガラス
 70
     0
 62
    48
  6
CONTINUOUS
  0
LAYER
  2
ゴム等
 70
     0
 62
    63
  6
CONTINUOUS
  0
LAYER
  2
ボルト／ビス
 70
     0
 62
    64
  6
CONTINUOUS
  0
LAYER
  2
文字
 70
     0
 62
    79
  6
CONTINUOUS
  0
LAYER
  2
寸法
 70
     0
 62
    80
  6
CONTINUOUS
  0
LAYER
  2
ﾊｯﾁﾝｸﾞ
 70
     0
 62
    95
  6
CONTINUOUS
  0
LAYER
  2
別途部材
 70
     0
 62
    96
  6
CONTINUOUS
  0
LAYER
  2
曲げ物
 70
     0
 62
   111
  6
CONTINUOUS
  0
LAYER
  2
鉄骨等
 70
     0
 62
   112
  6
CONTINUOUS
  0
LAYER
  2
St
 70
     0
 62
   127
  6
CONTINUOUS
  0
LAYER
  2
その他部品等
 70
     0
 62
   128
  6
CONTINUOUS
  0
LAYER
  2
ｶﾞｽｹｯﾄ
 70
     0
 62
   143
  6
CONTINUOUS
  0
LAYER
  2
ｽｹｯﾁ
 70
     0
 62
    14
  6
CONTINUOUS
  0
LAYER
  2
0
 70
     0
 62
    17
  6
CONTINUOUS
  0
LAYER
  2
1
 70
     0
 62
    30
  6
CONTINUOUS
  0
LAYER
  2
4
 70
     0
 62
    33
  6
CONTINUOUS
  0
LAYER
  2
ﾚｲﾔ3
 70
     0
 62
    46
  6
CONTINUOUS
  0
LAYER
  2
外形線
 70
     0
 62
    49
  6
CONTINUOUS
  0
LAYER
  2
部品
 70
     0
 62
    14
  6
CONTINUOUS
  0
LAYER
  2
サッシ芯
 70
     0
 62
    17
  6
DASHDOTX2
  0
LAYER
  2
寸法線
 70
     0
 62
    62
  6
CONTINUOUS
  0
LAYER
  2
姿図外形線
 70
     0
 62
    65
  6
CONTINUOUS
  0
LAYER
  2
姿補助線
 70
     0
 62
    30
  6
CONTINUOUS
  0
LAYER
  2
透視線
 70
     0
 62
    78
  6
DOT
  0
LAYER
  2
用紙
 70
     0
 62
    81
  6
CONTINUOUS
  0
LAYER
  2
実線図枠
 70
     0
 62
    94
  6
CONTINUOUS
  0
LAYER
  2
補助図枠
 70
     0
 62
    97
  6
CONTINUOUS
  0
LAYER
  2
建具記号
 70
     0
 62
   110
  6
CONTINUOUS
  0
LAYER
  2
補助文字
 70
     0
 62
   113
  6
CONTINUOUS
  0
ENDTAB
  0
TABLE
  2
STYLE
 70
    10
  0
STYLE
  2
STANDARD
 70
     0
 40
1.0
 41
1.0
 42
1.0
 50
0.0
 71
     0
  3
TXT
  4
BIGFONT
  0
STYLE
  2
TATE
 70
     4
 40
1.0
 41
1.0
 42
1.0
 50
0.0
 71
     0
  3
TXT
  4
BIGFONT
  0
STYLE
  2
TextStyle03
 70
     0
 40
1.0
 41
1.0
 42
1.0
 50
0.0
 71
     0
  3
MONOTXT
  4
BIGFONT
  0
STYLE
  2
TextStyle04
 70
     0
 40
1.0
 41
1.0
 42
1.0
 50
0.0
 71
     0
  3
MONOTXT
  4
BIGFONT
  0
STYLE
  2
TextStyle05
 70
     0
 40
1.0
 41
1.0
 42
1.0
 50
0.0
 71
     0
  3
MONOTXT
  4
BIGFONT
  0
STYLE
  2
TextStyle06
 70
     0
 40
1.0
 41
1.0
 42
1.0
 50
0.0
 71
     0
  3
MONOTXT
  4
BIGFONT
  0
STYLE
  2
TextStyle07
 70
     0
 40
1.0
 41
1.0
 42
1.0
 50
0.0
 71
     0
  3
MONOTXT
  4
BIGFONT
  0
STYLE
  2
TextStyle08
 70
     0
 40
1.0
 41
1.0
 42
1.0
 50
0.0
 71
     0
  3
MONOTXT
  4
BIGFONT
  0
STYLE
  2
TextStyle09
 70
     0
 40
1.0
 41
1.0
 42
1.0
 50
0.0
 71
     0
  3
MONOTXT
  4
BIGFONT
  0
STYLE
  2
TextStyle10
 70
     0
 40
1.0
 41
1.0
 42
1.0
 50
0.0
 71
     0
  3
MONOTXT
  4
BIGFONT
  0
ENDTAB
  0
ENDSEC
  0
SECTION
  2
BLOCKS
  0
BLOCK
  2
*HAT_0001
 70
    65
 10
0.0
 20
0.0
  0
LINE
  8
ゴム等
 10
-28.775
 20
-9.25
 11
-30.275
 21
-7.7
  0
LINE
  8
ゴム等
 10
-31.025
 20
-7.0
 11
-32.775
 21
-5.2
  0
LINE
  8
ゴム等
 10
-28.775
 20
-10.95
 11
-34.475
 21
-5.2
  0
LINE
  8
ゴム等
 10
-28.775
 20
-12.6
 11
-36.175
 21
-5.2
  0
LINE
  8
ゴム等
 10
-30.375
 20
-12.7
 11
-36.425
 21
-6.65
  0
LINE
  8
ゴム等
 10
-32.075
 20
-12.7
 11
-37.075
 21
-7.7
  0
LINE
  8
ゴム等
 10
-34.025
 20
-12.45
 11
-38.725
 21
-7.7
  0
LINE
  8
ゴム等
 10
-35.425
 20
-12.7
 11
-38.775
 21
-9.4
  0
LINE
  8
ゴム等
 10
-37.125
 20
-12.7
 11
-38.775
 21
-11.1
  0
ENDBLK
  0
BLOCK
  2
*HAT_0002
 70
    65
 10
0.0
 20
0.0
  0
LINE
  8
ゴム等
 10
-79.525
 20
-20.1
 11
-78.375
 21
-18.95
  0
LINE
  8
ゴム等
 10
-78.025
 20
-18.65
 11
-76.875
 21
-17.5
  0
LINE
  8
ゴム等
 10
-81.225
 20
-20.1
 11
-80.225
 21
-19.1
  0
LINE
  8
ゴム等
 10
-77.875
 20
-16.8
 11
-76.925
 21
-15.8
  0
LINE
  8
ゴム等
 10
-82.925
 20
-20.1
 11
-81.925
 21
-19.1
  0
LINE
  8
ゴム等
 10
-78.175
 20
-15.4
 11
-77.475
 21
-14.7
  0
LINE
  8
ゴム等
 10
-84.575
 20
-20.1
 11
-83.575
 21
-19.1
  0
LINE
  8
ゴム等
 10
-79.575
 20
-15.1
 11
-78.625
 21
-14.15
  0
LINE
  8
ゴム等
 10
-86.275
 20
-20.1
 11
-85.275
 21
-19.1
  0
LINE
  8
ゴム等
 10
-81.275
 20
-15.1
 11
-80.275
 21
-14.1
  0
LINE
  8
ゴム等
 10
-87.775
 20
-19.9
 11
-86.975
 21
-19.1
  0
LINE
  8
ゴム等
 10
-82.975
 20
-15.1
 11
-79.775
 21
-11.9
  0
LINE
  8
ゴム等
 10
-88.625
 20
-19.1
 11
-87.875
 21
-18.3
  0
LINE
  8
ゴム等
 10
-84.675
 20
-15.1
 11
-80.675
 21
-11.1
  0
LINE
  8
ゴム等
 10
-88.875
 20
-17.65
 11
-87.875
 21
-16.65
  0
LINE
  8
ゴム等
 10
-86.375
 20
-15.1
 11
-85.375
 21
-14.1
  0
LINE
  8
ゴム等
 10
-85.025
 20
-13.8
 11
-82.375
 21
-11.1
  0
LINE
  8
ゴム等
 10
-88.875
 20
-15.95
 11
-87.075
 21
-14.15
  0
LINE
  8
ゴム等
 10
-85.625
 20
-12.65
 11
-84.075
 21
-11.1
  0
LINE
  8
ゴム等
 10
-86.175
 20
-11.55
 11
-85.775
 21
-11.1
  0
ENDBLK
  0
BLOCK
  2
*HAT_0003
 70
    65
 10
0.0
 20
0.0
  0
LINE
  8
ゴム等
 10
-49.425
 20
-20.1
 11
-47.875
 21
-18.6
  0
LINE
  8
ゴム等
 10
-51.075
 20
-20.1
 11
-47.875
 21
-16.9
  0
LINE
  8
ゴム等
 10
-52.775
 20
-20.1
 11
-47.875
 21
-15.2
  0
LINE
  8
ゴム等
 10
-54.475
 20
-20.1
 11
-48.475
 21
-14.1
  0
LINE
  8
ゴム等
 10
-56.175
 20
-20.1
 11
-50.175
 21
-14.1
  0
LINE
  8
ゴム等
 10
-57.875
 20
-20.1
 11
-51.875
 21
-14.1
  0
LINE
  8
ゴム等
 10
-59.575
 20
-20.1
 11
-53.575
 21
-14.1
  0
LINE
  8
ゴム等
 10
-61.275
 20
-20.1
 11
-55.275
 21
-14.1
  0
LINE
  8
ゴム等
 10
-62.875
 20
-20.05
 11
-56.975
 21
-14.1
  0
LINE
  8
ゴム等
 10
-62.875
 20
-18.35
 11
-58.675
 21
-14.1
  0
LINE
  8
ゴム等
 10
-62.875
 20
-16.65
 11
-60.375
 21
-14.1
  0
LINE
  8
ゴム等
 10
-62.875
 20
-14.95
 11
-62.025
 21
-14.1
  0
ENDBLK
  0
BLOCK
  2
*HAT_0004
 70
    65
 10
0.0
 20
0.0
  0
LINE
  8
ゴム等
 10
-43.225
 20
-32.0
 11
-41.675
 21
-30.5
  0
LINE
  8
ゴム等
 10
-40.975
 20
-29.75
 11
-39.175
 21
-28.0
  0
LINE
  8
ゴム等
 10
-44.925
 20
-32.0
 11
-39.175
 21
-26.3
  0
LINE
  8
ゴム等
 10
-46.575
 20
-32.0
 11
-39.175
 21
-24.6
  0
LINE
  8
ゴム等
 10
-46.675
 20
-30.4
 11
-40.625
 21
-24.35
  0
LINE
  8
ゴム等
 10
-46.675
 20
-28.7
 11
-41.675
 21
-23.7
  0
LINE
  8
ゴム等
 10
-46.425
 20
-26.75
 11
-41.675
 21
-22.05
  0
LINE
  8
ゴム等
 10
-46.675
 20
-25.35
 11
-43.375
 21
-22.0
  0
LINE
  8
ゴム等
 10
-46.675
 20
-23.65
 11
-45.075
 21
-22.0
  0
ENDBLK
  0
BLOCK
  2
*HAT_0005
 70
    65
 10
0.0
 20
0.0
  0
LINE
  8
ゴム等
 10
-14.475
 20
82.95
 11
-12.725
 21
84.7
  0
LINE
  8
ゴム等
 10
-16.175
 20
82.95
 11
-13.425
 21
85.7
  0
LINE
  8
ゴム等
 10
-17.875
 20
82.95
 11
-14.875
 21
85.95
  0
LINE
  8
ゴム等
 10
-19.575
 20
82.95
 11
-16.575
 21
85.95
  0
LINE
  8
ゴム等
 10
-21.275
 20
82.95
 11
-18.275
 21
85.95
  0
LINE
  8
ゴム等
 10
-22.975
 20
82.95
 11
-19.975
 21
85.95
  0
LINE
  8
ゴム等
 10
-24.675
 20
82.95
 11
-21.625
 21
85.95
  0
LINE
  8
ゴム等
 10
-26.325
 20
82.95
 11
-23.325
 21
85.95
  0
LINE
  8
ゴム等
 10
-28.025
 20
82.95
 11
-25.025
 21
85.95
  0
LINE
  8
ゴム等
 10
-29.725
 20
82.95
 11
-26.725
 21
85.95
  0
LINE
  8
ゴム等
 10
-31.425
 20
82.95
 11
-28.425
 21
85.95
  0
LINE
  8
ゴム等
 10
-33.125
 20
82.95
 11
-30.125
 21
85.95
  0
LINE
  8
ゴム等
 10
-34.825
 20
82.95
 11
-31.825
 21
85.95
  0
LINE
  8
ゴム等
 10
-36.525
 20
82.95
 11
-33.525
 21
85.95
  0
LINE
  8
ゴム等
 10
-38.225
 20
82.95
 11
-35.225
 21
85.95
  0
LINE
  8
ゴム等
 10
-39.875
 20
82.95
 11
-36.925
 21
85.95
  0
LINE
  8
ゴム等
 10
-41.575
 20
82.95
 11
-38.575
 21
85.95
  0
LINE
  8
ゴム等
 10
-42.525
 20
83.7
 11
-40.275
 21
85.95
  0
ENDBLK
  0
BLOCK
  2
*HAT_0006
 70
    65
 10
0.0
 20
0.0
  0
LINE
  8
ゴム等
 10
-39.425
 20
73.0
 11
-37.875
 21
74.5
  0
LINE
  8
ゴム等
 10
-37.175
 20
75.25
 11
-35.375
 21
77.0
  0
LINE
  8
ゴム等
 10
-41.125
 20
73.0
 11
-35.375
 21
78.7
  0
LINE
  8
ゴム等
 10
-42.775
 20
73.0
 11
-35.375
 21
80.4
  0
LINE
  8
ゴム等
 10
-42.875
 20
74.6
 11
-36.825
 21
80.65
  0
LINE
  8
ゴム等
 10
-42.875
 20
76.3
 11
-37.875
 21
81.3
  0
LINE
  8
ゴム等
 10
-42.625
 20
78.25
 11
-37.875
 21
82.95
  0
LINE
  8
ゴム等
 10
-42.875
 20
79.65
 11
-39.575
 21
83.0
  0
LINE
  8
ゴム等
 10
-42.875
 20
81.35
 11
-41.275
 21
83.0
  0
ENDBLK
  0
BLOCK
  2
*HAT_0007
 70
    65
 10
0.0
 20
0.0
  0
LINE
  8
ゴム等
 10
-14.775
 20
-78.975
 11
-16.275
 21
-80.525
  0
LINE
  8
ゴム等
 10
-17.025
 20
-81.225
 11
-18.775
 21
-83.025
  0
LINE
  8
ゴム等
 10
-14.775
 20
-77.275
 11
-20.475
 21
-83.025
  0
LINE
  8
ゴム等
 10
-14.775
 20
-75.625
 11
-22.175
 21
-83.025
  0
LINE
  8
ゴム等
 10
-16.375
 20
-75.525
 11
-22.425
 21
-81.575
  0
LINE
  8
ゴム等
 10
-18.075
 20
-75.525
 11
-23.075
 21
-80.525
  0
LINE
  8
ゴム等
 10
-20.025
 20
-75.775
 11
-24.725
 21
-80.525
  0
LINE
  8
ゴム等
 10
-21.425
 20
-75.525
 11
-24.775
 21
-78.825
  0
LINE
  8
ゴム等
 10
-23.125
 20
-75.525
 11
-24.775
 21
-77.125
  0
ENDBLK
  0
BLOCK
  2
*HAT_0008
 70
    65
 10
0.0
 20
0.0
  0
LINE
  8
その他部品等
 10
-10.275
 20
-80.625
 11
-9.725
 21
-80.075
  0
LINE
  8
その他部品等
 10
-11.675
 20
-80.625
 11
-9.725
 21
-78.675
  0
LINE
  8
その他部品等
 10
-13.075
 20
-80.625
 11
-9.725
 21
-77.275
  0
LINE
  8
その他部品等
 10
-14.475
 20
-80.625
 11
-9.725
 21
-75.875
  0
LINE
  8
その他部品等
 10
-14.725
 20
-79.425
 11
-10.925
 21
-75.625
  0
LINE
  8
その他部品等
 10
-14.725
 20
-78.025
 11
-12.325
 21
-75.625
  0
LINE
  8
その他部品等
 10
-14.725
 20
-76.625
 11
-13.725
 21
-75.625
  0
LINE
  8
その他部品等
 10
-14.775
 20
-80.375
 11
-14.525
 21
-80.625
  0
LINE
  8
その他部品等
 10
-14.775
 20
-78.975
 11
-13.125
 21
-80.625
  0
LINE
  8
その他部品等
 10
-14.775
 20
-77.575
 11
-11.725
 21
-80.625
  0
LINE
  8
その他部品等
 10
-14.775
 20
-76.125
 11
-10.275
 21
-80.625
  0
LINE
  8
その他部品等
 10
-13.875
 20
-75.625
 11
-9.775
 21
-79.725
  0
LINE
  8
その他部品等
 10
-12.475
 20
-75.625
 11
-9.775
 21
-78.325
  0
LINE
  8
その他部品等
 10
-11.075
 20
-75.625
 11
-9.775
 21
-76.925
  0
ENDBLK
  0
BLOCK
  2
*HAT_0009
 70
    65
 10
0.0
 20
0.0
  0
LINE
  8
その他部品等
 10
-28.75
 20
-89.475
 11
-28.65
 21
-89.375
  0
LINE
  8
その他部品等
 10
-30.275
 20
-89.6
 11
-28.775
 21
-88.1
  0
LINE
  8
その他部品等
 10
-31.8
 20
-89.7
 11
-30.2
 21
-88.1
  0
LINE
  8
その他部品等
 10
-33.325
 20
-89.825
 11
-31.6
 21
-88.1
  0
LINE
  8
その他部品等
 10
-34.85
 20
-89.95
 11
-33.025
 21
-88.1
  0
LINE
  8
その他部品等
 10
-36.375
 20
-90.05
 11
-34.425
 21
-88.1
  0
LINE
  8
その他部品等
 10
-37.9
 20
-90.175
 11
-35.85
 21
-88.1
  0
LINE
  8
その他部品等
 10
-39.425
 20
-90.3
 11
-37.25
 21
-88.1
  0
LINE
  8
その他部品等
 10
-40.95
 20
-90.4
 11
-38.675
 21
-88.1
  0
LINE
  8
その他部品等
 10
-42.5
 20
-90.525
 11
-40.075
 21
-88.1
  0
LINE
  8
その他部品等
 10
-44.025
 20
-90.625
 11
-41.5
 21
-88.1
  0
LINE
  8
その他部品等
 10
-45.55
 20
-90.75
 11
-42.9
 21
-88.1
  0
LINE
  8
その他部品等
 10
-47.075
 20
-90.875
 11
-44.325
 21
-88.1
  0
LINE
  8
その他部品等
 10
-48.6
 20
-90.975
 11
-45.725
 21
-88.1
  0
LINE
  8
その他部品等
 10
-50.125
 20
-91.1
 11
-47.125
 21
-88.1
  0
LINE
  8
その他部品等
 10
-51.65
 20
-91.225
 11
-48.55
 21
-88.1
  0
LINE
  8
その他部品等
 10
-53.175
 20
-91.325
 11
-50.075
 21
-88.225
  0
LINE
  8
その他部品等
 10
-54.7
 20
-91.45
 11
-51.6
 21
-88.325
  0
LINE
  8
その他部品等
 10
-56.25
 20
-91.55
 11
-53.125
 21
-88.45
  0
LINE
  8
その他部品等
 10
-57.775
 20
-91.675
 11
-54.65
 21
-88.575
  0
LINE
  8
その他部品等
 10
-59.3
 20
-91.8
 11
-56.175
 21
-88.675
  0
LINE
  8
その他部品等
 10
-60.825
 20
-91.9
 11
-57.725
 21
-88.8
  0
LINE
  8
その他部品等
 10
-62.35
 20
-92.025
 11
-59.25
 21
-88.925
  0
LINE
  8
その他部品等
 10
-63.875
 20
-92.15
 11
-60.775
 21
-89.025
  0
LINE
  8
その他部品等
 10
-65.4
 20
-92.25
 11
-62.3
 21
-89.15
  0
LINE
  8
その他部品等
 10
-66.925
 20
-92.375
 11
-63.825
 21
-89.25
  0
LINE
  8
その他部品等
 10
-68.45
 20
-92.475
 11
-65.35
 21
-89.375
  0
LINE
  8
その他部品等
 10
-70.0
 20
-92.6
 11
-66.875
 21
-89.5
  0
LINE
  8
その他部品等
 10
-71.525
 20
-92.725
 11
-68.4
 21
-89.6
  0
LINE
  8
その他部品等
 10
-73.05
 20
-92.825
 11
-69.925
 21
-89.725
  0
LINE
  8
その他部品等
 10
-74.575
 20
-92.95
 11
-71.45
 21
-89.85
  0
LINE
  8
その他部品等
 10
-76.1
 20
-93.075
 11
-73.0
 21
-89.95
  0
LINE
  8
その他部品等
 10
-77.625
 20
-93.175
 11
-74.525
 21
-90.075
  0
LINE
  8
その他部品等
 10
-79.15
 20
-93.3
 11
-76.05
 21
-90.2
  0
LINE
  8
その他部品等
 10
-80.675
 20
-93.4
 11
-77.575
 21
-90.3
  0
LINE
  8
その他部品等
 10
-82.2
 20
-93.525
 11
-79.1
 21
-90.425
  0
LINE
  8
その他部品等
 10
-83.725
 20
-93.65
 11
-80.625
 21
-90.525
  0
LINE
  8
その他部品等
 10
-85.275
 20
-93.75
 11
-82.15
 21
-90.65
  0
LINE
  8
その他部品等
 10
-86.8
 20
-93.875
 11
-83.675
 21
-90.775
  0
LINE
  8
その他部品等
 10
-88.325
 20
-94.0
 11
-85.2
 21
-90.875
  0
LINE
  8
その他部品等
 10
-89.85
 20
-94.1
 11
-86.75
 21
-91.0
  0
LINE
  8
その他部品等
 10
-91.375
 20
-94.225
 11
-88.275
 21
-91.125
  0
LINE
  8
その他部品等
 10
-92.9
 20
-94.35
 11
-89.8
 21
-91.225
  0
LINE
  8
その他部品等
 10
-94.425
 20
-94.45
 11
-91.325
 21
-91.35
  0
LINE
  8
その他部品等
 10
-95.95
 20
-94.575
 11
-92.85
 21
-91.45
  0
LINE
  8
その他部品等
 10
-97.475
 20
-94.675
 11
-94.375
 21
-91.575
  0
LINE
  8
その他部品等
 10
-99.025
 20
-94.8
 11
-95.9
 21
-91.7
  0
LINE
  8
その他部品等
 10
-109.725
 20
-104.1
 11
-109.65
 21
-104.025
  0
LINE
  8
その他部品等
 10
-111.15
 20
-104.1
 11
-109.65
 21
-102.6
  0
LINE
  8
その他部品等
 10
-112.55
 20
-104.1
 11
-109.65
 21
-101.2
  0
LINE
  8
その他部品等
 10
-100.55
 20
-94.925
 11
-97.425
 21
-91.8
  0
LINE
  8
その他部品等
 10
-102.075
 20
-95.025
 11
-98.95
 21
-91.925
  0
LINE
  8
その他部品等
 10
-103.6
 20
-95.15
 11
-100.5
 21
-92.05
  0
LINE
  8
その他部品等
 10
-112.65
 20
-102.775
 11
-109.65
 21
-99.775
  0
LINE
  8
その他部品等
 10
-112.65
 20
-101.375
 11
-109.65
 21
-98.375
  0
LINE
  8
その他部品等
 10
-105.125
 20
-95.275
 11
-102.025
 21
-92.15
  0
LINE
  8
その他部品等
 10
-106.65
 20
-95.375
 11
-103.55
 21
-92.275
  0
LINE
  8
その他部品等
 10
-112.65
 20
-99.975
 11
-109.575
 21
-96.875
  0
LINE
  8
その他部品等
 10
-108.2
 20
-95.5
 11
-105.075
 21
-92.4
  0
LINE
  8
その他部品等
 10
-112.65
 20
-98.55
 11
-106.6
 21
-92.5
  0
LINE
  8
その他部品等
 10
-112.65
 20
-97.15
 11
-108.125
 21
-92.625
  0
LINE
  8
その他部品等
 10
-112.65
 20
-95.725
 11
-109.65
 21
-92.725
  0
LINE
  8
その他部品等
 10
-112.65
 20
-94.325
 11
-111.175
 21
-92.85
  0
LINE
  8
その他部品等
 10
-112.65
 20
-103.3
 11
-111.85
 21
-104.1
  0
LINE
  8
その他部品等
 10
-112.65
 20
-101.9
 11
-110.45
 21
-104.1
  0
LINE
  8
その他部品等
 10
-112.65
 20
-100.5
 11
-109.65
 21
-103.5
  0
LINE
  8
その他部品等
 10
-112.65
 20
-99.075
 11
-109.65
 21
-102.075
  0
LINE
  8
その他部品等
 10
-112.65
 20
-97.675
 11
-109.65
 21
-100.675
  0
LINE
  8
その他部品等
 10
-112.65
 20
-96.25
 11
-109.65
 21
-99.25
  0
LINE
  8
その他部品等
 10
-112.65
 20
-94.85
 11
-109.65
 21
-97.85
  0
LINE
  8
その他部品等
 10
-112.65
 20
-93.425
 11
-109.45
 21
-96.625
  0
LINE
  8
その他部品等
 10
-111.775
 20
-92.9
 11
-108.85
 21
-95.8
  0
LINE
  8
その他部品等
 10
-110.475
 20
-92.8
 11
-107.8
 21
-95.45
  0
LINE
  8
その他部品等
 10
-109.15
 20
-92.7
 11
-106.475
 21
-95.375
  0
LINE
  8
その他部品等
 10
-107.85
 20
-92.6
 11
-105.175
 21
-95.275
  0
LINE
  8
その他部品等
 10
-106.525
 20
-92.5
 11
-103.85
 21
-95.175
  0
LINE
  8
その他部品等
 10
-105.225
 20
-92.4
 11
-102.55
 21
-95.075
  0
LINE
  8
その他部品等
 10
-103.9
 20
-92.3
 11
-101.225
 21
-94.975
  0
LINE
  8
その他部品等
 10
-102.6
 20
-92.2
 11
-99.925
 21
-94.875
  0
LINE
  8
その他部品等
 10
-101.275
 20
-92.1
 11
-98.6
 21
-94.775
  0
LINE
  8
その他部品等
 10
-99.975
 20
-92.0
 11
-97.3
 21
-94.675
  0
LINE
  8
その他部品等
 10
-98.65
 20
-91.9
 11
-95.975
 21
-94.575
  0
LINE
  8
その他部品等
 10
-97.35
 20
-91.8
 11
-94.675
 21
-94.475
  0
LINE
  8
その他部品等
 10
-96.025
 20
-91.7
 11
-93.35
 21
-94.375
  0
LINE
  8
その他部品等
 10
-94.7
 20
-91.6
 11
-92.05
 21
-94.275
  0
LINE
  8
その他部品等
 10
-93.4
 20
-91.5
 11
-90.725
 21
-94.175
  0
LINE
  8
その他部品等
 10
-92.1
 20
-91.4
 11
-89.425
 21
-94.075
  0
LINE
  8
その他部品等
 10
-90.775
 20
-91.3
 11
-88.1
 21
-93.975
  0
LINE
  8
その他部品等
 10
-89.475
 20
-91.2
 11
-86.8
 21
-93.875
  0
LINE
  8
その他部品等
 10
-88.15
 20
-91.1
 11
-85.475
 21
-93.775
  0
LINE
  8
その他部品等
 10
-86.85
 20
-91.0
 11
-84.175
 21
-93.675
  0
LINE
  8
その他部品等
 10
-85.525
 20
-90.9
 11
-82.85
 21
-93.575
  0
LINE
  8
その他部品等
 10
-84.225
 20
-90.8
 11
-81.55
 21
-93.475
  0
LINE
  8
その他部品等
 10
-82.9
 20
-90.7
 11
-80.225
 21
-93.375
  0
LINE
  8
その他部品等
 10
-81.6
 20
-90.6
 11
-78.925
 21
-93.275
  0
LINE
  8
その他部品等
 10
-80.275
 20
-90.5
 11
-77.6
 21
-93.175
  0
LINE
  8
その他部品等
 10
-78.975
 20
-90.4
 11
-76.3
 21
-93.075
  0
LINE
  8
その他部品等
 10
-77.65
 20
-90.3
 11
-74.975
 21
-92.975
  0
LINE
  8
その他部品等
 10
-76.35
 20
-90.2
 11
-73.675
 21
-92.875
  0
LINE
  8
その他部品等
 10
-75.025
 20
-90.1
 11
-72.35
 21
-92.775
  0
LINE
  8
その他部品等
 10
-73.725
 20
-90.0
 11
-71.05
 21
-92.675
  0
LINE
  8
その他部品等
 10
-72.4
 20
-89.9
 11
-69.725
 21
-92.575
  0
LINE
  8
その他部品等
 10
-71.1
 20
-89.8
 11
-68.425
 21
-92.475
  0
LINE
  8
その他部品等
 10
-69.775
 20
-89.7
 11
-67.1
 21
-92.375
  0
LINE
  8
その他部品等
 10
-68.475
 20
-89.6
 11
-65.8
 21
-92.275
  0
LINE
  8
その他部品等
 10
-67.15
 20
-89.5
 11
-64.475
 21
-92.175
  0
LINE
  8
その他部品等
 10
-65.85
 20
-89.425
 11
-63.175
 21
-92.075
  0
LINE
  8
その他部品等
 10
-64.525
 20
-89.325
 11
-61.85
 21
-91.975
  0
LINE
  8
その他部品等
 10
-63.225
 20
-89.225
 11
-60.55
 21
-91.875
  0
LINE
  8
その他部品等
 10
-61.9
 20
-89.125
 11
-59.225
 21
-91.775
  0
LINE
  8
その他部品等
 10
-60.6
 20
-89.025
 11
-57.925
 21
-91.675
  0
LINE
  8
その他部品等
 10
-59.275
 20
-88.925
 11
-56.6
 21
-91.575
  0
LINE
  8
その他部品等
 10
-57.975
 20
-88.825
 11
-55.3
 21
-91.475
  0
LINE
  8
その他部品等
 10
-56.65
 20
-88.725
 11
-53.975
 21
-91.375
  0
LINE
  8
その他部品等
 10
-55.325
 20
-88.625
 11
-52.675
 21
-91.275
  0
LINE
  8
その他部品等
 10
-54.025
 20
-88.525
 11
-51.35
 21
-91.175
  0
LINE
  8
その他部品等
 10
-52.725
 20
-88.425
 11
-50.05
 21
-91.075
  0
LINE
  8
その他部品等
 10
-51.4
 20
-88.325
 11
-48.725
 21
-91.0
  0
LINE
  8
その他部品等
 10
-50.1
 20
-88.225
 11
-47.425
 21
-90.9
  0
LINE
  8
その他部品等
 10
-48.775
 20
-88.125
 11
-46.1
 21
-90.8
  0
LINE
  8
その他部品等
 10
-47.375
 20
-88.1
 11
-44.8
 21
-90.7
  0
LINE
  8
その他部品等
 10
-45.975
 20
-88.1
 11
-43.475
 21
-90.6
  0
LINE
  8
その他部品等
 10
-44.55
 20
-88.1
 11
-42.175
 21
-90.5
  0
LINE
  8
その他部品等
 10
-43.15
 20
-88.1
 11
-40.85
 21
-90.4
  0
LINE
  8
その他部品等
 10
-41.725
 20
-88.1
 11
-39.55
 21
-90.3
  0
LINE
  8
その他部品等
 10
-40.325
 20
-88.1
 11
-38.225
 21
-90.2
  0
LINE
  8
その他部品等
 10
-38.9
 20
-88.1
 11
-36.925
 21
-90.1
  0
LINE
  8
その他部品等
 10
-37.5
 20
-88.1
 11
-35.6
 21
-90.0
  0
LINE
  8
その他部品等
 10
-36.075
 20
-88.1
 11
-34.3
 21
-89.9
  0
LINE
  8
その他部品等
 10
-34.675
 20
-88.1
 11
-32.975
 21
-89.8
  0
LINE
  8
その他部品等
 10
-33.25
 20
-88.1
 11
-31.675
 21
-89.7
  0
LINE
  8
その他部品等
 10
-31.85
 20
-88.1
 11
-30.35
 21
-89.6
  0
LINE
  8
その他部品等
 10
-30.425
 20
-88.1
 11
-29.05
 21
-89.5
  0
LINE
  8
その他部品等
 10
-29.025
 20
-88.1
 11
-28.65
 21
-88.475
  0
ENDBLK
  0
BLOCK
  2
*HAT_0010
 70
    65
 10
0.0
 20
0.0
  0
LINE
  8
その他部品等
 10
-29.075
 20
-102.5
 11
-28.65
 21
-102.1
  0
LINE
  8
その他部品等
 10
-30.475
 20
-102.5
 11
-28.65
 21
-100.675
  0
LINE
  8
その他部品等
 10
-31.875
 20
-102.5
 11
-28.65
 21
-99.275
  0
LINE
  8
その他部品等
 10
-33.3
 20
-102.5
 11
-28.65
 21
-97.85
  0
LINE
  8
その他部品等
 10
-34.7
 20
-102.5
 11
-28.65
 21
-96.45
  0
LINE
  8
その他部品等
 10
-36.125
 20
-102.5
 11
-28.65
 21
-95.025
  0
LINE
  8
その他部品等
 10
-37.525
 20
-102.5
 11
-28.65
 21
-93.625
  0
LINE
  8
その他部品等
 10
-38.95
 20
-102.5
 11
-28.65
 21
-92.2
  0
LINE
  8
その他部品等
 10
-40.35
 20
-102.5
 11
-28.95
 21
-91.1
  0
LINE
  8
その他部品等
 10
-41.775
 20
-102.5
 11
-30.475
 21
-91.225
  0
LINE
  8
その他部品等
 10
-43.175
 20
-102.5
 11
-32.0
 21
-91.325
  0
LINE
  8
その他部品等
 10
-44.6
 20
-102.5
 11
-33.525
 21
-91.45
  0
LINE
  8
その他部品等
 10
-46.0
 20
-102.5
 11
-35.05
 21
-91.55
  0
LINE
  8
その他部品等
 10
-47.425
 20
-102.5
 11
-36.575
 21
-91.675
  0
LINE
  8
その他部品等
 10
-48.45
 20
-102.125
 11
-38.125
 21
-91.8
  0
LINE
  8
その他部品等
 10
-48.45
 20
-100.7
 11
-39.65
 21
-91.9
  0
LINE
  8
その他部品等
 10
-48.45
 20
-99.3
 11
-41.175
 21
-92.025
  0
LINE
  8
その他部品等
 10
-48.45
 20
-97.875
 11
-42.7
 21
-92.15
  0
LINE
  8
その他部品等
 10
-48.45
 20
-96.475
 11
-44.225
 21
-92.25
  0
LINE
  8
その他部品等
 10
-48.45
 20
-95.075
 11
-45.75
 21
-92.375
  0
LINE
  8
その他部品等
 10
-48.45
 20
-93.65
 11
-47.275
 21
-92.5
  0
LINE
  8
その他部品等
 10
-48.45
 20
-101.15
 11
-47.1
 21
-102.5
  0
LINE
  8
その他部品等
 10
-48.45
 20
-99.75
 11
-45.675
 21
-102.5
  0
LINE
  8
その他部品等
 10
-48.45
 20
-98.325
 11
-44.275
 21
-102.5
  0
LINE
  8
その他部品等
 10
-48.45
 20
-96.925
 11
-42.85
 21
-102.5
  0
LINE
  8
その他部品等
 10
-48.45
 20
-95.5
 11
-41.45
 21
-102.5
  0
LINE
  8
その他部品等
 10
-48.45
 20
-94.1
 11
-40.05
 21
-102.5
  0
LINE
  8
その他部品等
 10
-48.45
 20
-92.675
 11
-38.625
 21
-102.5
  0
LINE
  8
その他部品等
 10
-47.225
 20
-92.475
 11
-37.225
 21
-102.5
  0
LINE
  8
その他部品等
 10
-45.925
 20
-92.375
 11
-35.8
 21
-102.5
  0
LINE
  8
その他部品等
 10
-44.625
 20
-92.275
 11
-34.4
 21
-102.5
  0
LINE
  8
その他部品等
 10
-43.3
 20
-92.175
 11
-32.975
 21
-102.5
  0
LINE
  8
その他部品等
 10
-42.0
 20
-92.075
 11
-31.575
 21
-102.5
  0
LINE
  8
その他部品等
 10
-40.675
 20
-91.975
 11
-30.15
 21
-102.5
  0
LINE
  8
その他部品等
 10
-39.35
 20
-91.875
 11
-28.75
 21
-102.5
  0
LINE
  8
その他部品等
 10
-38.05
 20
-91.775
 11
-28.65
 21
-101.175
  0
LINE
  8
その他部品等
 10
-36.725
 20
-91.675
 11
-28.65
 21
-99.775
  0
LINE
  8
その他部品等
 10
-35.425
 20
-91.6
 11
-28.65
 21
-98.35
  0
LINE
  8
その他部品等
 10
-34.1
 20
-91.5
 11
-28.65
 21
-96.95
  0
LINE
  8
その他部品等
 10
-32.8
 20
-91.4
 11
-28.65
 21
-95.525
  0
LINE
  8
その他部品等
 10
-31.5
 20
-91.3
 11
-28.65
 21
-94.125
  0
LINE
  8
その他部品等
 10
-30.175
 20
-91.2
 11
-28.65
 21
-92.7
  0
LINE
  8
その他部品等
 10
-28.85
 20
-91.1
 11
-28.65
 21
-91.3
  0
ENDBLK
  0
BLOCK
  2
*HAT_0011
 70
    65
 10
0.0
 20
0.0
  0
LINE
  8
その他部品等
 10
-16.275
 20
-93.65
 11
-14.025
 21
-91.4
  0
LINE
  8
その他部品等
 10
-18.9
 20
-94.85
 11
-14.025
 21
-90.0
  0
LINE
  8
その他部品等
 10
-21.525
 20
-96.075
 11
-14.025
 21
-88.575
  0
LINE
  8
その他部品等
 10
-24.15
 20
-97.3
 11
-14.475
 21
-87.6
  0
LINE
  8
その他部品等
 10
-26.625
 20
-98.35
 11
-15.9
 21
-87.6
  0
LINE
  8
その他部品等
 10
-26.625
 20
-96.95
 11
-17.3
 21
-87.6
  0
LINE
  8
その他部品等
 10
-26.625
 20
-95.525
 11
-18.725
 21
-87.6
  0
LINE
  8
その他部品等
 10
-26.625
 20
-94.125
 11
-20.125
 21
-87.6
  0
LINE
  8
その他部品等
 10
-26.625
 20
-92.7
 11
-21.525
 21
-87.6
  0
LINE
  8
その他部品等
 10
-26.625
 20
-91.3
 11
-22.95
 21
-87.6
  0
LINE
  8
その他部品等
 10
-26.625
 20
-89.875
 11
-24.35
 21
-87.6
  0
LINE
  8
その他部品等
 10
-26.625
 20
-88.475
 11
-25.775
 21
-87.6
  0
LINE
  8
その他部品等
 10
-26.65
 20
-97.85
 11
-26.25
 21
-98.25
  0
LINE
  8
その他部品等
 10
-26.65
 20
-96.45
 11
-25.275
 21
-97.8
  0
LINE
  8
その他部品等
 10
-26.65
 20
-95.025
 11
-24.325
 21
-97.35
  0
LINE
  8
その他部品等
 10
-26.65
 20
-93.625
 11
-23.35
 21
-96.9
  0
LINE
  8
その他部品等
 10
-26.65
 20
-92.225
 11
-22.4
 21
-96.475
  0
LINE
  8
その他部品等
 10
-26.65
 20
-90.8
 11
-21.425
 21
-96.025
  0
LINE
  8
その他部品等
 10
-26.65
 20
-89.4
 11
-20.45
 21
-95.575
  0
LINE
  8
その他部品等
 10
-26.65
 20
-87.975
 11
-19.5
 21
-95.125
  0
LINE
  8
その他部品等
 10
-25.6
 20
-87.6
 11
-18.525
 21
-94.675
  0
LINE
  8
その他部品等
 10
-24.2
 20
-87.6
 11
-17.55
 21
-94.225
  0
LINE
  8
その他部品等
 10
-22.775
 20
-87.6
 11
-16.6
 21
-93.8
  0
LINE
  8
その他部品等
 10
-21.375
 20
-87.6
 11
-15.625
 21
-93.35
  0
LINE
  8
その他部品等
 10
-19.95
 20
-87.6
 11
-14.675
 21
-92.9
  0
LINE
  8
その他部品等
 10
-18.55
 20
-87.6
 11
-14.05
 21
-92.1
  0
LINE
  8
その他部品等
 10
-17.125
 20
-87.6
 11
-14.05
 21
-90.7
  0
LINE
  8
その他部品等
 10
-15.725
 20
-87.6
 11
-14.05
 21
-89.275
  0
LINE
  8
その他部品等
 10
-14.3
 20
-87.6
 11
-14.05
 21
-87.875
  0
ENDBLK
  0
BLOCK
  2
*GRP_0001
 70
    65
 10
0.0
 20
0.0
  0
LINE
  8
型材断面
  6
CONTINUOUS
 10
195.0
 20
133.5
 11
195.0
 21
-133.5
  0
LINE
  8
型材断面
  6
CONTINUOUS
 10
195.0
 20
-133.5
 11
-185.0
 21
-133.5
  0
LINE
  8
型材断面
  6
CONTINUOUS
 10
-185.0
 20
-133.5
 11
-185.0
 21
133.5
  0
LINE
  8
型材断面
  6
CONTINUOUS
 10
195.0
 20
133.5
 11
-185.0
 21
133.5
  0
LINE
  8
型材断面
  6
CONTINUOUS
 10
145.0
 20
-133.5
 11
145.0
 21
-118.5
  0
LINE
  8
型材断面
  6
CONTINUOUS
 10
195.0
 20
-118.5
 11
145.0
 21
-118.5
  0
ENDBLK
  0
BLOCK
  2
*GRP_0002
 70
    65
 10
0.0
 20
0.0
  0
LINE
  8
別途部材
  6
CONTINUOUS
 62
    47
 10
-35.790255
 20
-104.07431
 11
-93.29023
 21
-104.07431
  0
LINE
  8
別途部材
  6
CONTINUOUS
 62
    47
 10
-35.790255
 20
-102.47431
 11
-93.29023
 21
-102.47431
  0
LINE
  8
別途部材
  6
CONTINUOUS
 62
    47
 10
-78.790255
 20
-104.07431
 11
-85.02563
 21
-107.67431
  0
LINE
  8
別途部材
  6
CONTINUOUS
 62
    47
 10
-93.29023
 20
-107.67431
 11
-85.02563
 21
-107.67431
  0
LINE
  8
別途部材
  6
CONTINUOUS
 62
    47
 10
-93.29023
 20
-106.07431
 11
-85.454355
 21
-106.07431
  0
LINE
  8
別途部材
  6
CONTINUOUS
 62
    47
 10
-81.990255
 20
-104.07431
 11
-85.454355
 21
-106.07431
  0
LINE
  8
別途部材
  6
CONTINUOUS
 62
    47
 10
-93.29023
 20
-104.07431
 11
-93.29023
 21
-102.47431
  0
LINE
  8
別途部材
  6
CONTINUOUS
 62
    47
 10
-93.29023
 20
-106.07431
 11
-93.29023
 21
-107.67431
  0
LINE
  8
別途部材
  6
CONTINUOUS
 62
    47
 10
-50.290255
 20
-104.07431
 11
-44.05488
 21
-107.67431
  0
LINE
  8
別途部材
  6
CONTINUOUS
 62
    47
 10
-35.790255
 20
-107.67431
 11
-44.05488
 21
-107.67431
  0
LINE
  8
別途部材
  6
CONTINUOUS
 62
    47
 10
-35.790255
 20
-106.07431
 11
-43.62613
 21
-106.07431
  0
LINE
  8
別途部材
  6
CONTINUOUS
 62
    47
 10
-47.09023
 20
-104.07431
 11
-43.62613
 21
-106.07431
  0
LINE
  8
別途部材
  6
CONTINUOUS
 62
    47
 10
-35.790255
 20
-106.07431
 11
-35.790255
 21
-107.67431
  0
LINE
  8
別途部材
  6
CONTINUOUS
 62
    47
 10
-72.29023
 20
-120.47431
 11
-72.29023
 21
-104.07431
  0
LINE
  8
別途部材
  6
CONTINUOUS
 62
    47
 10
-70.690255
 20
-120.47431
 11
-70.690255
 21
-104.07431
  0
LINE
  8
別途部材
  6
CONTINUOUS
 62
    47
 10
-72.29023
 20
-120.47431
 11
-70.690255
 21
-120.47431
  0
LINE
  8
別途部材
  6
CONTINUOUS
 62
    47
 10
-35.790255
 20
-102.47431
 11
-35.790255
 21
-104.07431
  0
ENDBLK
  0
BLOCK
  2
*GRP_0003
 70
    65
 10
0.0
 20
0.0
  0
LINE
  8
ゴム等
  6
CONTINUOUS
 10
-36.13997
 20
-5.070735
 11
-36.63997
 21
-7.570735
  0
LINE
  8
ゴム等
  6
CONTINUOUS
 10
-30.83997
 20
-7.570735
 11
-31.33997
 21
-5.070735
  0
LINE
  8
ゴム等
  6
CONTINUOUS
 10
-28.73997
 20
-12.570735
 11
-28.73997
 21
-7.570735
  0
LINE
  8
ゴム等
  6
CONTINUOUS
 10
-38.73997
 20
-12.570735
 11
-38.73997
 21
-7.570735
  0
LINE
  8
ゴム等
  6
CONTINUOUS
 10
-36.13997
 20
-5.070735
 11
-31.33997
 21
-5.070735
  0
LINE
  8
ゴム等
  6
CONTINUOUS
 10
-28.73997
 20
-7.570735
 11
-30.83997
 21
-7.570735
  0
LINE
  8
ゴム等
  6
CONTINUOUS
 10
-36.63997
 20
-7.570735
 11
-38.73997
 21
-7.570735
  0
LINE
  8
ゴム等
  6
CONTINUOUS
 10
-33.73997
 20
-12.070735
 11
-33.23997
 21
-12.570735
  0
LINE
  8
ゴム等
  6
CONTINUOUS
 10
-33.73997
 20
-12.070735
 11
-34.23997
 21
-12.570735
  0
LINE
  8
ゴム等
  6
CONTINUOUS
 10
-38.73997
 20
-12.570735
 11
-34.23997
 21
-12.570735
  0
LINE
  8
ゴム等
  6
CONTINUOUS
 10
-33.23997
 20
-12.570735
 11
-28.73997
 21
-12.570735
  0
INSERT
  2
*HAT_0001
  8
ゴム等
 10
0.0
 20
0.0
  0
ENDBLK
  0
BLOCK
  2
*GRP_0004
 70
    65
 10
0.0
 20
0.0
  0
INSERT
  2
*HAT_0002
  8
ゴム等
 10
0.0
 20
0.0
  0
LINE
  8
ゴム等
  6
CONTINUOUS
 10
-86.341445
 20
-11.07111
 11
-79.34237
 21
-11.07111
  0
LINE
  8
ゴム等
  6
CONTINUOUS
 10
-79.34237
 20
-11.07111
 11
-80.842345
 21
-14.07111
  0
LINE
  8
ゴム等
  6
CONTINUOUS
 10
-86.341445
 20
-11.07111
 11
-84.841645
 21
-14.070735
  0
LINE
  8
ゴム等
  6
CONTINUOUS
 10
-86.841895
 20
-14.070735
 11
-84.841645
 21
-14.070735
  0
ARC
  8
ゴム等
  6
CONTINUOUS
 10
-86.841893
 20
-16.070708
 40
2.0
 50
90.0
 51
180.0
  0
LINE
  8
ゴム等
  6
CONTINUOUS
 10
-88.84192
 20
-18.07071
 11
-88.84192
 21
-16.07071
  0
ARC
  8
ゴム等
  6
CONTINUOUS
 10
-86.841893
 20
-18.070708
 40
2.0
 50
180.0
 51
270.0
  0
LINE
  8
ゴム等
  6
CONTINUOUS
 10
-86.841895
 20
-20.070735
 11
-78.841895
 21
-20.070735
  0
ARC
  8
ゴム等
  6
CONTINUOUS
 10
-78.841893
 20
-18.070708
 40
2.0
 50
270.0
 51
360.0
  0
LINE
  8
ゴム等
  6
CONTINUOUS
 10
-76.84192
 20
-18.07071
 11
-76.84192
 21
-16.07111
  0
LINE
  8
ゴム等
  6
CONTINUOUS
 10
-78.841895
 20
-14.07111
 11
-80.842345
 21
-14.07111
  0
ARC
  8
ゴム等
  6
CONTINUOUS
 10
-78.841893
 20
-16.071098
 40
2.0
 50
0.0
 51
90.0
  0
ARC
  8
ゴム等
  6
CONTINUOUS
 10
-86.841895
 20
-16.070705
 40
1.0
 50
90.0
 51
180.0
  0
LINE
  8
ゴム等
  6
CONTINUOUS
 10
-87.841895
 20
-18.070735
 11
-87.841895
 21
-16.07071
  0
ARC
  8
ゴム等
  6
CONTINUOUS
 10
-86.841895
 20
-18.07071
 40
1.0
 50
180.0
 51
270.0
  0
LINE
  8
ゴム等
  6
CONTINUOUS
 10
-78.841895
 20
-19.07071
 11
-86.84192
 21
-19.07071
  0
ARC
  8
ゴム等
  6
CONTINUOUS
 10
-78.84189
 20
-18.07071
 40
1.0
 50
270.0
 51
360.0
  0
LINE
  8
ゴム等
  6
CONTINUOUS
 10
-77.841895
 20
-16.07071
 11
-77.841895
 21
-18.070735
  0
LINE
  8
ゴム等
  6
CONTINUOUS
 10
-78.841895
 20
-15.07071
 11
-86.84192
 21
-15.07071
  0
ARC
  8
ゴム等
  6
CONTINUOUS
 10
-78.84189
 20
-16.070705
 40
1.0
 50
0.0
 51
90.0
  0
ENDBLK
  0
BLOCK
  2
*GRP_0005
 70
    65
 10
0.0
 20
0.0
  0
INSERT
  2
*HAT_0003
  8
ゴム等
 10
0.0
 20
0.0
  0
LINE
  8
ゴム等
  6
CONTINUOUS
 10
-47.845495
 20
-14.07074
 11
-47.845495
 21
-20.07074
  0
LINE
  8
ゴム等
  6
CONTINUOUS
 10
-47.845495
 20
-20.07074
 11
-62.845495
 21
-20.07074
  0
LINE
  8
ゴム等
  6
CONTINUOUS
 10
-62.845495
 20
-20.07074
 11
-62.845495
 21
-14.07074
  0
LINE
  8
ゴム等
  6
CONTINUOUS
 10
-47.845495
 20
-14.07074
 11
-62.845495
 21
-14.07074
  0
ENDBLK
  0
BLOCK
  2
*GRP_0006
 70
    65
 10
0.0
 20
0.0
  0
LINE
  8
ゴム等
  6
CONTINUOUS
 10
-39.145495
 20
-24.670215
 11
-41.645495
 21
-24.170215
  0
LINE
  8
ゴム等
  6
CONTINUOUS
 10
-41.645495
 20
-29.970215
 11
-39.145495
 21
-29.470215
  0
LINE
  8
ゴム等
  6
CONTINUOUS
 10
-46.645495
 20
-32.070215
 11
-41.645495
 21
-32.070215
  0
LINE
  8
ゴム等
  6
CONTINUOUS
 10
-46.645495
 20
-22.070215
 11
-41.645495
 21
-22.070215
  0
LINE
  8
ゴム等
  6
CONTINUOUS
 10
-39.145495
 20
-24.670215
 11
-39.145495
 21
-29.470215
  0
LINE
  8
ゴム等
  6
CONTINUOUS
 10
-41.645495
 20
-32.070215
 11
-41.645495
 21
-29.970215
  0
LINE
  8
ゴム等
  6
CONTINUOUS
 10
-41.645495
 20
-24.170215
 11
-41.645495
 21
-22.070215
  0
LINE
  8
ゴム等
  6
CONTINUOUS
 10
-46.145495
 20
-27.070215
 11
-46.645495
 21
-27.570215
  0
LINE
  8
ゴム等
  6
CONTINUOUS
 10
-46.145495
 20
-27.070215
 11
-46.645495
 21
-26.570215
  0
LINE
  8
ゴム等
  6
CONTINUOUS
 10
-46.645495
 20
-22.070215
 11
-46.645495
 21
-26.570215
  0
LINE
  8
ゴム等
  6
CONTINUOUS
 10
-46.645495
 20
-27.570215
 11
-46.645495
 21
-32.070215
  0
INSERT
  2
*HAT_0004
  8
ゴム等
 10
0.0
 20
0.0
  0
ENDBLK
  0
BLOCK
  2
*GRP_0007
 70
    65
 10
0.0
 20
0.0
  0
ARC
  8
ゴム等
  6
CONTINUOUS
 62
    63
 10
-14.139202
 20
84.425691
 40
1.5
 50
0.0
 51
90.0
  0
LINE
  8
ゴム等
  6
CONTINUOUS
 62
    63
 10
-12.63921
 20
84.425672
 11
-12.63921
 21
84.425672
  0
ARC
  8
ゴム等
  6
CONTINUOUS
 62
    63
 10
-14.139202
 20
84.425691
 40
1.5
 50
-90.0
 51
0.0
  0
LINE
  8
ゴム等
  6
CONTINUOUS
 62
    63
 10
-41.13921
 20
85.925672
 11
-14.13921
 21
85.925672
  0
ARC
  8
ゴム等
  6
CONTINUOUS
 62
    63
 10
-41.139202
 20
84.425691
 40
1.5
 50
90.0
 51
180.0
  0
LINE
  8
ゴム等
  6
CONTINUOUS
 62
    63
 10
-42.63921
 20
84.425672
 11
-42.63921
 21
84.425672
  0
LINE
  8
ゴム等
  6
CONTINUOUS
 62
    63
 10
-41.13921
 20
82.925672
 11
-14.13921
 21
82.925672
  0
ARC
  8
ゴム等
  6
CONTINUOUS
 62
    63
 10
-41.139202
 20
84.425691
 40
1.5
 50
180.0
 51
270.0
  0
INSERT
  2
*HAT_0005
  8
ゴム等
 10
0.0
 20
0.0
  0
ENDBLK
  0
BLOCK
  2
*GRP_0008
 70
    65
 10
0.0
 20
0.0
  0
LINE
  8
ゴム等
  6
CONTINUOUS
 10
-35.34551
 20
80.329272
 11
-37.84551
 21
80.829272
  0
LINE
  8
ゴム等
  6
CONTINUOUS
 10
-37.84551
 20
75.029272
 11
-35.34551
 21
75.529272
  0
LINE
  8
ゴム等
  6
CONTINUOUS
 10
-42.84551
 20
72.929272
 11
-37.84551
 21
72.929272
  0
LINE
  8
ゴム等
  6
CONTINUOUS
 10
-42.84551
 20
82.929272
 11
-37.84551
 21
82.929272
  0
LINE
  8
ゴム等
  6
CONTINUOUS
 10
-35.34551
 20
80.329272
 11
-35.34551
 21
75.529272
  0
LINE
  8
ゴム等
  6
CONTINUOUS
 10
-37.84551
 20
72.929272
 11
-37.84551
 21
75.029272
  0
LINE
  8
ゴム等
  6
CONTINUOUS
 10
-37.84551
 20
80.829272
 11
-37.84551
 21
82.929272
  0
LINE
  8
ゴム等
  6
CONTINUOUS
 10
-42.34551
 20
77.929272
 11
-42.84551
 21
77.429272
  0
LINE
  8
ゴム等
  6
CONTINUOUS
 10
-42.34551
 20
77.929272
 11
-42.84551
 21
78.429272
  0
LINE
  8
ゴム等
  6
CONTINUOUS
 10
-42.84551
 20
82.929272
 11
-42.84551
 21
78.429272
  0
LINE
  8
ゴム等
  6
CONTINUOUS
 10
-42.84551
 20
77.429272
 11
-42.84551
 21
72.929272
  0
INSERT
  2
*HAT_0006
  8
ゴム等
 10
0.0
 20
0.0
  0
ENDBLK
  0
BLOCK
  2
*GRP_0009
 70
    65
 10
0.0
 20
0.0
  0
LINE
  8
ボルト／ビス
  6
CONTINUOUS
 62
    64
 10
-31.73997
 20
-12.270735
 11
-35.73997
 21
-12.270735
  0
LINE
  8
ボルト／ビス
  6
CONTINUOUS
 62
    64
 10
-30.73997
 20
-14.070735
 11
-31.73997
 21
-12.270735
  0
LINE
  8
ボルト／ビス
  6
CONTINUOUS
 62
    64
 10
-30.73997
 20
-14.070735
 11
-36.73997
 21
-14.070735
  0
LINE
  8
ボルト／ビス
  6
CONTINUOUS
 62
    64
 10
-36.73997
 20
-14.070735
 11
-35.73997
 21
-12.270735
  0
LINE
  8
ボルト／ビス
  6
CONTINUOUS
 62
    64
 10
-33.73997
 20
-15.554265
 11
-33.73997
 21
3.640835
  0
LINE
  8
ボルト／ビス
  6
CONTINUOUS
 62
    64
 10
-31.73997
 20
1.429265
 11
-32.23997
 21
1.929265
  0
LINE
  8
ボルト／ビス
  6
CONTINUOUS
 62
    64
 10
-35.73997
 20
1.429265
 11
-35.23997
 21
1.929265
  0
LINE
  8
ボルト／ビス
  6
CONTINUOUS
 62
    64
 10
-32.23997
 20
1.929265
 11
-35.23997
 21
1.929265
  0
LINE
  8
ボルト／ビス
  6
CONTINUOUS
 62
    64
 10
-31.73997
 20
1.429265
 11
-35.73997
 21
1.429265
  0
LINE
  8
ボルト／ビス
  6
CONTINUOUS
 62
    64
 10
-35.23997
 20
-12.270735
 11
-35.23997
 21
1.929265
  0
LINE
  8
ボルト／ビス
  6
CONTINUOUS
 62
    64
 10
-32.23997
 20
-12.270735
 11
-32.23997
 21
1.929265
  0
LINE
  8
ボルト／ビス
  6
CONTINUOUS
 62
    64
 10
-31.73997
 20
-12.270735
 11
-31.73997
 21
1.429265
  0
LINE
  8
ボルト／ビス
  6
CONTINUOUS
 62
    64
 10
-35.73997
 20
-12.270735
 11
-35.73997
 21
1.429265
  0
ENDBLK
  0
BLOCK
  2
*GRP_0010
 70
    65
 10
0.0
 20
0.0
  0
LINE
  8
ボルト／ビス
  6
CONTINUOUS
 62
    64
 10
-46.845495
 20
-29.070215
 11
-46.845495
 21
-25.070215
  0
LINE
  8
ボルト／ビス
  6
CONTINUOUS
 62
    64
 10
-48.645495
 20
-30.070215
 11
-46.845495
 21
-29.070215
  0
LINE
  8
ボルト／ビス
  6
CONTINUOUS
 62
    64
 10
-48.645495
 20
-30.070215
 11
-48.645495
 21
-24.070215
  0
LINE
  8
ボルト／ビス
  6
CONTINUOUS
 62
    64
 10
-48.645495
 20
-24.070215
 11
-46.845495
 21
-25.070215
  0
LINE
  8
ボルト／ビス
  6
CONTINUOUS
 62
    64
 10
-50.129025
 20
-27.070215
 11
-30.933925
 21
-27.070215
  0
LINE
  8
ボルト／ビス
  6
CONTINUOUS
 62
    64
 10
-33.145495
 20
-29.070215
 11
-32.645495
 21
-28.570215
  0
LINE
  8
ボルト／ビス
  6
CONTINUOUS
 62
    64
 10
-33.145495
 20
-25.070215
 11
-32.645495
 21
-25.570215
  0
LINE
  8
ボルト／ビス
  6
CONTINUOUS
 62
    64
 10
-32.645495
 20
-28.570215
 11
-32.645495
 21
-25.570215
  0
LINE
  8
ボルト／ビス
  6
CONTINUOUS
 62
    64
 10
-33.145495
 20
-29.070215
 11
-33.145495
 21
-25.070215
  0
LINE
  8
ボルト／ビス
  6
CONTINUOUS
 62
    64
 10
-46.845495
 20
-25.570215
 11
-32.645495
 21
-25.570215
  0
LINE
  8
ボルト／ビス
  6
CONTINUOUS
 62
    64
 10
-46.845495
 20
-28.570215
 11
-32.645495
 21
-28.570215
  0
LINE
  8
ボルト／ビス
  6
CONTINUOUS
 62
    64
 10
-46.845495
 20
-29.070215
 11
-33.145495
 21
-29.070215
  0
LINE
  8
ボルト／ビス
  6
CONTINUOUS
 62
    64
 10
-46.845495
 20
-25.070215
 11
-33.145495
 21
-25.070215
  0
ENDBLK
  0
BLOCK
  2
*GRP_0011
 70
    65
 10
0.0
 20
0.0
  0
LINE
  8
ボルト／ビス
  6
CONTINUOUS
 62
    64
 10
-107.64002
 20
-104.274245
 11
-103.64002
 21
-104.274245
  0
LINE
  8
ボルト／ビス
  6
CONTINUOUS
 62
    64
 10
-108.64002
 20
-106.074245
 11
-107.64002
 21
-104.274245
  0
LINE
  8
ボルト／ビス
  6
CONTINUOUS
 62
    64
 10
-108.64002
 20
-106.074245
 11
-102.64002
 21
-106.074245
  0
LINE
  8
ボルト／ビス
  6
CONTINUOUS
 62
    64
 10
-102.64002
 20
-106.074245
 11
-103.64002
 21
-104.274245
  0
LINE
  8
ボルト／ビス
  6
CONTINUOUS
 62
    64
 10
-105.64002
 20
-107.557777
 11
-105.64002
 21
-97.195218
  0
LINE
  8
ボルト／ビス
  6
CONTINUOUS
 62
    64
 10
-107.64002
 20
-98.574245
 11
-107.14002
 21
-98.074245
  0
LINE
  8
ボルト／ビス
  6
CONTINUOUS
 62
    64
 10
-103.64002
 20
-98.574245
 11
-104.14002
 21
-98.074245
  0
LINE
  8
ボルト／ビス
  6
CONTINUOUS
 62
    64
 10
-107.14002
 20
-98.074245
 11
-104.14002
 21
-98.074245
  0
LINE
  8
ボルト／ビス
  6
CONTINUOUS
 62
    64
 10
-107.64002
 20
-98.574245
 11
-103.64002
 21
-98.574245
  0
LINE
  8
ボルト／ビス
  6
CONTINUOUS
 62
    64
 10
-107.14002
 20
-104.274245
 11
-107.14002
 21
-98.074245
  0
LINE
  8
ボルト／ビス
  6
CONTINUOUS
 62
    64
 10
-104.14002
 20
-104.274245
 11
-104.14002
 21
-98.074245
  0
LINE
  8
ボルト／ビス
  6
CONTINUOUS
 62
    64
 10
-103.64002
 20
-104.274245
 11
-103.64002
 21
-98.574245
  0
LINE
  8
ボルト／ビス
  6
CONTINUOUS
 62
    64
 10
-107.64002
 20
-104.274245
 11
-107.64002
 21
-98.574245
  0
ENDBLK
  0
BLOCK
  2
*GRP_0012
 70
    65
 10
0.0
 20
0.0
  0
LINE
  8
ボルト／ビス
  6
CONTINUOUS
 62
    64
 10
-39.04026
 20
-104.274245
 11
-35.04026
 21
-104.274245
  0
LINE
  8
ボルト／ビス
  6
CONTINUOUS
 62
    64
 10
-40.04026
 20
-106.074245
 11
-39.04026
 21
-104.274245
  0
LINE
  8
ボルト／ビス
  6
CONTINUOUS
 62
    64
 10
-40.04026
 20
-106.074245
 11
-34.04026
 21
-106.074245
  0
LINE
  8
ボルト／ビス
  6
CONTINUOUS
 62
    64
 10
-34.04026
 20
-106.074245
 11
-35.04026
 21
-104.274245
  0
LINE
  8
ボルト／ビス
  6
CONTINUOUS
 62
    64
 10
-37.04026
 20
-107.557777
 11
-37.04026
 21
-97.195218
  0
LINE
  8
ボルト／ビス
  6
CONTINUOUS
 62
    64
 10
-39.04026
 20
-98.574245
 11
-38.54026
 21
-98.074245
  0
LINE
  8
ボルト／ビス
  6
CONTINUOUS
 62
    64
 10
-35.04026
 20
-98.574245
 11
-35.54026
 21
-98.074245
  0
LINE
  8
ボルト／ビス
  6
CONTINUOUS
 62
    64
 10
-38.54026
 20
-98.074245
 11
-35.54026
 21
-98.074245
  0
LINE
  8
ボルト／ビス
  6
CONTINUOUS
 62
    64
 10
-39.04026
 20
-98.574245
 11
-35.04026
 21
-98.574245
  0
LINE
  8
ボルト／ビス
  6
CONTINUOUS
 62
    64
 10
-38.54026
 20
-104.274245
 11
-38.54026
 21
-98.074245
  0
LINE
  8
ボルト／ビス
  6
CONTINUOUS
 62
    64
 10
-35.54026
 20
-104.274245
 11
-35.54026
 21
-98.074245
  0
LINE
  8
ボルト／ビス
  6
CONTINUOUS
 62
    64
 10
-35.04026
 20
-104.274245
 11
-35.04026
 21
-98.574245
  0
LINE
  8
ボルト／ビス
  6
CONTINUOUS
 62
    64
 10
-39.04026
 20
-104.274245
 11
-39.04026
 21
-98.574245
  0
ENDBLK
  0
BLOCK
  2
*GRP_0013
 70
    65
 10
0.0
 20
0.0
  0
LINE
  8
ボルト／ビス
  6
CONTINUOUS
 62
    64
 10
-36.04551
 20
57.728257
 11
-36.04551
 21
61.728257
  0
LINE
  8
ボルト／ビス
  6
CONTINUOUS
 62
    64
 10
-37.84551
 20
56.728257
 11
-36.04551
 21
57.728257
  0
LINE
  8
ボルト／ビス
  6
CONTINUOUS
 62
    64
 10
-37.84551
 20
56.728257
 11
-37.84551
 21
62.728257
  0
LINE
  8
ボルト／ビス
  6
CONTINUOUS
 62
    64
 10
-37.84551
 20
62.728257
 11
-36.04551
 21
61.728257
  0
LINE
  8
ボルト／ビス
  6
CONTINUOUS
 62
    64
 10
-39.32904
 20
59.728257
 11
-26.726765
 21
59.728257
  0
LINE
  8
ボルト／ビス
  6
CONTINUOUS
 62
    64
 10
-28.34551
 20
57.728257
 11
-27.84551
 21
58.228257
  0
LINE
  8
ボルト／ビス
  6
CONTINUOUS
 62
    64
 10
-28.34551
 20
61.728257
 11
-27.84551
 21
61.228257
  0
LINE
  8
ボルト／ビス
  6
CONTINUOUS
 62
    64
 10
-27.84551
 20
58.228257
 11
-27.84551
 21
61.228257
  0
LINE
  8
ボルト／ビス
  6
CONTINUOUS
 62
    64
 10
-28.34551
 20
57.728257
 11
-28.34551
 21
61.728257
  0
LINE
  8
ボルト／ビス
  6
CONTINUOUS
 62
    64
 10
-36.04551
 20
61.228257
 11
-27.84551
 21
61.228257
  0
LINE
  8
ボルト／ビス
  6
CONTINUOUS
 62
    64
 10
-36.04551
 20
58.228257
 11
-27.84551
 21
58.228257
  0
LINE
  8
ボルト／ビス
  6
CONTINUOUS
 62
    64
 10
-36.04551
 20
57.728257
 11
-28.34551
 21
57.728257
  0
LINE
  8
ボルト／ビス
  6
CONTINUOUS
 62
    64
 10
-36.04551
 20
61.728257
 11
-28.34551
 21
61.728257
  0
ENDBLK
  0
BLOCK
  2
*GRP_0014
 70
    65
 10
0.0
 20
0.0
  0
LINE
  8
ボルト／ビス
  6
CONTINUOUS
 62
    64
 10
-44.84551
 20
74.429272
 11
-45.893675
 21
74.520975
  0
ARC
  8
ボルト／ビス
  6
CONTINUOUS
 62
    64
 10
-45.74551
 20
76.214505
 40
1.7
 50
180.0
 51
265.000011
  0
LINE
  8
ボルト／ビス
  6
CONTINUOUS
 62
    64
 10
-47.44551
 20
76.214505
 11
-47.44551
 21
77.929272
  0
LINE
  8
ボルト／ビス
  6
CONTINUOUS
 62
    64
 10
-44.84551
 20
81.429272
 11
-45.893675
 21
81.33757
  0
ARC
  8
ボルト／ビス
  6
CONTINUOUS
 62
    64
 10
-45.74551
 20
79.644039
 40
1.7
 50
94.999989
 51
180.0
  0
LINE
  8
ボルト／ビス
  6
CONTINUOUS
 62
    64
 10
-47.44551
 20
79.64404
 11
-47.44551
 21
77.929272
  0
LINE
  8
ボルト／ビス
  6
CONTINUOUS
 62
    64
 10
-47.060605
 20
75.532633
 11
-47.302768
 21
75.532633
  0
LINE
  8
ボルト／ビス
  6
CONTINUOUS
 62
    64
 10
-46.410523
 20
77.229272
 11
-46.410523
 21
77.929272
  0
LINE
  8
ボルト／ビス
  6
CONTINUOUS
 62
    64
 10
-47.060605
 20
76.829272
 11
-47.060605
 21
75.532633
  0
LINE
  8
ボルト／ビス
  6
CONTINUOUS
 62
    64
 10
-46.410523
 20
77.229272
 11
-46.660605
 21
77.229272
  0
ARC
  8
ボルト／ビス
  6
CONTINUOUS
 62
    64
 10
-46.660605
 20
76.829272
 40
0.4
 50
90.0
 51
180.0
  0
LINE
  8
ボルト／ビス
  6
CONTINUOUS
 62
    64
 10
-47.060605
 20
80.325913
 11
-47.302768
 21
80.325913
  0
LINE
  8
ボルト／ビス
  6
CONTINUOUS
 62
    64
 10
-46.410523
 20
78.629272
 11
-46.410523
 21
77.929272
  0
LINE
  8
ボルト／ビス
  6
CONTINUOUS
 62
    64
 10
-47.060605
 20
79.029272
 11
-47.060605
 21
80.325913
  0
LINE
  8
ボルト／ビス
  6
CONTINUOUS
 62
    64
 10
-46.410523
 20
78.629272
 11
-46.660605
 21
78.629272
  0
ARC
  8
ボルト／ビス
  6
CONTINUOUS
 62
    64
 10
-46.660605
 20
79.029272
 40
0.4
 50
180.0
 51
270.0
  0
LINE
  8
ボルト／ビス
  6
CONTINUOUS
 62
    64
 10
-44.84551
 20
74.429272
 11
-44.84551
 21
81.429272
  0
LINE
  8
ボルト／ビス
  6
CONTINUOUS
 62
    64
 10
-49.416897
 20
77.929272
 11
-29.202237
 21
77.929272
  0
LINE
  8
ボルト／ビス
  6
CONTINUOUS
 62
    64
 10
-31.34551
 20
75.929272
 11
-30.84551
 21
76.429272
  0
LINE
  8
ボルト／ビス
  6
CONTINUOUS
 62
    64
 10
-31.34551
 20
79.929272
 11
-30.84551
 21
79.429272
  0
LINE
  8
ボルト／ビス
  6
CONTINUOUS
 62
    64
 10
-31.34551
 20
75.929272
 11
-31.34551
 21
79.929272
  0
LINE
  8
ボルト／ビス
  6
CONTINUOUS
 62
    64
 10
-30.84551
 20
76.429272
 11
-30.84551
 21
79.429272
  0
LINE
  8
ボルト／ビス
  6
CONTINUOUS
 62
    64
 10
-44.84551
 20
79.929272
 11
-31.34551
 21
79.929272
  0
LINE
  8
ボルト／ビス
  6
CONTINUOUS
 62
    64
 10
-44.84551
 20
75.929272
 11
-31.34551
 21
75.929272
  0
LINE
  8
ボルト／ビス
  6
CONTINUOUS
 62
    64
 10
-44.84551
 20
76.429272
 11
-30.84551
 21
76.429272
  0
LINE
  8
ボルト／ビス
  6
CONTINUOUS
 62
    64
 10
-44.84551
 20
79.429272
 11
-30.84551
 21
79.429272
  0
ENDBLK
  0
BLOCK
  2
*DIM_0015
 70
    65
 10
0.0
 20
0.0
  0
LINE
  8
寸法
  6
BYBLOCK
 62
     0
 10
-115.64002
 20
-106.074245
 11
-160.269523
 21
-106.074245
  0
LINE
  8
寸法
  6
BYBLOCK
 62
     0
 10
-45.84551
 20
82.929265
 11
-160.269523
 21
82.929265
  0
LINE
  8
寸法
  6
BYBLOCK
 62
     0
 10
-160.269523
 20
-106.074245
 11
-160.269523
 21
82.929265
  0
POINT
  8
寸法
 62
     0
 10
-160.269523
 20
-106.074245
  0
POINT
  8
寸法
 62
     0
 10
-160.269523
 20
82.929265
  0
TEXT
  7
TextStyle03
  8
寸法
  6
CONTINUOUS
 62
     0
 10
-160.65
 20
-14.0375
  1
189
 40
3.0
 50
90.0
 72
     5
 11
-160.65
 21
-9.1625
  0
ENDBLK
  0
BLOCK
  2
*DIM_0016
 70
    65
 10
0.0
 20
0.0
  0
LINE
  8
寸法
  6
BYBLOCK
 62
     0
 10
-151.622155
 20
82.929265
 11
-151.599128
 21
82.929265
  0
LINE
  8
寸法
  6
BYBLOCK
 62
     0
 10
-55.64551
 20
-7.07164
 11
-151.599128
 21
-7.07164
  0
LINE
  8
寸法
  6
BYBLOCK
 62
     0
 10
-151.599128
 20
82.929265
 11
-151.599128
 21
-7.07164
  0
POINT
  8
寸法
 62
     0
 10
-151.599128
 20
82.929265
  0
POINT
  8
寸法
 62
     0
 10
-151.599128
 20
-7.07164
  0
TEXT
  7
TextStyle03
  8
寸法
  6
CONTINUOUS
 62
     0
 10
-151.975
 20
36.30625
  1
90
 40
3.0
 50
90.0
 72
     5
 11
-151.975
 21
39.49375
  0
ENDBLK
  0
BLOCK
  2
*DIM_0017
 70
    65
 10
0.0
 20
0.0
  0
LINE
  8
寸法
  6
BYBLOCK
 62
     0
 10
-93.840585
 20
-9.071375
 11
-151.599128
 21
-9.071375
  0
LINE
  8
寸法
  6
BYBLOCK
 62
     0
 10
-151.599128
 20
-7.07164
 11
-151.599128
 21
-9.071375
  0
POINT
  8
寸法
 62
     0
 10
-151.599128
 20
-9.071375
  0
TEXT
  7
TextStyle03
  8
寸法
  6
CONTINUOUS
 62
     0
 10
-151.975
 20
-8.85
  1
2
 40
3.0
 50
90.0
 72
     5
 11
-151.975
 21
-7.35
  0
ENDBLK
  0
BLOCK
  2
*DIM_0018
 70
    65
 10
0.0
 20
0.0
  0
LINE
  8
寸法
  6
BYBLOCK
 62
     0
 10
-93.840585
 20
-22.070465
 11
-151.599128
 21
-22.070465
  0
LINE
  8
寸法
  6
BYBLOCK
 62
     0
 10
-151.599128
 20
-9.071375
 11
-151.599128
 21
-22.070465
  0
POINT
  8
寸法
 62
     0
 10
-151.599128
 20
-22.070465
  0
TEXT
  7
TextStyle03
  8
寸法
  6
CONTINUOUS
 62
     0
 10
-151.975
 20
-17.19375
  1
13
 40
3.0
 50
90.0
 72
     5
 11
-151.975
 21
-14.00625
  0
ENDBLK
  0
BLOCK
  2
*DIM_0019
 70
    65
 10
0.0
 20
0.0
  0
LINE
  8
寸法
  6
BYBLOCK
 62
     0
 10
-49.64002
 20
-86.07419
 11
-151.599128
 21
-86.07419
  0
LINE
  8
寸法
  6
BYBLOCK
 62
     0
 10
-151.599128
 20
-22.070465
 11
-151.599128
 21
-86.07419
  0
POINT
  8
寸法
 62
     0
 10
-151.599128
 20
-86.07419
  0
TEXT
  7
TextStyle03
  8
寸法
  6
CONTINUOUS
 62
     0
 10
-151.975
 20
-55.69375
  1
64
 40
3.0
 50
90.0
 72
     5
 11
-151.975
 21
-52.50625
  0
ENDBLK
  0
BLOCK
  2
*DIM_0020
 70
    65
 10
0.0
 20
0.0
  0
LINE
  8
寸法
  6
BYBLOCK
 62
     0
 10
-115.64002
 20
-91.07419
 11
-151.599128
 21
-91.07419
  0
LINE
  8
寸法
  6
BYBLOCK
 62
     0
 10
-151.599128
 20
-86.07419
 11
-151.599128
 21
-91.07419
  0
POINT
  8
寸法
 62
     0
 10
-151.599128
 20
-91.07419
  0
TEXT
  7
TextStyle03
  8
寸法
  6
CONTINUOUS
 62
     0
 10
-151.975
 20
-89.35
  1
5
 40
3.0
 50
90.0
 72
     5
 11
-151.975
 21
-87.85
  0
ENDBLK
  0
BLOCK
  2
*DIM_0021
 70
    65
 10
0.0
 20
0.0
  0
LINE
  8
寸法
  6
BYBLOCK
 62
     0
 10
-116.64002
 20
-106.074245
 11
-151.599128
 21
-106.074245
  0
LINE
  8
寸法
  6
BYBLOCK
 62
     0
 10
-151.599128
 20
-91.07419
 11
-151.599128
 21
-106.074245
  0
POINT
  8
寸法
 62
     0
 10
-151.599128
 20
-106.074245
  0
TEXT
  7
TextStyle03
  8
寸法
  6
CONTINUOUS
 62
     0
 10
-151.975
 20
-100.19375
  1
15
 40
3.0
 50
90.0
 72
     5
 11
-151.975
 21
-97.00625
  0
ENDBLK
  0
BLOCK
  2
*DIM_0022
 70
    65
 10
0.0
 20
0.0
  0
LINE
  8
寸法
  6
BYBLOCK
 62
     0
 10
-11.64551
 20
-7.570735
 11
63.146925
 21
-7.570735
  0
LINE
  8
寸法
  6
BYBLOCK
 62
     0
 10
63.146925
 20
42.929265
 11
63.146925
 21
-7.570735
  0
POINT
  8
寸法
 62
     0
 10
63.146925
 20
42.929265
  0
POINT
  8
寸法
 62
     0
 10
63.146925
 20
-7.570735
  0
TEXT
  7
TextStyle03
  8
寸法
  6
CONTINUOUS
 62
     0
 10
62.775
 20
14.34375
  1
50.5
 40
3.0
 50
90.0
 72
     5
 11
62.775
 21
20.90625
  0
ENDBLK
  0
BLOCK
  2
*DIM_0023
 70
    65
 10
0.0
 20
0.0
  0
LINE
  8
寸法
  6
BYBLOCK
 62
     0
 10
-11.645495
 20
-11.57036
 11
63.146925
 21
-11.57036
  0
LINE
  8
寸法
  6
BYBLOCK
 62
     0
 10
63.146925
 20
-7.570735
 11
63.146925
 21
-11.57036
  0
POINT
  8
寸法
 62
     0
 10
63.146925
 20
-11.57036
  0
TEXT
  7
TextStyle03
  8
寸法
  6
CONTINUOUS
 62
     0
 10
62.775
 20
-10.375
  1
4
 40
3.0
 50
90.0
 72
     5
 11
62.775
 21
-8.875
  0
ENDBLK
  0
BLOCK
  2
*DIM_0024
 70
    65
 10
0.0
 20
0.0
  0
LINE
  8
寸法
  6
BYBLOCK
 62
     0
 10
13.354505
 20
-75.57074
 11
63.146925
 21
-75.57074
  0
LINE
  8
寸法
  6
BYBLOCK
 62
     0
 10
63.146925
 20
-11.57036
 11
63.146925
 21
-75.57074
  0
POINT
  8
寸法
 62
     0
 10
63.146925
 20
-75.57074
  0
TEXT
  7
TextStyle03
  8
寸法
  6
CONTINUOUS
 62
     0
 10
62.775
 20
-45.21875
  1
64
 40
3.0
 50
90.0
 72
     5
 11
62.775
 21
-42.03125
  0
ENDBLK
  0
BLOCK
  2
*DIM_0025
 70
    65
 10
0.0
 20
0.0
  0
LINE
  8
寸法
  6
BYBLOCK
 62
     0
 10
53.504495
 20
30.929272
 11
75.709987
 21
30.929272
  0
LINE
  8
寸法
  6
BYBLOCK
 62
     0
 10
53.504495
 20
-112.071072
 11
75.709987
 21
-112.071072
  0
LINE
  8
寸法
  6
BYBLOCK
 62
     0
 10
75.709987
 20
30.929272
 11
75.709987
 21
-112.071072
  0
POINT
  8
寸法
 62
     0
 10
75.709987
 20
30.929272
  0
POINT
  8
寸法
 62
     0
 10
75.709987
 20
-112.071072
  0
TEXT
  7
TextStyle03
  8
寸法
  6
CONTINUOUS
 62
     0
 10
75.35
 20
-43.0375
  1
143
 40
3.0
 50
90.0
 72
     5
 11
75.35
 21
-38.1625
  0
ENDBLK
  0
BLOCK
  2
*DIM_0026
 70
    65
 10
0.0
 20
0.0
  0
LINE
  8
寸法
  6
BYBLOCK
 62
     0
 10
-114.64002
 20
-77.64195
 11
-114.64002
 21
130.496715
  0
LINE
  8
寸法
  6
BYBLOCK
 62
     0
 10
-2.639195
 20
130.496715
 11
-114.64002
 21
130.496715
  0
POINT
  8
寸法
 62
     0
 10
-2.639195
 20
130.496715
  0
POINT
  8
寸法
 62
     0
 10
-114.64002
 20
130.496715
  0
TEXT
  7
TextStyle03
  8
寸法
  6
CONTINUOUS
 62
     0
 10
-61.0625
 20
130.85
  1
112
 40
3.0
 72
     5
 11
-56.1875
 21
130.85
  0
ENDBLK
  0
BLOCK
  2
*DIM_0027
 70
    65
 10
0.0
 20
0.0
  0
LINE
  8
寸法
  6
BYBLOCK
 62
     0
 10
-114.64002
 20
124.66382
 11
-114.64002
 21
123.989478
  0
LINE
  8
寸法
  6
BYBLOCK
 62
     0
 10
12.354505
 20
-54.1385
 11
12.354505
 21
123.989478
  0
LINE
  8
寸法
  6
BYBLOCK
 62
     0
 10
-114.64002
 20
123.989478
 11
12.354505
 21
123.989478
  0
POINT
  8
寸法
 62
     0
 10
-114.64002
 20
123.989478
  0
POINT
  8
寸法
 62
     0
 10
12.354505
 20
123.989478
  0
TEXT
  7
TextStyle03
  8
寸法
  6
CONTINUOUS
 62
     0
 10
-53.5875
 20
124.35
  1
127
 40
3.0
 72
     5
 11
-48.7125
 21
124.35
  0
ENDBLK
  0
BLOCK
  2
*DIM_0028
 70
    65
 10
0.0
 20
0.0
  0
LINE
  8
寸法
  6
BYBLOCK
 62
     0
 10
-2.639195
 20
117.198688
 11
-2.639195
 21
118.090135
  0
LINE
  8
寸法
  6
BYBLOCK
 62
     0
 10
12.354505
 20
117.198688
 11
12.354505
 21
118.090135
  0
LINE
  8
寸法
  6
BYBLOCK
 62
     0
 10
-2.639195
 20
118.090135
 11
12.354505
 21
118.090135
  0
POINT
  8
寸法
 62
     0
 10
-2.639195
 20
118.090135
  0
POINT
  8
寸法
 62
     0
 10
12.354505
 20
118.090135
  0
TEXT
  7
TextStyle03
  8
寸法
  6
CONTINUOUS
 62
     0
 10
3.25625
 20
118.45
  1
15
 40
3.0
 72
     5
 11
6.44375
 21
118.45
  0
ENDBLK
  0
BLOCK
  2
*DIM_0029
 70
    65
 10
0.0
 20
0.0
  0
LINE
  8
寸法
  6
BYBLOCK
 62
     0
 10
-144.501855
 20
-9.071375
 11
-144.15317
 21
-9.071375
  0
LINE
  8
寸法
  6
BYBLOCK
 62
     0
 10
-93.540643
 20
-14.070712
 11
-144.15317
 21
-14.070712
  0
LINE
  8
寸法
  6
BYBLOCK
 62
     0
 10
-144.15317
 20
-9.071375
 11
-144.15317
 21
-14.070712
  0
POINT
  8
寸法
 62
     0
 10
-144.15317
 20
-9.071375
  0
POINT
  8
寸法
 62
     0
 10
-144.15317
 20
-14.070712
  0
TEXT
  7
TextStyle03
  8
寸法
  6
CONTINUOUS
 62
     0
 10
-144.525
 20
-12.325
  1
5
 40
3.0
 50
90.0
 72
     5
 11
-144.525
 21
-10.825
  0
ENDBLK
  0
BLOCK
  2
*DIM_0030
 70
    65
 10
0.0
 20
0.0
  0
LINE
  8
寸法
  6
BYBLOCK
 62
     0
 10
-93.540635
 20
-18.070972
 11
-144.15317
 21
-18.070972
  0
LINE
  8
寸法
  6
BYBLOCK
 62
     0
 10
-144.15317
 20
-14.070712
 11
-144.15317
 21
-18.070972
  0
POINT
  8
寸法
 62
     0
 10
-144.15317
 20
-18.070972
  0
TEXT
  7
TextStyle03
  8
寸法
  6
CONTINUOUS
 62
     0
 10
-144.525
 20
-16.825
  1
4
 40
3.0
 50
90.0
 72
     5
 11
-144.525
 21
-15.325
  0
ENDBLK
  0
BLOCK
  2
*DIM_0031
 70
    65
 10
0.0
 20
0.0
  0
LINE
  8
寸法
  6
BYBLOCK
 62
     0
 10
-94.840585
 20
-22.070465
 11
-144.15317
 21
-22.070465
  0
LINE
  8
寸法
  6
BYBLOCK
 62
     0
 10
-144.15317
 20
-18.070972
 11
-144.15317
 21
-22.070465
  0
POINT
  8
寸法
 62
     0
 10
-144.15317
 20
-22.070465
  0
TEXT
  7
TextStyle03
  8
寸法
  6
CONTINUOUS
 62
     0
 10
-144.525
 20
-20.825
  1
4
 40
3.0
 50
90.0
 72
     5
 11
-144.525
 21
-19.325
  0
ENDBLK
  0
BLOCK
  2
*DIM_0032
 70
    65
 10
0.0
 20
0.0
  0
LINE
  8
寸法
  6
BYBLOCK
 62
     0
 10
-1.64551
 20
42.929265
 11
63.146925
 21
42.929265
  0
LINE
  8
寸法
  6
BYBLOCK
 62
     0
 10
-0.64551
 20
52.929265
 11
63.146925
 21
52.929265
  0
LINE
  8
寸法
  6
BYBLOCK
 62
     0
 10
63.146925
 20
42.929265
 11
63.146925
 21
52.929265
  0
POINT
  8
寸法
 62
     0
 10
63.146925
 20
42.929265
  0
POINT
  8
寸法
 62
     0
 10
63.146925
 20
52.929265
  0
TEXT
  7
TextStyle03
  8
寸法
  6
CONTINUOUS
 62
     0
 10
62.775
 20
46.30625
  1
10
 40
3.0
 50
90.0
 72
     5
 11
62.775
 21
49.49375
  0
ENDBLK
  0
BLOCK
  2
*DIM_0033
 70
    65
 10
0.0
 20
0.0
  0
LINE
  8
寸法
  6
BYBLOCK
 62
     0
 10
-92.64002
 20
-11.596372
 11
-92.64002
 21
118.090135
  0
LINE
  8
寸法
  6
BYBLOCK
 62
     0
 10
-52.639195
 20
118.090135
 11
-92.64002
 21
118.090135
  0
POINT
  8
寸法
 62
     0
 10
-52.639195
 20
118.090135
  0
POINT
  8
寸法
 62
     0
 10
-92.64002
 20
118.090135
  0
TEXT
  7
TextStyle03
  8
寸法
  6
CONTINUOUS
 62
     0
 10
-74.21875
 20
118.45
  1
40
 40
3.0
 72
     5
 11
-71.03125
 21
118.45
  0
ENDBLK
  0
BLOCK
  2
*DIM_0034
 70
    65
 10
0.0
 20
0.0
  0
LINE
  8
寸法
  6
BYBLOCK
 62
     0
 10
-114.64002
 20
-9.596637
 11
-114.64002
 21
118.090135
  0
LINE
  8
寸法
  6
BYBLOCK
 62
     0
 10
-92.64002
 20
118.090135
 11
-114.64002
 21
118.090135
  0
POINT
  8
寸法
 62
     0
 10
-114.64002
 20
118.090135
  0
TEXT
  7
TextStyle03
  8
寸法
  6
CONTINUOUS
 62
     0
 10
-105.21875
 20
118.45
  1
22
 40
3.0
 72
     5
 11
-102.03125
 21
118.45
  0
ENDBLK
  0
BLOCK
  2
*GRP_0035
 70
    65
 10
0.0
 20
0.0
  0
LINE
  8
ゴム等
  6
CONTINUOUS
 10
-22.140015
 20
-83.070745
 11
-22.640015
 21
-80.570745
  0
LINE
  8
ゴム等
  6
CONTINUOUS
 10
-16.840015
 20
-80.570745
 11
-17.340015
 21
-83.070745
  0
LINE
  8
ゴム等
  6
CONTINUOUS
 10
-14.740015
 20
-75.570745
 11
-14.740015
 21
-80.570745
  0
LINE
  8
ゴム等
  6
CONTINUOUS
 10
-24.740015
 20
-75.570745
 11
-24.740015
 21
-80.570745
  0
LINE
  8
ゴム等
  6
CONTINUOUS
 10
-22.140015
 20
-83.070745
 11
-17.340015
 21
-83.070745
  0
LINE
  8
ゴム等
  6
CONTINUOUS
 10
-14.740015
 20
-80.570745
 11
-16.840015
 21
-80.570745
  0
LINE
  8
ゴム等
  6
CONTINUOUS
 10
-22.640015
 20
-80.570745
 11
-24.740015
 21
-80.570745
  0
LINE
  8
ゴム等
  6
CONTINUOUS
 10
-19.740015
 20
-76.070745
 11
-19.240015
 21
-75.570745
  0
LINE
  8
ゴム等
  6
CONTINUOUS
 10
-19.740015
 20
-76.070745
 11
-20.240015
 21
-75.570745
  0
LINE
  8
ゴム等
  6
CONTINUOUS
 10
-24.740015
 20
-75.570745
 11
-20.240015
 21
-75.570745
  0
LINE
  8
ゴム等
  6
CONTINUOUS
 10
-19.240015
 20
-75.570745
 11
-14.740015
 21
-75.570745
  0
INSERT
  2
*HAT_0007
  8
ゴム等
 10
0.0
 20
0.0
  0
ENDBLK
  0
BLOCK
  2
*GRP_0036
 70
    65
 10
0.0
 20
0.0
  0
LINE
  8
型材断面
  6
CONTINUOUS
 62
    64
 10
-15.082025
 20
-88.437903
 11
-15.08202
 21
-87.574202
  0
LINE
  8
型材断面
  6
CONTINUOUS
 62
    64
 10
-24.39798
 20
-88.437872
 11
-24.397975
 21
-87.574162
  0
LINE
  8
型材断面
  6
CONTINUOUS
 62
    64
 10
-15.08202
 20
-87.574202
 11
-24.397975
 21
-87.574162
  0
LINE
  8
ボルト／ビス
  6
CONTINUOUS
 62
    64
 10
-24.740005
 20
-89.377563
 11
-21.819905
 21
-90.440408
  0
LINE
  8
ボルト／ビス
  6
CONTINUOUS
 62
    64
 10
-21.819905
 20
-90.440408
 11
-19.740015
 21
-90.440413
  0
LINE
  8
ボルト／ビス
  6
CONTINUOUS
 62
    64
 10
-24.740005
 20
-89.377563
 11
-19.74001
 21
-89.377582
  0
LINE
  8
ボルト／ビス
  6
CONTINUOUS
 62
    64
 10
-24.39798
 20
-88.437872
 11
-19.740005
 21
-88.437888
  0
LINE
  8
ボルト／ビス
  6
CONTINUOUS
 62
    64
 10
-14.74001
 20
-89.377607
 11
-17.66011
 21
-90.440423
  0
LINE
  8
ボルト／ビス
  6
CONTINUOUS
 62
    64
 10
-17.66011
 20
-90.440423
 11
-19.740015
 21
-90.440413
  0
LINE
  8
ボルト／ビス
  6
CONTINUOUS
 62
    64
 10
-14.74001
 20
-89.377607
 11
-19.74001
 21
-89.377582
  0
LINE
  8
ボルト／ビス
  6
CONTINUOUS
 62
    64
 10
-15.082025
 20
-88.437903
 11
-19.740005
 21
-88.437888
  0
LINE
  8
ボルト／ビス
  6
CONTINUOUS
 62
    64
 10
-14.74001
 20
-89.377607
 11
-15.082025
 21
-88.437903
  0
LINE
  8
ボルト／ビス
  6
CONTINUOUS
 62
    64
 10
-24.740005
 20
-89.377563
 11
-24.39798
 21
-88.437867
  0
ENDBLK
  0
BLOCK
  2
*GRP_0037
 70
    65
 10
0.0
 20
0.0
  0
LINE
  8
ボルト／ビス
  6
CONTINUOUS
 62
    64
 10
-16.240015
 20
-90.440413
 11
-16.331715
 21
-91.488577
  0
ARC
  8
ボルト／ビス
  6
CONTINUOUS
 62
    64
 10
-18.025252
 20
-91.340405
 40
1.7
 50
270.0
 51
355.000011
  0
LINE
  8
ボルト／ビス
  6
CONTINUOUS
 62
    64
 10
-18.02525
 20
-93.040413
 11
-19.740015
 21
-93.040413
  0
LINE
  8
ボルト／ビス
  6
CONTINUOUS
 62
    64
 10
-23.240015
 20
-90.440413
 11
-23.14831
 21
-91.488577
  0
ARC
  8
ボルト／ビス
  6
CONTINUOUS
 62
    64
 10
-21.454786
 20
-91.340405
 40
1.7
 50
184.999989
 51
270.0
  0
LINE
  8
ボルト／ビス
  6
CONTINUOUS
 62
    64
 10
-21.454785
 20
-93.040413
 11
-19.740015
 21
-93.040413
  0
LINE
  8
ボルト／ビス
  6
CONTINUOUS
 62
    64
 10
-17.343375
 20
-92.655508
 11
-17.343375
 21
-92.897667
  0
LINE
  8
ボルト／ビス
  6
CONTINUOUS
 62
    64
 10
-19.040015
 20
-92.005422
 11
-19.740015
 21
-92.005422
  0
LINE
  8
ボルト／ビス
  6
CONTINUOUS
 62
    64
 10
-18.640015
 20
-92.655508
 11
-17.343375
 21
-92.655508
  0
LINE
  8
ボルト／ビス
  6
CONTINUOUS
 62
    64
 10
-19.040015
 20
-92.005422
 11
-19.040015
 21
-92.255508
  0
ARC
  8
ボルト／ビス
  6
CONTINUOUS
 62
    64
 10
-18.640019
 20
-92.2555
 40
0.4
 50
180.0
 51
270.0
  0
LINE
  8
ボルト／ビス
  6
CONTINUOUS
 62
    64
 10
-22.136655
 20
-92.655508
 11
-22.136655
 21
-92.897667
  0
LINE
  8
ボルト／ビス
  6
CONTINUOUS
 62
    64
 10
-20.440015
 20
-92.005422
 11
-19.740015
 21
-92.005422
  0
LINE
  8
ボルト／ビス
  6
CONTINUOUS
 62
    64
 10
-20.840015
 20
-92.655508
 11
-22.136655
 21
-92.655508
  0
LINE
  8
ボルト／ビス
  6
CONTINUOUS
 62
    64
 10
-20.440015
 20
-92.005422
 11
-20.440015
 21
-92.255508
  0
ARC
  8
ボルト／ビス
  6
CONTINUOUS
 62
    64
 10
-20.840019
 20
-92.2555
 40
0.4
 50
270.0
 51
360.0
  0
LINE
  8
ボルト／ビス
  6
CONTINUOUS
 62
    64
 10
-16.240015
 20
-90.440413
 11
-23.240015
 21
-90.440413
  0
LINE
  8
ボルト／ビス
  6
CONTINUOUS
 62
    64
 10
-19.740015
 20
-95.011802
 11
-19.740015
 21
-62.888937
  0
LINE
  8
ボルト／ビス
  6
CONTINUOUS
 62
    64
 10
-17.740015
 20
-65.940413
 11
-18.240015
 21
-65.440413
  0
LINE
  8
ボルト／ビス
  6
CONTINUOUS
 62
    64
 10
-21.740015
 20
-65.940413
 11
-21.240015
 21
-65.440413
  0
LINE
  8
ボルト／ビス
  6
CONTINUOUS
 62
    64
 10
-17.740015
 20
-65.940413
 11
-21.740015
 21
-65.940413
  0
LINE
  8
ボルト／ビス
  6
CONTINUOUS
 62
    64
 10
-18.240015
 20
-65.440413
 11
-21.240015
 21
-65.440413
  0
LINE
  8
ボルト／ビス
  6
CONTINUOUS
 62
    64
 10
-21.240015
 20
-90.440413
 11
-21.240015
 21
-65.440413
  0
LINE
  8
ボルト／ビス
  6
CONTINUOUS
 62
    64
 10
-18.240015
 20
-90.440413
 11
-18.240015
 21
-65.440413
  0
LINE
  8
ボルト／ビス
  6
CONTINUOUS
 62
    64
 10
-17.740015
 20
-90.440413
 11
-17.740015
 21
-65.940413
  0
LINE
  8
ボルト／ビス
  6
CONTINUOUS
 62
    64
 10
-21.740015
 20
-90.440413
 11
-21.740015
 21
-65.940413
  0
ENDBLK
  0
BLOCK
  2
*GRP_0038
 70
    65
 10
0.0
 20
0.0
  0
POLYLINE
  8
寸法
  6
BYBLOCK
 62
     0
 66
     1
  0
VERTEX
  8
寸法
 10
2.696732
 20
71.431653
  0
VERTEX
  8
寸法
 10
1.196732
 20
68.833577
  0
VERTEX
  8
寸法
 10
3.794808
 20
70.333577
  0
SEQEND
  0
POLYLINE
  8
寸法
  6
BYBLOCK
 62
     0
 66
     1
  0
VERTEX
  8
寸法
 10
1.196732
 20
68.833577
  0
VERTEX
  8
寸法
 10
9.119615
 20
76.756458
  0
VERTEX
  8
寸法
 10
26.190005
 20
76.756458
  0
SEQEND
  0
ENDBLK
  0
BLOCK
  2
*GRP_0039
 70
    65
 10
0.0
 20
0.0
  0
POLYLINE
  8
寸法
  6
BYBLOCK
 62
     0
 66
     1
  0
VERTEX
  8
寸法
 10
-41.405292
 20
72.339615
  0
VERTEX
  8
寸法
 10
-39.905292
 20
74.937693
  0
VERTEX
  8
寸法
 10
-42.503367
 20
73.437693
  0
SEQEND
  0
POLYLINE
  8
寸法
  6
BYBLOCK
 62
     0
 66
     1
  0
VERTEX
  8
寸法
 10
-39.905292
 20
74.937693
  0
VERTEX
  8
寸法
 10
-46.443008
 20
68.399975
  0
VERTEX
  8
寸法
 10
-66.053057
 20
68.399975
  0
SEQEND
  0
ENDBLK
  0
BLOCK
  2
*GRP_0040
 70
    65
 10
0.0
 20
0.0
  0
POLYLINE
  8
寸法
  6
BYBLOCK
 62
     0
 66
     1
  0
VERTEX
  8
寸法
 10
-56.14551
 20
50.55107
  0
VERTEX
  8
寸法
 10
-54.64551
 20
53.149148
  0
VERTEX
  8
寸法
 10
-57.243585
 20
51.649148
  0
SEQEND
  0
POLYLINE
  8
寸法
  6
BYBLOCK
 62
     0
 66
     1
  0
VERTEX
  8
寸法
 10
-54.64551
 20
53.149148
  0
VERTEX
  8
寸法
 10
-60.063983
 20
47.730675
  0
VERTEX
  8
寸法
 10
-65.19715
 20
47.730675
  0
SEQEND
  0
ENDBLK
  0
BLOCK
  2
*GRP_0041
 70
    65
 10
0.0
 20
0.0
  0
POLYLINE
  8
寸法
  6
BYBLOCK
 62
     0
 66
     1
  0
VERTEX
  8
寸法
 10
-68.09218
 20
-113.77431
  0
VERTEX
  8
寸法
 10
-70.690255
 20
-112.27431
  0
VERTEX
  8
寸法
 10
-69.190255
 20
-114.872385
  0
SEQEND
  0
POLYLINE
  8
寸法
  6
BYBLOCK
 62
     0
 66
     1
  0
VERTEX
  8
寸法
 10
-70.690255
 20
-112.27431
  0
VERTEX
  8
寸法
 10
-63.472328
 20
-119.492238
  0
VERTEX
  8
寸法
 10
-48.735985
 20
-119.492238
  0
SEQEND
  0
ENDBLK
  0
BLOCK
  2
*GRP_0042
 70
    65
 10
0.0
 20
0.0
  0
POLYLINE
  8
寸法
  6
BYBLOCK
 62
     0
 66
     1
  0
VERTEX
  8
寸法
 10
-13.424857
 20
-80.001995
  0
VERTEX
  8
寸法
 10
-16.022933
 20
-78.501995
  0
VERTEX
  8
寸法
 10
-14.522933
 20
-81.100072
  0
SEQEND
  0
POLYLINE
  8
寸法
  6
BYBLOCK
 62
     0
 66
     1
  0
VERTEX
  8
寸法
 10
-16.022933
 20
-78.501995
  0
VERTEX
  8
寸法
 10
-5.762775
 20
-88.762155
  0
VERTEX
  8
寸法
 10
-0.953923
 20
-88.762155
  0
SEQEND
  0
ENDBLK
  0
BLOCK
  2
*GRP_0043
 70
    65
 10
0.0
 20
0.0
  0
POLYLINE
  8
寸法
  6
BYBLOCK
 62
     0
 66
     1
  0
VERTEX
  8
寸法
 10
-78.668787
 20
-92.369513
  0
VERTEX
  8
寸法
 10
-76.07071
 20
-93.869513
  0
VERTEX
  8
寸法
 10
-77.57071
 20
-91.271437
  0
SEQEND
  0
POLYLINE
  8
寸法
  6
BYBLOCK
 62
     0
 66
     1
  0
VERTEX
  8
寸法
 10
-76.07071
 20
-93.869513
  0
VERTEX
  8
寸法
 10
-89.450932
 20
-80.48929
  0
VERTEX
  8
寸法
 10
-96.31934
 20
-80.48929
  0
SEQEND
  0
ENDBLK
  0
BLOCK
  2
*GRP_0044
 70
    65
 10
0.0
 20
0.0
  0
POLYLINE
  8
寸法
  6
BYBLOCK
 62
     0
 66
     1
  0
VERTEX
  8
寸法
 10
-65.80153
 20
-89.13421
  0
VERTEX
  8
寸法
 10
-63.203455
 20
-90.63421
  0
VERTEX
  8
寸法
 10
-64.703455
 20
-88.036135
  0
SEQEND
  0
POLYLINE
  8
寸法
  6
BYBLOCK
 62
     0
 66
     1
  0
VERTEX
  8
寸法
 10
-63.203455
 20
-90.63421
  0
VERTEX
  8
寸法
 10
-78.969503
 20
-74.868163
  0
VERTEX
  8
寸法
 10
-83.51927
 20
-74.868163
  0
SEQEND
  0
ENDBLK
  0
BLOCK
  2
*GRP_0045
 70
    65
 10
0.0
 20
0.0
  0
POLYLINE
  8
寸法
  6
BYBLOCK
 62
     0
 66
     1
  0
VERTEX
  8
寸法
 10
-7.19288
 20
-79.80921
  0
VERTEX
  8
寸法
 10
-9.790955
 20
-78.30921
  0
VERTEX
  8
寸法
 10
-8.290955
 20
-80.907285
  0
SEQEND
  0
POLYLINE
  8
寸法
  6
BYBLOCK
 62
     0
 66
     1
  0
VERTEX
  8
寸法
 10
-9.790955
 20
-78.30921
  0
VERTEX
  8
寸法
 10
-6.062172
 20
-82.037993
  0
VERTEX
  8
寸法
 10
1.265025
 20
-82.037993
  0
SEQEND
  0
ENDBLK
  0
BLOCK
  2
*GRP_0046
 70
    65
 10
0.0
 20
0.0
  0
POLYLINE
  8
寸法
  6
BYBLOCK
 62
     0
 66
     1
  0
VERTEX
  8
寸法
 10
-17.14194
 20
-94.540413
  0
VERTEX
  8
寸法
 10
-19.740015
 20
-93.040413
  0
VERTEX
  8
寸法
 10
-18.240015
 20
-95.638487
  0
SEQEND
  0
POLYLINE
  8
寸法
  6
BYBLOCK
 62
     0
 66
     1
  0
VERTEX
  8
寸法
 10
-19.740015
 20
-93.040413
  0
VERTEX
  8
寸法
 10
-12.04863
 20
-100.731798
  0
VERTEX
  8
寸法
 10
-0.967035
 20
-100.731798
  0
SEQEND
  0
ENDBLK
  0
BLOCK
  2
*GRP_0047
 70
    65
 10
0.0
 20
0.0
  0
POLYLINE
  8
寸法
  6
BYBLOCK
 62
     0
 66
     1
  0
VERTEX
  8
寸法
 10
-116.14002
 20
-99.52364
  0
VERTEX
  8
寸法
 10
-114.64002
 20
-96.925565
  0
VERTEX
  8
寸法
 10
-117.238095
 20
-98.425565
  0
SEQEND
  0
POLYLINE
  8
寸法
  6
BYBLOCK
 62
     0
 66
     1
  0
VERTEX
  8
寸法
 10
-114.64002
 20
-96.925565
  0
VERTEX
  8
寸法
 10
-118.137965
 20
-100.42351
  0
VERTEX
  8
寸法
 10
-124.060985
 20
-100.42351
  0
SEQEND
  0
ENDBLK
  0
BLOCK
  2
*GRP_0048
 70
    65
 10
0.0
 20
0.0
  0
POLYLINE
  8
寸法
  6
BYBLOCK
 62
     0
 66
     1
  0
VERTEX
  8
寸法
 10
-35.521828
 20
46.97815
  0
VERTEX
  8
寸法
 10
-36.45518
 20
49.829265
  0
VERTEX
  8
寸法
 10
-37.07243
 20
46.893453
  0
SEQEND
  0
POLYLINE
  8
寸法
  6
BYBLOCK
 62
     0
 66
     1
  0
VERTEX
  8
寸法
 10
-36.45518
 20
49.829265
  0
VERTEX
  8
寸法
 10
-35.786525
 20
37.588055
  0
VERTEX
  8
寸法
 10
-33.446227
 20
37.588055
  0
SEQEND
  0
ENDBLK
  0
BLOCK
  2
*GRP_0049
 70
    65
 10
0.0
 20
0.0
  0
POLYLINE
  8
寸法
  6
BYBLOCK
 62
     0
 66
     1
  0
VERTEX
  8
寸法
 10
-47.407588
 20
-32.888748
  0
VERTEX
  8
寸法
 10
-45.907588
 20
-30.290672
  0
VERTEX
  8
寸法
 10
-48.505665
 20
-31.790672
  0
SEQEND
  0
POLYLINE
  8
寸法
  6
BYBLOCK
 62
     0
 66
     1
  0
VERTEX
  8
寸法
 10
-45.907588
 20
-30.290672
  0
VERTEX
  8
寸法
 10
-54.544463
 20
-38.927545
  0
VERTEX
  8
寸法
 10
-69.022375
 20
-38.927545
  0
SEQEND
  0
ENDBLK
  0
BLOCK
  2
*GRP_0050
 70
    65
 10
0.0
 20
0.0
  0
POLYLINE
  8
寸法
  6
BYBLOCK
 62
     0
 66
     1
  0
VERTEX
  8
寸法
 10
-39.455202
 20
-12.32187
  0
VERTEX
  8
寸法
 10
-38.775
 20
-9.4
  0
VERTEX
  8
寸法
 10
-40.825007
 20
-11.590312
  0
SEQEND
  0
LINE
  8
寸法
  6
BYBLOCK
 62
     0
 10
-38.775
 20
-9.4
 11
-54.544463
 21
-38.927545
  0
ENDBLK
  0
BLOCK
  2
*GRP_0051
 70
    65
 10
0.0
 20
0.0
  0
POLYLINE
  8
寸法
  6
BYBLOCK
 62
     0
 66
     1
  0
VERTEX
  8
寸法
 10
47.054495
 20
-1.894088
  0
VERTEX
  8
寸法
 10
45.554495
 20
-4.492165
  0
VERTEX
  8
寸法
 10
48.15257
 20
-2.992165
  0
SEQEND
  0
POLYLINE
  8
寸法
  6
BYBLOCK
 62
     0
 66
     1
  0
VERTEX
  8
寸法
 10
45.554495
 20
-4.492165
  0
VERTEX
  8
寸法
 10
52.230415
 20
2.183757
  0
VERTEX
  8
寸法
 10
94.355578
 20
2.183757
  0
SEQEND
  0
ENDBLK
  0
BLOCK
  2
*GRP_0052
 70
    65
 10
0.0
 20
0.0
  0
POLYLINE
  8
寸法
  6
BYBLOCK
 62
     0
 66
     1
  0
VERTEX
  8
寸法
 10
-38.145495
 20
-48.699193
  0
VERTEX
  8
寸法
 10
-36.645495
 20
-46.101117
  0
VERTEX
  8
寸法
 10
-39.24357
 20
-47.601117
  0
SEQEND
  0
POLYLINE
  8
寸法
  6
BYBLOCK
 62
     0
 66
     1
  0
VERTEX
  8
寸法
 10
-36.645495
 20
-46.101117
  0
VERTEX
  8
寸法
 10
-51.912095
 20
-61.367717
  0
VERTEX
  8
寸法
 10
-58.987658
 20
-61.367717
  0
SEQEND
  0
ENDBLK
  0
BLOCK
  2
*GRP_0053
 70
    65
 10
0.0
 20
0.0
  0
POLYLINE
  8
寸法
  6
BYBLOCK
 62
     0
 66
     1
  0
VERTEX
  8
寸法
 10
-25.275
 20
-97.8
  0
VERTEX
  8
寸法
 10
-24.058323
 20
-112.05861
  0
VERTEX
  8
寸法
 10
-21.44294
 20
-112.05861
  0
SEQEND
  0
ENDBLK
  0
BLOCK
  2
*GRP_0054
 70
    65
 10
0.0
 20
0.0
  0
LINE
  8
型材断面
  6
CONTINUOUS
 62
    47
 10
-28.73998
 20
-12.570735
 11
-28.73998
 21
-14.070735
  0
LINE
  8
型材断面
  6
CONTINUOUS
 62
    47
 10
-33.739975
 20
-13.770735
 11
-33.439975
 21
-14.070735
  0
LINE
  8
型材断面
  6
CONTINUOUS
 62
    47
 10
-33.739975
 20
-13.770735
 11
-34.039975
 21
-14.070735
  0
LINE
  8
型材断面
  6
CONTINUOUS
 62
    47
 10
-33.439975
 20
-14.070735
 11
-28.73998
 21
-14.070735
  0
ARC
  8
型材断面
  6
CONTINUOUS
 62
    47
 10
-80.518602
 20
-13.870736
 40
0.199974
 50
153.434949
 51
270.0
  0
ARC
  8
型材断面
  6
CONTINUOUS
 62
    47
 10
-85.165214
 20
-13.870736
 40
0.199974
 50
270.0
 51
386.565051
  0
LINE
  8
型材断面
  6
CONTINUOUS
 62
    47
 10
-87.5413
 20
-14.070735
 11
-85.165225
 21
-14.070735
  0
ARC
  8
型材断面
  6
CONTINUOUS
 62
    47
 10
-87.5413
 20
-13.770749
 40
0.299961
 50
180.0
 51
270.0
  0
LINE
  8
型材断面
  6
CONTINUOUS
 62
    47
 10
-77.842577
 20
-12.87111
 11
-75.842575
 21
-12.87111
  0
LINE
  8
型材断面
  6
CONTINUOUS
 62
    47
 10
-56.14636
 20
-13.57074
 11
-56.14636
 21
-12.87111
  0
ARC
  8
型材断面
  6
CONTINUOUS
 62
    47
 10
-55.646373
 20
-13.570737
 40
0.5
 50
180.0
 51
270.0
  0
LINE
  8
型材断面
  6
CONTINUOUS
 62
    47
 10
-80.5186
 20
-14.070735
 11
-76.342577
 21
-14.070735
  0
LINE
  8
型材断面
  6
CONTINUOUS
 62
    47
 10
-75.842575
 20
-13.57074
 11
-75.842575
 21
-12.87111
  0
ARC
  8
型材断面
  6
CONTINUOUS
 62
    47
 10
-76.342593
 20
-13.570737
 40
0.5
 50
270.0
 51
360.0
  0
LINE
  8
型材断面
  6
CONTINUOUS
 62
    47
 10
-75.842575
 20
-10.184167
 11
-75.842575
 21
-11.07111
  0
LINE
  8
型材断面
  6
CONTINUOUS
 62
    47
 10
-77.842577
 20
-11.07111
 11
-75.842575
 21
-11.07111
  0
LINE
  8
型材断面
  6
CONTINUOUS
 62
    47
 10
-56.14636
 20
-9.152955
 11
-56.14636
 21
-11.07111
  0
LINE
  8
型材断面
  6
CONTINUOUS
 62
    47
 10
-77.842577
 20
-12.87111
 11
-77.842577
 21
-11.07111
  0
LINE
  8
型材断面
  6
CONTINUOUS
 62
    47
 10
-66.994465
 20
-11.07111
 11
-64.99447
 21
-11.07111
  0
LINE
  8
型材断面
  6
CONTINUOUS
 62
    47
 10
-66.994465
 20
-11.07111
 11
-66.994465
 21
-9.720915
  0
LINE
  8
型材断面
  6
CONTINUOUS
 62
    47
 10
-64.99447
 20
-11.07111
 11
-64.99447
 21
-9.6162
  0
LINE
  8
型材断面
  6
CONTINUOUS
 62
    47
 10
-56.14636
 20
-9.152955
 11
-64.99447
 21
-9.6162
  0
LINE
  8
型材断面
  6
CONTINUOUS
 62
    47
 10
-87.841277
 20
-13.770765
 11
-87.841277
 21
-10.812375
  0
LINE
  8
型材断面
  6
CONTINUOUS
 62
    47
 10
-66.994465
 20
-9.720915
 11
-75.842575
 21
-10.184167
  0
LINE
  8
型材断面
  6
CONTINUOUS
 62
    47
 10
-86.359412
 20
-11.035192
 11
-79.1353
 21
-10.656967
  0
LINE
  8
型材断面
  6
CONTINUOUS
 62
    47
 10
-80.697475
 20
-13.78131
 11
-79.1353
 21
-10.656967
  0
LINE
  8
型材断面
  6
CONTINUOUS
 62
    47
 10
-84.98635
 20
-13.78131
 11
-86.359412
 21
-11.035192
  0
LINE
  8
型材断面
  6
CONTINUOUS
 62
    47
 10
-56.14636
 20
-11.07111
 11
-54.146357
 21
-11.07111
  0
LINE
  8
型材断面
  6
CONTINUOUS
 62
    47
 10
-54.146357
 20
-11.07111
 11
-54.146357
 21
-12.87111
  0
LINE
  8
型材断面
  6
CONTINUOUS
 62
    47
 10
-56.14636
 20
-12.87111
 11
-54.146357
 21
-12.87111
  0
LINE
  8
型材断面
  6
CONTINUOUS
 62
    47
 10
-49.145515
 20
-9.570735
 11
-47.645515
 21
-9.570735
  0
LINE
  8
型材断面
  6
CONTINUOUS
 62
    47
 10
-47.645515
 20
-12.570735
 11
-47.645515
 21
-9.570735
  0
LINE
  8
型材断面
  6
CONTINUOUS
 62
    47
 10
-49.145515
 20
-9.570735
 11
-49.145515
 21
-12.570735
  0
LINE
  8
型材断面
  6
CONTINUOUS
 62
    47
 10
-49.145515
 20
-12.570735
 11
-52.645518
 21
-12.570735
  0
LINE
  8
型材断面
  6
CONTINUOUS
 62
    47
 10
-83.13817
 20
-8.863815
 11
-83.453448
 21
-8.57991
  0
LINE
  8
型材断面
  6
CONTINUOUS
 62
    47
 10
-83.13817
 20
-8.863815
 11
-82.854265
 21
-8.548538
  0
LINE
  8
型材断面
  6
CONTINUOUS
 62
    47
 10
-54.64552
 20
-7.071645
 11
-82.854265
 21
-8.548538
  0
LINE
  8
型材断面
  6
CONTINUOUS
 62
    47
 10
-28.73998
 20
-12.570735
 11
-47.645515
 21
-12.570735
  0
LINE
  8
型材断面
  6
CONTINUOUS
 62
    47
 10
-34.039975
 20
-14.070735
 11
-55.646372
 21
-14.070735
  0
LINE
  8
型材断面
  6
CONTINUOUS
 62
    47
 10
-54.34552
 20
24.728865
 11
-54.64552
 21
25.028865
  0
LINE
  8
型材断面
  6
CONTINUOUS
 62
    47
 10
-54.34552
 20
24.728865
 11
-54.64552
 21
24.428865
  0
LINE
  8
型材断面
  6
CONTINUOUS
 62
    47
 10
-54.34552
 20
5.461935
 11
-54.64552
 21
5.761935
  0
LINE
  8
型材断面
  6
CONTINUOUS
 62
    47
 10
-54.34552
 20
5.461935
 11
-54.64552
 21
5.161935
  0
LINE
  8
型材断面
  6
CONTINUOUS
 62
    47
 10
-54.64552
 20
-7.071645
 11
-54.64552
 21
5.161935
  0
LINE
  8
型材断面
  6
CONTINUOUS
 62
    47
 10
-54.64552
 20
5.761935
 11
-54.64552
 21
24.428865
  0
ARC
  8
型材断面
  6
CONTINUOUS
 62
    47
 10
-53.645519
 20
64.429332
 40
1.0
 50
90.0
 51
180.0
  0
LINE
  8
型材断面
  6
CONTINUOUS
 62
    47
 10
-49.145515
 20
63.929325
 11
-49.145515
 21
60.929325
  0
LINE
  8
型材断面
  6
CONTINUOUS
 62
    47
 10
-49.145515
 20
60.929325
 11
-47.645515
 21
60.929325
  0
LINE
  8
型材断面
  6
CONTINUOUS
 62
    47
 10
-47.645515
 20
63.929325
 11
-47.645515
 21
60.929325
  0
LINE
  8
型材断面
  6
CONTINUOUS
 62
    47
 10
-49.145515
 20
63.929325
 11
-52.645518
 21
63.929325
  0
LINE
  8
型材断面
  6
CONTINUOUS
 62
    47
 10
-53.645515
 20
65.429325
 11
-44.845518
 21
65.429325
  0
LINE
  8
型材断面
  6
CONTINUOUS
 62
    47
 10
-47.645515
 20
63.929325
 11
-42.845515
 21
63.929325
  0
LINE
  8
型材断面
  6
CONTINUOUS
 62
    47
 10
-44.845518
 20
82.929263
 11
-42.845515
 21
82.929263
  0
LINE
  8
型材断面
  6
CONTINUOUS
 62
    47
 10
-42.845515
 20
63.929325
 11
-42.845515
 21
82.929263
  0
LINE
  8
型材断面
  6
CONTINUOUS
 62
    47
 10
-44.545518
 20
77.92926
 11
-44.845518
 21
78.22926
  0
LINE
  8
型材断面
  6
CONTINUOUS
 62
    47
 10
-44.545518
 20
77.92926
 11
-44.845518
 21
77.62926
  0
LINE
  8
型材断面
  6
CONTINUOUS
 62
    47
 10
-44.845518
 20
65.429325
 11
-44.845518
 21
77.62926
  0
LINE
  8
型材断面
  6
CONTINUOUS
 62
    47
 10
-44.845518
 20
78.22926
 11
-44.845518
 21
82.929263
  0
LINE
  8
型材断面
  6
CONTINUOUS
 62
    47
 10
-52.645518
 20
-12.570735
 11
-52.645518
 21
63.929325
  0
LINE
  8
型材断面
  6
CONTINUOUS
 62
    47
 10
-54.64552
 20
25.028865
 11
-54.64552
 21
64.429327
  0
ARC
  8
型材断面
  6
CONTINUOUS
 62
    47
 10
-92.340079
 20
-13.770756
 40
0.299961
 50
180.0
 51
270.0
  0
LINE
  8
型材断面
  6
CONTINUOUS
 62
    47
 10
-90.940255
 20
-14.070742
 11
-92.340055
 21
-14.070742
  0
ARC
  8
型材断面
  6
CONTINUOUS
 62
    47
 10
-90.94026
 20
-13.770756
 40
0.299961
 50
270.0
 51
360.0
  0
LINE
  8
型材断面
  6
CONTINUOUS
 62
    47
 10
-90.640277
 20
-13.770765
 11
-90.640277
 21
-10.969417
  0
LINE
  8
型材断面
  6
CONTINUOUS
 62
    47
 10
-92.640025
 20
-13.770765
 11
-92.640025
 21
-9.071378
  0
LINE
  8
型材断面
  6
CONTINUOUS
 62
    47
 10
-87.841277
 20
-10.812375
 11
-90.640277
 21
-10.958918
  0
LINE
  8
型材断面
  6
CONTINUOUS
 62
    47
 10
-83.453448
 20
-8.57991
 11
-92.640025
 21
-9.060877
  0
ENDBLK
  0
BLOCK
  2
*GRP_0055
 70
    65
 10
0.0
 20
0.0
  0
LINE
  8
型材断面
  6
CONTINUOUS
 62
    47
 10
-99.640277
 20
-116.074222
 11
-98.140277
 21
-116.074222
  0
LINE
  8
型材断面
  6
CONTINUOUS
 62
    47
 10
-98.140277
 20
-116.074222
 11
-98.140277
 21
-106.07412
  0
LINE
  8
型材断面
  6
CONTINUOUS
 62
    47
 10
-99.640277
 20
-116.074222
 11
-99.640277
 21
-106.074248
  0
ARC
  8
型材断面
  6
CONTINUOUS
 62
    47
 10
-40.540269
 20
-104.574247
 40
0.5
 50
90.0
 51
180.0
  0
LINE
  8
型材断面
  6
CONTINUOUS
 62
    47
 10
-41.040258
 20
-104.574248
 11
-41.040258
 21
-105.574245
  0
ARC
  8
型材断面
  6
CONTINUOUS
 62
    47
 10
-40.540269
 20
-105.574247
 40
0.5
 50
180.0
 51
270.0
  0
LINE
  8
型材断面
  6
CONTINUOUS
 62
    47
 10
-26.640032
 20
-106.074248
 11
-26.640032
 21
-87.574193
  0
LINE
  8
型材断面
  6
CONTINUOUS
 62
    47
 10
-28.640027
 20
-104.074245
 11
-28.640027
 21
-88.074187
  0
LINE
  8
型材断面
  6
CONTINUOUS
 62
    47
 10
-40.540255
 20
-104.074245
 11
-28.640027
 21
-104.074245
  0
ARC
  8
型材断面
  6
CONTINUOUS
 62
    47
 10
-88.540269
 20
-104.57431
 40
0.5
 50
0.0
 51
90.0
  0
LINE
  8
型材断面
  6
CONTINUOUS
 62
    47
 10
-88.040253
 20
-104.574308
 11
-88.040253
 21
-105.574185
  0
ARC
  8
型材断面
  6
CONTINUOUS
 62
    47
 10
-88.540269
 20
-105.574185
 40
0.5
 50
270.0
 51
360.0
  0
LINE
  8
型材断面
  6
CONTINUOUS
 62
    47
 10
-48.340067
 20
-83.074193
 11
-48.640067
 21
-82.774193
  0
LINE
  8
型材断面
  6
CONTINUOUS
 62
    47
 10
-48.340067
 20
-83.074193
 11
-48.640067
 21
-83.374193
  0
LINE
  8
型材断面
  6
CONTINUOUS
 62
    47
 10
-46.640027
 20
-38.070465
 11
-46.640027
 21
-86.074193
  0
LINE
  8
型材断面
  6
CONTINUOUS
 62
    47
 10
-112.640028
 20
-104.074245
 11
-88.54027
 21
-104.074245
  0
LINE
  8
型材断面
  6
CONTINUOUS
 62
    47
 10
-98.140277
 20
-106.07412
 11
-88.54027
 21
-106.07412
  0
LINE
  8
型材断面
  6
CONTINUOUS
 62
    47
 10
-41.645455
 20
-86.074193
 11
-41.645455
 21
-84.574193
  0
LINE
  8
型材断面
  6
CONTINUOUS
 62
    47
 10
-43.145455
 20
-86.074193
 11
-43.145455
 21
-84.574193
  0
LINE
  8
型材断面
  6
CONTINUOUS
 62
    47
 10
-43.145455
 20
-84.574193
 11
-41.645455
 21
-84.574193
  0
LINE
  8
型材断面
  6
CONTINUOUS
 62
    47
 10
-43.145455
 20
-86.074193
 11
-46.640027
 21
-86.074193
  0
LINE
  8
型材断面
  6
CONTINUOUS
 62
    47
 10
-48.64003
 20
-83.374147
 11
-48.64003
 21
-86.073772
  0
LINE
  8
型材断面
  6
CONTINUOUS
 62
    47
 10
-105.64003
 20
-105.774248
 11
-105.34003
 21
-106.074248
  0
LINE
  8
型材断面
  6
CONTINUOUS
 62
    47
 10
-105.64003
 20
-105.774248
 11
-105.94003
 21
-106.074248
  0
LINE
  8
型材断面
  6
CONTINUOUS
 62
    47
 10
-99.640277
 20
-106.074248
 11
-105.34003
 21
-106.074248
  0
LINE
  8
型材断面
  6
CONTINUOUS
 62
    47
 10
-114.64003
 20
-106.074248
 11
-105.94003
 21
-106.074248
  0
LINE
  8
型材断面
  6
CONTINUOUS
 62
    47
 10
-37.040268
 20
-105.774248
 11
-37.340268
 21
-106.074248
  0
LINE
  8
型材断面
  6
CONTINUOUS
 62
    47
 10
-37.040268
 20
-105.774248
 11
-36.740268
 21
-106.074248
  0
LINE
  8
型材断面
  6
CONTINUOUS
 62
    47
 10
-40.540255
 20
-106.074248
 11
-37.340268
 21
-106.074248
  0
LINE
  8
型材断面
  6
CONTINUOUS
 62
    47
 10
-26.640032
 20
-106.074248
 11
-36.740268
 21
-106.074248
  0
LINE
  8
型材断面
  6
CONTINUOUS
 62
    47
 10
-82.840593
 20
-20.37069
 11
-82.540645
 21
-20.070742
  0
LINE
  8
型材断面
  6
CONTINUOUS
 62
    47
 10
-82.840593
 20
-20.37069
 11
-83.14057
 21
-20.070742
  0
LINE
  8
型材断面
  6
CONTINUOUS
 62
    47
 10
-82.540645
 20
-20.070742
 11
-47.845503
 21
-20.070742
  0
LINE
  8
型材断面
  6
CONTINUOUS
 62
    47
 10
-47.840005
 20
-18.07074
 11
-47.840005
 21
-20.070742
  0
LINE
  8
型材断面
  6
CONTINUOUS
 62
    47
 10
-48.34003
 20
-41.071012
 11
-48.64003
 21
-40.771012
  0
LINE
  8
型材断面
  6
CONTINUOUS
 62
    47
 10
-48.34003
 20
-41.071012
 11
-48.64003
 21
-41.371012
  0
LINE
  8
型材断面
  6
CONTINUOUS
 62
    47
 10
-48.34003
 20
-55.071233
 11
-48.64003
 21
-54.771233
  0
LINE
  8
型材断面
  6
CONTINUOUS
 62
    47
 10
-48.34003
 20
-55.071233
 11
-48.64003
 21
-55.371233
  0
LINE
  8
型材断面
  6
CONTINUOUS
 62
    47
 10
-48.64003
 20
-54.771233
 11
-48.64003
 21
-41.371012
  0
LINE
  8
型材断面
  6
CONTINUOUS
 62
    47
 10
-47.840005
 20
-18.07074
 11
-46.640005
 21
-18.07074
  0
LINE
  8
型材断面
  6
CONTINUOUS
 62
    47
 10
-48.64003
 20
-82.77423
 11
-48.64003
 21
-55.371233
  0
LINE
  8
型材断面
  6
CONTINUOUS
 62
    47
 10
-48.34003
 20
-27.070463
 11
-48.64003
 21
-26.770463
  0
LINE
  8
型材断面
  6
CONTINUOUS
 62
    47
 10
-48.34003
 20
-27.070463
 11
-48.64003
 21
-27.370463
  0
LINE
  8
型材断面
  6
CONTINUOUS
 62
    47
 10
-48.64003
 20
-22.070467
 11
-48.64003
 21
-26.770463
  0
LINE
  8
型材断面
  6
CONTINUOUS
 62
    47
 10
-48.64003
 20
-27.370463
 11
-48.64003
 21
-40.771012
  0
LINE
  8
型材断面
  6
CONTINUOUS
 62
    47
 10
-46.640027
 20
-37.570463
 11
-43.140032
 21
-37.570463
  0
LINE
  8
型材断面
  6
CONTINUOUS
 62
    47
 10
-46.640027
 20
-36.070463
 11
-41.640032
 21
-36.070463
  0
LINE
  8
型材断面
  6
CONTINUOUS
 62
    47
 10
-41.640032
 20
-38.770463
 11
-43.140032
 21
-38.770463
  0
LINE
  8
型材断面
  6
CONTINUOUS
 62
    47
 10
-43.140032
 20
-37.570463
 11
-43.140032
 21
-38.770463
  0
LINE
  8
型材断面
  6
CONTINUOUS
 62
    47
 10
-41.640032
 20
-38.770463
 11
-41.640032
 21
-36.070463
  0
LINE
  8
型材断面
  6
CONTINUOUS
 62
    47
 10
-46.640005
 20
-20.570737
 11
-46.640005
 21
-36.070463
  0
LINE
  8
型材断面
  6
CONTINUOUS
 62
    47
 10
-46.640005
 20
-77.570737
 11
-46.640005
 21
-37.570463
  0
LINE
  8
型材断面
  6
CONTINUOUS
 62
    47
 10
-46.640005
 20
-18.07074
 11
-46.640005
 21
-36.070463
  0
ARC
  8
型材断面
  6
CONTINUOUS
 62
    47
 10
-92.340076
 20
-18.370938
 40
0.299961
 50
90.0
 51
180.0
  0
LINE
  8
型材断面
  6
CONTINUOUS
 62
    47
 10
-91.740153
 20
-18.070987
 11
-92.340078
 21
-18.070987
  0
ARC
  8
型材断面
  6
CONTINUOUS
 62
    47
 10
-91.740154
 20
-18.370938
 40
0.299961
 50
0.0
 51
90.0
  0
LINE
  8
型材断面
  6
CONTINUOUS
 62
    47
 10
-91.440205
 20
-18.370943
 11
-91.440205
 21
-20.070742
  0
LINE
  8
型材断面
  6
CONTINUOUS
 62
    47
 10
-92.640032
 20
-18.370943
 11
-92.640032
 21
-22.070467
  0
LINE
  8
型材断面
  6
CONTINUOUS
 62
    47
 10
-83.14057
 20
-20.070742
 11
-91.440205
 21
-20.070742
  0
LINE
  8
型材断面
  6
CONTINUOUS
 62
    47
 10
-48.64003
 20
-22.070467
 11
-92.640032
 21
-22.070467
  0
LINE
  8
型材断面
  6
CONTINUOUS
 62
    47
 10
-14.039973
 20
-87.574193
 11
-14.039973
 21
-92.574187
  0
LINE
  8
型材断面
  6
CONTINUOUS
 62
    47
 10
-12.539973
 20
-92.574187
 11
-14.039973
 21
-92.574187
  0
LINE
  8
型材断面
  6
CONTINUOUS
 62
    47
 10
-12.539973
 20
-92.574187
 11
-12.539973
 21
-86.074193
  0
ARC
  8
型材断面
  6
CONTINUOUS
 62
    47
 10
-16.49412
 20
-80.870766
 40
0.3
 50
90.0
 51
168.690068
  0
LINE
  8
型材断面
  6
CONTINUOUS
 62
    47
 10
-16.4941
 20
-80.570745
 11
-14.740023
 21
-80.570745
  0
ARC
  8
型材断面
  6
CONTINUOUS
 62
    47
 10
-22.985962
 20
-80.870766
 40
0.3
 50
11.309932
 51
90.0
  0
LINE
  8
型材断面
  6
CONTINUOUS
 62
    47
 10
-22.98595
 20
-80.570745
 11
-24.740027
 21
-80.570745
  0
LINE
  8
型材断面
  6
CONTINUOUS
 62
    47
 10
-16.78825
 20
-80.811923
 11
-17.340048
 21
-83.570745
  0
LINE
  8
型材断面
  6
CONTINUOUS
 62
    47
 10
-22.6918
 20
-80.811923
 11
-22.140002
 21
-83.570745
  0
LINE
  8
型材断面
  6
CONTINUOUS
 62
    47
 10
-23.740023
 20
-81.570773
 11
-24.740027
 21
-81.570773
  0
LINE
  8
型材断面
  6
CONTINUOUS
 62
    47
 10
-23.740023
 20
-81.570773
 11
-23.740023
 21
-86.074193
  0
LINE
  8
型材断面
  6
CONTINUOUS
 62
    47
 10
-24.740027
 20
-80.570745
 11
-24.740027
 21
-81.570773
  0
LINE
  8
型材断面
  6
CONTINUOUS
 62
    47
 10
-21.440027
 20
-83.570745
 11
-21.440027
 21
-86.074193
  0
LINE
  8
型材断面
  6
CONTINUOUS
 62
    47
 10
-18.040023
 20
-83.570745
 11
-18.040023
 21
-86.074193
  0
LINE
  8
型材断面
  6
CONTINUOUS
 62
    47
 10
-21.440027
 20
-86.074193
 11
-18.040023
 21
-86.074193
  0
LINE
  8
型材断面
  6
CONTINUOUS
 62
    47
 10
-22.140002
 20
-83.570745
 11
-21.440027
 21
-83.570745
  0
LINE
  8
型材断面
  6
CONTINUOUS
 62
    47
 10
-18.040023
 20
-83.570745
 11
-17.340048
 21
-83.570745
  0
LINE
  8
型材断面
  6
CONTINUOUS
 62
    47
 10
-15.740027
 20
-81.570773
 11
-15.740027
 21
-86.074193
  0
LINE
  8
型材断面
  6
CONTINUOUS
 62
    47
 10
-9.740027
 20
-80.570745
 11
-9.740027
 21
-81.570773
  0
LINE
  8
型材断面
  6
CONTINUOUS
 62
    47
 10
-15.740027
 20
-81.570773
 11
-9.740027
 21
-81.570773
  0
LINE
  8
型材断面
  6
CONTINUOUS
 62
    47
 10
-15.740027
 20
-80.570745
 11
-9.740027
 21
-80.570745
  0
LINE
  8
型材断面
  6
CONTINUOUS
 62
    47
 10
-21.440027
 20
-86.074193
 11
-18.040023
 21
-86.074193
  0
LINE
  8
型材断面
  6
CONTINUOUS
 62
    47
 10
-19.740025
 20
-87.274193
 11
-20.040025
 21
-87.574193
  0
LINE
  8
型材断面
  6
CONTINUOUS
 62
    47
 10
-19.740025
 20
-87.274193
 11
-19.440025
 21
-87.574193
  0
LINE
  8
型材断面
  6
CONTINUOUS
 62
    47
 10
-12.539973
 20
-86.074193
 11
-15.740027
 21
-86.074193
  0
LINE
  8
型材断面
  6
CONTINUOUS
 62
    47
 10
-26.640032
 20
-87.574193
 11
-20.040025
 21
-87.574193
  0
LINE
  8
型材断面
  6
CONTINUOUS
 62
    47
 10
-14.039973
 20
-87.574193
 11
-19.440025
 21
-87.574193
  0
LINE
  8
型材断面
  6
CONTINUOUS
 62
    47
 10
-41.645455
 20
-86.074193
 11
-23.740023
 21
-86.074193
  0
LINE
  8
型材断面
  6
CONTINUOUS
 62
    47
 10
-112.640028
 20
-104.074245
 11
-112.640028
 21
-92.92845
  0
LINE
  8
型材断面
  6
CONTINUOUS
 62
    47
 10
-48.64003
 20
-86.073772
 11
-114.64003
 21
-91.074247
  0
LINE
  8
型材断面
  6
CONTINUOUS
 62
    47
 10
-114.64003
 20
-106.074248
 11
-114.64003
 21
-91.074247
  0
LINE
  8
型材断面
  6
CONTINUOUS
 62
    47
 10
-112.640028
 20
-92.92845
 11
-48.569905
 21
-88.074187
  0
LINE
  8
型材断面
  6
CONTINUOUS
 62
    47
 10
-28.640027
 20
-88.074187
 11
-48.569905
 21
-88.074187
  0
ENDBLK
  0
BLOCK
  2
*GRP_0056
 70
    65
 10
0.0
 20
0.0
  0
LINE
  8
型材断面
  6
CONTINUOUS
 62
    47
 10
-13.945878
 20
51.829268
 11
-13.945878
 21
54.129263
  0
LINE
  8
型材断面
  6
CONTINUOUS
 62
    47
 10
-14.645522
 20
44.929268
 11
-4.645518
 21
44.929268
  0
LINE
  8
型材断面
  6
CONTINUOUS
 62
    47
 10
-12.64552
 20
42.929265
 11
-2.645522
 21
42.929265
  0
LINE
  8
型材断面
  6
CONTINUOUS
 62
    47
 10
-4.645518
 20
49.829265
 11
-4.645518
 21
44.929268
  0
LINE
  8
型材断面
  6
CONTINUOUS
 62
    47
 10
-4.645518
 20
49.829265
 11
-40.645518
 21
49.829265
  0
LINE
  8
型材断面
  6
CONTINUOUS
 62
    47
 10
-42.64552
 20
51.829268
 11
-37.84552
 21
51.829268
  0
LINE
  8
型材断面
  6
CONTINUOUS
 62
    47
 10
-12.639213
 20
82.929263
 11
-12.639213
 21
81.925665
  0
LINE
  8
型材断面
  6
CONTINUOUS
 62
    47
 10
-13.139207
 20
81.425663
 11
-12.639213
 21
81.925665
  0
LINE
  8
型材断面
  6
CONTINUOUS
 62
    47
 10
-18.13921
 20
79.929263
 11
-16.64281
 21
81.425663
  0
LINE
  8
型材断面
  6
CONTINUOUS
 62
    47
 10
-13.139207
 20
81.425663
 11
-16.64281
 21
81.425663
  0
POLYLINE
  8
型材断面
  6
CONTINUOUS
 62
    47
 66
     1
  0
VERTEX
  8
型材断面
 10
-37.84552
 20
82.929263
  0
VERTEX
  8
型材断面
 10
-37.84552
 20
80.829262
  0
VERTEX
  8
型材断面
 10
-35.345522
 20
80.329268
  0
VERTEX
  8
型材断面
 10
-35.345522
 20
75.529268
  0
VERTEX
  8
型材断面
 10
-37.84552
 20
75.029265
  0
VERTEX
  8
型材断面
 10
-37.84552
 20
72.929265
  0
SEQEND
  0
LINE
  8
型材断面
  6
CONTINUOUS
 62
    47
 10
-35.845518
 20
68.82723
 11
-35.845518
 21
71.929268
  0
LINE
  8
型材断面
  6
CONTINUOUS
 62
    47
 10
-32.345522
 20
65.627227
 11
-30.845522
 21
65.627227
  0
LINE
  8
型材断面
  6
CONTINUOUS
 62
    47
 10
-32.345522
 20
51.829268
 11
-32.345522
 21
53.829263
  0
LINE
  8
型材断面
  6
CONTINUOUS
 62
    47
 10
-30.845522
 20
51.829268
 11
-30.845522
 21
53.829263
  0
LINE
  8
型材断面
  6
CONTINUOUS
 62
    47
 10
-30.845522
 20
53.829263
 11
-32.345522
 21
53.829263
  0
LINE
  8
型材断面
  6
CONTINUOUS
 62
    47
 10
-32.345522
 20
51.829268
 11
-35.845518
 21
51.829268
  0
LINE
  8
型材断面
  6
CONTINUOUS
 62
    47
 10
-18.13921
 20
79.929263
 11
-32.845518
 21
79.929263
  0
LINE
  8
型材断面
  6
CONTINUOUS
 62
    47
 10
-32.845518
 20
79.929263
 11
-32.845518
 21
74.929268
  0
LINE
  8
型材断面
  6
CONTINUOUS
 62
    47
 10
-35.845518
 20
71.929268
 11
-32.845518
 21
74.929268
  0
LINE
  8
型材断面
  6
CONTINUOUS
 62
    47
 10
-22.639203
 20
82.629263
 11
-22.939203
 21
82.929263
  0
LINE
  8
型材断面
  6
CONTINUOUS
 62
    47
 10
-22.639203
 20
82.629263
 11
-22.339203
 21
82.929263
  0
LINE
  8
型材断面
  6
CONTINUOUS
 62
    47
 10
-12.639213
 20
82.929263
 11
-22.339203
 21
82.929263
  0
LINE
  8
型材断面
  6
CONTINUOUS
 62
    47
 10
-37.54552
 20
59.728253
 11
-37.84552
 21
59.428253
  0
LINE
  8
型材断面
  6
CONTINUOUS
 62
    47
 10
-37.54552
 20
59.728253
 11
-37.84552
 21
60.028253
  0
LINE
  8
型材断面
  6
CONTINUOUS
 62
    47
 10
-37.84552
 20
51.829268
 11
-37.84552
 21
59.428253
  0
LINE
  8
型材断面
  6
CONTINUOUS
 62
    47
 10
-37.84552
 20
60.028253
 11
-37.84552
 21
74.925757
  0
ARC
  8
型材断面
  6
CONTINUOUS
 62
    47
 10
-36.985912
 20
-7.27071
 40
0.3
 50
270.0
 51
348.690068
  0
LINE
  8
型材断面
  6
CONTINUOUS
 62
    47
 10
-36.691758
 20
-7.329562
 11
-36.239958
 21
-5.070712
  0
LINE
  8
型材断面
  6
CONTINUOUS
 62
    47
 10
-37.73998
 20
-6.570712
 11
-38.739977
 21
-6.570712
  0
LINE
  8
型材断面
  6
CONTINUOUS
 62
    47
 10
-37.73998
 20
-6.570712
 11
-37.73998
 21
-5.070712
  0
LINE
  8
型材断面
  6
CONTINUOUS
 62
    47
 10
-38.739977
 20
-7.570733
 11
-38.739977
 21
-6.570712
  0
LINE
  8
型材断面
  6
CONTINUOUS
 62
    47
 10
-36.985908
 20
-7.570733
 11
-38.739977
 21
-7.570733
  0
ARC
  8
型材断面
  6
CONTINUOUS
 62
    47
 10
-30.49407
 20
-7.27071
 40
0.3
 50
191.309932
 51
270.0
  0
LINE
  8
型材断面
  6
CONTINUOUS
 62
    47
 10
-30.788208
 20
-7.329562
 11
-31.240007
 21
-5.070712
  0
LINE
  8
型材断面
  6
CONTINUOUS
 62
    47
 10
-29.739977
 20
-6.570712
 11
-28.73998
 21
-6.570712
  0
LINE
  8
型材断面
  6
CONTINUOUS
 62
    47
 10
-29.739977
 20
-6.570712
 11
-29.739977
 21
-5.070712
  0
LINE
  8
型材断面
  6
CONTINUOUS
 62
    47
 10
-28.73998
 20
-7.570733
 11
-28.73998
 21
-6.570712
  0
LINE
  8
型材断面
  6
CONTINUOUS
 62
    47
 10
-30.494057
 20
-7.570733
 11
-28.73998
 21
-7.570733
  0
LINE
  8
型材断面
  6
CONTINUOUS
 62
    47
 10
-36.239958
 20
-5.070712
 11
-31.240007
 21
-5.070712
  0
LINE
  8
型材断面
  6
CONTINUOUS
 62
    47
 10
-31.24
 20
-5.070735
 11
-36.239958
 21
-5.070735
  0
LINE
  8
型材断面
  6
CONTINUOUS
 62
    47
 10
-22.989955
 20
-5.070735
 11
-29.739977
 21
-5.070735
  0
LINE
  8
型材断面
  6
CONTINUOUS
 62
    47
 10
-14.14552
 20
-5.070735
 11
-14.14552
 21
-7.570733
  0
LINE
  8
型材断面
  6
CONTINUOUS
 62
    47
 10
-12.64552
 20
-7.570733
 11
-14.14552
 21
-7.570733
  0
LINE
  8
型材断面
  6
CONTINUOUS
 62
    47
 10
-29.739977
 20
-5.070735
 11
-14.14552
 21
-5.070735
  0
LINE
  8
型材断面
  6
CONTINUOUS
 62
    47
 10
-37.73998
 20
-5.070735
 11
-42.64552
 21
-5.070735
  0
LINE
  8
型材断面
  6
CONTINUOUS
 62
    47
 10
-42.64552
 20
51.829268
 11
-42.64552
 21
-5.070735
  0
LINE
  8
型材断面
  6
CONTINUOUS
 62
    47
 10
-12.64552
 20
42.929265
 11
-12.64552
 21
-7.570733
  0
LINE
  8
型材断面
  6
CONTINUOUS
 62
    47
 10
-40.645518
 20
49.829265
 11
-40.645518
 21
-3.070733
  0
LINE
  8
型材断面
  6
CONTINUOUS
 62
    47
 10
-14.645522
 20
43.429268
 11
-14.645522
 21
-3.070733
  0
LINE
  8
型材断面
  6
CONTINUOUS
 62
    47
 10
-1.645518
 20
50.829263
 11
-2.645522
 21
50.829263
  0
LINE
  8
型材断面
  6
CONTINUOUS
 62
    47
 10
-2.645522
 20
42.929265
 11
-2.645522
 21
50.829263
  0
LINE
  8
型材断面
  6
CONTINUOUS
 62
    47
 10
-2.645522
 20
51.829268
 11
-2.645522
 21
52.929263
  0
LINE
  8
型材断面
  6
CONTINUOUS
 62
    47
 10
-2.645522
 20
52.929263
 11
-1.645518
 21
52.929263
  0
LINE
  8
型材断面
  6
CONTINUOUS
 62
    47
 10
-1.645518
 20
50.829263
 11
-1.645518
 21
52.929263
  0
LINE
  8
型材断面
  6
CONTINUOUS
 62
    47
 10
-13.945878
 20
51.829268
 11
-30.845522
 21
51.829268
  0
ARC
  8
型材断面
  6
CONTINUOUS
 62
    47
 10
-15.345876
 20
54.229266
 40
0.1
 50
135.0
 51
270.0
  0
LINE
  8
型材断面
  6
CONTINUOUS
 62
    47
 10
-13.945878
 20
54.129263
 11
-15.345873
 21
54.129263
  0
LINE
  8
型材断面
  6
CONTINUOUS
 62
    47
 10
-15.416583
 20
54.299978
 11
-14.087298
 21
55.629263
  0
LINE
  8
型材断面
  6
CONTINUOUS
 62
    47
 10
-14.087298
 20
55.629263
 11
-12.445878
 21
55.629263
  0
LINE
  8
型材断面
  6
CONTINUOUS
 62
    47
 10
-12.445878
 20
51.829268
 11
-12.445878
 21
55.629263
  0
LINE
  8
型材断面
  6
CONTINUOUS
 62
    47
 10
-19.174308
 20
67.797938
 11
-20.2036
 21
68.82723
  0
ARC
  8
型材断面
  6
CONTINUOUS
 62
    47
 10
-19.245021
 20
67.727231
 40
0.1
 50
-90.0
 51
45.0
  0
LINE
  8
型材断面
  6
CONTINUOUS
 62
    47
 10
-20.445017
 20
67.62723
 11
-19.245017
 21
67.62723
  0
LINE
  8
型材断面
  6
CONTINUOUS
 62
    47
 10
-35.845518
 20
68.82723
 11
-20.2036
 21
68.82723
  0
LINE
  8
型材断面
  6
CONTINUOUS
 62
    47
 10
-21.945017
 20
59.329268
 11
-20.445017
 21
59.329268
  0
LINE
  8
型材断面
  6
CONTINUOUS
 62
    47
 10
-20.445017
 20
67.62723
 11
-20.445017
 21
59.329268
  0
LINE
  8
型材断面
  6
CONTINUOUS
 62
    47
 10
-35.845518
 20
51.829268
 11
-35.845518
 21
67.32723
  0
LINE
  8
型材断面
  6
CONTINUOUS
 62
    47
 10
-35.845518
 20
67.32723
 11
-32.345522
 21
67.32723
  0
LINE
  8
型材断面
  6
CONTINUOUS
 62
    47
 10
-32.345522
 20
65.627227
 11
-32.345522
 21
67.32723
  0
LINE
  8
型材断面
  6
CONTINUOUS
 62
    47
 10
-30.845522
 20
65.627227
 11
-30.845522
 21
67.32723
  0
LINE
  8
型材断面
  6
CONTINUOUS
 62
    47
 10
-30.845522
 20
67.32723
 11
-21.945017
 21
67.32723
  0
LINE
  8
型材断面
  6
CONTINUOUS
 62
    47
 10
-21.945017
 20
59.329268
 11
-21.945017
 21
67.32723
  0
LINE
  8
型材断面
  6
CONTINUOUS
 62
    47
 10
-2.645522
 20
51.829268
 11
-12.445878
 21
51.829268
  0
LINE
  8
型材断面
  6
CONTINUOUS
 62
    47
 10
-37.84552
 20
82.929263
 11
-22.939203
 21
82.929263
  0
LINE
  8
型材断面
  6
CONTINUOUS
 62
    47
 10
-20.645522
 20
-1.570733
 11
-19.145522
 21
-1.570733
  0
LINE
  8
型材断面
  6
CONTINUOUS
 62
    47
 10
-20.645522
 20
44.929268
 11
-20.645522
 21
41.429265
  0
LINE
  8
型材断面
  6
CONTINUOUS
 62
    47
 10
-20.645522
 20
41.429265
 11
-19.145522
 21
41.429265
  0
LINE
  8
型材断面
  6
CONTINUOUS
 62
    47
 10
-19.145522
 20
41.429265
 11
-19.145522
 21
43.429268
  0
LINE
  8
型材断面
  6
CONTINUOUS
 62
    47
 10
-19.145522
 20
-3.070733
 11
-19.145522
 21
-1.570733
  0
LINE
  8
型材断面
  6
CONTINUOUS
 62
    47
 10
-20.645522
 20
-3.070733
 11
-20.645522
 21
-1.570733
  0
LINE
  8
型材断面
  6
CONTINUOUS
 62
    47
 10
-5.14552
 20
44.929268
 11
-20.645522
 21
44.929268
  0
LINE
  8
型材断面
  6
CONTINUOUS
 62
    47
 10
-14.645522
 20
43.429268
 11
-19.145522
 21
43.429268
  0
LINE
  8
型材断面
  6
CONTINUOUS
 62
    47
 10
-40.645518
 20
-3.070733
 11
-20.645522
 21
-3.070733
  0
LINE
  8
型材断面
  6
CONTINUOUS
 62
    47
 10
-14.645522
 20
-3.070733
 11
-19.145522
 21
-3.070733
  0
ENDBLK
  0
BLOCK
  2
*GRP_0057
 70
    65
 10
0.0
 20
0.0
  0
LINE
  8
型材断面
  6
CONTINUOUS
 62
    47
 10
-14.145497
 20
-20.070742
 11
-14.145497
 21
-11.570363
  0
LINE
  8
型材断面
  6
CONTINUOUS
 62
    47
 10
-14.145497
 20
-11.570363
 11
-12.645497
 21
-11.570363
  0
LINE
  8
型材断面
  6
CONTINUOUS
 62
    47
 10
-14.145497
 20
-20.070742
 11
-36.645497
 21
-20.070742
  0
LINE
  8
型材断面
  6
CONTINUOUS
 62
    47
 10
-14.645493
 20
-21.570742
 11
-34.645495
 21
-21.570742
  0
ARC
  8
型材断面
  6
CONTINUOUS
 62
    47
 10
-41.345484
 20
-30.316136
 40
0.3
 50
101.309932
 51
180.0
  0
ARC
  8
型材断面
  6
CONTINUOUS
 62
    47
 10
-41.345484
 20
-23.824294
 40
0.3
 50
180.0
 51
258.690068
  0
LINE
  8
型材断面
  6
CONTINUOUS
 62
    47
 10
-41.645507
 20
-23.82429
 11
-41.645507
 21
-22.07022
  0
LINE
  8
型材断面
  6
CONTINUOUS
 62
    47
 10
-41.645507
 20
-22.07022
 11
-36.645497
 21
-22.07022
  0
LINE
  8
型材断面
  6
CONTINUOUS
 62
    47
 10
-39.145503
 20
-24.57024
 11
-39.145503
 21
-23.57022
  0
LINE
  8
型材断面
  6
CONTINUOUS
 62
    47
 10
-41.40433
 20
-24.11844
 11
-39.145503
 21
-24.57024
  0
LINE
  8
型材断面
  6
CONTINUOUS
 62
    47
 10
-41.40433
 20
-30.02199
 11
-39.145615
 21
-29.57022
  0
LINE
  8
型材断面
  6
CONTINUOUS
 62
    47
 10
-37.145493
 20
-23.57022
 11
-37.145493
 21
-29.57022
  0
LINE
  8
型材断面
  6
CONTINUOUS
 62
    47
 10
-39.145503
 20
-23.57022
 11
-37.145493
 21
-23.57022
  0
LINE
  8
型材断面
  6
CONTINUOUS
 62
    47
 10
-39.145615
 20
-29.57022
 11
-37.145493
 21
-29.57022
  0
LINE
  8
型材断面
  6
CONTINUOUS
 62
    47
 10
-36.645497
 20
-31.07022
 11
-41.645507
 21
-31.07022
  0
LINE
  8
型材断面
  6
CONTINUOUS
 62
    47
 10
-41.645507
 20
-30.31614
 11
-41.645507
 21
-31.07022
  0
LINE
  8
型材断面
  6
CONTINUOUS
 62
    47
 10
-36.645497
 20
-20.070742
 11
-36.645497
 21
-22.07022
  0
LINE
  8
型材断面
  6
CONTINUOUS
 62
    47
 10
-36.345497
 20
-71.070742
 11
-36.645497
 21
-70.770742
  0
LINE
  8
型材断面
  6
CONTINUOUS
 62
    47
 10
-36.345497
 20
-71.070742
 11
-36.645497
 21
-71.370742
  0
LINE
  8
型材断面
  6
CONTINUOUS
 62
    47
 10
-37.645495
 20
-75.570742
 11
-37.645495
 21
-74.070742
  0
LINE
  8
型材断面
  6
CONTINUOUS
 62
    47
 10
-37.645495
 20
-75.570742
 11
12.354508
 21
-75.570742
  0
LINE
  8
型材断面
  6
CONTINUOUS
 62
    47
 10
-36.645497
 20
-74.070742
 11
-37.645495
 21
-74.070742
  0
LINE
  8
型材断面
  6
CONTINUOUS
 62
    47
 10
-36.645497
 20
-71.370742
 11
-36.645497
 21
-74.070742
  0
LINE
  8
型材断面
  6
CONTINUOUS
 62
    47
 10
-36.645497
 20
-31.07022
 11
-36.645497
 21
-70.770742
  0
LINE
  8
型材断面
  6
CONTINUOUS
 62
    47
 10
-12.645497
 20
-11.570363
 11
-12.645497
 21
-73.57074
  0
LINE
  8
型材断面
  6
CONTINUOUS
 62
    47
 10
-14.645493
 20
-21.570742
 11
-14.645493
 21
-73.57074
  0
LINE
  8
型材断面
  6
CONTINUOUS
 62
    47
 10
-34.645495
 20
-21.570742
 11
-34.645495
 21
-73.57074
  0
LINE
  8
型材断面
  6
CONTINUOUS
 62
    47
 10
-34.645495
 20
-73.57074
 11
-14.645493
 21
-73.57074
  0
LINE
  8
型材断面
  6
CONTINUOUS
 62
    47
 10
-12.645497
 20
-73.57074
 11
10.854508
 21
-73.57074
  0
LINE
  8
型材断面
  6
CONTINUOUS
 62
    47
 10
10.854508
 20
-73.57074
 11
10.854508
 21
-65.570745
  0
LINE
  8
型材断面
  6
CONTINUOUS
 62
    47
 10
12.354508
 20
-75.570742
 11
12.354508
 21
-65.570745
  0
LINE
  8
St
  6
CONTINUOUS
 62
    47
 10
10.854508
 20
-65.570745
 11
12.354508
 21
-65.570745
  0
ENDBLK
  0
BLOCK
  2
*DIM_0058
 70
    65
 10
0.0
 20
0.0
  0
LINE
  8
寸法
  6
BYBLOCK
 62
     0
 10
-22.639195
 20
107.132848
 11
-22.639195
 21
118.090135
  0
LINE
  8
寸法
  6
BYBLOCK
 62
     0
 10
-2.639195
 20
118.090135
 11
-22.639195
 21
118.090135
  0
POINT
  8
寸法
 62
     0
 10
-2.639195
 20
118.090135
  0
POINT
  8
寸法
 62
     0
 10
-22.639195
 20
118.090135
  0
TEXT
  7
TextStyle03
  8
寸法
  6
CONTINUOUS
 62
     0
 10
-14.24375
 20
118.45
  1
20
 40
3.0
 72
     5
 11
-11.05625
 21
118.45
  0
ENDBLK
  0
BLOCK
  2
*DIM_0059
 70
    65
 10
0.0
 20
0.0
  0
LINE
  8
寸法
  6
BYBLOCK
 62
     0
 10
-52.639195
 20
94.432848
 11
-52.639195
 21
118.090135
  0
LINE
  8
寸法
  6
BYBLOCK
 62
     0
 10
-22.639195
 20
118.090135
 11
-52.639195
 21
118.090135
  0
POINT
  8
寸法
 62
     0
 10
-52.639195
 20
118.090135
  0
TEXT
  7
TextStyle03
  8
寸法
  6
CONTINUOUS
 62
     0
 10
-39.24375
 20
118.45
  1
30
 40
3.0
 72
     5
 11
-36.05625
 21
118.45
  0
ENDBLK
  0
BLOCK
  2
*DIM_0060
 70
    65
 10
0.0
 20
0.0
  0
LINE
  8
寸法
  6
BYBLOCK
 62
     0
 10
53.047375
 20
-75.57074
 11
52.381703
 21
-75.57074
  0
LINE
  8
寸法
  6
BYBLOCK
 62
     0
 10
13.354508
 20
-65.570745
 11
52.381703
 21
-65.570745
  0
LINE
  8
寸法
  6
BYBLOCK
 62
     0
 10
52.381703
 20
-75.57074
 11
52.381703
 21
-65.570745
  0
POINT
  8
寸法
 62
     0
 10
52.381703
 20
-75.57074
  0
POINT
  8
寸法
 62
     0
 10
52.381703
 20
-65.570745
  0
TEXT
  7
TextStyle03
  8
寸法
  6
CONTINUOUS
 62
     0
 10
52.0
 20
-72.16875
  1
10
 40
3.0
 50
90.0
 72
     5
 11
52.0
 21
-68.98125
  0
ENDBLK
  0
BLOCK
  2
*DIM_0061
 70
    65
 10
0.0
 20
0.0
  0
LINE
  8
寸法
  6
BYBLOCK
 62
     0
 10
13.354505
 20
-11.57036
 11
52.381703
 21
-11.57036
  0
LINE
  8
寸法
  6
BYBLOCK
 62
     0
 10
52.381703
 20
-65.570745
 11
52.381703
 21
-11.57036
  0
POINT
  8
寸法
 62
     0
 10
52.381703
 20
-11.57036
  0
TEXT
  7
TextStyle03
  8
寸法
  6
CONTINUOUS
 62
     0
 10
52.0
 20
-40.16875
  1
54
 40
3.0
 50
90.0
 72
     5
 11
52.0
 21
-36.98125
  0
ENDBLK
  0
BLOCK
  2
*GRP_0062
 70
    65
 10
0.0
 20
0.0
  0
LINE
  8
ボルト／ビス
  6
CONTINUOUS
 62
    64
 10
-65.828775
 20
-30.770467
 11
-64.866525
 21
-30.420237
  0
ARC
  8
ボルト／ビス
  6
CONTINUOUS
 62
    64
 10
-66.309899
 20
-27.621116
 40
3.149353
 50
242.721967
 51
270.0
  0
ARC
  8
ボルト／ビス
  6
CONTINUOUS
 62
    64
 10
-70.640026
 20
-18.698401
 40
12.072067
 50
256.165002
 51
283.834985
  0
LINE
  8
ボルト／ビス
  6
CONTINUOUS
 62
    64
 10
-75.45128
 20
-30.770467
 11
-76.41353
 21
-30.420237
  0
ARC
  8
ボルト／ビス
  6
CONTINUOUS
 62
    64
 10
-74.970154
 20
-27.621116
 40
3.149353
 50
270.0
 51
297.278033
  0
LINE
  8
ボルト／ビス
  6
CONTINUOUS
 62
    64
 10
-65.828775
 20
-30.770467
 11
-75.45128
 21
-30.770467
  0
LINE
  8
ボルト／ビス
  6
CONTINUOUS
 62
    64
 10
-76.41353
 20
-30.420237
 11
-76.41353
 21
-26.770467
  0
LINE
  8
ボルト／ビス
  6
CONTINUOUS
 62
    64
 10
-73.52678
 20
-30.420237
 11
-73.52678
 21
-26.770467
  0
LINE
  8
ボルト／ビス
  6
CONTINUOUS
 62
    64
 10
-64.866525
 20
-30.420237
 11
-64.866525
 21
-26.770467
  0
LINE
  8
ボルト／ビス
  6
CONTINUOUS
 62
    64
 10
-67.753277
 20
-30.420237
 11
-67.753277
 21
-26.770467
  0
LINE
  8
ボルト／ビス
  6
CONTINUOUS
 62
    64
 10
-76.81353
 20
-25.270467
 11
-76.81353
 21
-26.770467
  0
LINE
  8
ボルト／ビス
  6
CONTINUOUS
 62
    64
 10
-77.64003
 20
-24.370467
 11
-77.64003
 21
-25.270467
  0
LINE
  8
ボルト／ビス
  6
CONTINUOUS
 62
    64
 10
-64.46653
 20
-25.270467
 11
-64.46653
 21
-26.770467
  0
LINE
  8
ボルト／ビス
  6
CONTINUOUS
 62
    64
 10
-63.64003
 20
-24.370467
 11
-63.64003
 21
-25.270467
  0
LINE
  8
ボルト／ビス
  6
CONTINUOUS
 62
    64
 10
-77.64003
 20
-25.270467
 11
-63.64003
 21
-25.270467
  0
LINE
  8
ボルト／ビス
  6
CONTINUOUS
 62
    64
 10
-77.64003
 20
-24.370467
 11
-63.64003
 21
-24.370467
  0
LINE
  8
ボルト／ビス
  6
CONTINUOUS
 62
    64
 10
-76.81353
 20
-26.770467
 11
-64.46653
 21
-26.770467
  0
LINE
  8
ボルト／ビス
  6
CONTINUOUS
 62
    64
 10
-70.64003
 20
-25.270467
 11
-70.64003
 21
-26.770467
  0
LINE
  8
ボルト／ビス
  6
CONTINUOUS
 62
    64
 10
-73.64003
 20
-17.770467
 11
-72.94003
 21
-16.770467
  0
LINE
  8
ボルト／ビス
  6
CONTINUOUS
 62
    64
 10
-67.64003
 20
-17.770467
 11
-68.34003
 21
-16.770467
  0
LINE
  8
ボルト／ビス
  6
CONTINUOUS
 62
    64
 10
-67.64003
 20
-17.770467
 11
-73.64003
 21
-17.770467
  0
LINE
  8
ボルト／ビス
  6
CONTINUOUS
 62
    64
 10
-68.34003
 20
-16.770467
 11
-72.94003
 21
-16.770467
  0
LINE
  8
ボルト／ビス
  6
CONTINUOUS
 62
    64
 10
-70.64003
 20
-35.770467
 11
-70.64003
 21
-13.523668
  0
LINE
  8
ボルト／ビス
  6
CONTINUOUS
 62
    64
 10
-73.64003
 20
-17.770467
 11
-73.64003
 21
-24.370467
  0
LINE
  8
ボルト／ビス
  6
CONTINUOUS
 62
    64
 10
-72.94003
 20
-16.770467
 11
-72.94003
 21
-24.370467
  0
LINE
  8
ボルト／ビス
  6
CONTINUOUS
 62
    64
 10
-68.34003
 20
-16.770467
 11
-68.34003
 21
-24.370467
  0
LINE
  8
ボルト／ビス
  6
CONTINUOUS
 62
    64
 10
-67.64003
 20
-17.770467
 11
-67.64003
 21
-24.370467
  0
ENDBLK
  0
BLOCK
  2
*GRP_0063
 70
    65
 10
0.0
 20
0.0
  0
POLYLINE
  8
寸法
  6
BYBLOCK
 62
     0
 66
     1
  0
VERTEX
  8
寸法
 10
-77.18873
 20
-5.051975
  0
VERTEX
  8
寸法
 10
-81.165293
 20
7.591677
  0
VERTEX
  8
寸法
 10
-91.578835
 20
7.591677
  0
SEQEND
  0
ENDBLK
  0
BLOCK
  2
*GRP_0064
 70
    65
 10
0.0
 20
0.0
  0
POLYLINE
  8
寸法
  6
BYBLOCK
 62
     0
 66
     1
  0
VERTEX
  8
寸法
 10
-76.41353
 20
-26.770467
  0
VERTEX
  8
寸法
 10
-80.266492
 20
-30.62343
  0
VERTEX
  8
寸法
 10
-84.58681
 20
-30.62343
  0
SEQEND
  0
ENDBLK
  0
BLOCK
  2
*DIM_0065
 70
    65
 10
0.0
 20
0.0
  0
LINE
  8
寸法
  6
BYBLOCK
 62
     0
 10
-25.640032
 20
-106.074248
 11
63.146925
 21
-106.074248
  0
LINE
  8
寸法
  6
BYBLOCK
 62
     0
 10
63.146925
 20
-75.57074
 11
63.146925
 21
-106.074248
  0
POINT
  8
寸法
 62
     0
 10
63.146925
 20
-75.57074
  0
POINT
  8
寸法
 62
     0
 10
63.146925
 20
-106.074248
  0
TEXT
  7
TextStyle03
  8
寸法
  6
CONTINUOUS
 62
     0
 10
62.75
 20
-94.10625
  1
30.5
 40
3.0
 50
90.0
 72
     5
 11
62.75
 21
-87.54375
  0
ENDBLK
  0
BLOCK
  2
*DIM_0066
 70
    65
 10
0.0
 20
0.0
  0
LINE
  8
寸法
  6
BYBLOCK
 62
     0
 10
-100.640277
 20
-116.074222
 11
-160.269523
 21
-116.074222
  0
LINE
  8
寸法
  6
BYBLOCK
 62
     0
 10
-160.269523
 20
-106.074245
 11
-160.269523
 21
-116.074222
  0
POINT
  8
寸法
 62
     0
 10
-160.269523
 20
-106.074245
  0
POINT
  8
寸法
 62
     0
 10
-160.269523
 20
-116.074222
  0
TEXT
  7
TextStyle03
  8
寸法
  6
CONTINUOUS
 62
     0
 10
-160.65
 20
-112.66875
  1
10
 40
3.0
 50
90.0
 72
     5
 11
-160.65
 21
-109.48125
  0
ENDBLK
  0
BLOCK
  2
*DIM_0067
 70
    65
 10
0.0
 20
0.0
  0
LINE
  8
寸法
  6
BYBLOCK
 62
     0
 10
-114.64003
 20
-107.074248
 11
-114.64003
 21
-125.839173
  0
LINE
  8
寸法
  6
BYBLOCK
 62
     0
 10
-99.640277
 20
-117.074222
 11
-99.640277
 21
-125.839173
  0
LINE
  8
寸法
  6
BYBLOCK
 62
     0
 10
-114.64003
 20
-125.839173
 11
-99.640277
 21
-125.839173
  0
POINT
  8
寸法
 62
     0
 10
-114.64003
 20
-125.839173
  0
POINT
  8
寸法
 62
     0
 10
-99.640277
 20
-125.839173
  0
TEXT
  7
TextStyle03
  8
寸法
  6
CONTINUOUS
 62
     0
 10
-108.74375
 20
-125.475
  1
15
 40
3.0
 72
     5
 11
-105.55625
 21
-125.475
  0
ENDBLK
  0
BLOCK
  2
*DIM_0068
 70
    65
 10
0.0
 20
0.0
  0
LINE
  8
寸法
  6
BYBLOCK
 62
     0
 10
-97.140277
 20
-116.074222
 11
63.146925
 21
-116.074222
  0
LINE
  8
寸法
  6
BYBLOCK
 62
     0
 10
63.146925
 20
-106.074248
 11
63.146925
 21
-116.074222
  0
POINT
  8
寸法
 62
     0
 10
63.146925
 20
-116.074222
  0
TEXT
  7
TextStyle03
  8
寸法
  6
CONTINUOUS
 62
     0
 10
62.5
 20
-111.34375
  1
10
 40
3.0
 50
90.0
 72
     5
 11
62.5
 21
-108.15625
  0
ENDBLK
  0
BLOCK
  2
*GRP_0069
 70
    65
 10
0.0
 20
0.0
  0
LINE
  8
通り芯
  6
CONTINUOUS
 10
-9.64551
 20
-17.570317
 11
-12.64551
 21
-17.570317
  0
ARC
  8
通り芯
  6
CONTINUOUS
 10
-9.645511
 20
39.929275
 40
3.0
 50
90.0
 51
180.0
  0
LINE
  8
通り芯
  6
CONTINUOUS
 10
-12.64551
 20
39.929272
 11
-12.64551
 21
-7.07073
  0
LINE
  8
通り芯
  6
CONTINUOUS
 10
-9.64551
 20
39.929272
 11
-9.64551
 21
-7.07073
  0
LINE
  8
通り芯
  6
CONTINUOUS
 10
-12.64551
 20
-7.07073
 11
-9.64551
 21
-7.07073
  0
ARC
  8
通り芯
  6
CONTINUOUS
 10
-9.645499
 20
-59.07032
 40
3.0
 50
180.0
 51
270.0
  0
LINE
  8
通り芯
  6
CONTINUOUS
 10
-9.64551
 20
-54.070327
 11
-4.645515
 21
-59.07033
  0
LINE
  8
通り芯
  6
CONTINUOUS
 10
-9.64551
 20
-17.570317
 11
-9.64551
 21
-59.07033
  0
LINE
  8
通り芯
  6
CONTINUOUS
 10
-12.64551
 20
-17.570317
 11
-12.64551
 21
-62.07033
  0
ARC
  8
通り芯
  6
CONTINUOUS
 10
35.354503
 20
39.929275
 40
3.0
 50
0.0
 51
90.0
  0
LINE
  8
通り芯
  6
CONTINUOUS
 10
38.35449
 20
42.929272
 11
38.35449
 21
18.929272
  0
LINE
  8
通り芯
  6
CONTINUOUS
 10
17.35449
 20
-129.070733
 11
35.35449
 21
-129.070733
  0
ARC
  8
通り芯
  6
CONTINUOUS
 10
35.354503
 20
-129.07073
 40
3.0
 50
270.0
 51
360.0
  0
LINE
  8
通り芯
  6
CONTINUOUS
 10
35.35449
 20
-129.070733
 11
35.35449
 21
-102.070733
  0
ARC
  8
通り芯
  6
CONTINUOUS
 10
17.354503
 20
-129.07073
 40
3.0
 50
180.0
 51
270.0
  0
LINE
  8
通り芯
  6
CONTINUOUS
 10
38.35449
 20
-132.070733
 11
14.35449
 21
-132.070733
  0
LINE
  8
通り芯
  6
CONTINUOUS
 10
38.35449
 20
-101.711078
 11
38.35449
 21
-132.070733
  0
LINE
  8
通り芯
  6
CONTINUOUS
 10
35.35449
 20
-124.07073
 11
30.354487
 21
-129.070733
  0
LINE
  8
通り芯
  6
CONTINUOUS
 10
22.354493
 20
-129.070733
 11
17.35449
 21
-124.07073
  0
LINE
  8
通り芯
  6
CONTINUOUS
 10
35.35449
 20
-102.070733
 11
38.35449
 21
-102.070733
  0
LINE
  8
通り芯
  6
CONTINUOUS
 10
35.35449
 20
39.929272
 11
35.35449
 21
20.929268
  0
LINE
  8
通り芯
  6
CONTINUOUS
 10
35.35449
 20
20.929268
 11
38.35449
 21
20.929268
  0
ARC
  8
通り芯
  6
CONTINUOUS
 10
14.354503
 20
-62.07032
 40
3.0
 50
0.0
 51
90.0
  0
LINE
  8
通り芯
  6
CONTINUOUS
 10
14.35449
 20
-132.070733
 11
14.35449
 21
-62.07033
  0
LINE
  8
通り芯
  6
CONTINUOUS
 10
17.35449
 20
-129.070733
 11
17.35449
 21
-59.07033
  0
LINE
  8
通り芯
  6
CONTINUOUS
 10
-12.64551
 20
-62.07033
 11
14.35449
 21
-62.07033
  0
LINE
  8
通り芯
  6
CONTINUOUS
 10
-9.64551
 20
-59.07033
 11
17.35449
 21
-59.07033
  0
LINE
  8
通り芯
  6
CONTINUOUS
 10
-9.64551
 20
-17.570317
 11
38.35449
 21
-39.755205
  0
LINE
  8
通り芯
  6
CONTINUOUS
 10
38.35449
 20
-96.570735
 11
38.35449
 21
-39.755205
  0
LINE
  8
通り芯
  6
CONTINUOUS
 10
35.35449
 20
20.929268
 11
-9.64551
 21
-7.07073
  0
LINE
  8
通り芯
  6
CONTINUOUS
 10
-9.64551
 20
42.929272
 11
38.35449
 21
42.929272
  0
LINE
  8
通り芯
  6
CONTINUOUS
 10
-9.64551
 20
39.929272
 11
35.35449
 21
39.929272
  0
LINE
  8
ボルト／ビス
  6
CONTINUOUS
 10
49.504493
 20
24.67464
 11
49.049198
 21
23.423715
  0
ARC
  8
ボルト／ビス
  6
CONTINUOUS
 10
45.410337
 20
25.300105
 40
4.09417
 50
0.0
 51
27.277966
  0
LINE
  8
ボルト／ビス
  6
CONTINUOUS
 10
49.504493
 20
37.183905
 11
49.049198
 21
38.43483
  0
ARC
  8
ボルト／ビス
  6
CONTINUOUS
 10
45.410337
 20
36.55844
 40
4.09417
 50
332.722034
 51
360.0
  0
ARC
  8
ボルト／ビス
  6
CONTINUOUS
 10
33.810775
 20
30.929273
 40
15.693733
 50
346.165046
 51
373.834954
  0
LINE
  8
ボルト／ビス
  6
CONTINUOUS
 10
44.35449
 20
23.423715
 11
49.049198
 21
23.423715
  0
LINE
  8
ボルト／ビス
  6
CONTINUOUS
 10
44.35449
 20
38.43483
 11
49.049198
 21
38.43483
  0
LINE
  8
ボルト／ビス
  6
CONTINUOUS
 10
49.504493
 20
37.183905
 11
49.504493
 21
24.67464
  0
LINE
  8
ボルト／ビス
  6
CONTINUOUS
 10
49.049198
 20
34.682048
 11
44.35449
 21
34.682048
  0
LINE
  8
ボルト／ビス
  6
CONTINUOUS
 10
49.049198
 20
27.176498
 11
44.35449
 21
27.176498
  0
LINE
  8
ボルト／ビス
  6
CONTINUOUS
 10
44.35449
 20
38.43483
 11
44.35449
 21
23.423715
  0
LINE
  8
ボルト／ビス
  6
CONTINUOUS
 10
42.55449
 20
22.17927
 11
41.554493
 21
22.17927
  0
LINE
  8
ボルト／ビス
  6
CONTINUOUS
 10
42.55449
 20
39.679275
 11
41.554493
 21
39.679275
  0
LINE
  8
ボルト／ビス
  6
CONTINUOUS
 10
42.55449
 20
22.17927
 11
42.55449
 21
39.679275
  0
LINE
  8
ボルト／ビス
  6
CONTINUOUS
 10
41.554493
 20
22.17927
 11
41.554493
 21
39.679275
  0
LINE
  8
ボルト／ビス
  6
CONTINUOUS
 10
44.35449
 20
30.929272
 11
42.55449
 21
30.929272
  0
LINE
  8
ボルト／ビス
  6
CONTINUOUS
 10
44.35449
 20
38.82927
 11
42.55449
 21
38.82927
  0
LINE
  8
ボルト／ビス
  6
CONTINUOUS
 10
44.35449
 20
23.029275
 11
42.55449
 21
23.029275
  0
LINE
  8
ボルト／ビス
  6
CONTINUOUS
 10
44.35449
 20
38.82927
 11
44.35449
 21
23.029275
  0
LINE
  8
ボルト／ビス
  6
CONTINUOUS
 10
25.554495
 20
34.92927
 11
24.354495
 21
34.129275
  0
LINE
  8
ボルト／ビス
  6
CONTINUOUS
 10
25.554495
 20
26.929275
 11
24.354495
 21
27.72927
  0
LINE
  8
ボルト／ビス
  6
CONTINUOUS
 10
24.354495
 20
34.129275
 11
24.354495
 21
27.72927
  0
LINE
  8
ボルト／ビス
  6
CONTINUOUS
 10
25.554495
 20
34.92927
 11
25.554495
 21
26.929275
  0
LINE
  8
ボルト／ビス
  6
CONTINUOUS
 10
41.554493
 20
34.92927
 11
25.554495
 21
34.92927
  0
LINE
  8
ボルト／ビス
  6
CONTINUOUS
 10
41.554493
 20
26.929275
 11
25.554495
 21
26.929275
  0
LINE
  8
ボルト／ビス
  6
CONTINUOUS
 10
41.554493
 20
34.129275
 11
24.354495
 21
34.129275
  0
LINE
  8
ボルト／ビス
  6
CONTINUOUS
 10
41.554493
 20
27.72927
 11
24.354495
 21
27.72927
  0
LINE
  8
ボルト／ビス
  6
CONTINUOUS
 10
54.504495
 20
30.929272
 11
19.354493
 21
30.929272
  0
LINE
  8
ボルト／ビス
  6
CONTINUOUS
 10
27.40449
 20
24.67464
 11
27.859785
 21
23.423715
  0
ARC
  8
ボルト／ビス
  6
CONTINUOUS
 10
31.498671
 20
25.300107
 40
4.09417
 50
152.722034
 51
180.0
  0
LINE
  8
ボルト／ビス
  6
CONTINUOUS
 10
27.40449
 20
37.183905
 11
27.859785
 21
38.43483
  0
ARC
  8
ボルト／ビス
  6
CONTINUOUS
 10
31.498671
 20
36.558442
 40
4.09417
 50
180.0
 51
207.277966
  0
ARC
  8
ボルト／ビス
  6
CONTINUOUS
 10
43.098234
 20
30.929274
 40
15.693733
 50
166.165046
 51
193.834954
  0
LINE
  8
ボルト／ビス
  6
CONTINUOUS
 10
32.554493
 20
23.423715
 11
27.859785
 21
23.423715
  0
LINE
  8
ボルト／ビス
  6
CONTINUOUS
 10
32.554493
 20
38.43483
 11
27.859785
 21
38.43483
  0
LINE
  8
ボルト／ビス
  6
CONTINUOUS
 10
27.40449
 20
37.183905
 11
27.40449
 21
24.67464
  0
LINE
  8
ボルト／ビス
  6
CONTINUOUS
 10
27.859785
 20
34.682048
 11
32.554493
 21
34.682048
  0
LINE
  8
ボルト／ビス
  6
CONTINUOUS
 10
27.859785
 20
27.176498
 11
32.554493
 21
27.176498
  0
LINE
  8
ボルト／ビス
  6
CONTINUOUS
 10
32.554493
 20
38.43483
 11
32.554493
 21
23.423715
  0
LINE
  8
ボルト／ビス
  6
CONTINUOUS
 10
34.354493
 20
22.17927
 11
35.35449
 21
22.17927
  0
LINE
  8
ボルト／ビス
  6
CONTINUOUS
 10
34.354493
 20
39.679275
 11
35.35449
 21
39.679275
  0
LINE
  8
ボルト／ビス
  6
CONTINUOUS
 10
34.354493
 20
22.17927
 11
34.354493
 21
39.679275
  0
LINE
  8
ボルト／ビス
  6
CONTINUOUS
 10
35.35449
 20
22.17927
 11
35.35449
 21
39.679275
  0
LINE
  8
ボルト／ビス
  6
CONTINUOUS
 10
32.554493
 20
30.929272
 11
34.354493
 21
30.929272
  0
LINE
  8
ボルト／ビス
  6
CONTINUOUS
 10
32.554493
 20
38.82927
 11
34.354493
 21
38.82927
  0
LINE
  8
ボルト／ビス
  6
CONTINUOUS
 10
32.554493
 20
23.029275
 11
34.354493
 21
23.029275
  0
LINE
  8
ボルト／ビス
  6
CONTINUOUS
 10
32.554493
 20
38.82927
 11
32.554493
 21
23.029275
  0
LINE
  8
ボルト／ビス
  6
CONTINUOUS
 10
49.504493
 20
-118.325708
 11
49.049198
 21
-119.576632
  0
ARC
  8
ボルト／ビス
  6
CONTINUOUS
 10
45.410337
 20
-117.700242
 40
4.09417
 50
0.0
 51
27.277966
  0
LINE
  8
ボルト／ビス
  6
CONTINUOUS
 10
49.504493
 20
-105.816442
 11
49.049198
 21
-104.565517
  0
ARC
  8
ボルト／ビス
  6
CONTINUOUS
 10
45.410337
 20
-106.441907
 40
4.09417
 50
332.722034
 51
360.0
  0
ARC
  8
ボルト／ビス
  6
CONTINUOUS
 10
33.810775
 20
-112.071075
 40
15.693733
 50
346.165046
 51
373.834954
  0
LINE
  8
ボルト／ビス
  6
CONTINUOUS
 10
44.35449
 20
-119.576632
 11
49.049198
 21
-119.576632
  0
LINE
  8
ボルト／ビス
  6
CONTINUOUS
 10
44.35449
 20
-104.565517
 11
49.049198
 21
-104.565517
  0
LINE
  8
ボルト／ビス
  6
CONTINUOUS
 10
49.504493
 20
-105.816442
 11
49.504493
 21
-118.325708
  0
LINE
  8
ボルト／ビス
  6
CONTINUOUS
 10
49.049198
 20
-108.3183
 11
44.35449
 21
-108.3183
  0
LINE
  8
ボルト／ビス
  6
CONTINUOUS
 10
49.049198
 20
-115.82385
 11
44.35449
 21
-115.82385
  0
LINE
  8
ボルト／ビス
  6
CONTINUOUS
 10
44.35449
 20
-104.565517
 11
44.35449
 21
-119.576632
  0
LINE
  8
ボルト／ビス
  6
CONTINUOUS
 10
42.55449
 20
-120.821077
 11
41.554493
 21
-120.821077
  0
LINE
  8
ボルト／ビス
  6
CONTINUOUS
 10
42.55449
 20
-103.321072
 11
41.554493
 21
-103.321072
  0
LINE
  8
ボルト／ビス
  6
CONTINUOUS
 10
42.55449
 20
-120.821077
 11
42.55449
 21
-103.321072
  0
LINE
  8
ボルト／ビス
  6
CONTINUOUS
 10
41.554493
 20
-120.821077
 11
41.554493
 21
-103.321072
  0
LINE
  8
ボルト／ビス
  6
CONTINUOUS
 10
44.35449
 20
-112.071075
 11
42.55449
 21
-112.071075
  0
LINE
  8
ボルト／ビス
  6
CONTINUOUS
 10
44.35449
 20
-104.171077
 11
42.55449
 21
-104.171077
  0
LINE
  8
ボルト／ビス
  6
CONTINUOUS
 10
44.35449
 20
-119.971072
 11
42.55449
 21
-119.971072
  0
LINE
  8
ボルト／ビス
  6
CONTINUOUS
 10
44.35449
 20
-104.171077
 11
44.35449
 21
-119.971072
  0
LINE
  8
ボルト／ビス
  6
CONTINUOUS
 10
25.554495
 20
-108.071077
 11
24.354495
 21
-108.871073
  0
LINE
  8
ボルト／ビス
  6
CONTINUOUS
 10
25.554495
 20
-116.071072
 11
24.354495
 21
-115.271077
  0
LINE
  8
ボルト／ビス
  6
CONTINUOUS
 10
24.354495
 20
-108.871073
 11
24.354495
 21
-115.271077
  0
LINE
  8
ボルト／ビス
  6
CONTINUOUS
 10
25.554495
 20
-108.071077
 11
25.554495
 21
-116.071072
  0
LINE
  8
ボルト／ビス
  6
CONTINUOUS
 10
41.554493
 20
-108.071077
 11
25.554495
 21
-108.071077
  0
LINE
  8
ボルト／ビス
  6
CONTINUOUS
 10
41.554493
 20
-116.071072
 11
25.554495
 21
-116.071072
  0
LINE
  8
ボルト／ビス
  6
CONTINUOUS
 10
41.554493
 20
-108.871073
 11
24.354495
 21
-108.871073
  0
LINE
  8
ボルト／ビス
  6
CONTINUOUS
 10
41.554493
 20
-115.271077
 11
24.354495
 21
-115.271077
  0
LINE
  8
ボルト／ビス
  6
CONTINUOUS
 10
54.504495
 20
-112.071075
 11
19.354493
 21
-112.071075
  0
LINE
  8
ボルト／ビス
  6
CONTINUOUS
 10
27.40449
 20
-118.325708
 11
27.859785
 21
-119.576632
  0
ARC
  8
ボルト／ビス
  6
CONTINUOUS
 10
31.498671
 20
-117.700241
 40
4.09417
 50
152.722034
 51
180.0
  0
LINE
  8
ボルト／ビス
  6
CONTINUOUS
 10
27.40449
 20
-105.816442
 11
27.859785
 21
-104.565517
  0
ARC
  8
ボルト／ビス
  6
CONTINUOUS
 10
31.498671
 20
-106.441906
 40
4.09417
 50
180.0
 51
207.277966
  0
ARC
  8
ボルト／ビス
  6
CONTINUOUS
 10
43.098234
 20
-112.071073
 40
15.693733
 50
166.165046
 51
193.834954
  0
LINE
  8
ボルト／ビス
  6
CONTINUOUS
 10
32.554493
 20
-119.576632
 11
27.859785
 21
-119.576632
  0
LINE
  8
ボルト／ビス
  6
CONTINUOUS
 10
32.554493
 20
-104.565517
 11
27.859785
 21
-104.565517
  0
LINE
  8
ボルト／ビス
  6
CONTINUOUS
 10
27.40449
 20
-105.816442
 11
27.40449
 21
-118.325708
  0
LINE
  8
ボルト／ビス
  6
CONTINUOUS
 10
27.859785
 20
-108.3183
 11
32.554493
 21
-108.3183
  0
LINE
  8
ボルト／ビス
  6
CONTINUOUS
 10
27.859785
 20
-115.82385
 11
32.554493
 21
-115.82385
  0
LINE
  8
ボルト／ビス
  6
CONTINUOUS
 10
32.554493
 20
-104.565517
 11
32.554493
 21
-119.576632
  0
LINE
  8
ボルト／ビス
  6
CONTINUOUS
 10
34.354493
 20
-120.821077
 11
35.35449
 21
-120.821077
  0
LINE
  8
ボルト／ビス
  6
CONTINUOUS
 10
34.354493
 20
-103.321072
 11
35.35449
 21
-103.321072
  0
LINE
  8
ボルト／ビス
  6
CONTINUOUS
 10
34.354493
 20
-120.821077
 11
34.354493
 21
-103.321072
  0
LINE
  8
ボルト／ビス
  6
CONTINUOUS
 10
35.35449
 20
-120.821077
 11
35.35449
 21
-103.321072
  0
LINE
  8
ボルト／ビス
  6
CONTINUOUS
 10
32.554493
 20
-112.071075
 11
34.354493
 21
-112.071075
  0
LINE
  8
ボルト／ビス
  6
CONTINUOUS
 10
32.554493
 20
-104.171077
 11
34.354493
 21
-104.171077
  0
LINE
  8
ボルト／ビス
  6
CONTINUOUS
 10
32.554493
 20
-119.971072
 11
34.354493
 21
-119.971072
  0
LINE
  8
ボルト／ビス
  6
CONTINUOUS
 10
32.554493
 20
-104.171077
 11
32.554493
 21
-119.971072
  0
LINE
  8
別途部材
  6
DASHDOT
 10
36.55449
 20
29.275343
 11
36.55449
 21
-129.071602
  0
LINE
  8
別途部材
  6
DASHDOT
 10
36.55449
 20
-76.802017
 11
36.55449
 21
41.929268
  0
LINE
  8
別途部材
  6
CONTINUOUS
 10
25.554487
 20
-56.162528
 11
47.554493
 21
-56.162528
  0
LINE
  8
別途部材
  6
CONTINUOUS
 10
25.554487
 20
-54.662528
 11
47.554493
 21
-54.662528
  0
LINE
  8
別途部材
  6
CONTINUOUS
 10
46.554487
 20
-57.662528
 11
46.554487
 21
-56.162528
  0
LINE
  8
別途部材
  6
CONTINUOUS
 10
46.554487
 20
-57.662528
 11
26.554493
 21
-57.662528
  0
LINE
  8
別途部材
  6
CONTINUOUS
 10
26.554493
 20
-57.662528
 11
26.554493
 21
-56.162528
  0
LINE
  8
別途部材
  6
CONTINUOUS
 10
43.554487
 20
-60.662528
 11
43.554487
 21
-57.662528
  0
LINE
  8
別途部材
  6
CONTINUOUS
 10
29.554493
 20
-60.662528
 11
43.554487
 21
-60.662528
  0
LINE
  8
別途部材
  6
CONTINUOUS
 10
29.554493
 20
-57.662528
 11
29.554493
 21
-60.662528
  0
LINE
  8
別途部材
  6
CONTINUOUS
 10
41.554493
 20
-60.662528
 11
41.554493
 21
-87.711075
  0
LINE
  8
別途部材
  6
CONTINUOUS
 10
31.554487
 20
-90.911078
 11
38.35449
 21
-90.911078
  0
LINE
  8
別途部材
  6
CONTINUOUS
 10
31.554487
 20
-60.662528
 11
31.554487
 21
-90.911078
  0
ARC
  8
別途部材
  6
CONTINUOUS
 10
38.354498
 20
-90.911069
 40
3.2
 50
0.0
 51
90.0
  0
LINE
  8
別途部材
  6
CONTINUOUS
 10
31.554487
 20
-87.711075
 11
41.554493
 21
-87.711075
  0
LINE
  8
別途部材
  6
CONTINUOUS
 10
25.554487
 20
-1.07073
 11
47.554493
 21
-1.07073
  0
LINE
  8
別途部材
  6
CONTINUOUS
 10
25.554487
 20
-0.070725
 11
47.554493
 21
-0.070725
  0
ARC
  8
別途部材
  6
CONTINUOUS
 10
30.554497
 20
-0.070721
 40
5.0
 50
90.0
 51
180.0
  0
LINE
  8
別途部材
  6
CONTINUOUS
 10
30.55449
 20
4.92927
 11
42.55449
 21
4.92927
  0
ARC
  8
別途部材
  6
CONTINUOUS
 10
42.554497
 20
-0.070721
 40
5.0
 50
0.0
 51
90.0
  0
LINE
  8
別途部材
  6
CONTINUOUS
 10
42.55449
 20
4.92927
 11
42.55449
 21
6.929272
  0
LINE
  8
別途部材
  6
CONTINUOUS
 10
30.55449
 20
4.92927
 11
30.55449
 21
6.929272
  0
LINE
  8
別途部材
  6
CONTINUOUS
 10
38.35449
 20
39.929272
 11
38.35449
 21
10.129275
  0
LINE
  8
別途部材
  6
CONTINUOUS
 10
38.35449
 20
10.129275
 11
31.554487
 21
10.129275
  0
LINE
  8
別途部材
  6
CONTINUOUS
 10
31.554487
 20
10.129275
 11
31.554487
 21
6.929272
  0
LINE
  8
別途部材
  6
CONTINUOUS
 10
41.554493
 20
39.929272
 11
41.554493
 21
10.129275
  0
ARC
  8
別途部材
  6
CONTINUOUS
 10
38.354497
 20
10.129279
 40
3.2
 50
-90.0
 51
0.0
  0
LINE
  8
別途部材
  6
CONTINUOUS
 10
30.55449
 20
6.929272
 11
42.55449
 21
6.929272
  0
LINE
  8
別途部材
  6
CONTINUOUS
 10
38.35449
 20
39.929272
 11
41.554493
 21
39.929272
  0
LINE
  8
別途部材
  6
CONTINUOUS
 10
38.35449
 20
26.429272
 11
41.554493
 21
26.429272
  0
LINE
  8
別途部材
  6
CONTINUOUS
 10
38.35449
 20
35.429272
 11
41.554493
 21
35.429272
  0
LINE
  8
別途部材
  6
CONTINUOUS
 10
36.55449
 20
30.929272
 11
43.970272
 21
30.929272
  0
LINE
  8
別途部材
  6
CONTINUOUS
 10
25.554487
 20
-0.070725
 11
25.554487
 21
-56.162528
  0
LINE
  8
別途部材
  6
CONTINUOUS
 10
47.554493
 20
-0.070725
 11
47.554493
 21
-56.162528
  0
LINE
  8
別途部材
  6
CONTINUOUS
 10
41.554493
 20
-121.071075
 11
38.35449
 21
-121.071075
  0
LINE
  8
別途部材
  6
CONTINUOUS
 10
41.554493
 20
-116.571075
 11
38.35449
 21
-116.571075
  0
LINE
  8
別途部材
  6
CONTINUOUS
 10
41.554493
 20
-107.571075
 11
38.35449
 21
-107.571075
  0
LINE
  8
別途部材
  6
CONTINUOUS
 10
43.66803
 20
-112.071075
 11
36.55449
 21
-112.071075
  0
LINE
  8
別途部材
  6
CONTINUOUS
 10
41.554493
 20
-87.711075
 11
41.554493
 21
-121.071075
  0
LINE
  8
別途部材
  6
CONTINUOUS
 10
38.35449
 20
-90.911078
 11
38.35449
 21
-121.071075
  0
ENDBLK
  0
BLOCK
  2
*GRP_0070
 70
    65
 10
0.0
 20
0.0
  0
POLYLINE
  8
寸法
  6
BYBLOCK
 62
     0
 66
     1
  0
VERTEX
  8
寸法
 10
32.767787
 20
41.456343
  0
VERTEX
  8
寸法
 10
63.337045
 20
72.025603
  0
VERTEX
  8
寸法
 10
93.384687
 20
72.025603
  0
SEQEND
  0
ENDBLK
  0
BLOCK
  2
*GRP_0071
 70
    65
 10
0.0
 20
0.0
  0
POLYLINE
  8
寸法
  6
BYBLOCK
 62
     0
 66
     1
  0
VERTEX
  8
寸法
 10
14.35449
 20
-123.53918
  0
VERTEX
  8
寸法
 10
7.370348
 20
-130.523323
  0
VERTEX
  8
寸法
 10
-1.34116
 20
-130.523323
  0
SEQEND
  0
ENDBLK
  0
BLOCK
  2
*GRP_0072
 70
    65
 10
0.0
 20
0.0
  0
SPLINE
  5
1400000
100
AcDbEntity
  8
ガラス
100
AcDbSpline
  6
CONTINUOUS
 70
     0
 71
     3
 74
     3
 44
0.0
 11
-40.516367
 21
-75.292053
 11
-39.569455
 21
-73.737593
 11
-37.990812
 21
-73.162738
  0
SPLINE
  5
1400001
100
AcDbEntity
  8
ガラス
100
AcDbSpline
  6
CONTINUOUS
 70
     0
 71
     3
 74
     3
 44
0.0
 11
-37.990812
 21
-73.162738
 11
-38.442235
 21
-74.401893
 11
-38.619862
 21
-75.52097
  0
ARC
  8
ガラス
  6
CONTINUOUS
 10
-39.568116
 20
-75.406507
 40
0.955135
 50
173.117443
 51
353.117443
  0
ENDBLK
  0
BLOCK
  2
*GRP_0073
 70
    65
 10
0.0
 20
0.0
  0
SPLINE
  5
1400002
100
AcDbEntity
  8
ガラス
100
AcDbSpline
  6
CONTINUOUS
 70
     0
 71
     3
 74
     3
 44
0.0
 11
-40.516367
 21
-83.28785
 11
-39.569455
 21
-81.73339
 11
-37.990812
 21
-81.158535
  0
SPLINE
  5
1400003
100
AcDbEntity
  8
ガラス
100
AcDbSpline
  6
CONTINUOUS
 70
     0
 71
     3
 74
     3
 44
0.0
 11
-37.990812
 21
-81.158535
 11
-38.442235
 21
-82.39769
 11
-38.619862
 21
-83.516767
  0
ARC
  8
ガラス
  6
CONTINUOUS
 10
-39.568116
 20
-83.402305
 40
0.955135
 50
173.117443
 51
353.117443
  0
ENDBLK
  0
BLOCK
  2
*GRP_0074
 70
    65
 10
0.0
 20
0.0
  0
SPLINE
  5
1400004
100
AcDbEntity
  8
ガラス
100
AcDbSpline
  6
CONTINUOUS
 70
     0
 71
     3
 74
     3
 44
0.0
 11
-47.391798
 21
-84.04779
 11
-45.57298
 21
-84.11769
 11
-44.302033
 21
-85.216447
  0
SPLINE
  5
1400005
100
AcDbEntity
  8
ガラス
100
AcDbSpline
  6
CONTINUOUS
 70
     0
 71
     3
 74
     3
 44
0.0
 11
-44.302033
 21
-85.216447
 11
-45.604143
 21
-85.425723
 11
-46.668027
 21
-85.81564
  0
ARC
  8
ガラス
  6
CONTINUOUS
 10
-47.02991
 20
-84.931714
 40
0.955135
 50
112.264588
 51
292.264588
  0
ENDBLK
  0
BLOCK
  2
*GRP_0075
 70
    65
 10
0.0
 20
0.0
  0
SPLINE
  5
1400006
100
AcDbEntity
  8
ガラス
100
AcDbSpline
  6
CONTINUOUS
 70
     0
 71
     3
 74
     3
 44
0.0
 11
-55.803563
 21
-84.04779
 11
-53.984745
 21
-84.11769
 11
-52.713797
 21
-85.216447
  0
SPLINE
  5
1400007
100
AcDbEntity
  8
ガラス
100
AcDbSpline
  6
CONTINUOUS
 70
     0
 71
     3
 74
     3
 44
0.0
 11
-52.713797
 21
-85.216447
 11
-54.015907
 21
-85.425723
 11
-55.079792
 21
-85.81564
  0
ARC
  8
ガラス
  6
CONTINUOUS
 10
-55.441675
 20
-84.931714
 40
0.955135
 50
112.264588
 51
292.264588
  0
ENDBLK
  0
BLOCK
  2
*GRP_0076
 70
    65
 10
0.0
 20
0.0
  0
SPLINE
  5
1400008
100
AcDbEntity
  8
ガラス
100
AcDbSpline
  6
CONTINUOUS
 70
     0
 71
     3
 74
     3
 44
0.0
 11
3.62585
 21
-71.44842
 11
5.444667
 21
-71.51832
 11
6.715615
 21
-72.617077
  0
SPLINE
  5
1400009
100
AcDbEntity
  8
ガラス
100
AcDbSpline
  6
CONTINUOUS
 70
     0
 71
     3
 74
     3
 44
0.0
 11
6.715615
 21
-72.617077
 11
5.413505
 21
-72.826353
 11
4.34962
 21
-73.21627
  0
ARC
  8
ガラス
  6
CONTINUOUS
 10
3.987737
 20
-72.332344
 40
0.955135
 50
112.264588
 51
292.264588
  0
ENDBLK
  0
BLOCK
  2
*GRP_0077
 70
    65
 10
0.0
 20
0.0
  0
SPLINE
  5
1400010
100
AcDbEntity
  8
ガラス
100
AcDbSpline
  6
CONTINUOUS
 70
     0
 71
     3
 74
     3
 44
0.0
 11
-8.89936
 21
-71.44842
 11
-7.080542
 21
-71.51832
 11
-5.809595
 21
-72.617077
  0
SPLINE
  5
1400011
100
AcDbEntity
  8
ガラス
100
AcDbSpline
  6
CONTINUOUS
 70
     0
 71
     3
 74
     3
 44
0.0
 11
-5.809595
 21
-72.617077
 11
-7.111705
 21
-72.826353
 11
-8.17559
 21
-73.21627
  0
ARC
  8
ガラス
  6
CONTINUOUS
 10
-8.537473
 20
-72.332344
 40
0.955135
 50
112.264588
 51
292.264588
  0
ENDBLK
  0
BLOCK
  2
*GRP_0078
 70
    65
 10
0.0
 20
0.0
  0
SPLINE
  5
1400012
100
AcDbEntity
  8
ガラス
100
AcDbSpline
  6
CONTINUOUS
 70
     0
 71
     3
 74
     3
 44
0.0
 11
-28.588435
 21
-71.44842
 11
-26.769618
 21
-71.51832
 11
-25.49867
 21
-72.617077
  0
SPLINE
  5
1400013
100
AcDbEntity
  8
ガラス
100
AcDbSpline
  6
CONTINUOUS
 70
     0
 71
     3
 74
     3
 44
0.0
 11
-25.49867
 21
-72.617077
 11
-26.80078
 21
-72.826353
 11
-27.864665
 21
-73.21627
  0
ARC
  8
ガラス
  6
CONTINUOUS
 10
-28.226549
 20
-72.332344
 40
0.955135
 50
112.264588
 51
292.264588
  0
ENDBLK
  0
BLOCK
  2
*DIM_0079
 70
    65
 10
0.0
 20
0.0
  0
LINE
  8
寸法
  6
CONTINUOUS
 10
-57.639195
 20
88.929248
 11
-160.269523
 21
88.929248
  0
LINE
  8
寸法
  6
CONTINUOUS
 10
-160.269523
 20
82.929265
 11
-160.269523
 21
88.929248
  0
POINT
  8
寸法
 10
-160.269523
 20
82.929265
  0
POINT
  8
寸法
 10
-160.269523
 20
88.929248
  0
TEXT
  7
TextStyle03
  8
寸法
  6
CONTINUOUS
 10
-160.65
 20
85.175
  1
6
 40
3.0
 50
90.0
 72
     5
 11
-160.65
 21
86.675
  0
ENDBLK
  0
BLOCK
  2
*GRP_0080
 70
    65
 10
0.0
 20
0.0
  0
POLYLINE
  8
寸法
  6
BYBLOCK
 62
     0
 66
     1
  0
VERTEX
  8
寸法
 10
-39.04349
 20
86.600308
  0
VERTEX
  8
寸法
 10
-36.445415
 20
85.100308
  0
VERTEX
  8
寸法
 10
-37.945415
 20
87.698382
  0
SEQEND
  0
POLYLINE
  8
寸法
  6
BYBLOCK
 62
     0
 66
     1
  0
VERTEX
  8
寸法
 10
-36.445415
 20
85.100308
  0
VERTEX
  8
寸法
 10
-46.173008
 20
94.8279
  0
VERTEX
  8
寸法
 10
-55.47942
 20
94.8279
  0
SEQEND
  0
ENDBLK
  0
BLOCK
  2
*GRP_0081
 70
    65
 10
0.0
 20
0.0
  0
LINE
  8
ボルト／ビス
  6
CONTINUOUS
 10
-11.639195
 20
88.929248
 11
-11.639195
 21
90.92925
  0
LINE
  8
ボルト／ビス
  6
CONTINUOUS
 10
-11.639195
 20
90.92925
 11
-33.6392
 21
90.92925
  0
LINE
  8
ボルト／ビス
  6
CONTINUOUS
 10
-33.6392
 20
90.92925
 11
-33.6392
 21
88.929248
  0
LINE
  8
ボルト／ビス
  6
CONTINUOUS
 10
-11.639195
 20
88.929248
 11
-33.6392
 21
88.929248
  0
LINE
  8
ボルト／ビス
  6
CONTINUOUS
 10
-13.639197
 20
91.929248
 11
-13.639197
 21
90.92925
  0
LINE
  8
ボルト／ビス
  6
CONTINUOUS
 10
-13.639197
 20
91.929248
 11
-31.639197
 21
91.929248
  0
LINE
  8
ボルト／ビス
  6
CONTINUOUS
 10
-31.639197
 20
91.929248
 11
-31.639197
 21
90.92925
  0
LINE
  8
ボルト／ビス
  6
CONTINUOUS
 62
    64
 10
-17.827948
 20
97.929248
 11
-16.865697
 21
97.57902
  0
ARC
  8
ボルト／ビス
  6
CONTINUOUS
 62
    64
 10
-18.309072
 20
94.779894
 40
3.149352
 50
90.0
 51
117.278033
  0
ARC
  8
ボルト／ビス
  6
CONTINUOUS
 62
    64
 10
-22.639199
 20
85.857179
 40
12.072067
 50
76.165015
 51
103.834998
  0
LINE
  8
ボルト／ビス
  6
CONTINUOUS
 62
    64
 10
-27.450447
 20
97.929248
 11
-28.412698
 21
97.57902
  0
ARC
  8
ボルト／ビス
  6
CONTINUOUS
 62
    64
 10
-26.969327
 20
94.779894
 40
3.149352
 50
62.721967
 51
90.0
  0
LINE
  8
ボルト／ビス
  6
CONTINUOUS
 62
    64
 10
-17.827948
 20
97.929248
 11
-27.450447
 21
97.929248
  0
LINE
  8
ボルト／ビス
  6
CONTINUOUS
 62
    64
 10
-28.412698
 20
97.57902
 11
-28.412698
 21
93.92925
  0
LINE
  8
ボルト／ビス
  6
CONTINUOUS
 62
    64
 10
-25.525947
 20
97.57902
 11
-25.525947
 21
93.92925
  0
LINE
  8
ボルト／ビス
  6
CONTINUOUS
 62
    64
 10
-16.865697
 20
97.57902
 11
-16.865697
 21
93.92925
  0
LINE
  8
ボルト／ビス
  6
CONTINUOUS
 62
    64
 10
-19.752448
 20
97.57902
 11
-19.752448
 21
93.92925
  0
LINE
  8
ボルト／ビス
  6
CONTINUOUS
 10
-16.865697
 20
93.92925
 11
-28.412698
 21
93.92925
  0
LINE
  8
ボルト／ビス
  6
CONTINUOUS
 10
-16.639197
 20
93.92925
 11
-16.639197
 21
91.929248
  0
LINE
  8
ボルト／ビス
  6
CONTINUOUS
 10
-16.639197
 20
93.92925
 11
-28.639197
 21
93.92925
  0
LINE
  8
ボルト／ビス
  6
CONTINUOUS
 10
-28.639197
 20
93.92925
 11
-28.639197
 21
91.929248
  0
LINE
  8
ボルト／ビス
  6
CONTINUOUS
 62
    64
 10
-20.339195
 20
73.929253
 11
-24.9392
 21
73.929253
  0
LINE
  8
ボルト／ビス
  6
CONTINUOUS
 62
    64
 10
-25.639197
 20
74.92925
 11
-24.9392
 21
73.929253
  0
LINE
  8
ボルト／ビス
  6
CONTINUOUS
 62
    64
 10
-19.639197
 20
74.92925
 11
-20.339195
 21
73.929253
  0
LINE
  8
ボルト／ビス
  6
CONTINUOUS
 62
    64
 10
-19.639197
 20
74.92925
 11
-25.639197
 21
74.92925
  0
LINE
  8
ボルト／ビス
  6
CONTINUOUS
 62
    64
 10
-20.339195
 20
73.929253
 11
-24.9392
 21
73.929253
  0
LINE
  8
ボルト／ビス
  6
CONTINUOUS
 62
    64
 10
-24.9392
 20
88.929248
 11
-24.9392
 21
73.929253
  0
LINE
  8
ボルト／ビス
  6
CONTINUOUS
 62
    64
 10
-20.339195
 20
88.929248
 11
-20.339195
 21
73.929253
  0
LINE
  8
ボルト／ビス
  6
CONTINUOUS
 62
    64
 10
-19.639197
 20
88.929248
 11
-19.639197
 21
74.92925
  0
LINE
  8
ボルト／ビス
  6
CONTINUOUS
 62
    64
 10
-25.639197
 20
88.929248
 11
-25.639197
 21
74.92925
  0
ENDBLK
  0
BLOCK
  2
*GRP_0082
 70
    65
 10
0.0
 20
0.0
  0
LINE
  8
型材断面
  6
CONTINUOUS
 62
    47
 10
6.951433
 20
69.826905
 11
-16.64551
 21
69.826905
  0
LINE
  8
型材断面
  6
CONTINUOUS
 62
    47
 10
-16.64551
 20
69.826905
 11
-16.645495
 21
53.829008
  0
LINE
  8
型材断面
  6
CONTINUOUS
 62
    47
 10
6.951433
 20
69.127005
 11
6.951433
 21
69.826905
  0
ARC
  8
型材断面
  6
CONTINUOUS
 62
    47
 10
7.251393
 20
69.127026
 40
0.299961
 50
180.0
 51
270.0
  0
LINE
  8
型材断面
  6
CONTINUOUS
 62
    47
 10
7.851312
 20
68.827065
 11
7.251395
 21
68.827058
  0
ARC
  8
型材断面
  6
CONTINUOUS
 62
    47
 10
7.851315
 20
69.127026
 40
0.299961
 50
270.0
 51
360.0
  0
LINE
  8
型材断面
  6
CONTINUOUS
 62
    47
 10
8.151267
 20
71.526698
 11
8.151267
 21
69.127012
  0
ARC
  8
型材断面
  6
CONTINUOUS
 62
    47
 10
7.851315
 20
71.526715
 40
0.299961
 50
360.0
 51
450.0
  0
LINE
  8
型材断面
  6
CONTINUOUS
 62
    47
 10
-18.645265
 20
71.526713
 11
-18.64525
 21
67.32723
  0
LINE
  8
型材断面
  6
CONTINUOUS
 62
    47
 10
-18.34531
 20
71.82666
 11
7.85132
 21
71.82666
  0
ARC
  8
型材断面
  6
CONTINUOUS
 62
    47
 10
-18.345293
 20
71.526715
 40
0.299961
 50
90.0
 51
180.0
  0
LINE
  8
型材断面
  6
CONTINUOUS
 62
    47
 10
-20.145063
 20
67.32723
 11
-18.64525
 21
67.32723
  0
ARC
  8
型材断面
  6
CONTINUOUS
 62
    47
 10
-20.14506
 20
67.027298
 40
0.299961
 50
90.0
 51
180.0
  0
LINE
  8
型材断面
  6
CONTINUOUS
 62
    47
 10
-20.145063
 20
65.827433
 11
-18.645258
 21
65.827433
  0
LINE
  8
型材断面
  6
CONTINUOUS
 62
    47
 10
-20.44501
 20
66.12741
 11
-20.445017
 21
67.02729
  0
ARC
  8
型材断面
  6
CONTINUOUS
 62
    47
 10
-20.14506
 20
66.127414
 40
0.299961
 50
180.0
 51
270.0
  0
LINE
  8
型材断面
  6
CONTINUOUS
 62
    47
 10
-18.645258
 20
52.129215
 11
-18.645258
 21
65.827433
  0
ARC
  8
型材断面
  6
CONTINUOUS
 62
    47
 10
-18.345293
 20
52.129227
 40
0.299961
 50
180.0
 51
270.0
  0
LINE
  8
型材断面
  6
CONTINUOUS
 62
    47
 10
-14.24584
 20
53.829008
 11
-16.645495
 21
53.829008
  0
ARC
  8
型材断面
  6
CONTINUOUS
 62
    47
 10
-14.245824
 20
53.529046
 40
0.299961
 50
360.0
 51
450.0
  0
ARC
  8
型材断面
  6
CONTINUOUS
 62
    47
 10
-14.245824
 20
52.129227
 40
0.299961
 50
270.0
 51
360.0
  0
LINE
  8
型材断面
  6
CONTINUOUS
 62
    47
 10
-13.94587
 20
53.52903
 11
-13.945855
 21
51.829268
  0
LINE
  8
型材断面
  6
CONTINUOUS
 62
    47
 10
-18.34531
 20
51.82926
 11
-13.945855
 21
51.829268
  0
ENDBLK
  0
BLOCK
  2
*GRP_0083
 70
    65
 10
0.0
 20
0.0
  0
LINE
  8
ゴム等
  6
CONTINUOUS
 10
-2.645522
 20
56.829263
 11
-2.645522
 21
51.829268
  0
LINE
  8
ゴム等
  6
CONTINUOUS
 10
-2.645522
 20
56.829263
 11
-12.64552
 21
56.829263
  0
LINE
  8
ゴム等
  6
CONTINUOUS
 10
-12.64552
 20
56.829263
 11
-12.64552
 21
51.829268
  0
LINE
  8
ゴム等
  6
CONTINUOUS
 10
-2.645522
 20
51.829268
 11
-12.64552
 21
51.829268
  0
LINE
  8
ゴム等
  6
CONTINUOUS
 10
-12.64552
 20
53.159385
 11
-11.315402
 21
51.829268
  0
LINE
  8
ゴム等
  6
CONTINUOUS
 10
-12.64552
 20
54.5736
 11
-9.901188
 21
51.829268
  0
LINE
  8
ゴム等
  6
CONTINUOUS
 10
-12.64552
 20
55.987815
 11
-8.486972
 21
51.829268
  0
LINE
  8
ゴム等
  6
CONTINUOUS
 10
-9.24433
 20
56.829263
 11
-4.244335
 21
51.829268
  0
LINE
  8
ゴム等
  6
CONTINUOUS
 10
-10.658545
 20
56.829263
 11
-5.658543
 21
51.829268
  0
LINE
  8
ゴム等
  6
CONTINUOUS
 10
-12.07276
 20
56.829263
 11
-7.072757
 21
51.829268
  0
LINE
  8
ゴム等
  6
CONTINUOUS
 10
-7.830115
 20
56.829263
 11
-2.83012
 21
51.829268
  0
LINE
  8
ゴム等
  6
CONTINUOUS
 10
-6.4159
 20
56.829263
 11
-2.645522
 21
53.058885
  0
LINE
  8
ゴム等
  6
CONTINUOUS
 10
-5.001692
 20
56.829263
 11
-2.645522
 21
54.473092
  0
LINE
  8
ゴム等
  6
CONTINUOUS
 10
-3.587478
 20
56.829263
 11
-2.645522
 21
55.887307
  0
ENDBLK
  0
BLOCK
  2
*GRP_0084
 70
    65
 10
0.0
 20
0.0
  0
LINE
  8
ゴム等
  6
CONTINUOUS
 10
-3.048565
 20
69.826905
 11
6.951433
 21
69.826905
  0
LINE
  8
ゴム等
  6
CONTINUOUS
 10
-3.048565
 20
63.629265
 11
6.951433
 21
63.629265
  0
LINE
  8
ゴム等
  6
CONTINUOUS
 10
-3.048565
 20
69.826905
 11
-3.048565
 21
63.629265
  0
LINE
  8
ゴム等
  6
CONTINUOUS
 10
6.951433
 20
69.826905
 11
6.951433
 21
63.629265
  0
LINE
  8
ゴム等
  6
CONTINUOUS
 10
-1.9618
 20
63.629265
 11
-3.048565
 21
64.71603
  0
LINE
  8
ゴム等
  6
CONTINUOUS
 10
-0.547585
 20
63.629265
 11
-3.048565
 21
66.130245
  0
LINE
  8
ゴム等
  6
CONTINUOUS
 10
0.86663
 20
63.629265
 11
-3.048565
 21
67.54446
  0
LINE
  8
ゴム等
  6
CONTINUOUS
 10
2.280845
 20
63.629265
 11
-3.048565
 21
68.958668
  0
LINE
  8
ゴム等
  6
CONTINUOUS
 10
3.69506
 20
63.629265
 11
-2.502588
 21
69.826905
  0
LINE
  8
ゴム等
  6
CONTINUOUS
 10
5.109267
 20
63.629265
 11
-1.088372
 21
69.826905
  0
LINE
  8
ゴム等
  6
CONTINUOUS
 10
6.523482
 20
63.629265
 11
0.325842
 21
69.826905
  0
LINE
  8
ゴム等
  6
CONTINUOUS
 10
6.951433
 20
64.61553
 11
1.740057
 21
69.826905
  0
LINE
  8
ゴム等
  6
CONTINUOUS
 10
6.951433
 20
66.029738
 11
3.154265
 21
69.826905
  0
LINE
  8
ゴム等
  6
CONTINUOUS
 10
6.951433
 20
67.443952
 11
4.56848
 21
69.826905
  0
LINE
  8
ゴム等
  6
CONTINUOUS
 10
5.982688
 20
69.826905
 11
6.951433
 21
68.85816
  0
ENDBLK
  0
BLOCK
  2
*DIM_0085
 70
    65
 10
0.0
 20
0.0
  0
LINE
  8
寸法
  6
CONTINUOUS
 10
3.354483
 20
52.929263
 11
63.146925
 21
52.929263
  0
LINE
  8
寸法
  6
CONTINUOUS
 10
31.928465
 20
56.829263
 11
63.146925
 21
56.829263
  0
LINE
  8
寸法
  6
CONTINUOUS
 10
63.146925
 20
52.929263
 11
63.146925
 21
56.829263
  0
POINT
  8
寸法
 10
63.146925
 20
52.929263
  0
POINT
  8
寸法
 10
63.146925
 20
56.829263
  0
TEXT
  7
TextStyle03
  8
寸法
  6
CONTINUOUS
 10
66.125
 20
52.4375
  1
3.9
 40
3.0
 50
90.0
 72
     5
 11
66.125
 21
57.3125
  0
ENDBLK
  0
BLOCK
  2
*DIM_0086
 70
    65
 10
0.0
 20
0.0
  0
LINE
  8
寸法
  6
CONTINUOUS
 10
31.928465
 20
63.629263
 11
63.146925
 21
63.629263
  0
LINE
  8
寸法
  6
CONTINUOUS
 10
63.146925
 20
56.829263
 11
63.146925
 21
63.629263
  0
POINT
  8
寸法
 10
63.146925
 20
63.629263
  0
TEXT
  7
TextStyle03
  8
寸法
  6
CONTINUOUS
 10
62.75
 20
57.7875
  1
6.8
 40
3.0
 50
90.0
 72
     5
 11
62.75
 21
62.6625
  0
ENDBLK
  0
ENDSEC
  0
SECTION
  2
ENTITIES
  0
POLYLINE
  8
通り芯
  6
CONTINUOUS
 66
     1
 70
     1
  0
VERTEX
  8
通り芯
 10
-210.0
 20
-148.5
  0
VERTEX
  8
通り芯
 10
210.0
 20
-148.5
  0
VERTEX
  8
通り芯
 10
210.0
 20
148.5
  0
VERTEX
  8
通り芯
 10
-210.0
 20
148.5
  0
SEQEND
  0
LINE
  8
通り芯
  6
CONTINUOUS
 10
21.5049
 20
42.929272
 11
18.504897
 21
39.929272
  0
LINE
  8
通り芯
  6
CONTINUOUS
 10
-12.64551
 20
11.47889
 11
-9.64551
 21
14.47889
  0
LINE
  8
通り芯
  6
CONTINUOUS
 10
-9.64551
 20
-38.803315
 11
-12.64551
 21
-41.803315
  0
LINE
  8
通り芯
  6
CONTINUOUS
 10
12.35449
 20
-65.72745
 11
15.35449
 21
-62.72745
  0
LINE
  8
通り芯
  6
CONTINUOUS
 10
25.489192
 20
-129.070733
 11
22.489198
 21
-132.070733
  0
INSERT
  2
*GRP_0001
  8
型材断面
  6
CONTINUOUS
 10
0.0
 20
0.0
  0
INSERT
  2
*GRP_0002
  8
型材断面
  6
CONTINUOUS
 62
    47
 10
0.0
 20
0.0
  0
LINE
  8
型材断面
  6
DASHDOT
 10
-2.639195
 20
76.93284
 11
-2.639195
 21
130.496715
  0
INSERT
  2
*GRP_0054
  8
型材断面
  6
CONTINUOUS
 62
    47
 10
0.0
 20
0.0
  0
INSERT
  2
*GRP_0055
  8
型材断面
  6
CONTINUOUS
 62
    47
 10
0.0
 20
0.0
  0
LINE
  8
型材断面
  6
DOT
 10
-14.645495
 20
-67.57074
 11
-12.645495
 21
-67.57074
  0
LINE
  8
型材断面
  6
DOT
 10
-14.145495
 20
-73.57074
 11
-14.145495
 21
-67.57074
  0
LINE
  8
型材断面
  6
DOT
 10
-13.645495
 20
-73.57074
 11
-13.645495
 21
-67.57074
  0
LINE
  8
型材断面
  6
DOT
 10
-13.145495
 20
-73.57074
 11
-13.145495
 21
-67.57074
  0
LINE
  8
型材断面
  6
DOT
 10
-34.645495
 20
-67.57074
 11
-36.645495
 21
-67.57074
  0
LINE
  8
型材断面
  6
DOT
 10
-36.145495
 20
-73.57074
 11
-36.145495
 21
-67.57074
  0
LINE
  8
型材断面
  6
DOT
 10
-35.645495
 20
-73.57074
 11
-35.645495
 21
-67.57074
  0
LINE
  8
型材断面
  6
DOT
 10
-35.145495
 20
-73.57074
 11
-35.145495
 21
-67.57074
  0
LINE
  8
型材断面
  6
DOT
 10
-36.645495
 20
-73.57074
 11
-34.645495
 21
-73.57074
  0
LINE
  8
型材断面
  6
DOT
 10
-14.645495
 20
-73.57074
 11
-12.645495
 21
-73.57074
  0
LINE
  8
型材断面
  6
DOT
 10
-46.64002
 20
-86.07419
 11
-48.64002
 21
-86.07419
  0
LINE
  8
型材断面
  6
DOT
 10
-46.64002
 20
-80.07419
 11
-48.64002
 21
-80.07419
  0
LINE
  8
型材断面
  6
DOT
 10
-47.14002
 20
-80.07419
 11
-47.14002
 21
-86.07419
  0
LINE
  8
型材断面
  6
DOT
 10
-47.64002
 20
-80.07419
 11
-47.64002
 21
-86.07419
  0
LINE
  8
型材断面
  6
DOT
 10
-48.14002
 20
-80.07419
 11
-48.14002
 21
-86.07419
  0
LINE
  8
型材断面
  6
DOT
 10
-43.145445
 20
-86.07419
 11
-41.645445
 21
-86.07419
  0
LINE
  8
型材断面
  6
DOT
 10
-42.770445
 20
-86.07419
 11
-42.770445
 21
-84.57419
  0
LINE
  8
型材断面
  6
DOT
 10
-42.395445
 20
-86.07419
 11
-42.395445
 21
-84.57419
  0
LINE
  8
型材断面
  6
DOT
 10
-42.020445
 20
-86.07419
 11
-42.020445
 21
-84.57419
  0
LINE
  8
型材断面
  6
CONTINUOUS
 10
-52.639195
 20
88.929248
 11
-2.639195
 21
88.929248
  0
ARC
  8
型材断面
  6
CONTINUOUS
 62
    47
 10
-47.216428
 20
80.919749
 40
5.005952
 50
90.001373
 51
158.200992
  0
LINE
  8
型材断面
  6
CONTINUOUS
 62
    47
 10
-64.63917
 20
58.929248
 11
-61.40422
 21
58.929248
  0
LINE
  8
型材断面
  6
CONTINUOUS
 62
    47
 10
-52.639195
 20
88.929248
 11
-64.63917
 21
58.929248
  0
LINE
  8
型材断面
  6
CONTINUOUS
 62
    47
 10
-51.86437
 20
82.778873
 11
-61.40422
 21
58.929248
  0
ARC
  8
型材断面
  6
CONTINUOUS
 62
    47
 10
232.11786
 20
-50.062531
 40
272.817885
 50
140.880649
 51
149.371644
  0
ARC
  8
型材断面
  6
CONTINUOUS
 62
    47
 10
232.11786
 20
-50.062531
 40
269.860905
 50
140.368216
 51
149.74034
  0
LINE
  8
型材断面
  6
CONTINUOUS
 62
    47
 10
-0.97464
 20
85.925672
 11
-47.19907
 21
85.925672
  0
INSERT
  2
*GRP_0082
  8
型材断面
  6
CONTINUOUS
 10
0.0
 20
0.0
  0
INSERT
  2
*GRP_0072
  8
ガラス
  6
CONTINUOUS
 10
0.0
 20
0.0
  0
INSERT
  2
*GRP_0073
  8
ガラス
  6
CONTINUOUS
 10
0.0
 20
0.0
  0
INSERT
  2
*GRP_0074
  8
ガラス
  6
CONTINUOUS
 10
0.0
 20
0.0
  0
INSERT
  2
*GRP_0075
  8
ガラス
  6
CONTINUOUS
 10
0.0
 20
0.0
  0
INSERT
  2
*GRP_0076
  8
ガラス
  6
CONTINUOUS
 10
0.0
 20
0.0
  0
INSERT
  2
*GRP_0077
  8
ガラス
  6
CONTINUOUS
 10
0.0
 20
0.0
  0
INSERT
  2
*GRP_0078
  8
ガラス
  6
CONTINUOUS
 10
0.0
 20
0.0
  0
INSERT
  2
*GRP_0003
  8
ゴム等
  6
CONTINUOUS
 10
0.0
 20
0.0
  0
INSERT
  2
*GRP_0004
  8
ゴム等
  6
CONTINUOUS
 10
0.0
 20
0.0
  0
INSERT
  2
*GRP_0005
  8
ゴム等
  6
CONTINUOUS
 10
0.0
 20
0.0
  0
INSERT
  2
*GRP_0006
  8
ゴム等
  6
CONTINUOUS
 10
0.0
 20
0.0
  0
INSERT
  2
*GRP_0007
  8
ゴム等
  6
CONTINUOUS
 10
0.0
 20
0.0
  0
INSERT
  2
*GRP_0008
  8
ゴム等
  6
CONTINUOUS
 10
0.0
 20
0.0
  0
INSERT
  2
*GRP_0035
  8
ゴム等
  6
CONTINUOUS
 10
0.0
 20
0.0
  0
INSERT
  2
*GRP_0083
  8
ゴム等
  6
CONTINUOUS
 10
0.0
 20
0.0
  0
INSERT
  2
*GRP_0009
  8
ボルト／ビス
  6
CONTINUOUS
 62
    64
 10
0.0
 20
0.0
  0
INSERT
  2
*GRP_0010
  8
ボルト／ビス
  6
CONTINUOUS
 62
    64
 10
0.0
 20
0.0
  0
INSERT
  2
*GRP_0011
  8
ボルト／ビス
  6
CONTINUOUS
 62
    64
 10
0.0
 20
0.0
  0
INSERT
  2
*GRP_0012
  8
ボルト／ビス
  6
CONTINUOUS
 62
    64
 10
0.0
 20
0.0
  0
INSERT
  2
*GRP_0013
  8
ボルト／ビス
  6
CONTINUOUS
 62
    64
 10
0.0
 20
0.0
  0
INSERT
  2
*GRP_0014
  8
ボルト／ビス
  6
CONTINUOUS
 62
    64
 10
0.0
 20
0.0
  0
INSERT
  2
*GRP_0036
  8
ボルト／ビス
  6
CONTINUOUS
 62
    64
 10
0.0
 20
0.0
  0
INSERT
  2
*GRP_0037
  8
ボルト／ビス
  6
CONTINUOUS
 62
    64
 10
0.0
 20
0.0
  0
INSERT
  2
*GRP_0062
  8
ボルト／ビス
  6
CONTINUOUS
 62
    64
 10
0.0
 20
0.0
  0
TEXT
  7
TextStyle03
  8
文字
  6
CONTINUOUS
 10
-160.9
 20
98.025
  1
ドーム高さ
 40
3.0
 50
90.0
 72
     5
 11
-160.9
 21
114.525
  0
TEXT
  7
TextStyle03
  8
文字
  6
CONTINUOUS
 10
37.8
 20
130.475
  1
呼称寸法
 40
3.0
 72
     5
 11
50.925
 21
130.475
  0
TEXT
  7
TextStyle03
  8
文字
  6
CONTINUOUS
 10
32.8
 20
123.975
  1
有効開口寸法
 40
3.0
 72
     5
 11
52.675
 21
123.975
  0
TEXT
  7
TextStyle03
  8
文字
  6
CONTINUOUS
 10
-84.95
 20
66.425
  1
TKR-1401
 40
4.0
 72
     5
 11
-67.2
 21
66.425
  0
TEXT
  7
TextStyle03
  8
文字
  6
CONTINUOUS
 10
27.2
 20
74.5
  1
TKR-1303
 40
4.0
 72
     5
 11
44.95
 21
74.5
  0
TEXT
  7
TextStyle03
  8
文字
  6
CONTINUOUS
 10
3.5
 20
-83.475
  1
全周シール（工場）
 40
3.0
 72
     5
 11
33.5
 21
-83.475
  0
TEXT
  7
TextStyle03
  8
文字
  6
CONTINUOUS
 10
0.675
 20
-91.1
  1
TKR-1401
 40
4.0
 72
     5
 11
18.425
 21
-91.1
  0
TEXT
  7
TextStyle03
  8
文字
  6
CONTINUOUS
 10
1.6
 20
-102.275
  1
ボンデッドワッシャ付
 40
3.0
 72
     5
 11
34.975
 21
-102.275
  0
TEXT
  7
TextStyle03
  8
文字
  6
CONTINUOUS
 10
-46.525
 20
-121.4
  1
KA-50C　末栄金属
 40
4.0
 72
     5
 11
-11.025
 21
-121.4
  0
TEXT
  7
TextStyle03
  8
文字
  6
CONTINUOUS
 10
-96.525
 20
-72.725
  1
コーナーシール
 40
3.0
 72
     5
 11
-73.275
 21
-72.725
  0
TEXT
  7
TextStyle03
  8
文字
  6
CONTINUOUS
 10
-96.525
 20
-76.1
  1
（工場）
 40
3.0
 72
     5
 11
-83.4
 21
-76.1
  0
TEXT
  7
TextStyle03
  8
文字
  6
CONTINUOUS
 10
-134.05
 20
-81.45
  1
コーナージョイント金物
 40
3.0
 72
     5
 11
-97.3
 21
-81.45
  0
TEXT
  7
TextStyle03
  8
文字
  6
CONTINUOUS
 10
-134.05
 20
-84.825
  1
St-1.6t
 40
3.0
 72
     5
 11
-122.425
 21
-84.825
  0
TEXT
  7
TextStyle03
  8
文字
  6
CONTINUOUS
 10
-78.525
 20
46.625
  1
TK-1135
 40
3.0
 72
     5
 11
-66.9
 21
46.625
  0
TEXT
  7
TextStyle03
  8
文字
  6
CONTINUOUS
 10
-137.15
 20
-101.7
  1
TK-1137
 40
3.0
 72
     5
 11
-125.525
 21
-101.7
  0
TEXT
  7
TextStyle03
  8
文字
  6
CONTINUOUS
 10
-32.075
 20
36.025
  1
TK-1136
 40
3.0
 72
     5
 11
-20.45
 21
36.025
  0
TEXT
  7
TextStyle03
  8
文字
  6
CONTINUOUS
 10
-88.3
 20
-40.775
  1
TKR-1401
 40
4.0
 72
     5
 11
-70.55
 21
-40.775
  0
TEXT
  7
TextStyle03
  8
文字
  6
CONTINUOUS
 10
-71.65
 20
-62.475
  1
TK-1138
 40
3.0
 72
     5
 11
-60.025
 21
-62.475
  0
TEXT
  7
TextStyle03
  8
文字
  6
CONTINUOUS
 10
-21.55
 20
-113.45
  1
コーナーシール（工場）
 40
3.0
 72
     5
 11
15.2
 21
-113.45
  0
TEXT
  7
TextStyle03
  8
文字
  6
CONTINUOUS
 10
-127.175
 20
6.575
  1
St-2.3t（電気メッキ）
 40
3.0
 72
     5
 11
-92.1125
 21
6.575
  0
TEXT
  7
TextStyle03
  8
文字
  6
CONTINUOUS
 10
-127.175
 20
3.2
  1
Ｌ＝60
 40
3.0
 72
     5
 11
-117.2375
 21
3.2
  0
TEXT
  7
TextStyle03
  8
文字
  6
CONTINUOUS
 10
-107.225
 20
-30.225
  1
M6×10B.W.SW
 40
3.0
 72
     5
 11
-87.1625
 21
-30.225
  0
TEXT
  7
TextStyle03
  8
文字
  6
CONTINUOUS
 10
-107.225
 20
-33.6
  1
ユニクロメッキ
 40
3.0
 72
     5
 11
-83.975
 21
-33.6
  0
TEXT
  7
TextStyle03
  8
文字
  6
CONTINUOUS
 10
95.95
 20
0.175
  1
ガスダンパー　
 40
4.0
 72
     5
 11
126.95
 21
0.175
  0
TEXT
  7
TextStyle03
  8
文字
  6
CONTINUOUS
 10
72.225
 20
89.075
  1
ＮＳコード：ＮＳＨ
 40
5.0
 72
     5
 11
122.225
 21
89.075
  0
TEXT
  7
TextStyle03
  8
文字
  6
CONTINUOUS
 10
94.875
 20
70.075
  1
ダンパーブラケット：St-3.2t
 40
4.0
 72
     5
 11
155.375
 21
70.075
  0
TEXT
  7
TextStyle03
  8
文字
  6
CONTINUOUS
 10
94.875
 20
65.575
  1
　　　　　　　　　(メッキ＋塗装)
 40
4.0
 72
     5
 11
166.625
 21
65.575
  0
TEXT
  7
TextStyle03
  8
文字
  6
CONTINUOUS
 10
-73.875
 20
-128.225
  1
ダンパーブラケット：St-3.2t
 40
4.0
 72
     5
 11
-13.375
 21
-128.225
  0
TEXT
  7
TextStyle03
  8
文字
  6
CONTINUOUS
 10
-73.875
 20
-132.725
  1
　　　　　　　　　(メッキ＋塗装)
 40
4.0
 72
     5
 11
-2.125
 21
-132.725
  0
TEXT
  7
TextStyle03
  8
文字
  6
CONTINUOUS
 10
-74.425
 20
92.9
  1
TKR-1701
 40
4.0
 72
     5
 11
-56.675
 21
92.9
  0
TEXT
  7
TextStyle03
  8
文字
  6
CONTINUOUS
 10
72.275
 20
108.775
  1
シリーズ：ＴＤ１Ｈ
 40
5.0
 72
     5
 11
122.275
 21
108.775
  0
TEXT
  7
TextStyle03
  8
文字
  6
CONTINUOUS
 10
72.275
 20
103.15
  1
　　　　　（片側開閉）
 40
5.0
 72
     5
 11
133.525
 21
103.15
  0
TEXT
  7
TextStyle03
  8
文字
  6
CONTINUOUS
 10
72.275
 20
97.525
  1
図面名　：下枠断面詳細図(ダンパー側)
 40
5.0
 72
     5
 11
173.2125
 21
97.525
  0
INSERT
  2
*DIM_0015
  8
寸法
  6
CONTINUOUS
 10
0.0
 20
0.0
  0
POLYLINE
  8
寸法
  6
CONTINUOUS
 66
     1
  0
VERTEX
  8
寸法
 10
-160.269523
 20
128.615133
  0
VERTEX
  8
寸法
 10
-162.837285
 20
120.025
  0
VERTEX
  8
寸法
 10
-160.269523
 20
120.025
  0
SEQEND
  0
POLYLINE
  8
寸法
  6
CONTINUOUS
 66
     1
  0
VERTEX
  8
寸法
 10
-160.269523
 20
127.023027
  0
VERTEX
  8
寸法
 10
-162.837285
 20
118.432895
  0
VERTEX
  8
寸法
 10
-160.269523
 20
118.432895
  0
SEQEND
  0
INSERT
  2
*DIM_0016
  8
寸法
  6
CONTINUOUS
 10
0.0
 20
0.0
  0
INSERT
  2
*DIM_0017
  8
寸法
  6
CONTINUOUS
 10
0.0
 20
0.0
  0
INSERT
  2
*DIM_0018
  8
寸法
  6
CONTINUOUS
 10
0.0
 20
0.0
  0
INSERT
  2
*DIM_0019
  8
寸法
  6
CONTINUOUS
 10
0.0
 20
0.0
  0
INSERT
  2
*DIM_0020
  8
寸法
  6
CONTINUOUS
 10
0.0
 20
0.0
  0
INSERT
  2
*DIM_0021
  8
寸法
  6
CONTINUOUS
 10
0.0
 20
0.0
  0
INSERT
  2
*DIM_0022
  8
寸法
  6
CONTINUOUS
 10
0.0
 20
0.0
  0
INSERT
  2
*DIM_0023
  8
寸法
  6
CONTINUOUS
 10
0.0
 20
0.0
  0
INSERT
  2
*DIM_0024
  8
寸法
  6
CONTINUOUS
 10
0.0
 20
0.0
  0
INSERT
  2
*DIM_0025
  8
寸法
  6
CONTINUOUS
 10
0.0
 20
0.0
  0
LINE
  8
寸法
  6
CONTINUOUS
 10
-2.639195
 20
130.496715
 11
78.234425
 21
130.496715
  0
POLYLINE
  8
寸法
  6
CONTINUOUS
 66
     1
  0
VERTEX
  8
寸法
 10
78.234425
 20
130.496715
  0
VERTEX
  8
寸法
 10
69.644292
 20
127.928953
  0
VERTEX
  8
寸法
 10
69.644292
 20
130.496715
  0
SEQEND
  0
POLYLINE
  8
寸法
  6
CONTINUOUS
 66
     1
  0
VERTEX
  8
寸法
 10
76.64232
 20
130.496715
  0
VERTEX
  8
寸法
 10
68.052188
 20
127.928953
  0
VERTEX
  8
寸法
 10
68.052188
 20
130.496715
  0
SEQEND
  0
POLYLINE
  8
寸法
  6
CONTINUOUS
 66
     1
  0
VERTEX
  8
寸法
 10
78.234425
 20
130.496715
  0
VERTEX
  8
寸法
 10
69.644292
 20
133.064478
  0
VERTEX
  8
寸法
 10
69.644292
 20
130.496715
  0
SEQEND
  0
POLYLINE
  8
寸法
  6
CONTINUOUS
 66
     1
  0
VERTEX
  8
寸法
 10
76.64232
 20
130.496715
  0
VERTEX
  8
寸法
 10
68.052188
 20
133.064478
  0
VERTEX
  8
寸法
 10
68.052188
 20
130.496715
  0
SEQEND
  0
POLYLINE
  8
寸法
  6
CONTINUOUS
 66
     1
  0
VERTEX
  8
寸法
 10
-2.639195
 20
130.496715
  0
VERTEX
  8
寸法
 10
5.950937
 20
127.928953
  0
VERTEX
  8
寸法
 10
5.950937
 20
130.496715
  0
SEQEND
  0
POLYLINE
  8
寸法
  6
CONTINUOUS
 66
     1
  0
VERTEX
  8
寸法
 10
-2.639195
 20
130.496715
  0
VERTEX
  8
寸法
 10
5.950937
 20
133.064478
  0
VERTEX
  8
寸法
 10
5.950937
 20
130.496715
  0
SEQEND
  0
INSERT
  2
*DIM_0026
  8
寸法
  6
CONTINUOUS
 10
0.0
 20
0.0
  0
INSERT
  2
*DIM_0027
  8
寸法
  6
CONTINUOUS
 10
0.0
 20
0.0
  0
LINE
  8
寸法
  6
CONTINUOUS
 10
78.234425
 20
123.989478
 11
12.354505
 21
123.989478
  0
POLYLINE
  8
寸法
  6
CONTINUOUS
 66
     1
  0
VERTEX
  8
寸法
 10
78.234425
 20
123.989478
  0
VERTEX
  8
寸法
 10
69.644292
 20
126.55724
  0
VERTEX
  8
寸法
 10
69.644292
 20
123.989478
  0
SEQEND
  0
POLYLINE
  8
寸法
  6
CONTINUOUS
 66
     1
  0
VERTEX
  8
寸法
 10
76.64232
 20
123.989478
  0
VERTEX
  8
寸法
 10
68.052188
 20
126.55724
  0
VERTEX
  8
寸法
 10
68.052188
 20
123.989478
  0
SEQEND
  0
INSERT
  2
*DIM_0028
  8
寸法
  6
CONTINUOUS
 10
0.0
 20
0.0
  0
INSERT
  2
*DIM_0029
  8
寸法
  6
CONTINUOUS
 10
0.0
 20
0.0
  0
INSERT
  2
*DIM_0030
  8
寸法
  6
CONTINUOUS
 10
0.0
 20
0.0
  0
INSERT
  2
*DIM_0031
  8
寸法
  6
CONTINUOUS
 10
0.0
 20
0.0
  0
INSERT
  2
*DIM_0032
  8
寸法
  6
CONTINUOUS
 10
0.0
 20
0.0
  0
INSERT
  2
*DIM_0033
  8
寸法
  6
CONTINUOUS
 10
0.0
 20
0.0
  0
INSERT
  2
*DIM_0034
  8
寸法
  6
CONTINUOUS
 10
0.0
 20
0.0
  0
INSERT
  2
*GRP_0038
  8
寸法
  6
CONTINUOUS
 10
0.0
 20
0.0
  0
INSERT
  2
*GRP_0039
  8
寸法
  6
CONTINUOUS
 10
0.0
 20
0.0
  0
INSERT
  2
*GRP_0040
  8
寸法
  6
CONTINUOUS
 10
0.0
 20
0.0
  0
INSERT
  2
*GRP_0041
  8
寸法
  6
CONTINUOUS
 10
0.0
 20
0.0
  0
INSERT
  2
*GRP_0042
  8
寸法
  6
CONTINUOUS
 10
0.0
 20
0.0
  0
INSERT
  2
*GRP_0043
  8
寸法
  6
CONTINUOUS
 10
0.0
 20
0.0
  0
INSERT
  2
*GRP_0044
  8
寸法
  6
CONTINUOUS
 10
0.0
 20
0.0
  0
INSERT
  2
*GRP_0045
  8
寸法
  6
CONTINUOUS
 10
0.0
 20
0.0
  0
INSERT
  2
*GRP_0046
  8
寸法
  6
CONTINUOUS
 10
0.0
 20
0.0
  0
INSERT
  2
*GRP_0047
  8
寸法
  6
CONTINUOUS
 10
0.0
 20
0.0
  0
INSERT
  2
*GRP_0048
  8
寸法
  6
CONTINUOUS
 10
0.0
 20
0.0
  0
INSERT
  2
*GRP_0049
  8
寸法
  6
CONTINUOUS
 10
0.0
 20
0.0
  0
INSERT
  2
*GRP_0050
  8
寸法
  6
CONTINUOUS
 10
0.0
 20
0.0
  0
INSERT
  2
*GRP_0051
  8
寸法
  6
CONTINUOUS
 10
0.0
 20
0.0
  0
INSERT
  2
*GRP_0052
  8
寸法
  6
CONTINUOUS
 10
0.0
 20
0.0
  0
INSERT
  2
*GRP_0053
  8
寸法
  6
CONTINUOUS
 10
0.0
 20
0.0
  0
INSERT
  2
*DIM_0058
  8
寸法
  6
CONTINUOUS
 10
0.0
 20
0.0
  0
INSERT
  2
*DIM_0059
  8
寸法
  6
CONTINUOUS
 10
0.0
 20
0.0
  0
INSERT
  2
*DIM_0060
  8
寸法
  6
CONTINUOUS
 10
0.0
 20
0.0
  0
INSERT
  2
*DIM_0061
  8
寸法
  6
CONTINUOUS
 10
0.0
 20
0.0
  0
INSERT
  2
*GRP_0063
  8
寸法
  6
CONTINUOUS
 10
0.0
 20
0.0
  0
INSERT
  2
*GRP_0064
  8
寸法
  6
CONTINUOUS
 10
0.0
 20
0.0
  0
INSERT
  2
*DIM_0065
  8
寸法
  6
CONTINUOUS
 10
0.0
 20
0.0
  0
INSERT
  2
*DIM_0066
  8
寸法
  6
CONTINUOUS
 10
0.0
 20
0.0
  0
INSERT
  2
*DIM_0067
  8
寸法
  6
CONTINUOUS
 10
0.0
 20
0.0
  0
INSERT
  2
*DIM_0068
  8
寸法
  6
CONTINUOUS
 10
0.0
 20
0.0
  0
INSERT
  2
*GRP_0070
  8
寸法
  6
CONTINUOUS
 10
0.0
 20
0.0
  0
INSERT
  2
*GRP_0071
  8
寸法
  6
CONTINUOUS
 10
0.0
 20
0.0
  0
INSERT
  2
*DIM_0079
  8
寸法
  6
CONTINUOUS
 10
0.0
 20
0.0
  0
LINE
  8
寸法
  6
CONTINUOUS
 10
-160.269523
 20
128.615133
 11
-160.269523
 21
88.929248
  0
INSERT
  2
*GRP_0080
  8
寸法
  6
CONTINUOUS
 10
0.0
 20
0.0
  0
INSERT
  2
*GRP_0081
  8
寸法
  6
DASHDOT
 10
0.0
 20
0.0
  0
INSERT
  2
*DIM_0085
  8
寸法
  6
CONTINUOUS
 10
0.0
 20
0.0
  0
INSERT
  2
*DIM_0086
  8
寸法
  6
CONTINUOUS
 10
0.0
 20
0.0
  0
INSERT
  2
*GRP_0069
  8
別途部材
  6
CONTINUOUS
 10
0.0
 20
0.0
  0
INSERT
  2
*GRP_0084
  8
別途部材
  6
DASHDOT
 10
0.0
 20
0.0
  0
LINE
  8
曲げ物
  6
CONTINUOUS
 10
-10.64551
 20
63.629263
 11
-10.64551
 21
56.829263
  0
LINE
  8
曲げ物
  6
CONTINUOUS
 10
26.928465
 20
62.629263
 11
-10.64551
 21
62.629263
  0
LINE
  8
曲げ物
  6
CONTINUOUS
 10
26.928465
 20
63.629263
 11
-10.64551
 21
63.629263
  0
LINE
  8
曲げ物
  6
CONTINUOUS
 10
26.928465
 20
56.829263
 11
-10.64551
 21
56.829263
  0
LINE
  8
曲げ物
  6
CONTINUOUS
 10
26.928465
 20
57.829263
 11
-10.64551
 21
57.829263
  0
LINE
  8
St
  6
CONTINUOUS
 10
-52.64551
 20
62.42933
 11
-49.64551
 21
62.42933
  0
LINE
  8
St
  6
CONTINUOUS
 10
-49.64551
 20
-12.570735
 11
-49.64551
 21
62.42933
  0
LINE
  8
St
  6
CONTINUOUS
 10
-34.145495
 20
-22.57074
 11
-34.145495
 21
-24.87074
  0
LINE
  8
St
  6
CONTINUOUS
 10
-34.145495
 20
-71.273685
 11
-34.145495
 21
-73.573685
  0
ARC
  8
St
  6
CONTINUOUS
 10
-16.945494
 20
-24.870737
 40
2.3
 50
0.0
 51
90.0
  0
LINE
  8
St
  6
CONTINUOUS
 10
-16.945495
 20
-34.20406
 11
-14.64551
 21
-36.504045
  0
LINE
  8
St
  6
CONTINUOUS
 10
-16.945495
 20
-33.49696
 11
-14.64551
 21
-35.79694
  0
ARC
  8
St
  6
CONTINUOUS
 10
-16.945494
 20
-71.273682
 40
2.3
 50
270.0
 51
360.0
  0
LINE
  8
St
  6
CONTINUOUS
 10
-16.945495
 20
-62.02817
 11
-14.64551
 21
-64.328155
  0
LINE
  8
St
  6
CONTINUOUS
 10
-16.945495
 20
-61.32107
 11
-14.64551
 21
-63.62105
  0
LINE
  8
St
  6
CONTINUOUS
 10
-16.945495
 20
-24.87074
 11
-16.945495
 21
-71.273685
  0
LINE
  8
St
  6
CONTINUOUS
 10
-14.645495
 20
-24.87074
 11
-14.645495
 21
-71.273685
  0
LINE
  8
St
  6
CONTINUOUS
 10
-34.145495
 20
-24.87074
 11
-16.945495
 21
-24.87074
  0
LINE
  8
St
  6
CONTINUOUS
 10
-34.145495
 20
-22.57074
 11
-16.945495
 21
-22.57074
  0
LINE
  8
St
  6
CONTINUOUS
 10
-34.145495
 20
-71.273685
 11
-16.945495
 21
-71.273685
  0
LINE
  8
St
  6
CONTINUOUS
 10
-34.145495
 20
-73.573685
 11
-16.945495
 21
-73.573685
  0
LINE
  8
St
  6
CONTINUOUS
 10
-27.48435
 20
-22.57074
 11
-25.184347
 21
-24.87074
  0
LINE
  8
St
  6
CONTINUOUS
 10
-26.777245
 20
-22.57074
 11
-24.477243
 21
-24.87074
  0
LINE
  8
St
  6
CONTINUOUS
 10
-20.87425
 20
-73.57074
 11
-23.171307
 21
-71.273685
  0
LINE
  8
St
  6
CONTINUOUS
 10
-21.581355
 20
-73.57074
 11
-23.878413
 21
-71.273685
  0
LINE
  8
St
  6
CONTINUOUS
 10
-32.84551
 20
51.829272
 11
-32.84551
 21
67.627238
  0
LINE
  8
St
  6
CONTINUOUS
 10
-17.84551
 20
-3.070735
 11
-14.64551
 21
-3.070735
  0
LINE
  8
St
  6
CONTINUOUS
 10
-14.64551
 20
42.929265
 11
-17.84551
 21
42.929265
  0
LINE
  8
St
  6
CONTINUOUS
 10
-17.84551
 20
-3.070735
 11
-17.84551
 21
42.929265
  0
LINE
  8
St
  6
CONTINUOUS
 10
-14.64551
 20
-3.070735
 11
-14.64551
 21
42.929265
  0
LINE
  8
St
  6
CONTINUOUS
 10
-17.84551
 20
29.8287
 11
-14.64551
 21
33.028702
  0
LINE
  8
St
  6
CONTINUOUS
 10
-17.84551
 20
29.121595
 11
-14.64551
 21
32.321597
  0
LINE
  8
St
  6
CONTINUOUS
 10
-17.84551
 20
7.173682
 11
-14.64551
 21
10.373685
  0
LINE
  8
St
  6
CONTINUOUS
 10
-17.84551
 20
6.466577
 11
-14.64551
 21
9.66658
  0
LINE
  8
St
  6
CONTINUOUS
 10
-43.639995
 20
-86.07419
 11
-43.639995
 21
-38.070465
  0
LINE
  8
St
  6
CONTINUOUS
 10
-46.64002
 20
-38.070465
 11
-43.639995
 21
-38.070465
  0
LINE
  8
St
  6
CONTINUOUS
 10
-108.04002
 20
-102.474245
 11
-50.04744
 21
-102.474245
  0
ARC
  8
St
  6
CONTINUOUS
 10
-50.039013
 20
-102.474242
 40
1.6
 50
-90.0
 51
0.0
  0
LINE
  8
St
  6
CONTINUOUS
 10
-109.64002
 20
-104.074245
 11
-28.64002
 21
-104.074245
  0
LINE
  8
St
  6
DOT
 10
-50.04744
 20
-102.474245
 11
-28.64002
 21
-102.474245
  0
LINE
  8
St
  6
CONTINUOUS
 10
-81.072613
 20
-104.074245
 11
-79.472607
 21
-102.474245
  0
LINE
  8
St
  6
CONTINUOUS
 10
-80.365507
 20
-104.074245
 11
-78.765502
 21
-102.474245
  0
LINE
  8
St
  6
CONTINUOUS
 10
-54.051335
 20
-104.074245
 11
-52.45133
 21
-102.474245
  0
LINE
  8
St
  6
CONTINUOUS
 10
-53.34423
 20
-104.074245
 11
-51.744225
 21
-102.474245
  0
LINE
  8
St
  6
CONTINUOUS
 10
-108.04002
 20
-104.074245
 11
-108.04002
 21
-97.057605
  0
LINE
  8
St
  6
CONTINUOUS
 10
-109.64002
 20
-104.074245
 11
-109.64002
 21
-97.057607
  0
ARC
  8
St
  6
CONTINUOUS
 10
-108.04002
 20
-97.057607
 40
1.6
 50
94.332724
 51
180.0
  0
LINE
  8
St
  6
CONTINUOUS
 10
-108.160898
 20
-95.46218
 11
-28.64002
 21
-89.437298
  0
LINE
  8
St
  6
CONTINUOUS
 10
-108.04002
 20
-97.057605
 11
-28.64002
 21
-91.041885
  0
LINE
  8
St
  6
CONTINUOUS
 10
-30.551905
 20
-89.58215
 11
-30.551905
 21
-91.186737
  0
LINE
  8
St
  6
CONTINUOUS
 10
-50.04744
 20
-102.474245
 11
-50.04744
 21
-92.663813
  0
LINE
  8
St
  6
CONTINUOUS
 10
-48.43901
 20
-104.074245
 11
-48.43901
 21
-92.54195
  0
LINE
  8
St
  6
CONTINUOUS
 10
-50.912215
 20
-91.124745
 11
-52.648343
 21
-92.86087
  0
LINE
  8
St
  6
CONTINUOUS
 10
-51.677285
 20
-91.18271
 11
-53.413415
 21
-92.918835
  0
LINE
  8
St
  6
CONTINUOUS
 10
-78.396828
 20
-93.207113
 11
-80.132957
 21
-94.943232
  0
LINE
  8
St
  6
CONTINUOUS
 10
-79.161902
 20
-93.265078
 11
-80.89803
 21
-95.0012
  0
INSERT
  2
*GRP_0056
  8
St
  6
CONTINUOUS
 62
    47
 10
0.0
 20
0.0
  0
INSERT
  2
*GRP_0057
  8
St
  6
CONTINUOUS
 62
    47
 10
0.0
 20
0.0
  0
LINE
  8
St
  6
CONTINUOUS
 10
-92.64003
 20
-22.070467
 11
-92.64003
 21
-8.059527
  0
LINE
  8
St
  6
CONTINUOUS
 10
-74.967388
 20
-4.831115
 11
-74.847133
 21
-7.12797
  0
LINE
  8
St
  6
CONTINUOUS
 10
-92.64003
 20
-8.059527
 11
-74.847133
 21
-7.12797
  0
LINE
  8
St
  6
CONTINUOUS
 10
-92.64003
 20
-22.070467
 11
-48.640038
 21
-22.070467
  0
LINE
  8
St
  6
CONTINUOUS
 10
-92.760282
 20
-5.762673
 11
-74.967388
 21
-4.831115
  0
ARC
  8
St
  6
CONTINUOUS
 10
-92.64003
 20
-8.059527
 40
2.3
 50
92.997019
 51
180.0
  0
LINE
  8
St
  6
CONTINUOUS
 10
-94.94003
 20
-8.059527
 11
-94.94003
 21
-22.070467
  0
LINE
  8
St
  6
CONTINUOUS
 10
-48.640038
 20
-24.370467
 11
-92.64003
 21
-24.370467
  0
ARC
  8
St
  6
CONTINUOUS
 10
-92.64003
 20
-22.070467
 40
2.3
 50
180.0
 51
270.0
  0
LINE
  8
その他部品等
  6
CONTINUOUS
 10
-9.740015
 20
-80.570745
 11
-9.740015
 21
-75.570745
  0
INSERT
  2
*HAT_0008
  8
その他部品等
 10
0.0
 20
0.0
  0
INSERT
  2
*HAT_0009
  8
その他部品等
 10
0.0
 20
0.0
  0
INSERT
  2
*HAT_0010
  8
その他部品等
 10
0.0
 20
0.0
  0
LINE
  8
その他部品等
  6
CONTINUOUS
 10
-14.03996
 20
-92.57419
 11
-26.64002
 21
-98.399867
  0
INSERT
  2
*HAT_0011
  8
その他部品等
 10
0.0
 20
0.0
  0
ENDSEC
  0
EOF
