  0
SECTION
  2
HEADER
  9
$EXTMIN
 10
-210.0
 20
-148.5
  9
$EXTMAX
 10
210.0
 20
148.5
  9
$PDMODE
 70
    32
  9
$PDSIZE
 40
1.5
  9
$LTSCALE
 40
10.0
  0
ENDSEC
  0
SECTION
  2
TABLES
  0
TABLE
  2
LTYPE
 70
    15
  0
LTYPE
  2
CONTINUOUS
 70
    64
  3
実線
 72
    65
 73
     0
 40
0.0
  0
LTYPE
  2
DASHED
 70
    64
  3
破線A
 72
    65
 73
     2
 40
0.6
 49
0.4
 49
-0.2
  0
LTYPE
  2
DASHEDX2
 70
    64
  3
破線B
 72
    65
 73
     2
 40
1.3
 49
0.9
 49
-0.4
  0
LTYPE
  2
DASHDOT
 70
    64
  3
１点鎖線A
 72
    65
 73
     4
 40
0.5375
 49
0.375
 49
-0.05
 49
0.0625
 49
-0.05
  0
LTYPE
  2
DASHDOTX2
 70
    64
  3
１点鎖線B
 72
    65
 73
     4
 40
1.075
 49
0.75
 49
-0.1
 49
0.125
 49
-0.1
  0
LTYPE
  2
DIVIDE2
 70
    64
  3
２点鎖線A
 72
    65
 73
     6
 40
0.5125
 49
0.3
 49
-0.0375
 49
0.05
 49
-0.0375
 49
0.05
 49
-0.0375
  0
LTYPE
  2
DIVIDE
 70
    64
  3
２点鎖線B
 72
    65
 73
     6
 40
1.05
 49
0.55
 49
-0.1
 49
0.1
 49
-0.1
 49
0.1
 49
-0.1
  0
LTYPE
  2
DOT
 70
    64
  3
点線A
 72
    65
 73
     2
 40
0.1125
 49
0.0625
 49
-0.05
  0
LTYPE
  2
DOTX2
 70
    64
  3
点線B
 72
    65
 73
     2
 40
0.275
 49
0.15
 49
-0.125
  0
LTYPE
  2
CONTINUOUS
 70
    64
  3
実線
 72
    65
 73
     0
 40
0.0
  0
LTYPE
  2
CONTINUOUS
 70
    64
  3
実線
 72
    65
 73
     0
 40
0.0
  0
LTYPE
  2
CONTINUOUS
 70
    64
  3
実線
 72
    65
 73
     0
 40
0.0
  0
LTYPE
  2
CONTINUOUS
 70
    64
  3
実線
 72
    65
 73
     0
 40
0.0
  0
LTYPE
  2
CONTINUOUS
 70
    64
  3
実線
 72
    65
 73
     0
 40
0.0
  0
LTYPE
  2
CONTINUOUS
 70
    64
  3
実線
 72
    65
 73
     0
 40
0.0
  0
ENDTAB
  0
TABLE
  2
LAYER
 70
    34
  0
LAYER
  2
通り芯
 70
     0
 62
    15
  6
CONTINUOUS
  0
LAYER
  2
補助線
 70
     0
 62
    16
  6
DOT
  0
LAYER
  2
躯体
 70
     0
 62
    31
  6
CONTINUOUS
  0
LAYER
  2
型材
 70
     0
 62
    32
  6
CONTINUOUS
  0
LAYER
  2
型材断面
 70
     0
 62
    47
  6
CONTINUOUS
  0
LAYER
  2
ガラス
 70
     0
 62
    48
  6
CONTINUOUS
  0
LAYER
  2
ゴム等
 70
     0
 62
    63
  6
CONTINUOUS
  0
LAYER
  2
ボルト／ビス
 70
     0
 62
    64
  6
CONTINUOUS
  0
LAYER
  2
文字
 70
     0
 62
    79
  6
CONTINUOUS
  0
LAYER
  2
寸法
 70
     0
 62
    80
  6
CONTINUOUS
  0
LAYER
  2
ﾊｯﾁﾝｸﾞ
 70
     0
 62
    95
  6
CONTINUOUS
  0
LAYER
  2
別途部材
 70
     0
 62
    96
  6
CONTINUOUS
  0
LAYER
  2
曲げ物
 70
     0
 62
   111
  6
CONTINUOUS
  0
LAYER
  2
鉄骨等
 70
     0
 62
   112
  6
CONTINUOUS
  0
LAYER
  2
St
 70
     0
 62
   127
  6
CONTINUOUS
  0
LAYER
  2
その他部品等
 70
     0
 62
   128
  6
CONTINUOUS
  0
LAYER
  2
ｶﾞｽｹｯﾄ
 70
     0
 62
   143
  6
CONTINUOUS
  0
LAYER
  2
ｽｹｯﾁ
 70
     0
 62
    14
  6
CONTINUOUS
  0
LAYER
  2
0
 70
     0
 62
    17
  6
CONTINUOUS
  0
LAYER
  2
1
 70
     0
 62
    30
  6
CONTINUOUS
  0
LAYER
  2
4
 70
     0
 62
    33
  6
CONTINUOUS
  0
LAYER
  2
ﾚｲﾔ3
 70
     0
 62
    46
  6
CONTINUOUS
  0
LAYER
  2
外形線
 70
     0
 62
    49
  6
CONTINUOUS
  0
LAYER
  2
部品
 70
     0
 62
    14
  6
CONTINUOUS
  0
LAYER
  2
サッシ芯
 70
     0
 62
    17
  6
DASHDOTX2
  0
LAYER
  2
寸法線
 70
     0
 62
    62
  6
CONTINUOUS
  0
LAYER
  2
姿図外形線
 70
     0
 62
    65
  6
CONTINUOUS
  0
LAYER
  2
姿補助線
 70
     0
 62
    30
  6
CONTINUOUS
  0
LAYER
  2
透視線
 70
     0
 62
    78
  6
DOT
  0
LAYER
  2
用紙
 70
     0
 62
    81
  6
CONTINUOUS
  0
LAYER
  2
実線図枠
 70
     0
 62
    94
  6
CONTINUOUS
  0
LAYER
  2
補助図枠
 70
     0
 62
    97
  6
CONTINUOUS
  0
LAYER
  2
建具記号
 70
     0
 62
   110
  6
CONTINUOUS
  0
LAYER
  2
補助文字
 70
     0
 62
   113
  6
CONTINUOUS
  0
ENDTAB
  0
TABLE
  2
STYLE
 70
    10
  0
STYLE
  2
STANDARD
 70
     0
 40
1.0
 41
1.0
 42
1.0
 50
0.0
 71
     0
  3
TXT
  4
BIGFONT
  0
STYLE
  2
TATE
 70
     4
 40
1.0
 41
1.0
 42
1.0
 50
0.0
 71
     0
  3
TXT
  4
BIGFONT
  0
STYLE
  2
TextStyle03
 70
     0
 40
1.0
 41
1.0
 42
1.0
 50
0.0
 71
     0
  3
MONOTXT
  4
BIGFONT
  0
STYLE
  2
TextStyle04
 70
     0
 40
1.0
 41
1.0
 42
1.0
 50
0.0
 71
     0
  3
MONOTXT
  4
BIGFONT
  0
STYLE
  2
TextStyle05
 70
     0
 40
1.0
 41
1.0
 42
1.0
 50
0.0
 71
     0
  3
MONOTXT
  4
BIGFONT
  0
STYLE
  2
TextStyle06
 70
     0
 40
1.0
 41
1.0
 42
1.0
 50
0.0
 71
     0
  3
MONOTXT
  4
BIGFONT
  0
STYLE
  2
TextStyle07
 70
     0
 40
1.0
 41
1.0
 42
1.0
 50
0.0
 71
     0
  3
MONOTXT
  4
BIGFONT
  0
STYLE
  2
TextStyle08
 70
     0
 40
1.0
 41
1.0
 42
1.0
 50
0.0
 71
     0
  3
MONOTXT
  4
BIGFONT
  0
STYLE
  2
TextStyle09
 70
     0
 40
1.0
 41
1.0
 42
1.0
 50
0.0
 71
     0
  3
MONOTXT
  4
BIGFONT
  0
STYLE
  2
TextStyle10
 70
     0
 40
1.0
 41
1.0
 42
1.0
 50
0.0
 71
     0
  3
MONOTXT
  4
BIGFONT
  0
ENDTAB
  0
ENDSEC
  0
SECTION
  2
BLOCKS
  0
BLOCK
  2
*GRP_0001
 70
    65
 10
0.0
 20
0.0
  0
LINE
  8
型材断面
  6
CONTINUOUS
 10
195.0
 20
133.5
 11
195.0
 21
-133.5
  0
LINE
  8
型材断面
  6
CONTINUOUS
 10
195.0
 20
-133.5
 11
-185.0
 21
-133.5
  0
LINE
  8
型材断面
  6
CONTINUOUS
 10
-185.0
 20
-133.5
 11
-185.0
 21
133.5
  0
LINE
  8
型材断面
  6
CONTINUOUS
 10
195.0
 20
133.5
 11
-185.0
 21
133.5
  0
LINE
  8
型材断面
  6
CONTINUOUS
 10
145.0
 20
-133.5
 11
145.0
 21
-118.5
  0
LINE
  8
型材断面
  6
CONTINUOUS
 10
195.0
 20
-118.5
 11
145.0
 21
-118.5
  0
ENDBLK
  0
BLOCK
  2
*GRP_0002
 70
    65
 10
0.0
 20
0.0
  0
INSERT
  2
*GRP_0016
  8
補助線
  6
CONTINUOUS
 10
0.0
 20
0.0
  0
LINE
  8
ボルト／ビス
  6
CONTINUOUS
 10
-84.935405
 20
10.371595
 11
-84.685405
 21
10.515933
  0
LINE
  8
ボルト／ビス
  6
CONTINUOUS
 10
-84.935405
 20
10.371595
 11
-85.185405
 21
10.515933
  0
LINE
  8
ボルト／ビス
  6
CONTINUOUS
 10
-84.685405
 20
10.804608
 11
-84.935405
 21
10.948945
  0
LINE
  8
ボルト／ビス
  6
CONTINUOUS
 10
-85.185405
 20
10.804608
 11
-84.935405
 21
10.948945
  0
CIRCLE
  8
ボルト／ビス
  6
CONTINUOUS
 10
-84.935405
 20
10.66027
 40
0.25
  0
LINE
  8
ボルト／ビス
  6
CONTINUOUS
 10
-85.185405
 20
10.515933
 11
-85.185405
 21
10.804608
  0
LINE
  8
ボルト／ビス
  6
CONTINUOUS
 10
-84.685405
 20
10.804608
 11
-84.685405
 21
10.515933
  0
ENDBLK
  0
BLOCK
  2
*GRP_0003
 70
    65
 10
0.0
 20
0.0
  0
INSERT
  2
*GRP_0017
  8
補助線
  6
CONTINUOUS
 10
0.0
 20
0.0
  0
LINE
  8
ボルト／ビス
  6
CONTINUOUS
 10
-69.935405
 20
10.371595
 11
-69.685405
 21
10.515933
  0
LINE
  8
ボルト／ビス
  6
CONTINUOUS
 10
-69.935405
 20
10.371595
 11
-70.185405
 21
10.515933
  0
LINE
  8
ボルト／ビス
  6
CONTINUOUS
 10
-69.685405
 20
10.804608
 11
-69.935405
 21
10.948945
  0
LINE
  8
ボルト／ビス
  6
CONTINUOUS
 10
-70.185405
 20
10.804608
 11
-69.935405
 21
10.948945
  0
CIRCLE
  8
ボルト／ビス
  6
CONTINUOUS
 10
-69.935405
 20
10.66027
 40
0.25
  0
LINE
  8
ボルト／ビス
  6
CONTINUOUS
 10
-70.185405
 20
10.515933
 11
-70.185405
 21
10.804608
  0
LINE
  8
ボルト／ビス
  6
CONTINUOUS
 10
-69.685405
 20
10.804608
 11
-69.685405
 21
10.515933
  0
ENDBLK
  0
BLOCK
  2
*GRP_0004
 70
    65
 10
0.0
 20
0.0
  0
INSERT
  2
*GRP_0018
  8
補助線
  6
CONTINUOUS
 10
0.0
 20
0.0
  0
LINE
  8
ボルト／ビス
  6
CONTINUOUS
 10
-93.72408
 20
19.16027
 11
-93.579742
 21
19.41027
  0
LINE
  8
ボルト／ビス
  6
CONTINUOUS
 10
-93.72408
 20
19.16027
 11
-93.579742
 21
18.91027
  0
LINE
  8
ボルト／ビス
  6
CONTINUOUS
 10
-93.291068
 20
19.41027
 11
-93.14673
 21
19.16027
  0
LINE
  8
ボルト／ビス
  6
CONTINUOUS
 10
-93.291068
 20
18.91027
 11
-93.14673
 21
19.16027
  0
CIRCLE
  8
ボルト／ビス
  6
CONTINUOUS
 10
-93.435405
 20
19.16027
 40
0.25
  0
LINE
  8
ボルト／ビス
  6
CONTINUOUS
 10
-93.579742
 20
18.91027
 11
-93.291068
 21
18.91027
  0
LINE
  8
ボルト／ビス
  6
CONTINUOUS
 10
-93.291068
 20
19.41027
 11
-93.579742
 21
19.41027
  0
ENDBLK
  0
BLOCK
  2
*GRP_0005
 70
    65
 10
0.0
 20
0.0
  0
INSERT
  2
*GRP_0019
  8
補助線
  6
CONTINUOUS
 10
0.0
 20
0.0
  0
LINE
  8
ボルト／ビス
  6
CONTINUOUS
 10
-93.72408
 20
34.16027
 11
-93.579742
 21
34.41027
  0
LINE
  8
ボルト／ビス
  6
CONTINUOUS
 10
-93.72408
 20
34.16027
 11
-93.579742
 21
33.91027
  0
LINE
  8
ボルト／ビス
  6
CONTINUOUS
 10
-93.291068
 20
34.41027
 11
-93.14673
 21
34.16027
  0
LINE
  8
ボルト／ビス
  6
CONTINUOUS
 10
-93.291068
 20
33.91027
 11
-93.14673
 21
34.16027
  0
CIRCLE
  8
ボルト／ビス
  6
CONTINUOUS
 10
-93.435405
 20
34.16027
 40
0.25
  0
LINE
  8
ボルト／ビス
  6
CONTINUOUS
 10
-93.579742
 20
33.91027
 11
-93.291068
 21
33.91027
  0
LINE
  8
ボルト／ビス
  6
CONTINUOUS
 10
-93.291068
 20
34.41027
 11
-93.579742
 21
34.41027
  0
ENDBLK
  0
BLOCK
  2
*GRP_0006
 70
    65
 10
0.0
 20
0.0
  0
INSERT
  2
*GRP_0020
  8
補助線
  6
CONTINUOUS
 10
0.0
 20
0.0
  0
LINE
  8
ボルト／ビス
  6
CONTINUOUS
 10
-54.935405
 20
10.371595
 11
-55.185405
 21
10.515933
  0
LINE
  8
ボルト／ビス
  6
CONTINUOUS
 10
-54.935405
 20
10.371595
 11
-54.685405
 21
10.515933
  0
LINE
  8
ボルト／ビス
  6
CONTINUOUS
 10
-55.185405
 20
10.804608
 11
-54.935405
 21
10.948945
  0
LINE
  8
ボルト／ビス
  6
CONTINUOUS
 10
-54.685405
 20
10.804608
 11
-54.935405
 21
10.948945
  0
CIRCLE
  8
ボルト／ビス
  6
CONTINUOUS
 10
-54.935405
 20
10.66027
 40
0.25
  0
LINE
  8
ボルト／ビス
  6
CONTINUOUS
 10
-54.685405
 20
10.515933
 11
-54.685405
 21
10.804608
  0
LINE
  8
ボルト／ビス
  6
CONTINUOUS
 10
-55.185405
 20
10.804608
 11
-55.185405
 21
10.515933
  0
ENDBLK
  0
BLOCK
  2
*GRP_0007
 70
    65
 10
0.0
 20
0.0
  0
INSERT
  2
*GRP_0021
  8
補助線
  6
CONTINUOUS
 10
0.0
 20
0.0
  0
LINE
  8
ボルト／ビス
  6
CONTINUOUS
 10
-46.14673
 20
19.16027
 11
-46.291068
 21
19.41027
  0
LINE
  8
ボルト／ビス
  6
CONTINUOUS
 10
-46.14673
 20
19.16027
 11
-46.291068
 21
18.91027
  0
LINE
  8
ボルト／ビス
  6
CONTINUOUS
 10
-46.579742
 20
19.41027
 11
-46.72408
 21
19.16027
  0
LINE
  8
ボルト／ビス
  6
CONTINUOUS
 10
-46.579742
 20
18.91027
 11
-46.72408
 21
19.16027
  0
CIRCLE
  8
ボルト／ビス
  6
CONTINUOUS
 10
-46.435405
 20
19.16027
 40
0.25
  0
LINE
  8
ボルト／ビス
  6
CONTINUOUS
 10
-46.291068
 20
18.91027
 11
-46.579742
 21
18.91027
  0
LINE
  8
ボルト／ビス
  6
CONTINUOUS
 10
-46.579742
 20
19.41027
 11
-46.291068
 21
19.41027
  0
ENDBLK
  0
BLOCK
  2
*GRP_0008
 70
    65
 10
0.0
 20
0.0
  0
INSERT
  2
*GRP_0022
  8
補助線
  6
CONTINUOUS
 10
0.0
 20
0.0
  0
LINE
  8
ボルト／ビス
  6
CONTINUOUS
 10
-46.14673
 20
34.16027
 11
-46.291068
 21
34.41027
  0
LINE
  8
ボルト／ビス
  6
CONTINUOUS
 10
-46.14673
 20
34.16027
 11
-46.291068
 21
33.91027
  0
LINE
  8
ボルト／ビス
  6
CONTINUOUS
 10
-46.579742
 20
34.41027
 11
-46.72408
 21
34.16027
  0
LINE
  8
ボルト／ビス
  6
CONTINUOUS
 10
-46.579742
 20
33.91027
 11
-46.72408
 21
34.16027
  0
CIRCLE
  8
ボルト／ビス
  6
CONTINUOUS
 10
-46.435405
 20
34.16027
 40
0.25
  0
LINE
  8
ボルト／ビス
  6
CONTINUOUS
 10
-46.291068
 20
33.91027
 11
-46.579742
 21
33.91027
  0
LINE
  8
ボルト／ビス
  6
CONTINUOUS
 10
-46.579742
 20
34.41027
 11
-46.291068
 21
34.41027
  0
ENDBLK
  0
BLOCK
  2
*GRP_0009
 70
    65
 10
0.0
 20
0.0
  0
INSERT
  2
*GRP_0023
  8
補助線
  6
CONTINUOUS
 10
0.0
 20
0.0
  0
LINE
  8
ボルト／ビス
  6
CONTINUOUS
 10
-84.935405
 20
57.948945
 11
-84.685405
 21
57.804608
  0
LINE
  8
ボルト／ビス
  6
CONTINUOUS
 10
-84.935405
 20
57.948945
 11
-85.185405
 21
57.804608
  0
LINE
  8
ボルト／ビス
  6
CONTINUOUS
 10
-84.685405
 20
57.515933
 11
-84.935405
 21
57.371595
  0
LINE
  8
ボルト／ビス
  6
CONTINUOUS
 10
-85.185405
 20
57.515933
 11
-84.935405
 21
57.371595
  0
CIRCLE
  8
ボルト／ビス
  6
CONTINUOUS
 10
-84.935405
 20
57.66027
 40
0.25
  0
LINE
  8
ボルト／ビス
  6
CONTINUOUS
 10
-85.185405
 20
57.804608
 11
-85.185405
 21
57.515933
  0
LINE
  8
ボルト／ビス
  6
CONTINUOUS
 10
-84.685405
 20
57.515933
 11
-84.685405
 21
57.804608
  0
ENDBLK
  0
BLOCK
  2
*GRP_0010
 70
    65
 10
0.0
 20
0.0
  0
INSERT
  2
*GRP_0024
  8
補助線
  6
CONTINUOUS
 10
0.0
 20
0.0
  0
LINE
  8
ボルト／ビス
  6
CONTINUOUS
 10
-69.935405
 20
57.948945
 11
-69.685405
 21
57.804608
  0
LINE
  8
ボルト／ビス
  6
CONTINUOUS
 10
-69.935405
 20
57.948945
 11
-70.185405
 21
57.804608
  0
LINE
  8
ボルト／ビス
  6
CONTINUOUS
 10
-69.685405
 20
57.515933
 11
-69.935405
 21
57.371595
  0
LINE
  8
ボルト／ビス
  6
CONTINUOUS
 10
-70.185405
 20
57.515933
 11
-69.935405
 21
57.371595
  0
CIRCLE
  8
ボルト／ビス
  6
CONTINUOUS
 10
-69.935405
 20
57.66027
 40
0.25
  0
LINE
  8
ボルト／ビス
  6
CONTINUOUS
 10
-70.185405
 20
57.804608
 11
-70.185405
 21
57.515933
  0
LINE
  8
ボルト／ビス
  6
CONTINUOUS
 10
-69.685405
 20
57.515933
 11
-69.685405
 21
57.804608
  0
ENDBLK
  0
BLOCK
  2
*GRP_0011
 70
    65
 10
0.0
 20
0.0
  0
INSERT
  2
*GRP_0025
  8
補助線
  6
CONTINUOUS
 10
0.0
 20
0.0
  0
LINE
  8
ボルト／ビス
  6
CONTINUOUS
 10
-93.72408
 20
49.16027
 11
-93.579742
 21
48.91027
  0
LINE
  8
ボルト／ビス
  6
CONTINUOUS
 10
-93.72408
 20
49.16027
 11
-93.579742
 21
49.41027
  0
LINE
  8
ボルト／ビス
  6
CONTINUOUS
 10
-93.291068
 20
48.91027
 11
-93.14673
 21
49.16027
  0
LINE
  8
ボルト／ビス
  6
CONTINUOUS
 10
-93.291068
 20
49.41027
 11
-93.14673
 21
49.16027
  0
CIRCLE
  8
ボルト／ビス
  6
CONTINUOUS
 10
-93.435405
 20
49.16027
 40
0.25
  0
LINE
  8
ボルト／ビス
  6
CONTINUOUS
 10
-93.579742
 20
49.41027
 11
-93.291068
 21
49.41027
  0
LINE
  8
ボルト／ビス
  6
CONTINUOUS
 10
-93.291068
 20
48.91027
 11
-93.579742
 21
48.91027
  0
ENDBLK
  0
BLOCK
  2
*GRP_0012
 70
    65
 10
0.0
 20
0.0
  0
INSERT
  2
*GRP_0026
  8
補助線
  6
CONTINUOUS
 10
0.0
 20
0.0
  0
LINE
  8
ボルト／ビス
  6
CONTINUOUS
 10
-54.935405
 20
57.948945
 11
-55.185405
 21
57.804608
  0
LINE
  8
ボルト／ビス
  6
CONTINUOUS
 10
-54.935405
 20
57.948945
 11
-54.685405
 21
57.804608
  0
LINE
  8
ボルト／ビス
  6
CONTINUOUS
 10
-55.185405
 20
57.515933
 11
-54.935405
 21
57.371595
  0
LINE
  8
ボルト／ビス
  6
CONTINUOUS
 10
-54.685405
 20
57.515933
 11
-54.935405
 21
57.371595
  0
CIRCLE
  8
ボルト／ビス
  6
CONTINUOUS
 10
-54.935405
 20
57.66027
 40
0.25
  0
LINE
  8
ボルト／ビス
  6
CONTINUOUS
 10
-54.685405
 20
57.804608
 11
-54.685405
 21
57.515933
  0
LINE
  8
ボルト／ビス
  6
CONTINUOUS
 10
-55.185405
 20
57.515933
 11
-55.185405
 21
57.804608
  0
ENDBLK
  0
BLOCK
  2
*GRP_0013
 70
    65
 10
0.0
 20
0.0
  0
INSERT
  2
*GRP_0027
  8
補助線
  6
CONTINUOUS
 10
0.0
 20
0.0
  0
LINE
  8
ボルト／ビス
  6
CONTINUOUS
 10
-46.14673
 20
49.16027
 11
-46.291068
 21
48.91027
  0
LINE
  8
ボルト／ビス
  6
CONTINUOUS
 10
-46.14673
 20
49.16027
 11
-46.291068
 21
49.41027
  0
LINE
  8
ボルト／ビス
  6
CONTINUOUS
 10
-46.579742
 20
48.91027
 11
-46.72408
 21
49.16027
  0
LINE
  8
ボルト／ビス
  6
CONTINUOUS
 10
-46.579742
 20
49.41027
 11
-46.72408
 21
49.16027
  0
CIRCLE
  8
ボルト／ビス
  6
CONTINUOUS
 10
-46.435405
 20
49.16027
 40
0.25
  0
LINE
  8
ボルト／ビス
  6
CONTINUOUS
 10
-46.291068
 20
49.41027
 11
-46.579742
 21
49.41027
  0
LINE
  8
ボルト／ビス
  6
CONTINUOUS
 10
-46.579742
 20
48.91027
 11
-46.291068
 21
48.91027
  0
ENDBLK
  0
BLOCK
  2
*DIM_0014
 70
    65
 10
0.0
 20
0.0
  0
LINE
  8
寸法
  6
BYBLOCK
 62
     0
 10
-68.935405
 20
-39.779985
 11
-25.043632
 21
-39.779985
  0
LINE
  8
寸法
  6
BYBLOCK
 62
     0
 10
-25.043632
 20
-52.279985
 11
-25.043632
 21
-39.779985
  0
POINT
  8
寸法
 62
     0
 10
-25.043632
 20
-52.279985
  0
POINT
  8
寸法
 62
     0
 10
-25.043632
 20
-39.779985
  0
TEXT
  7
TextStyle03
  8
寸法
  6
CONTINUOUS
 62
     0
 10
-25.45
 20
-48.4875
  1
250
 40
3.0
 50
90.0
 72
     5
 11
-25.45
 21
-43.6125
  0
ENDBLK
  0
BLOCK
  2
*DIM_0015
 70
    65
 10
0.0
 20
0.0
  0
LINE
  8
寸法
  6
BYBLOCK
 62
     0
 10
-92.435405
 20
-16.126177
 11
-47.435405
 21
-16.126177
  0
POINT
  8
寸法
 62
     0
 10
-92.435405
 20
-16.126177
  0
POINT
  8
寸法
 62
     0
 10
-47.435405
 20
-16.126177
  0
TEXT
  7
TextStyle03
  8
寸法
  6
CONTINUOUS
 62
     0
 10
-80.85
 20
-15.775
  1
呼称寸法　900
 40
3.0
 72
     5
 11
-59.1
 21
-15.775
  0
ENDBLK
  0
BLOCK
  2
*GRP_0016
 70
    65
 10
0.0
 20
0.0
  0
LINE
  8
補助線
  6
BYBLOCK
 62
     0
 10
-85.060405
 20
10.66027
 11
-84.810405
 21
10.66027
  0
LINE
  8
補助線
  6
BYBLOCK
 62
     0
 10
-84.935405
 20
10.53527
 11
-84.935405
 21
10.78527
  0
ENDBLK
  0
BLOCK
  2
*GRP_0017
 70
    65
 10
0.0
 20
0.0
  0
LINE
  8
補助線
  6
BYBLOCK
 62
     0
 10
-70.060405
 20
10.66027
 11
-69.810405
 21
10.66027
  0
LINE
  8
補助線
  6
BYBLOCK
 62
     0
 10
-69.935405
 20
10.53527
 11
-69.935405
 21
10.78527
  0
ENDBLK
  0
BLOCK
  2
*GRP_0018
 70
    65
 10
0.0
 20
0.0
  0
LINE
  8
補助線
  6
BYBLOCK
 62
     0
 10
-93.435405
 20
19.03527
 11
-93.435405
 21
19.28527
  0
LINE
  8
補助線
  6
BYBLOCK
 62
     0
 10
-93.560405
 20
19.16027
 11
-93.310405
 21
19.16027
  0
ENDBLK
  0
BLOCK
  2
*GRP_0019
 70
    65
 10
0.0
 20
0.0
  0
LINE
  8
補助線
  6
BYBLOCK
 62
     0
 10
-93.435405
 20
34.03527
 11
-93.435405
 21
34.28527
  0
LINE
  8
補助線
  6
BYBLOCK
 62
     0
 10
-93.560405
 20
34.16027
 11
-93.310405
 21
34.16027
  0
ENDBLK
  0
BLOCK
  2
*GRP_0020
 70
    65
 10
0.0
 20
0.0
  0
LINE
  8
補助線
  6
BYBLOCK
 62
     0
 10
-54.810405
 20
10.66027
 11
-55.060405
 21
10.66027
  0
LINE
  8
補助線
  6
BYBLOCK
 62
     0
 10
-54.935405
 20
10.53527
 11
-54.935405
 21
10.78527
  0
ENDBLK
  0
BLOCK
  2
*GRP_0021
 70
    65
 10
0.0
 20
0.0
  0
LINE
  8
補助線
  6
BYBLOCK
 62
     0
 10
-46.435405
 20
19.03527
 11
-46.435405
 21
19.28527
  0
LINE
  8
補助線
  6
BYBLOCK
 62
     0
 10
-46.310405
 20
19.16027
 11
-46.560405
 21
19.16027
  0
ENDBLK
  0
BLOCK
  2
*GRP_0022
 70
    65
 10
0.0
 20
0.0
  0
LINE
  8
補助線
  6
BYBLOCK
 62
     0
 10
-46.435405
 20
34.03527
 11
-46.435405
 21
34.28527
  0
LINE
  8
補助線
  6
BYBLOCK
 62
     0
 10
-46.310405
 20
34.16027
 11
-46.560405
 21
34.16027
  0
ENDBLK
  0
BLOCK
  2
*GRP_0023
 70
    65
 10
0.0
 20
0.0
  0
LINE
  8
補助線
  6
BYBLOCK
 62
     0
 10
-85.060405
 20
57.66027
 11
-84.810405
 21
57.66027
  0
LINE
  8
補助線
  6
BYBLOCK
 62
     0
 10
-84.935405
 20
57.78527
 11
-84.935405
 21
57.53527
  0
ENDBLK
  0
BLOCK
  2
*GRP_0024
 70
    65
 10
0.0
 20
0.0
  0
LINE
  8
補助線
  6
BYBLOCK
 62
     0
 10
-70.060405
 20
57.66027
 11
-69.810405
 21
57.66027
  0
LINE
  8
補助線
  6
BYBLOCK
 62
     0
 10
-69.935405
 20
57.78527
 11
-69.935405
 21
57.53527
  0
ENDBLK
  0
BLOCK
  2
*GRP_0025
 70
    65
 10
0.0
 20
0.0
  0
LINE
  8
補助線
  6
BYBLOCK
 62
     0
 10
-93.435405
 20
49.28527
 11
-93.435405
 21
49.03527
  0
LINE
  8
補助線
  6
BYBLOCK
 62
     0
 10
-93.560405
 20
49.16027
 11
-93.310405
 21
49.16027
  0
ENDBLK
  0
BLOCK
  2
*GRP_0026
 70
    65
 10
0.0
 20
0.0
  0
LINE
  8
補助線
  6
BYBLOCK
 62
     0
 10
-54.810405
 20
57.66027
 11
-55.060405
 21
57.66027
  0
LINE
  8
補助線
  6
BYBLOCK
 62
     0
 10
-54.935405
 20
57.78527
 11
-54.935405
 21
57.53527
  0
ENDBLK
  0
BLOCK
  2
*GRP_0027
 70
    65
 10
0.0
 20
0.0
  0
LINE
  8
補助線
  6
BYBLOCK
 62
     0
 10
-46.435405
 20
49.28527
 11
-46.435405
 21
49.03527
  0
LINE
  8
補助線
  6
BYBLOCK
 62
     0
 10
-46.310405
 20
49.16027
 11
-46.560405
 21
49.16027
  0
ENDBLK
  0
BLOCK
  2
*GRP_0028
 70
    65
 10
0.0
 20
0.0
  0
LINE
  8
別途部材
  6
CONTINUOUS
 62
    96
 10
-94.885722
 20
-60.20515
 11
-94.735722
 21
-60.20515
  0
LINE
  8
別途部材
  6
CONTINUOUS
 62
    96
 10
-95.035722
 20
-57.05353
 11
-97.03193
 21
-57.15804
  0
LINE
  8
別途部材
  6
CONTINUOUS
 62
    96
 10
-97.045723
 20
-57.98015
 11
-97.445723
 21
-57.80515
  0
LINE
  8
別途部材
  6
CONTINUOUS
 62
    96
 10
-97.014347
 20
-57.83015
 11
-97.245848
 21
-57.72887
  0
LINE
  8
別途部材
  6
CONTINUOUS
 62
    96
 10
-97.071105
 20
-57.009885
 11
-97.461408
 21
-57.20556
  0
LINE
  8
別途部材
  6
CONTINUOUS
 62
    96
 10
-97.03193
 20
-57.15804
 11
-97.427347
 21
-57.35628
  0
LINE
  8
別途部材
  6
CONTINUOUS
 62
    96
 10
-97.330025
 20
-57.409682
 11
-97.21433
 21
-57.314213
  0
LINE
  8
別途部材
  6
DASHDOTX2
 62
    96
 10
-97.445723
 20
-57.50515
 11
-97.445723
 21
-57.034922
  0
LINE
  8
別途部材
  6
DASHDOTX2
 62
    96
 10
-97.445723
 20
-57.50515
 11
-97.445723
 21
-58.00084
  0
LINE
  8
別途部材
  6
DASHDOTX2
 62
    96
 10
-97.445723
 20
-57.50515
 11
-97.050515
 21
-57.50515
  0
LINE
  8
別途部材
  6
DASHDOTX2
 62
    96
 10
-97.445723
 20
-57.50515
 11
-97.863188
 21
-57.50515
  0
LINE
  8
別途部材
  6
CONTINUOUS
 62
    96
 10
-94.735722
 20
-57.83015
 11
-97.014347
 21
-57.83015
  0
LINE
  8
別途部材
  6
CONTINUOUS
 62
    96
 10
-94.885722
 20
-57.98015
 11
-97.045723
 21
-57.98015
  0
LINE
  8
別途部材
  6
CONTINUOUS
 62
    96
 10
-95.185725
 20
-55.20353
 11
-95.185725
 21
-56.911178
  0
LINE
  8
別途部材
  6
CONTINUOUS
 62
    96
 10
-95.035722
 20
-55.20353
 11
-95.185725
 21
-55.20353
  0
LINE
  8
別途部材
  6
CONTINUOUS
 62
    96
 10
-95.035722
 20
-55.20353
 11
-95.035722
 21
-57.05353
  0
CIRCLE
  8
別途部材
  6
CONTINUOUS
 62
    96
 10
-97.445723
 20
-57.50515
 40
0.15
  0
ARC
  8
別途部材
  6
CONTINUOUS
 62
    96
 10
-97.445724
 20
-57.505148
 40
0.3
 50
92.998444
 51
411.219394
  0
LINE
  8
別途部材
  6
CONTINUOUS
 62
    96
 10
-94.735722
 20
-57.83015
 11
-94.735722
 21
-60.20515
  0
LINE
  8
別途部材
  6
CONTINUOUS
 62
    96
 10
-94.885722
 20
-57.98015
 11
-94.885722
 21
-60.20515
  0
LINE
  8
別途部材
  6
CONTINUOUS
 62
    96
 10
-97.071105
 20
-57.009885
 11
-95.185725
 21
-56.911178
  0
ENDBLK
  0
BLOCK
  2
*DIM_0029
 70
    65
 10
0.0
 20
0.0
  0
LINE
  8
寸法
  6
CONTINUOUS
 62
     0
 10
-43.935405
 20
-52.279985
 11
-25.043632
 21
-52.279985
  0
LINE
  8
寸法
  6
CONTINUOUS
 62
     0
 10
-40.835362
 20
-62.030338
 11
-25.043632
 21
-62.030338
  0
LINE
  8
寸法
  6
CONTINUOUS
 62
     0
 10
-25.043632
 20
-52.279985
 11
-25.043632
 21
-62.030338
  0
POINT
  8
寸法
 62
     0
 10
-25.043632
 20
-52.279985
  0
POINT
  8
寸法
 62
     0
 10
-25.043632
 20
-62.030338
  0
TEXT
  7
TextStyle03
  8
寸法
  6
CONTINUOUS
 62
     0
 10
-25.425
 20
-59.6125
  1
195
 40
3.0
 50
90.0
 72
     5
 11
-25.425
 21
-54.7375
  0
ENDBLK
  0
BLOCK
  2
*DIM_0030
 70
    65
 10
0.0
 20
0.0
  0
LINE
  8
寸法
  6
BYBLOCK
 62
     0
 10
-41.835362
 20
-60.280338
 11
-41.835362
 21
-16.126177
  0
LINE
  8
寸法
  6
BYBLOCK
 62
     0
 10
-47.435405
 20
-16.126177
 11
-41.835362
 21
-16.126177
  0
POINT
  8
寸法
 62
     0
 10
-47.435405
 20
-16.126177
  0
POINT
  8
寸法
 62
     0
 10
-41.835362
 20
-16.126177
  0
TEXT
  7
TextStyle03
  8
寸法
  6
CONTINUOUS
 62
     0
 10
-47.0875
 20
-15.775
  1
112
 40
3.0
 72
     5
 11
-42.2125
 21
-15.775
  0
ENDBLK
  0
BLOCK
  2
*DIM_0031
 70
    65
 10
0.0
 20
0.0
  0
LINE
  8
寸法
  6
BYBLOCK
 62
     0
 10
-98.035448
 20
-60.280338
 11
-98.035448
 21
-16.126177
  0
LINE
  8
寸法
  6
BYBLOCK
 62
     0
 10
-92.435405
 20
-16.126177
 11
-98.035448
 21
-16.126177
  0
POINT
  8
寸法
 62
     0
 10
-92.435405
 20
-16.126177
  0
POINT
  8
寸法
 62
     0
 10
-98.035448
 20
-16.126177
  0
TEXT
  7
TextStyle03
  8
寸法
  6
CONTINUOUS
 62
     0
 10
-97.6875
 20
-15.775
  1
112
 40
3.0
 72
     5
 11
-92.8125
 21
-15.775
  0
ENDBLK
  0
BLOCK
  2
*DIM_0032
 70
    65
 10
0.0
 20
0.0
  0
LINE
  8
寸法
  6
BYBLOCK
 62
     0
 10
-84.935405
 20
57.66027
 11
-84.935405
 21
75.599285
  0
LINE
  8
寸法
  6
BYBLOCK
 62
     0
 10
-54.935405
 20
57.66027
 11
-54.935405
 21
75.599285
  0
LINE
  8
寸法
  6
BYBLOCK
 62
     0
 10
-84.935405
 20
75.599285
 11
-54.935405
 21
75.599285
  0
POINT
  8
寸法
 62
     0
 10
-84.935405
 20
75.599285
  0
POINT
  8
寸法
 62
     0
 10
-54.935405
 20
75.599285
  0
TEXT
  7
TextStyle03
  8
寸法
  6
CONTINUOUS
 62
     0
 10
-72.3875
 20
75.95
  1
600
 40
3.0
 72
     5
 11
-67.5125
 21
75.95
  0
ENDBLK
  0
BLOCK
  2
*DIM_0033
 70
    65
 10
0.0
 20
0.0
  0
LINE
  8
寸法
  6
BYBLOCK
 62
     0
 10
-93.435405
 20
56.66027
 11
-116.343648
 21
56.66027
  0
LINE
  8
寸法
  6
BYBLOCK
 62
     0
 10
-93.435405
 20
34.16027
 11
-116.343648
 21
34.16027
  0
LINE
  8
寸法
  6
BYBLOCK
 62
     0
 10
-116.343648
 20
56.66027
 11
-116.343648
 21
34.16027
  0
POINT
  8
寸法
 62
     0
 10
-116.343648
 20
56.66027
  0
POINT
  8
寸法
 62
     0
 10
-116.343648
 20
34.16027
  0
TEXT
  7
TextStyle03
  8
寸法
  6
CONTINUOUS
 62
     0
 10
-116.725
 20
42.9375
  1
450
 40
3.0
 50
90.0
 72
     5
 11
-116.725
 21
47.8125
  0
ENDBLK
  0
BLOCK
  2
*DIM_0034
 70
    65
 10
0.0
 20
0.0
  0
LINE
  8
寸法
  6
BYBLOCK
 62
     0
 10
-93.435405
 20
11.66027
 11
-116.343648
 21
11.66027
  0
LINE
  8
寸法
  6
BYBLOCK
 62
     0
 10
-116.343648
 20
34.16027
 11
-116.343648
 21
11.66027
  0
POINT
  8
寸法
 62
     0
 10
-116.343648
 20
11.66027
  0
TEXT
  7
TextStyle03
  8
寸法
  6
CONTINUOUS
 62
     0
 10
-116.725
 20
20.4375
  1
450
 40
3.0
 50
90.0
 72
     5
 11
-116.725
 21
25.3125
  0
ENDBLK
  0
BLOCK
  2
*DIM_0035
 70
    65
 10
0.0
 20
0.0
  0
LINE
  8
寸法
  6
BYBLOCK
 62
     0
 10
-46.435405
 20
56.66027
 11
-31.752115
 21
56.66027
  0
LINE
  8
寸法
  6
BYBLOCK
 62
     0
 10
-38.411528
 20
53.66027
 11
-31.752115
 21
53.66027
  0
LINE
  8
寸法
  6
BYBLOCK
 62
     0
 10
-31.752115
 20
56.66027
 11
-31.752115
 21
53.66027
  0
POINT
  8
寸法
 62
     0
 10
-31.752115
 20
56.66027
  0
POINT
  8
寸法
 62
     0
 10
-31.752115
 20
53.66027
  0
TEXT
  7
TextStyle03
  8
寸法
  6
CONTINUOUS
 62
     0
 10
-28.775
 20
53.53125
  1
60
 40
3.0
 50
90.0
 72
     5
 11
-28.775
 21
56.71875
  0
ENDBLK
  0
BLOCK
  2
*DIM_0036
 70
    65
 10
0.0
 20
0.0
  0
LINE
  8
寸法
  6
BYBLOCK
 62
     0
 10
-46.435405
 20
11.66027
 11
-31.752115
 21
11.66027
  0
LINE
  8
寸法
  6
BYBLOCK
 62
     0
 10
-38.411528
 20
14.66027
 11
-31.752115
 21
14.66027
  0
LINE
  8
寸法
  6
BYBLOCK
 62
     0
 10
-31.752115
 20
11.66027
 11
-31.752115
 21
14.66027
  0
POINT
  8
寸法
 62
     0
 10
-31.752115
 20
11.66027
  0
POINT
  8
寸法
 62
     0
 10
-31.752115
 20
14.66027
  0
TEXT
  7
TextStyle03
  8
寸法
  6
CONTINUOUS
 62
     0
 10
-28.775
 20
11.55625
  1
60
 40
3.0
 50
90.0
 72
     5
 11
-28.775
 21
14.74375
  0
ENDBLK
  0
BLOCK
  2
*GRP_0037
 70
    65
 10
0.0
 20
0.0
  0
LINE
  8
別途部材
  6
CONTINUOUS
 62
    96
 10
49.33359
 20
-60.20515
 11
49.48359
 21
-60.20515
  0
LINE
  8
別途部材
  6
CONTINUOUS
 62
    96
 10
49.18359
 20
-57.05353
 11
47.187383
 21
-57.15804
  0
LINE
  8
別途部材
  6
CONTINUOUS
 62
    96
 10
47.17359
 20
-57.98015
 11
46.77359
 21
-57.80515
  0
LINE
  8
別途部材
  6
CONTINUOUS
 62
    96
 10
47.204965
 20
-57.83015
 11
46.973465
 21
-57.72887
  0
LINE
  8
別途部材
  6
CONTINUOUS
 62
    96
 10
47.148207
 20
-57.009885
 11
46.757905
 21
-57.20556
  0
LINE
  8
別途部材
  6
CONTINUOUS
 62
    96
 10
47.187383
 20
-57.15804
 11
46.791965
 21
-57.35628
  0
LINE
  8
別途部材
  6
CONTINUOUS
 62
    96
 10
46.889287
 20
-57.409682
 11
47.004983
 21
-57.314213
  0
LINE
  8
別途部材
  6
DASHDOTX2
 62
    96
 10
46.77359
 20
-57.50515
 11
46.77359
 21
-57.034922
  0
LINE
  8
別途部材
  6
DASHDOTX2
 62
    96
 10
46.77359
 20
-57.50515
 11
46.77359
 21
-58.00084
  0
LINE
  8
別途部材
  6
DASHDOTX2
 62
    96
 10
46.77359
 20
-57.50515
 11
47.168798
 21
-57.50515
  0
LINE
  8
別途部材
  6
DASHDOTX2
 62
    96
 10
46.77359
 20
-57.50515
 11
46.356125
 21
-57.50515
  0
LINE
  8
別途部材
  6
CONTINUOUS
 62
    96
 10
49.48359
 20
-57.83015
 11
47.204965
 21
-57.83015
  0
LINE
  8
別途部材
  6
CONTINUOUS
 62
    96
 10
49.33359
 20
-57.98015
 11
47.17359
 21
-57.98015
  0
LINE
  8
別途部材
  6
CONTINUOUS
 62
    96
 10
49.033588
 20
-55.20353
 11
49.033588
 21
-56.911178
  0
LINE
  8
別途部材
  6
CONTINUOUS
 62
    96
 10
49.18359
 20
-55.20353
 11
49.033588
 21
-55.20353
  0
LINE
  8
別途部材
  6
CONTINUOUS
 62
    96
 10
49.18359
 20
-55.20353
 11
49.18359
 21
-57.05353
  0
CIRCLE
  8
別途部材
  6
CONTINUOUS
 62
    96
 10
46.77359
 20
-57.50515
 40
0.15
  0
ARC
  8
別途部材
  6
CONTINUOUS
 62
    96
 10
46.773589
 20
-57.505148
 40
0.3
 50
92.998444
 51
411.219394
  0
LINE
  8
別途部材
  6
CONTINUOUS
 62
    96
 10
49.48359
 20
-57.83015
 11
49.48359
 21
-60.20515
  0
LINE
  8
別途部材
  6
CONTINUOUS
 62
    96
 10
49.33359
 20
-57.98015
 11
49.33359
 21
-60.20515
  0
LINE
  8
別途部材
  6
CONTINUOUS
 62
    96
 10
47.148207
 20
-57.009885
 11
49.033588
 21
-56.911178
  0
ENDBLK
  0
BLOCK
  2
*DIM_0038
 70
    65
 10
0.0
 20
0.0
  0
LINE
  8
寸法
  6
BYBLOCK
 62
     0
 10
121.504785
 20
77.557477
 11
121.504785
 21
85.37054
  0
LINE
  8
寸法
  6
BYBLOCK
 62
     0
 10
167.304785
 20
77.557477
 11
167.304785
 21
85.37054
  0
LINE
  8
寸法
  6
BYBLOCK
 62
     0
 10
121.504785
 20
85.37054
 11
167.304785
 21
85.37054
  0
POINT
  8
寸法
 62
     0
 10
121.504785
 20
85.37054
  0
POINT
  8
寸法
 62
     0
 10
167.304785
 20
85.37054
  0
TEXT
  7
TextStyle03
  8
寸法
  6
CONTINUOUS
 62
     0
 10
141.9625
 20
85.725
  1
916
 40
3.0
 72
     5
 11
146.8375
 21
85.725
  0
ENDBLK
  0
BLOCK
  2
*DIM_0039
 70
    65
 10
0.0
 20
0.0
  0
LINE
  8
寸法
  6
BYBLOCK
 62
     0
 10
170.304785
 20
74.557477
 11
179.009588
 21
74.557477
  0
LINE
  8
寸法
  6
BYBLOCK
 62
     0
 10
170.304785
 20
28.757477
 11
179.009588
 21
28.757477
  0
LINE
  8
寸法
  6
BYBLOCK
 62
     0
 10
179.009588
 20
74.557477
 11
179.009588
 21
28.757477
  0
POINT
  8
寸法
 62
     0
 10
179.009588
 20
74.557477
  0
POINT
  8
寸法
 62
     0
 10
179.009588
 20
28.757477
  0
TEXT
  7
TextStyle03
  8
寸法
  6
CONTINUOUS
 62
     0
 10
178.625
 20
49.2125
  1
916
 40
3.0
 50
90.0
 72
     5
 11
178.625
 21
54.0875
  0
ENDBLK
  0
BLOCK
  2
*GRP_0040
 70
    65
 10
0.0
 20
0.0
  0
LINE
  8
ボルト／ビス
  6
CONTINUOUS
 10
-93.435405
 20
-52.279987
 11
-93.435405
 21
-51.579987
  0
LINE
  8
ボルト／ビス
  6
CONTINUOUS
 10
-92.885405
 20
-52.279987
 11
-92.885405
 21
-52.179987
  0
LINE
  8
ボルト／ビス
  6
CONTINUOUS
 10
-92.885405
 20
-52.179987
 11
-93.985405
 21
-52.179987
  0
LINE
  8
ボルト／ビス
  6
CONTINUOUS
 10
-93.985405
 20
-52.179987
 11
-93.985405
 21
-52.279987
  0
LINE
  8
ボルト／ビス
  6
CONTINUOUS
 10
-92.885405
 20
-52.279987
 11
-93.985405
 21
-52.279987
  0
LINE
  8
ボルト／ビス
  6
CONTINUOUS
 10
-92.985405
 20
-52.129987
 11
-92.985405
 21
-52.179987
  0
LINE
  8
ボルト／ビス
  6
CONTINUOUS
 10
-92.985405
 20
-52.129987
 11
-93.885405
 21
-52.129987
  0
LINE
  8
ボルト／ビス
  6
CONTINUOUS
 10
-93.885405
 20
-52.129987
 11
-93.885405
 21
-52.179987
  0
LINE
  8
ボルト／ビス
  6
CONTINUOUS
 62
    64
 10
-93.194842
 20
-51.829987
 11
-93.14673
 21
-51.8475
  0
ARC
  8
ボルト／ビス
  6
CONTINUOUS
 62
    64
 10
-93.2189
 20
-51.987456
 40
0.157468
 50
90.0
 51
117.278033
  0
ARC
  8
ボルト／ビス
  6
CONTINUOUS
 62
    64
 10
-93.435406
 20
-52.433591
 40
0.603603
 50
76.165015
 51
103.834998
  0
LINE
  8
ボルト／ビス
  6
CONTINUOUS
 62
    64
 10
-93.675968
 20
-51.829987
 11
-93.72408
 21
-51.8475
  0
ARC
  8
ボルト／ビス
  6
CONTINUOUS
 62
    64
 10
-93.651912
 20
-51.987456
 40
0.157468
 50
62.721967
 51
90.0
  0
LINE
  8
ボルト／ビス
  6
CONTINUOUS
 62
    64
 10
-93.194842
 20
-51.829987
 11
-93.675968
 21
-51.829987
  0
LINE
  8
ボルト／ビス
  6
CONTINUOUS
 62
    64
 10
-93.72408
 20
-51.8475
 11
-93.72408
 21
-52.029987
  0
LINE
  8
ボルト／ビス
  6
CONTINUOUS
 62
    64
 10
-93.579742
 20
-51.8475
 11
-93.579742
 21
-52.029987
  0
LINE
  8
ボルト／ビス
  6
CONTINUOUS
 62
    64
 10
-93.14673
 20
-51.8475
 11
-93.14673
 21
-52.029987
  0
LINE
  8
ボルト／ビス
  6
CONTINUOUS
 62
    64
 10
-93.291068
 20
-51.8475
 11
-93.291068
 21
-52.029987
  0
LINE
  8
ボルト／ビス
  6
CONTINUOUS
 10
-93.14673
 20
-52.029987
 11
-93.72408
 21
-52.029987
  0
LINE
  8
ボルト／ビス
  6
CONTINUOUS
 10
-93.135405
 20
-52.029987
 11
-93.135405
 21
-52.129987
  0
LINE
  8
ボルト／ビス
  6
CONTINUOUS
 10
-93.135405
 20
-52.029987
 11
-93.735405
 21
-52.029987
  0
LINE
  8
ボルト／ビス
  6
CONTINUOUS
 10
-93.735405
 20
-52.029987
 11
-93.735405
 21
-52.129987
  0
ENDBLK
  0
BLOCK
  2
*GRP_0041
 70
    65
 10
0.0
 20
0.0
  0
LINE
  8
ボルト／ビス
  6
CONTINUOUS
 10
-46.435405
 20
-52.279987
 11
-46.435405
 21
-51.579987
  0
LINE
  8
ボルト／ビス
  6
CONTINUOUS
 10
-45.885405
 20
-52.279987
 11
-45.885405
 21
-52.179987
  0
LINE
  8
ボルト／ビス
  6
CONTINUOUS
 10
-45.885405
 20
-52.179987
 11
-46.985405
 21
-52.179987
  0
LINE
  8
ボルト／ビス
  6
CONTINUOUS
 10
-46.985405
 20
-52.179987
 11
-46.985405
 21
-52.279987
  0
LINE
  8
ボルト／ビス
  6
CONTINUOUS
 10
-45.885405
 20
-52.279987
 11
-46.985405
 21
-52.279987
  0
LINE
  8
ボルト／ビス
  6
CONTINUOUS
 10
-45.985405
 20
-52.129987
 11
-45.985405
 21
-52.179987
  0
LINE
  8
ボルト／ビス
  6
CONTINUOUS
 10
-45.985405
 20
-52.129987
 11
-46.885405
 21
-52.129987
  0
LINE
  8
ボルト／ビス
  6
CONTINUOUS
 10
-46.885405
 20
-52.129987
 11
-46.885405
 21
-52.179987
  0
LINE
  8
ボルト／ビス
  6
CONTINUOUS
 62
    64
 10
-46.194842
 20
-51.829987
 11
-46.14673
 21
-51.8475
  0
ARC
  8
ボルト／ビス
  6
CONTINUOUS
 62
    64
 10
-46.2189
 20
-51.987456
 40
0.157468
 50
90.0
 51
117.278033
  0
ARC
  8
ボルト／ビス
  6
CONTINUOUS
 62
    64
 10
-46.435406
 20
-52.433591
 40
0.603603
 50
76.165015
 51
103.834998
  0
LINE
  8
ボルト／ビス
  6
CONTINUOUS
 62
    64
 10
-46.675968
 20
-51.829987
 11
-46.72408
 21
-51.8475
  0
ARC
  8
ボルト／ビス
  6
CONTINUOUS
 62
    64
 10
-46.651912
 20
-51.987456
 40
0.157468
 50
62.721967
 51
90.0
  0
LINE
  8
ボルト／ビス
  6
CONTINUOUS
 62
    64
 10
-46.194842
 20
-51.829987
 11
-46.675968
 21
-51.829987
  0
LINE
  8
ボルト／ビス
  6
CONTINUOUS
 62
    64
 10
-46.72408
 20
-51.8475
 11
-46.72408
 21
-52.029987
  0
LINE
  8
ボルト／ビス
  6
CONTINUOUS
 62
    64
 10
-46.579742
 20
-51.8475
 11
-46.579742
 21
-52.029987
  0
LINE
  8
ボルト／ビス
  6
CONTINUOUS
 62
    64
 10
-46.14673
 20
-51.8475
 11
-46.14673
 21
-52.029987
  0
LINE
  8
ボルト／ビス
  6
CONTINUOUS
 62
    64
 10
-46.291068
 20
-51.8475
 11
-46.291068
 21
-52.029987
  0
LINE
  8
ボルト／ビス
  6
CONTINUOUS
 10
-46.14673
 20
-52.029987
 11
-46.72408
 21
-52.029987
  0
LINE
  8
ボルト／ビス
  6
CONTINUOUS
 10
-46.135405
 20
-52.029987
 11
-46.135405
 21
-52.129987
  0
LINE
  8
ボルト／ビス
  6
CONTINUOUS
 10
-46.135405
 20
-52.029987
 11
-46.735405
 21
-52.029987
  0
LINE
  8
ボルト／ビス
  6
CONTINUOUS
 10
-46.735405
 20
-52.029987
 11
-46.735405
 21
-52.129987
  0
ENDBLK
  0
BLOCK
  2
*GRP_0042
 70
    65
 10
0.0
 20
0.0
  0
LINE
  8
ボルト／ビス
  6
CONTINUOUS
 10
50.783907
 20
-52.279987
 11
50.783907
 21
-51.579987
  0
LINE
  8
ボルト／ビス
  6
CONTINUOUS
 10
51.333907
 20
-52.279987
 11
51.333907
 21
-52.179987
  0
LINE
  8
ボルト／ビス
  6
CONTINUOUS
 10
51.333907
 20
-52.179987
 11
50.233907
 21
-52.179987
  0
LINE
  8
ボルト／ビス
  6
CONTINUOUS
 10
50.233907
 20
-52.179987
 11
50.233907
 21
-52.279987
  0
LINE
  8
ボルト／ビス
  6
CONTINUOUS
 10
51.333907
 20
-52.279987
 11
50.233907
 21
-52.279987
  0
LINE
  8
ボルト／ビス
  6
CONTINUOUS
 10
51.233907
 20
-52.129987
 11
51.233907
 21
-52.179987
  0
LINE
  8
ボルト／ビス
  6
CONTINUOUS
 10
51.233907
 20
-52.129987
 11
50.333907
 21
-52.129987
  0
LINE
  8
ボルト／ビス
  6
CONTINUOUS
 10
50.333907
 20
-52.129987
 11
50.333907
 21
-52.179987
  0
LINE
  8
ボルト／ビス
  6
CONTINUOUS
 62
    64
 10
51.02447
 20
-51.829987
 11
51.072582
 21
-51.8475
  0
ARC
  8
ボルト／ビス
  6
CONTINUOUS
 62
    64
 10
51.000412
 20
-51.987455
 40
0.157468
 50
90.0
 51
117.278033
  0
ARC
  8
ボルト／ビス
  6
CONTINUOUS
 62
    64
 10
50.783906
 20
-52.433591
 40
0.603603
 50
76.165015
 51
103.834998
  0
LINE
  8
ボルト／ビス
  6
CONTINUOUS
 62
    64
 10
50.543345
 20
-51.829987
 11
50.495233
 21
-51.8475
  0
ARC
  8
ボルト／ビス
  6
CONTINUOUS
 62
    64
 10
50.5674
 20
-51.987455
 40
0.157468
 50
62.721967
 51
90.0
  0
LINE
  8
ボルト／ビス
  6
CONTINUOUS
 62
    64
 10
51.02447
 20
-51.829987
 11
50.543345
 21
-51.829987
  0
LINE
  8
ボルト／ビス
  6
CONTINUOUS
 62
    64
 10
50.495233
 20
-51.8475
 11
50.495233
 21
-52.029987
  0
LINE
  8
ボルト／ビス
  6
CONTINUOUS
 62
    64
 10
50.63957
 20
-51.8475
 11
50.63957
 21
-52.029987
  0
LINE
  8
ボルト／ビス
  6
CONTINUOUS
 62
    64
 10
51.072582
 20
-51.8475
 11
51.072582
 21
-52.029987
  0
LINE
  8
ボルト／ビス
  6
CONTINUOUS
 62
    64
 10
50.928245
 20
-51.8475
 11
50.928245
 21
-52.029987
  0
LINE
  8
ボルト／ビス
  6
CONTINUOUS
 10
51.072582
 20
-52.029987
 11
50.495233
 21
-52.029987
  0
LINE
  8
ボルト／ビス
  6
CONTINUOUS
 10
51.083907
 20
-52.029987
 11
51.083907
 21
-52.129987
  0
LINE
  8
ボルト／ビス
  6
CONTINUOUS
 10
51.083907
 20
-52.029987
 11
50.483907
 21
-52.029987
  0
LINE
  8
ボルト／ビス
  6
CONTINUOUS
 10
50.483907
 20
-52.029987
 11
50.483907
 21
-52.129987
  0
ENDBLK
  0
BLOCK
  2
*GRP_0043
 70
    65
 10
0.0
 20
0.0
  0
LINE
  8
ボルト／ビス
  6
CONTINUOUS
 10
97.783907
 20
-52.279987
 11
97.783907
 21
-51.579987
  0
LINE
  8
ボルト／ビス
  6
CONTINUOUS
 10
98.333907
 20
-52.279987
 11
98.333907
 21
-52.179987
  0
LINE
  8
ボルト／ビス
  6
CONTINUOUS
 10
98.333907
 20
-52.179987
 11
97.233907
 21
-52.179987
  0
LINE
  8
ボルト／ビス
  6
CONTINUOUS
 10
97.233907
 20
-52.179987
 11
97.233907
 21
-52.279987
  0
LINE
  8
ボルト／ビス
  6
CONTINUOUS
 10
98.333907
 20
-52.279987
 11
97.233907
 21
-52.279987
  0
LINE
  8
ボルト／ビス
  6
CONTINUOUS
 10
98.233907
 20
-52.129987
 11
98.233907
 21
-52.179987
  0
LINE
  8
ボルト／ビス
  6
CONTINUOUS
 10
98.233907
 20
-52.129987
 11
97.333907
 21
-52.129987
  0
LINE
  8
ボルト／ビス
  6
CONTINUOUS
 10
97.333907
 20
-52.129987
 11
97.333907
 21
-52.179987
  0
LINE
  8
ボルト／ビス
  6
CONTINUOUS
 62
    64
 10
98.02447
 20
-51.829987
 11
98.072582
 21
-51.8475
  0
ARC
  8
ボルト／ビス
  6
CONTINUOUS
 62
    64
 10
98.000412
 20
-51.987455
 40
0.157468
 50
90.0
 51
117.278033
  0
ARC
  8
ボルト／ビス
  6
CONTINUOUS
 62
    64
 10
97.783906
 20
-52.433591
 40
0.603603
 50
76.165015
 51
103.834998
  0
LINE
  8
ボルト／ビス
  6
CONTINUOUS
 62
    64
 10
97.543345
 20
-51.829987
 11
97.495233
 21
-51.8475
  0
ARC
  8
ボルト／ビス
  6
CONTINUOUS
 62
    64
 10
97.5674
 20
-51.987455
 40
0.157468
 50
62.721967
 51
90.0
  0
LINE
  8
ボルト／ビス
  6
CONTINUOUS
 62
    64
 10
98.02447
 20
-51.829987
 11
97.543345
 21
-51.829987
  0
LINE
  8
ボルト／ビス
  6
CONTINUOUS
 62
    64
 10
97.495233
 20
-51.8475
 11
97.495233
 21
-52.029987
  0
LINE
  8
ボルト／ビス
  6
CONTINUOUS
 62
    64
 10
97.63957
 20
-51.8475
 11
97.63957
 21
-52.029987
  0
LINE
  8
ボルト／ビス
  6
CONTINUOUS
 62
    64
 10
98.072582
 20
-51.8475
 11
98.072582
 21
-52.029987
  0
LINE
  8
ボルト／ビス
  6
CONTINUOUS
 62
    64
 10
97.928245
 20
-51.8475
 11
97.928245
 21
-52.029987
  0
LINE
  8
ボルト／ビス
  6
CONTINUOUS
 10
98.072582
 20
-52.029987
 11
97.495233
 21
-52.029987
  0
LINE
  8
ボルト／ビス
  6
CONTINUOUS
 10
98.083907
 20
-52.029987
 11
98.083907
 21
-52.129987
  0
LINE
  8
ボルト／ビス
  6
CONTINUOUS
 10
98.083907
 20
-52.029987
 11
97.483907
 21
-52.029987
  0
LINE
  8
ボルト／ビス
  6
CONTINUOUS
 10
97.483907
 20
-52.029987
 11
97.483907
 21
-52.129987
  0
ENDBLK
  0
BLOCK
  2
*GRP_0044
 70
    65
 10
0.0
 20
0.0
  0
LINE
  8
ボルト／ビス
  6
DOT
 10
45.914565
 20
-50.97468
 11
45.419593
 21
-50.479705
  0
LINE
  8
ボルト／ビス
  6
DOT
 10
46.303475
 20
-50.58577
 11
46.232765
 21
-50.51506
  0
LINE
  8
ボルト／ビス
  6
DOT
 10
46.232765
 20
-50.51506
 11
45.454947
 21
-51.292878
  0
LINE
  8
ボルト／ビス
  6
DOT
 10
45.454947
 20
-51.292878
 11
45.525657
 21
-51.363587
  0
LINE
  8
ボルト／ビス
  6
DOT
 10
46.303475
 20
-50.58577
 11
45.525657
 21
-51.363587
  0
LINE
  8
ボルト／ビス
  6
DOT
 10
46.126698
 20
-50.550415
 11
46.162053
 21
-50.58577
  0
LINE
  8
ボルト／ビス
  6
DOT
 10
46.126698
 20
-50.550415
 11
45.490302
 21
-51.18681
  0
LINE
  8
ボルト／ビス
  6
DOT
 10
45.490302
 20
-51.18681
 11
45.525657
 21
-51.222167
  0
LINE
  8
ボルト／ビス
  6
DOT
 62
    64
 10
45.766473
 20
-50.486377
 11
45.812875
 21
-50.46474
  0
ARC
  8
ボルト／ビス
  6
DOT
 62
    64
 10
45.860807
 20
-50.614736
 40
0.157468
 50
135.0
 51
162.278033
  0
ARC
  8
ボルト／ビス
  6
DOT
 62
    64
 10
46.02318
 20
-51.083295
 40
0.603603
 50
121.165015
 51
148.834998
  0
LINE
  8
ボルト／ビス
  6
DOT
 62
    64
 10
45.426265
 20
-50.826585
 11
45.404628
 21
-50.872988
  0
ARC
  8
ボルト／ビス
  6
DOT
 62
    64
 10
45.554621
 20
-50.920922
 40
0.157468
 50
107.721967
 51
135.0
  0
LINE
  8
ボルト／ビス
  6
DOT
 62
    64
 10
45.766473
 20
-50.486377
 11
45.426265
 21
-50.826585
  0
LINE
  8
ボルト／ビス
  6
DOT
 62
    64
 10
45.404628
 20
-50.872988
 11
45.533665
 21
-51.002027
  0
LINE
  8
ボルト／ビス
  6
DOT
 62
    64
 10
45.50669
 20
-50.770928
 11
45.635728
 21
-50.899965
  0
LINE
  8
ボルト／ビス
  6
DOT
 62
    64
 10
45.812875
 20
-50.46474
 11
45.941913
 21
-50.593778
  0
LINE
  8
ボルト／ビス
  6
DOT
 62
    64
 10
45.710813
 20
-50.566802
 11
45.839853
 21
-50.69584
  0
LINE
  8
ボルト／ビス
  6
DOT
 10
45.941913
 20
-50.593778
 11
45.533665
 21
-51.002027
  0
LINE
  8
ボルト／ビス
  6
DOT
 10
45.949922
 20
-50.58577
 11
46.020632
 21
-50.65648
  0
LINE
  8
ボルト／ビス
  6
DOT
 10
45.949922
 20
-50.58577
 11
45.525657
 21
-51.010035
  0
LINE
  8
ボルト／ビス
  6
DOT
 10
45.525657
 20
-51.010035
 11
45.596368
 21
-51.080745
  0
ENDBLK
  0
BLOCK
  2
*GRP_0045
 70
    65
 10
0.0
 20
0.0
  0
LINE
  8
ボルト／ビス
  6
DOT
 10
79.148585
 20
-17.74066
 11
78.653613
 21
-17.245685
  0
LINE
  8
ボルト／ビス
  6
DOT
 10
79.537495
 20
-17.35175
 11
79.466785
 21
-17.28104
  0
LINE
  8
ボルト／ビス
  6
DOT
 10
79.466785
 20
-17.28104
 11
78.688968
 21
-18.058857
  0
LINE
  8
ボルト／ビス
  6
DOT
 10
78.688968
 20
-18.058857
 11
78.759677
 21
-18.129568
  0
LINE
  8
ボルト／ビス
  6
DOT
 10
79.537495
 20
-17.35175
 11
78.759677
 21
-18.129568
  0
LINE
  8
ボルト／ビス
  6
DOT
 10
79.360717
 20
-17.316395
 11
79.396073
 21
-17.35175
  0
LINE
  8
ボルト／ビス
  6
DOT
 10
79.360717
 20
-17.316395
 11
78.724323
 21
-17.95279
  0
LINE
  8
ボルト／ビス
  6
DOT
 10
78.724323
 20
-17.95279
 11
78.759677
 21
-17.988148
  0
LINE
  8
ボルト／ビス
  6
DOT
 62
    64
 10
79.000492
 20
-17.252358
 11
79.046895
 21
-17.23072
  0
ARC
  8
ボルト／ビス
  6
DOT
 62
    64
 10
79.094826
 20
-17.380716
 40
0.157468
 50
135.0
 51
162.278033
  0
ARC
  8
ボルト／ビス
  6
DOT
 62
    64
 10
79.257199
 20
-17.849275
 40
0.603603
 50
121.165015
 51
148.834998
  0
LINE
  8
ボルト／ビス
  6
DOT
 62
    64
 10
78.660285
 20
-17.592565
 11
78.638647
 21
-17.638968
  0
ARC
  8
ボルト／ビス
  6
DOT
 62
    64
 10
78.78864
 20
-17.686902
 40
0.157468
 50
107.721967
 51
135.0
  0
LINE
  8
ボルト／ビス
  6
DOT
 62
    64
 10
79.000492
 20
-17.252358
 11
78.660285
 21
-17.592565
  0
LINE
  8
ボルト／ビス
  6
DOT
 62
    64
 10
78.638647
 20
-17.638968
 11
78.767685
 21
-17.768008
  0
LINE
  8
ボルト／ビス
  6
DOT
 62
    64
 10
78.74071
 20
-17.536907
 11
78.869748
 21
-17.665945
  0
LINE
  8
ボルト／ビス
  6
DOT
 62
    64
 10
79.046895
 20
-17.23072
 11
79.175933
 21
-17.359757
  0
LINE
  8
ボルト／ビス
  6
DOT
 62
    64
 10
78.944832
 20
-17.332783
 11
79.073872
 21
-17.46182
  0
LINE
  8
ボルト／ビス
  6
DOT
 10
79.175933
 20
-17.359757
 11
78.767685
 21
-17.768008
  0
LINE
  8
ボルト／ビス
  6
DOT
 10
79.183943
 20
-17.35175
 11
79.254652
 21
-17.42246
  0
LINE
  8
ボルト／ビス
  6
DOT
 10
79.183943
 20
-17.35175
 11
78.759677
 21
-17.776015
  0
LINE
  8
ボルト／ビス
  6
DOT
 10
78.759677
 20
-17.776015
 11
78.830387
 21
-17.846725
  0
ENDBLK
  0
ENDSEC
  0
SECTION
  2
ENTITIES
  0
POLYLINE
  8
通り芯
  6
CONTINUOUS
 66
     1
 70
     1
  0
VERTEX
  8
通り芯
 10
-210.0
 20
-148.5
  0
VERTEX
  8
通り芯
 10
210.0
 20
-148.5
  0
VERTEX
  8
通り芯
 10
210.0
 20
148.5
  0
VERTEX
  8
通り芯
 10
-210.0
 20
148.5
  0
SEQEND
  0
INSERT
  2
*GRP_0001
  8
型材断面
  6
CONTINUOUS
 10
0.0
 20
0.0
  0
LINE
  8
型材断面
  6
DASHDOT
 10
-69.935405
 20
-67.794
 11
-69.935405
 21
56.66027
  0
LINE
  8
型材断面
  6
DASHDOT
 10
-92.435405
 20
-67.794
 11
-92.435405
 21
56.66027
  0
LINE
  8
型材断面
  6
DASHDOT
 10
-47.435405
 20
-67.794
 11
-47.435405
 21
56.66027
  0
LINE
  8
型材断面
  6
DASHDOT
 10
-92.435405
 20
56.66027
 11
-47.435405
 21
56.66027
  0
LINE
  8
型材断面
  6
DASHDOT
 10
-92.435405
 20
34.16027
 11
-47.435405
 21
34.16027
  0
LINE
  8
型材断面
  6
DASHDOT
 10
-92.435405
 20
11.66027
 11
-47.435405
 21
11.66027
  0
LINE
  8
型材断面
  6
CONTINUOUS
 10
-69.935405
 20
64.684145
 11
-72.17885
 21
68.569905
  0
LINE
  8
型材断面
  6
CONTINUOUS
 10
-69.935405
 20
64.684145
 11
-67.69196
 21
68.569905
  0
LINE
  8
型材断面
  6
CONTINUOUS
 10
-67.69196
 20
68.569905
 11
-72.17885
 21
68.569905
  0
LINE
  8
型材断面
  6
CONTINUOUS
 10
-69.935405
 20
3.636395
 11
-72.17885
 21
-0.249365
  0
LINE
  8
型材断面
  6
CONTINUOUS
 10
-69.935405
 20
3.636395
 11
-67.69196
 21
-0.249365
  0
LINE
  8
型材断面
  6
CONTINUOUS
 10
-67.69196
 20
-0.249365
 11
-72.17885
 21
-0.249365
  0
LINE
  8
型材断面
  6
CONTINUOUS
 10
-39.41153
 20
34.16027
 11
-35.52577
 21
36.403715
  0
LINE
  8
型材断面
  6
CONTINUOUS
 10
-39.41153
 20
34.16027
 11
-35.52577
 21
31.916825
  0
LINE
  8
型材断面
  6
CONTINUOUS
 10
-35.52577
 20
31.916825
 11
-35.52577
 21
36.403715
  0
LINE
  8
型材断面
  6
CONTINUOUS
 10
-100.45928
 20
34.16027
 11
-104.34504
 21
36.403715
  0
LINE
  8
型材断面
  6
CONTINUOUS
 10
-100.45928
 20
34.16027
 11
-104.34504
 21
31.916825
  0
LINE
  8
型材断面
  6
CONTINUOUS
 10
-104.34504
 20
31.916825
 11
-104.34504
 21
36.403715
  0
LINE
  8
型材断面
  6
CONTINUOUS
 10
-7.342083
 20
5.196457
 11
-9.585527
 21
1.310698
  0
LINE
  8
型材断面
  6
CONTINUOUS
 10
-7.342083
 20
5.196457
 11
-5.098638
 21
1.310698
  0
LINE
  8
型材断面
  6
CONTINUOUS
 10
-5.098638
 20
1.310698
 11
-9.585527
 21
1.310698
  0
LINE
  8
型材断面
  6
CONTINUOUS
 10
-7.342083
 20
-2.49309
 11
-6.447998
 21
-6.37885
  0
LINE
  8
型材断面
  6
CONTINUOUS
 10
-7.342083
 20
-2.49309
 11
-8.236168
 21
-6.37885
  0
LINE
  8
型材断面
  6
CONTINUOUS
 10
-8.236168
 20
-6.37885
 11
-6.447998
 21
-6.37885
  0
LINE
  8
型材断面
  6
CONTINUOUS
 10
-16.375962
 20
-0.097195
 11
36.280717
 21
-0.097195
  0
LINE
  8
型材断面
  6
CONTINUOUS
 10
-16.375962
 20
-11.297188
 11
36.280717
 21
-11.297188
  0
LINE
  8
型材断面
  6
CONTINUOUS
 10
-16.375962
 20
-18.137133
 11
36.280717
 21
-18.137133
  0
LINE
  8
型材断面
  6
CONTINUOUS
 62
    47
 10
-94.005445
 20
-57.430163
 11
-95.085765
 21
-57.430163
  0
LINE
  8
型材断面
  6
CONTINUOUS
 62
    47
 10
-95.02072
 20
-55.490182
 11
-95.03572
 21
-55.475183
  0
LINE
  8
型材断面
  6
CONTINUOUS
 62
    47
 10
-95.02072
 20
-55.490182
 11
-95.03572
 21
-55.505182
  0
LINE
  8
型材断面
  6
CONTINUOUS
 62
    47
 10
-95.02072
 20
-56.45353
 11
-95.03572
 21
-56.43853
  0
LINE
  8
型材断面
  6
CONTINUOUS
 62
    47
 10
-95.02072
 20
-56.45353
 11
-95.03572
 21
-56.46853
  0
LINE
  8
型材断面
  6
CONTINUOUS
 62
    47
 10
-95.03572
 20
-57.080207
 11
-95.03572
 21
-56.46853
  0
LINE
  8
型材断面
  6
CONTINUOUS
 62
    47
 10
-95.03572
 20
-56.43853
 11
-95.03572
 21
-55.505182
  0
LINE
  8
型材断面
  6
CONTINUOUS
 62
    47
 10
-97.28546
 20
-62.530338
 11
-97.28546
 21
-62.030338
  0
LINE
  8
型材断面
  6
CONTINUOUS
 62
    47
 10
-94.385718
 20
-61.030335
 11
-93.490448
 21
-61.030335
  0
LINE
  8
型材断面
  6
CONTINUOUS
 62
    47
 10
-94.735448
 20
-61.030315
 11
-98.035448
 21
-61.280338
  0
LINE
  8
型材断面
  6
CONTINUOUS
 62
    47
 10
-98.035448
 20
-62.030338
 11
-98.035448
 21
-61.280338
  0
LINE
  8
型材断面
  6
CONTINUOUS
 62
    47
 10
-96.935448
 20
-57.180195
 11
-96.935448
 21
-57.430163
  0
LINE
  8
型材断面
  6
CONTINUOUS
 62
    47
 10
-96.935448
 20
-57.83015
 11
-96.935448
 21
-57.630175
  0
LINE
  8
型材断面
  6
CONTINUOUS
 62
    47
 10
-95.03572
 20
-57.080207
 11
-96.945478
 21
-57.180195
  0
LINE
  8
型材断面
  6
CONTINUOUS
 62
    47
 10
-94.735448
 20
-57.83015
 11
-94.735448
 21
-61.030335
  0
LINE
  8
型材断面
  6
CONTINUOUS
 62
    47
 10
-95.03572
 20
-55.475183
 11
-95.03572
 21
-53.779985
  0
LINE
  8
型材断面
  6
CONTINUOUS
 62
    47
 10
-96.935448
 20
-57.83015
 11
-69.935405
 21
-57.83015
  0
LINE
  8
型材断面
  6
CONTINUOUS
 10
-96.935448
 20
-57.180195
 11
-69.935405
 21
-57.180195
  0
LINE
  8
型材断面
  6
CONTINUOUS
 62
    47
 10
-96.935448
 20
-57.430163
 11
-69.935405
 21
-57.430163
  0
LINE
  8
型材断面
  6
CONTINUOUS
 10
-95.03572
 20
-57.080207
 11
-69.935405
 21
-57.080207
  0
LINE
  8
型材断面
  6
CONTINUOUS
 62
    47
 10
-96.935448
 20
-57.630175
 11
-69.935405
 21
-57.630175
  0
LINE
  8
型材断面
  6
CONTINUOUS
 10
-94.735448
 20
-61.030335
 11
-69.935405
 21
-61.030335
  0
LINE
  8
型材断面
  6
CONTINUOUS
 10
-98.035448
 20
-61.280338
 11
-69.935405
 21
-61.280338
  0
LINE
  8
型材断面
  6
CONTINUOUS
 10
-97.28546
 20
-62.530338
 11
-69.935405
 21
-62.530338
  0
LINE
  8
型材断面
  6
CONTINUOUS
 10
-98.035448
 20
-62.030338
 11
-69.935405
 21
-62.030338
  0
LINE
  8
型材断面
  6
CONTINUOUS
 62
    47
 10
-45.865365
 20
-57.430163
 11
-44.785045
 21
-57.430163
  0
LINE
  8
型材断面
  6
CONTINUOUS
 62
    47
 10
-44.85009
 20
-55.490182
 11
-44.83509
 21
-55.475183
  0
LINE
  8
型材断面
  6
CONTINUOUS
 62
    47
 10
-44.85009
 20
-55.490182
 11
-44.83509
 21
-55.505182
  0
LINE
  8
型材断面
  6
CONTINUOUS
 62
    47
 10
-44.85009
 20
-56.45353
 11
-44.83509
 21
-56.43853
  0
LINE
  8
型材断面
  6
CONTINUOUS
 62
    47
 10
-44.85009
 20
-56.45353
 11
-44.83509
 21
-56.46853
  0
LINE
  8
型材断面
  6
CONTINUOUS
 62
    47
 10
-44.83509
 20
-57.080207
 11
-44.83509
 21
-56.46853
  0
LINE
  8
型材断面
  6
CONTINUOUS
 62
    47
 10
-44.83509
 20
-56.43853
 11
-44.83509
 21
-55.505182
  0
LINE
  8
型材断面
  6
CONTINUOUS
 62
    47
 10
-42.58535
 20
-62.530338
 11
-42.58535
 21
-62.030338
  0
LINE
  8
型材断面
  6
CONTINUOUS
 62
    47
 10
-45.485092
 20
-61.030335
 11
-46.380362
 21
-61.030335
  0
LINE
  8
型材断面
  6
CONTINUOUS
 62
    47
 10
-45.135362
 20
-61.030315
 11
-41.835362
 21
-61.280338
  0
LINE
  8
型材断面
  6
CONTINUOUS
 62
    47
 10
-41.835362
 20
-62.030338
 11
-41.835362
 21
-61.280338
  0
LINE
  8
型材断面
  6
CONTINUOUS
 62
    47
 10
-42.935362
 20
-57.180195
 11
-42.935362
 21
-57.430163
  0
LINE
  8
型材断面
  6
CONTINUOUS
 62
    47
 10
-42.935362
 20
-57.83015
 11
-42.935362
 21
-57.630175
  0
LINE
  8
型材断面
  6
CONTINUOUS
 62
    47
 10
-44.83509
 20
-57.080207
 11
-42.925332
 21
-57.180195
  0
LINE
  8
型材断面
  6
CONTINUOUS
 62
    47
 10
-45.135362
 20
-57.83015
 11
-45.135362
 21
-61.030335
  0
LINE
  8
型材断面
  6
CONTINUOUS
 62
    47
 10
-44.83509
 20
-55.475183
 11
-44.83509
 21
-53.779985
  0
LINE
  8
型材断面
  6
CONTINUOUS
 62
    47
 10
-42.935362
 20
-57.83015
 11
-69.935405
 21
-57.83015
  0
LINE
  8
型材断面
  6
CONTINUOUS
 10
-42.935362
 20
-57.180195
 11
-69.935405
 21
-57.180195
  0
LINE
  8
型材断面
  6
CONTINUOUS
 62
    47
 10
-42.935362
 20
-57.430163
 11
-69.935405
 21
-57.430163
  0
LINE
  8
型材断面
  6
CONTINUOUS
 10
-44.83509
 20
-57.080207
 11
-69.935405
 21
-57.080207
  0
LINE
  8
型材断面
  6
CONTINUOUS
 62
    47
 10
-42.935362
 20
-57.630175
 11
-69.935405
 21
-57.630175
  0
LINE
  8
型材断面
  6
CONTINUOUS
 10
-45.135362
 20
-61.030335
 11
-69.935405
 21
-61.030335
  0
LINE
  8
型材断面
  6
CONTINUOUS
 10
-41.835362
 20
-61.280338
 11
-69.935405
 21
-61.280338
  0
LINE
  8
型材断面
  6
CONTINUOUS
 10
-42.58535
 20
-62.530338
 11
-69.935405
 21
-62.530338
  0
LINE
  8
型材断面
  6
CONTINUOUS
 10
-41.835362
 20
-62.030338
 11
-69.935405
 21
-62.030338
  0
LINE
  8
型材断面
  6
CONTINUOUS
 10
-39.411528
 20
53.66027
 11
-35.525767
 21
52.766185
  0
LINE
  8
型材断面
  6
CONTINUOUS
 10
-39.411528
 20
53.66027
 11
-35.525767
 21
54.554355
  0
LINE
  8
型材断面
  6
CONTINUOUS
 10
-35.525767
 20
54.554355
 11
-35.525767
 21
52.766185
  0
LINE
  8
型材断面
  6
CONTINUOUS
 10
-39.411528
 20
14.66027
 11
-35.525767
 21
15.554355
  0
LINE
  8
型材断面
  6
CONTINUOUS
 10
-39.411528
 20
14.66027
 11
-35.525767
 21
13.766185
  0
LINE
  8
型材断面
  6
CONTINUOUS
 10
-35.525767
 20
13.766185
 11
-35.525767
 21
15.554355
  0
LINE
  8
型材断面
  6
CONTINUOUS
 10
-95.535405
 20
59.76027
 11
-98.035448
 21
62.260312
  0
LINE
  8
型材断面
  6
CONTINUOUS
 10
-96.935448
 20
61.160312
 11
-69.935405
 21
61.160312
  0
LINE
  8
型材断面
  6
CONTINUOUS
 10
-98.035448
 20
62.260312
 11
-69.935405
 21
62.260312
  0
LINE
  8
型材断面
  6
CONTINUOUS
 10
-96.935448
 20
61.160312
 11
-96.935448
 21
34.16027
  0
LINE
  8
型材断面
  6
CONTINUOUS
 10
-98.035448
 20
62.260312
 11
-98.035448
 21
34.16027
  0
LINE
  8
型材断面
  6
CONTINUOUS
 10
-44.335405
 20
59.76027
 11
-41.835362
 21
62.260312
  0
LINE
  8
型材断面
  6
CONTINUOUS
 10
-42.935362
 20
61.160312
 11
-69.935405
 21
61.160312
  0
LINE
  8
型材断面
  6
CONTINUOUS
 10
-41.835362
 20
62.260312
 11
-69.935405
 21
62.260312
  0
LINE
  8
型材断面
  6
CONTINUOUS
 10
-42.935362
 20
61.160312
 11
-42.935362
 21
34.16027
  0
LINE
  8
型材断面
  6
CONTINUOUS
 10
-41.835362
 20
62.260312
 11
-41.835362
 21
34.16027
  0
LINE
  8
型材断面
  6
CONTINUOUS
 10
-44.335405
 20
8.56027
 11
-41.835362
 21
6.060227
  0
LINE
  8
型材断面
  6
CONTINUOUS
 10
-42.935362
 20
7.160227
 11
-69.935405
 21
7.160227
  0
LINE
  8
型材断面
  6
CONTINUOUS
 10
-41.835362
 20
6.060227
 11
-69.935405
 21
6.060227
  0
LINE
  8
型材断面
  6
CONTINUOUS
 10
-42.935362
 20
7.160227
 11
-42.935362
 21
34.16027
  0
LINE
  8
型材断面
  6
CONTINUOUS
 10
-41.835362
 20
6.060227
 11
-41.835362
 21
34.16027
  0
LINE
  8
型材断面
  6
CONTINUOUS
 10
-95.535405
 20
8.56027
 11
-98.035448
 21
6.060227
  0
LINE
  8
型材断面
  6
CONTINUOUS
 10
-96.935448
 20
7.160227
 11
-69.935405
 21
7.160227
  0
LINE
  8
型材断面
  6
CONTINUOUS
 10
-98.035448
 20
6.060227
 11
-69.935405
 21
6.060227
  0
LINE
  8
型材断面
  6
CONTINUOUS
 10
-96.935448
 20
7.160227
 11
-96.935448
 21
34.16027
  0
LINE
  8
型材断面
  6
CONTINUOUS
 10
-98.035448
 20
6.060227
 11
-98.035448
 21
34.16027
  0
LINE
  8
型材断面
  6
CONTINUOUS
 62
    47
 10
50.213868
 20
-57.430163
 11
49.133547
 21
-57.430163
  0
LINE
  8
型材断面
  6
CONTINUOUS
 62
    47
 10
49.198593
 20
-55.490182
 11
49.183592
 21
-55.475183
  0
LINE
  8
型材断面
  6
CONTINUOUS
 62
    47
 10
49.198593
 20
-55.490182
 11
49.183592
 21
-55.505182
  0
LINE
  8
型材断面
  6
CONTINUOUS
 62
    47
 10
49.198593
 20
-56.45353
 11
49.183592
 21
-56.43853
  0
LINE
  8
型材断面
  6
CONTINUOUS
 62
    47
 10
49.198593
 20
-56.45353
 11
49.183592
 21
-56.46853
  0
LINE
  8
型材断面
  6
CONTINUOUS
 62
    47
 10
49.183592
 20
-57.080207
 11
49.183592
 21
-56.46853
  0
LINE
  8
型材断面
  6
CONTINUOUS
 62
    47
 10
49.183592
 20
-56.43853
 11
49.183592
 21
-55.505182
  0
LINE
  8
型材断面
  6
CONTINUOUS
 62
    47
 10
46.933852
 20
-62.530338
 11
46.933852
 21
-62.030338
  0
LINE
  8
型材断面
  6
CONTINUOUS
 62
    47
 10
49.833595
 20
-61.030335
 11
50.728865
 21
-61.030335
  0
LINE
  8
型材断面
  6
CONTINUOUS
 62
    47
 10
49.483865
 20
-61.030315
 11
46.183865
 21
-61.280338
  0
LINE
  8
型材断面
  6
CONTINUOUS
 62
    47
 10
46.183865
 20
-62.030338
 11
46.183865
 21
-61.280338
  0
LINE
  8
型材断面
  6
CONTINUOUS
 62
    47
 10
47.283865
 20
-57.180195
 11
47.283865
 21
-57.430163
  0
LINE
  8
型材断面
  6
CONTINUOUS
 62
    47
 10
47.283865
 20
-57.83015
 11
47.283865
 21
-57.630175
  0
LINE
  8
型材断面
  6
CONTINUOUS
 62
    47
 10
49.183592
 20
-57.080207
 11
47.273835
 21
-57.180195
  0
LINE
  8
型材断面
  6
CONTINUOUS
 62
    47
 10
49.483865
 20
-57.83015
 11
49.483865
 21
-61.030335
  0
LINE
  8
型材断面
  6
CONTINUOUS
 62
    47
 10
49.183592
 20
-55.475183
 11
49.183592
 21
-53.779985
  0
LINE
  8
型材断面
  6
CONTINUOUS
 62
    47
 10
47.283865
 20
-57.83015
 11
74.283907
 21
-57.83015
  0
LINE
  8
型材断面
  6
CONTINUOUS
 10
47.283865
 20
-57.180195
 11
74.283907
 21
-57.180195
  0
LINE
  8
型材断面
  6
CONTINUOUS
 62
    47
 10
47.283865
 20
-57.430163
 11
74.283907
 21
-57.430163
  0
LINE
  8
型材断面
  6
CONTINUOUS
 10
49.183592
 20
-57.080207
 11
74.283907
 21
-57.080207
  0
LINE
  8
型材断面
  6
CONTINUOUS
 62
    47
 10
47.283865
 20
-57.630175
 11
74.283907
 21
-57.630175
  0
LINE
  8
型材断面
  6
CONTINUOUS
 10
49.483865
 20
-61.030335
 11
74.283907
 21
-61.030335
  0
LINE
  8
型材断面
  6
CONTINUOUS
 10
46.183865
 20
-61.280338
 11
74.283907
 21
-61.280338
  0
LINE
  8
型材断面
  6
CONTINUOUS
 10
46.933852
 20
-62.530338
 11
74.283907
 21
-62.530338
  0
LINE
  8
型材断面
  6
CONTINUOUS
 10
46.183865
 20
-62.030338
 11
74.283907
 21
-62.030338
  0
LINE
  8
型材断面
  6
CONTINUOUS
 62
    47
 10
98.353947
 20
-57.430163
 11
99.434267
 21
-57.430163
  0
LINE
  8
型材断面
  6
CONTINUOUS
 62
    47
 10
99.369223
 20
-55.490182
 11
99.384223
 21
-55.475183
  0
LINE
  8
型材断面
  6
CONTINUOUS
 62
    47
 10
99.369223
 20
-55.490182
 11
99.384223
 21
-55.505182
  0
LINE
  8
型材断面
  6
CONTINUOUS
 62
    47
 10
99.369223
 20
-56.45353
 11
99.384223
 21
-56.43853
  0
LINE
  8
型材断面
  6
CONTINUOUS
 62
    47
 10
99.369223
 20
-56.45353
 11
99.384223
 21
-56.46853
  0
LINE
  8
型材断面
  6
CONTINUOUS
 62
    47
 10
99.384223
 20
-57.080207
 11
99.384223
 21
-56.46853
  0
LINE
  8
型材断面
  6
CONTINUOUS
 62
    47
 10
99.384223
 20
-56.43853
 11
99.384223
 21
-55.505182
  0
LINE
  8
型材断面
  6
CONTINUOUS
 62
    47
 10
101.633963
 20
-62.530338
 11
101.633963
 21
-62.030338
  0
LINE
  8
型材断面
  6
CONTINUOUS
 62
    47
 10
98.73422
 20
-61.030335
 11
97.83895
 21
-61.030335
  0
LINE
  8
型材断面
  6
CONTINUOUS
 62
    47
 10
99.08395
 20
-61.030315
 11
102.38395
 21
-61.280338
  0
LINE
  8
型材断面
  6
CONTINUOUS
 62
    47
 10
102.38395
 20
-62.030338
 11
102.38395
 21
-61.280338
  0
LINE
  8
型材断面
  6
CONTINUOUS
 62
    47
 10
101.28395
 20
-57.180195
 11
101.28395
 21
-57.430163
  0
LINE
  8
型材断面
  6
CONTINUOUS
 62
    47
 10
101.28395
 20
-57.83015
 11
101.28395
 21
-57.630175
  0
LINE
  8
型材断面
  6
CONTINUOUS
 62
    47
 10
99.384223
 20
-57.080207
 11
101.29398
 21
-57.180195
  0
LINE
  8
型材断面
  6
CONTINUOUS
 62
    47
 10
99.08395
 20
-57.83015
 11
99.08395
 21
-61.030335
  0
LINE
  8
型材断面
  6
CONTINUOUS
 62
    47
 10
99.384223
 20
-55.475183
 11
99.384223
 21
-53.779985
  0
LINE
  8
型材断面
  6
CONTINUOUS
 62
    47
 10
101.28395
 20
-57.83015
 11
74.283907
 21
-57.83015
  0
LINE
  8
型材断面
  6
CONTINUOUS
 10
101.28395
 20
-57.180195
 11
74.283907
 21
-57.180195
  0
LINE
  8
型材断面
  6
CONTINUOUS
 62
    47
 10
101.28395
 20
-57.430163
 11
74.283907
 21
-57.430163
  0
LINE
  8
型材断面
  6
CONTINUOUS
 10
99.384223
 20
-57.080207
 11
74.283907
 21
-57.080207
  0
LINE
  8
型材断面
  6
CONTINUOUS
 62
    47
 10
101.28395
 20
-57.630175
 11
74.283907
 21
-57.630175
  0
LINE
  8
型材断面
  6
CONTINUOUS
 10
99.08395
 20
-61.030335
 11
74.283907
 21
-61.030335
  0
LINE
  8
型材断面
  6
CONTINUOUS
 10
102.38395
 20
-61.280338
 11
74.283907
 21
-61.280338
  0
LINE
  8
型材断面
  6
CONTINUOUS
 10
101.633963
 20
-62.530338
 11
74.283907
 21
-62.530338
  0
LINE
  8
型材断面
  6
CONTINUOUS
 10
102.38395
 20
-62.030338
 11
74.283907
 21
-62.030338
  0
LINE
  8
型材断面
  6
CONTINUOUS
 62
    47
 10
50.213868
 20
-57.430163
 11
49.133547
 21
-57.430163
  0
LINE
  8
型材断面
  6
CONTINUOUS
 62
    47
 10
49.198593
 20
-55.490182
 11
49.183592
 21
-55.475183
  0
LINE
  8
型材断面
  6
CONTINUOUS
 62
    47
 10
49.198593
 20
-55.490182
 11
49.183592
 21
-55.505182
  0
LINE
  8
型材断面
  6
CONTINUOUS
 62
    47
 10
49.198593
 20
-56.45353
 11
49.183592
 21
-56.43853
  0
LINE
  8
型材断面
  6
CONTINUOUS
 62
    47
 10
49.198593
 20
-56.45353
 11
49.183592
 21
-56.46853
  0
LINE
  8
型材断面
  6
CONTINUOUS
 62
    47
 10
49.183592
 20
-57.080207
 11
49.183592
 21
-56.46853
  0
LINE
  8
型材断面
  6
CONTINUOUS
 62
    47
 10
49.183592
 20
-56.43853
 11
49.183592
 21
-55.505182
  0
LINE
  8
型材断面
  6
CONTINUOUS
 62
    47
 10
47.283865
 20
-57.180195
 11
47.283865
 21
-57.430163
  0
LINE
  8
型材断面
  6
CONTINUOUS
 62
    47
 10
49.183592
 20
-57.080207
 11
47.273835
 21
-57.180195
  0
LINE
  8
型材断面
  6
CONTINUOUS
 62
    47
 10
49.183592
 20
-55.475183
 11
49.183592
 21
-53.779985
  0
LINE
  8
型材断面
  6
CONTINUOUS
 10
47.283865
 20
-57.180195
 11
74.283907
 21
-57.180195
  0
LINE
  8
型材断面
  6
CONTINUOUS
 62
    47
 10
47.283865
 20
-57.430163
 11
74.283907
 21
-57.430163
  0
LINE
  8
型材断面
  6
CONTINUOUS
 10
49.183592
 20
-57.080207
 11
74.283907
 21
-57.080207
  0
LINE
  8
型材断面
  6
CONTINUOUS
 62
    47
 10
98.353947
 20
-57.430163
 11
99.434267
 21
-57.430163
  0
LINE
  8
型材断面
  6
CONTINUOUS
 62
    47
 10
99.369223
 20
-55.490182
 11
99.384223
 21
-55.475183
  0
LINE
  8
型材断面
  6
CONTINUOUS
 62
    47
 10
99.369223
 20
-55.490182
 11
99.384223
 21
-55.505182
  0
LINE
  8
型材断面
  6
CONTINUOUS
 62
    47
 10
99.369223
 20
-56.45353
 11
99.384223
 21
-56.43853
  0
LINE
  8
型材断面
  6
CONTINUOUS
 62
    47
 10
99.369223
 20
-56.45353
 11
99.384223
 21
-56.46853
  0
LINE
  8
型材断面
  6
CONTINUOUS
 62
    47
 10
99.384223
 20
-57.080207
 11
99.384223
 21
-56.46853
  0
LINE
  8
型材断面
  6
CONTINUOUS
 62
    47
 10
99.384223
 20
-56.43853
 11
99.384223
 21
-55.505182
  0
LINE
  8
型材断面
  6
CONTINUOUS
 62
    47
 10
101.28395
 20
-57.180195
 11
101.28395
 21
-57.430163
  0
LINE
  8
型材断面
  6
CONTINUOUS
 62
    47
 10
99.384223
 20
-57.080207
 11
101.29398
 21
-57.180195
  0
LINE
  8
型材断面
  6
CONTINUOUS
 62
    47
 10
99.384223
 20
-55.475183
 11
99.384223
 21
-53.779985
  0
LINE
  8
型材断面
  6
CONTINUOUS
 10
101.28395
 20
-57.180195
 11
74.283907
 21
-57.180195
  0
LINE
  8
型材断面
  6
CONTINUOUS
 62
    47
 10
101.28395
 20
-57.430163
 11
74.283907
 21
-57.430163
  0
LINE
  8
型材断面
  6
CONTINUOUS
 10
99.384223
 20
-57.080207
 11
74.283907
 21
-57.080207
  0
LINE
  8
型材断面
  6
DOT
 62
    47
 10
49.15321
 20
-55.019482
 11
48.389307
 21
-55.783385
  0
LINE
  8
型材断面
  6
DOT
 62
    47
 10
47.063528
 20
-54.365618
 11
47.042315
 21
-54.365618
  0
LINE
  8
型材断面
  6
DOT
 62
    47
 10
47.063528
 20
-54.365618
 11
47.063528
 21
-54.38683
  0
LINE
  8
型材断面
  6
DOT
 62
    47
 10
47.744717
 20
-55.046807
 11
47.723505
 21
-55.046807
  0
LINE
  8
型材断面
  6
DOT
 62
    47
 10
47.744717
 20
-55.046807
 11
47.744717
 21
-55.06802
  0
LINE
  8
型材断面
  6
DOT
 62
    47
 10
48.17724
 20
-55.50054
 11
47.744717
 21
-55.06802
  0
LINE
  8
型材断面
  6
DOT
 62
    47
 10
47.723505
 20
-55.046807
 11
47.063528
 21
-54.38683
  0
LINE
  8
型材断面
  6
DOT
 62
    47
 10
46.90463
 20
-56.914552
 11
47.081385
 21
-57.091308
  0
LINE
  8
型材断面
  6
DOT
 62
    47
 10
48.17724
 20
-55.50054
 11
46.897537
 21
-56.921645
  0
LINE
  8
型材断面
  6
DOT
 62
    47
 10
47.042315
 20
-54.365618
 11
45.84363
 21
-53.166932
  0
LINE
  8
型材断面
  6
DOT
 10
46.90463
 20
-56.914552
 11
65.996545
 21
-37.82264
  0
LINE
  8
型材断面
  6
DOT
 62
    47
 10
47.081385
 20
-57.091308
 11
66.173298
 21
-37.999395
  0
LINE
  8
型材断面
  6
DOT
 10
48.17724
 20
-55.50054
 11
65.925843
 21
-37.751937
  0
LINE
  8
型材断面
  6
DOT
 62
    47
 10
83.193388
 20
-20.979305
 11
83.957287
 21
-20.215402
  0
LINE
  8
型材断面
  6
DOT
 62
    47
 10
82.53952
 20
-18.889625
 11
82.53952
 21
-18.86841
  0
LINE
  8
型材断面
  6
DOT
 62
    47
 10
82.53952
 20
-18.889625
 11
82.560735
 21
-18.889625
  0
LINE
  8
型材断面
  6
DOT
 62
    47
 10
83.22071
 20
-19.570815
 11
83.22071
 21
-19.5496
  0
LINE
  8
型材断面
  6
DOT
 62
    47
 10
83.22071
 20
-19.570815
 11
83.241925
 21
-19.570815
  0
LINE
  8
型材断面
  6
DOT
 62
    47
 10
83.674445
 20
-20.003335
 11
83.241925
 21
-19.570815
  0
LINE
  8
型材断面
  6
DOT
 62
    47
 10
83.22071
 20
-19.5496
 11
82.560735
 21
-18.889625
  0
LINE
  8
型材断面
  6
DOT
 62
    47
 10
85.088458
 20
-18.730728
 11
85.26521
 21
-18.90748
  0
LINE
  8
型材断面
  6
DOT
 62
    47
 10
83.674445
 20
-20.003335
 11
85.09555
 21
-18.723635
  0
LINE
  8
型材断面
  6
DOT
 62
    47
 10
82.53952
 20
-18.86841
 11
81.340835
 21
-17.669725
  0
LINE
  8
型材断面
  6
DOT
 10
85.088458
 20
-18.730728
 11
65.996545
 21
-37.82264
  0
LINE
  8
型材断面
  6
DOT
 62
    47
 10
85.26521
 20
-18.90748
 11
66.173298
 21
-37.999395
  0
LINE
  8
型材断面
  6
DOT
 10
83.674445
 20
-20.003335
 11
65.925843
 21
-37.751937
  0
LINE
  8
型材断面
  6
DOT
 62
    47
 10
49.15321
 20
-55.019482
 11
48.389307
 21
-55.783385
  0
LINE
  8
型材断面
  6
DOT
 62
    47
 10
47.063528
 20
-54.365618
 11
47.042315
 21
-54.365618
  0
LINE
  8
型材断面
  6
DOT
 62
    47
 10
47.063528
 20
-54.365618
 11
47.063528
 21
-54.38683
  0
LINE
  8
型材断面
  6
DOT
 62
    47
 10
47.744717
 20
-55.046807
 11
47.723505
 21
-55.046807
  0
LINE
  8
型材断面
  6
DOT
 62
    47
 10
47.744717
 20
-55.046807
 11
47.744717
 21
-55.06802
  0
LINE
  8
型材断面
  6
DOT
 62
    47
 10
48.17724
 20
-55.50054
 11
47.744717
 21
-55.06802
  0
LINE
  8
型材断面
  6
DOT
 62
    47
 10
47.723505
 20
-55.046807
 11
47.063528
 21
-54.38683
  0
LINE
  8
型材断面
  6
DOT
 62
    47
 10
46.90463
 20
-56.914552
 11
47.081385
 21
-57.091308
  0
LINE
  8
型材断面
  6
DOT
 62
    47
 10
48.17724
 20
-55.50054
 11
46.897537
 21
-56.921645
  0
LINE
  8
型材断面
  6
DOT
 62
    47
 10
47.042315
 20
-54.365618
 11
45.84363
 21
-53.166932
  0
LINE
  8
型材断面
  6
DOT
 10
46.90463
 20
-56.914552
 11
65.996545
 21
-37.82264
  0
LINE
  8
型材断面
  6
DOT
 62
    47
 10
47.081385
 20
-57.091308
 11
66.173298
 21
-37.999395
  0
LINE
  8
型材断面
  6
DOT
 10
48.17724
 20
-55.50054
 11
65.925843
 21
-37.751937
  0
LINE
  8
型材断面
  6
DOT
 62
    47
 10
83.193388
 20
-20.979305
 11
83.957287
 21
-20.215402
  0
LINE
  8
型材断面
  6
DOT
 62
    47
 10
82.53952
 20
-18.889625
 11
82.53952
 21
-18.86841
  0
LINE
  8
型材断面
  6
DOT
 62
    47
 10
82.53952
 20
-18.889625
 11
82.560735
 21
-18.889625
  0
LINE
  8
型材断面
  6
DOT
 62
    47
 10
83.22071
 20
-19.570815
 11
83.22071
 21
-19.5496
  0
LINE
  8
型材断面
  6
DOT
 62
    47
 10
83.22071
 20
-19.570815
 11
83.241925
 21
-19.570815
  0
LINE
  8
型材断面
  6
DOT
 62
    47
 10
83.674445
 20
-20.003335
 11
83.241925
 21
-19.570815
  0
LINE
  8
型材断面
  6
DOT
 62
    47
 10
83.22071
 20
-19.5496
 11
82.560735
 21
-18.889625
  0
LINE
  8
型材断面
  6
DOT
 62
    47
 10
85.088458
 20
-18.730728
 11
85.26521
 21
-18.90748
  0
LINE
  8
型材断面
  6
DOT
 62
    47
 10
83.674445
 20
-20.003335
 11
85.09555
 21
-18.723635
  0
LINE
  8
型材断面
  6
DOT
 62
    47
 10
82.53952
 20
-18.86841
 11
81.340835
 21
-17.669725
  0
LINE
  8
型材断面
  6
DOT
 10
85.088458
 20
-18.730728
 11
65.996545
 21
-37.82264
  0
LINE
  8
型材断面
  6
DOT
 62
    47
 10
85.26521
 20
-18.90748
 11
66.173298
 21
-37.999395
  0
LINE
  8
型材断面
  6
DOT
 10
83.674445
 20
-20.003335
 11
65.925843
 21
-37.751937
  0
ARC
  8
型材断面
  6
DASHDOT
 10
46.77359
 20
-57.50515
 40
54.510412
 50
360.078819
 51
405.07882
  0
POLYLINE
  8
型材断面
  6
CONTINUOUS
 66
     1
 70
     1
  0
VERTEX
  8
型材断面
 10
-103.31
 20
-54.880725
  0
VERTEX
  8
型材断面
 10
-116.90601
 20
-54.880725
  0
VERTEX
  8
型材断面
 10
-116.90601
 20
-60.174252
  0
VERTEX
  8
型材断面
 10
-103.31
 20
-60.174252
  0
SEQEND
  0
POLYLINE
  8
型材断面
  6
DASHDOT
 66
     1
  0
VERTEX
  8
型材断面
 10
-47.435405
 20
56.66027
  0
VERTEX
  8
型材断面
 10
-92.435405
 20
34.16027
  0
VERTEX
  8
型材断面
 10
-47.435405
 20
11.66027
  0
SEQEND
  0
LINE
  8
ガラス
  6
CONTINUOUS
 10
121.504785
 20
28.757477
 11
167.304785
 21
28.757477
  0
LINE
  8
ガラス
  6
CONTINUOUS
 10
167.304785
 20
74.557477
 11
167.304785
 21
28.757477
  0
LINE
  8
ガラス
  6
CONTINUOUS
 10
167.304785
 20
74.557477
 11
121.504785
 21
74.557477
  0
LINE
  8
ガラス
  6
CONTINUOUS
 10
121.504785
 20
28.757477
 11
121.504785
 21
74.557477
  0
CIRCLE
  8
ボルト／ビス
  6
CONTINUOUS
 10
-84.935405
 20
10.66027
 40
0.288675
  0
CIRCLE
  8
ボルト／ビス
  6
CONTINUOUS
 10
-84.935405
 20
10.66027
 40
0.455885
  0
CIRCLE
  8
ボルト／ビス
  6
CONTINUOUS
 10
-69.935405
 20
10.66027
 40
0.288675
  0
CIRCLE
  8
ボルト／ビス
  6
CONTINUOUS
 10
-69.935405
 20
10.66027
 40
0.455885
  0
CIRCLE
  8
ボルト／ビス
  6
CONTINUOUS
 10
-93.435405
 20
19.16027
 40
0.288675
  0
CIRCLE
  8
ボルト／ビス
  6
CONTINUOUS
 10
-93.435405
 20
19.16027
 40
0.455885
  0
CIRCLE
  8
ボルト／ビス
  6
CONTINUOUS
 10
-93.435405
 20
34.16027
 40
0.288675
  0
CIRCLE
  8
ボルト／ビス
  6
CONTINUOUS
 10
-93.435405
 20
34.16027
 40
0.455885
  0
CIRCLE
  8
ボルト／ビス
  6
CONTINUOUS
 10
-54.935405
 20
10.66027
 40
0.288675
  0
CIRCLE
  8
ボルト／ビス
  6
CONTINUOUS
 10
-54.935405
 20
10.66027
 40
0.455885
  0
CIRCLE
  8
ボルト／ビス
  6
CONTINUOUS
 10
-46.435405
 20
19.16027
 40
0.288675
  0
CIRCLE
  8
ボルト／ビス
  6
CONTINUOUS
 10
-46.435405
 20
19.16027
 40
0.455885
  0
CIRCLE
  8
ボルト／ビス
  6
CONTINUOUS
 10
-46.435405
 20
34.16027
 40
0.288675
  0
CIRCLE
  8
ボルト／ビス
  6
CONTINUOUS
 10
-46.435405
 20
34.16027
 40
0.455885
  0
CIRCLE
  8
ボルト／ビス
  6
CONTINUOUS
 10
-84.935405
 20
57.66027
 40
0.288675
  0
CIRCLE
  8
ボルト／ビス
  6
CONTINUOUS
 10
-84.935405
 20
57.66027
 40
0.455885
  0
CIRCLE
  8
ボルト／ビス
  6
CONTINUOUS
 10
-69.935405
 20
57.66027
 40
0.288675
  0
CIRCLE
  8
ボルト／ビス
  6
CONTINUOUS
 10
-69.935405
 20
57.66027
 40
0.455885
  0
CIRCLE
  8
ボルト／ビス
  6
CONTINUOUS
 10
-93.435405
 20
49.16027
 40
0.288675
  0
CIRCLE
  8
ボルト／ビス
  6
CONTINUOUS
 10
-93.435405
 20
49.16027
 40
0.455885
  0
CIRCLE
  8
ボルト／ビス
  6
CONTINUOUS
 10
-54.935405
 20
57.66027
 40
0.288675
  0
CIRCLE
  8
ボルト／ビス
  6
CONTINUOUS
 10
-54.935405
 20
57.66027
 40
0.455885
  0
CIRCLE
  8
ボルト／ビス
  6
CONTINUOUS
 10
-46.435405
 20
49.16027
 40
0.288675
  0
CIRCLE
  8
ボルト／ビス
  6
CONTINUOUS
 10
-46.435405
 20
49.16027
 40
0.455885
  0
INSERT
  2
*GRP_0002
  8
文字
  6
CONTINUOUS
 10
0.0
 20
0.0
  0
INSERT
  2
*GRP_0003
  8
文字
  6
CONTINUOUS
 10
0.0
 20
0.0
  0
INSERT
  2
*GRP_0004
  8
文字
  6
CONTINUOUS
 10
0.0
 20
0.0
  0
INSERT
  2
*GRP_0005
  8
文字
  6
CONTINUOUS
 10
0.0
 20
0.0
  0
INSERT
  2
*GRP_0006
  8
文字
  6
CONTINUOUS
 10
0.0
 20
0.0
  0
INSERT
  2
*GRP_0007
  8
文字
  6
CONTINUOUS
 10
0.0
 20
0.0
  0
INSERT
  2
*GRP_0008
  8
文字
  6
CONTINUOUS
 10
0.0
 20
0.0
  0
INSERT
  2
*GRP_0009
  8
文字
  6
CONTINUOUS
 10
0.0
 20
0.0
  0
INSERT
  2
*GRP_0010
  8
文字
  6
CONTINUOUS
 10
0.0
 20
0.0
  0
INSERT
  2
*GRP_0011
  8
文字
  6
CONTINUOUS
 10
0.0
 20
0.0
  0
INSERT
  2
*GRP_0012
  8
文字
  6
CONTINUOUS
 10
0.0
 20
0.0
  0
INSERT
  2
*GRP_0013
  8
文字
  6
CONTINUOUS
 10
0.0
 20
0.0
  0
TEXT
  7
TextStyle03
  8
文字
  6
CONTINUOUS
 10
-3.075
 20
1.625
  1
は排水穴位置を示す
 40
3.0
 72
     5
 11
26.925
 21
1.625
  0
TEXT
  7
TextStyle03
  8
文字
  6
CONTINUOUS
 10
-8.675
 20
-16.75
  1
アンカー数量　６ヶ所
 40
3.0
 72
     5
 11
24.7
 21
-16.75
  0
TEXT
  7
TextStyle03
  8
文字
  6
CONTINUOUS
 10
-3.075
 20
-6.225
  1
はケーシング位置を示す
 40
3.0
 72
     5
 11
33.675
 21
-6.225
  0
TEXT
  7
TextStyle03
  8
文字
  6
CONTINUOUS
 10
-3.075
 20
-9.6
  1
２ヶ所中1ヶ所に設定
 40
3.0
 72
     5
 11
28.6125
 21
-9.6
  0
TEXT
  7
TextStyle03
  8
文字
  6
CONTINUOUS
 10
-98.825
 20
79.85
  1
アンカーピッチ
 40
3.0
 72
     5
 11
-75.575
 21
79.85
  0
TEXT
  7
TextStyle03
  8
文字
  6
CONTINUOUS
 10
-122.475
 20
1.75
  1
アンカーピッチ
 40
3.0
 50
90.0
 72
     5
 11
-122.475
 21
25.0
  0
TEXT
  7
TextStyle03
  8
文字
  6
CONTINUOUS
 10
100.3
 20
-38.575
  1
45°
 40
3.0
 72
     5
 11
106.675
 21
-38.575
  0
TEXT
  7
TextStyle03
  8
文字
  6
CONTINUOUS
 10
-115.275
 20
-58.9
  1
丁番側
 40
3.0
 72
     5
 11
-105.525
 21
-58.9
  0
TEXT
  7
TextStyle03
  8
文字
  6
CONTINUOUS
 10
82.925
 20
92.8
  1
ＮＳコード：ＮＳＨ
 40
5.0
 72
     5
 11
132.925
 21
92.8
  0
TEXT
  7
TextStyle03
  8
文字
  6
CONTINUOUS
 10
146.1
 20
38.8
  1
網入り6.8t
 40
3.0
 72
     5
 11
162.7875
 21
38.8
  0
TEXT
  7
TextStyle03
  8
文字
  6
CONTINUOUS
 10
152.725
 20
33.55
  1
×１枚
 40
3.0
 72
     5
 11
162.475
 21
33.55
  0
TEXT
  7
TextStyle03
  8
文字
  6
CONTINUOUS
 10
83.4
 20
116.5
  1
シリーズ：ＴＤ１Ｈ
 40
5.0
 72
     5
 11
133.4
 21
116.5
  0
TEXT
  7
TextStyle03
  8
文字
  6
CONTINUOUS
 10
83.4
 20
110.875
  1
　　　　　（片側開閉）900×900タイプ
 40
5.0
 72
     5
 11
184.025
 21
110.875
  0
TEXT
  7
TextStyle03
  8
文字
  6
CONTINUOUS
 10
83.4
 20
105.25
  1
図面名　：外観姿図
 40
5.0
 72
     5
 11
133.4
 21
105.25
  0
TEXT
  7
TextStyle03
  8
文字
  6
CONTINUOUS
 10
83.4
 20
99.625
  1
　　　　　　
 40
5.0
 72
     5
 11
116.525
 21
99.625
  0
INSERT
  2
*DIM_0014
  8
寸法
  6
CONTINUOUS
 10
0.0
 20
0.0
  0
INSERT
  2
*DIM_0015
  8
寸法
  6
CONTINUOUS
 10
0.0
 20
0.0
  0
INSERT
  2
*DIM_0029
  8
寸法
  6
CONTINUOUS
 10
0.0
 20
0.0
  0
INSERT
  2
*DIM_0030
  8
寸法
  6
CONTINUOUS
 10
0.0
 20
0.0
  0
INSERT
  2
*DIM_0031
  8
寸法
  6
CONTINUOUS
 10
0.0
 20
0.0
  0
INSERT
  2
*DIM_0032
  8
寸法
  6
CONTINUOUS
 10
0.0
 20
0.0
  0
INSERT
  2
*DIM_0033
  8
寸法
  6
CONTINUOUS
 10
0.0
 20
0.0
  0
INSERT
  2
*DIM_0034
  8
寸法
  6
CONTINUOUS
 10
0.0
 20
0.0
  0
INSERT
  2
*DIM_0035
  8
寸法
  6
CONTINUOUS
 10
0.0
 20
0.0
  0
INSERT
  2
*DIM_0036
  8
寸法
  6
CONTINUOUS
 10
0.0
 20
0.0
  0
CIRCLE
  8
寸法
  6
CONTINUOUS
 10
-111.453763
 20
34.16027
 40
1.73792
  0
INSERT
  2
*DIM_0038
  8
寸法
  6
CONTINUOUS
 10
0.0
 20
0.0
  0
INSERT
  2
*DIM_0039
  8
寸法
  6
CONTINUOUS
 10
0.0
 20
0.0
  0
LINE
  8
別途部材
  6
CONTINUOUS
 10
-95.535405
 20
8.56027
 11
-94.935405
 21
9.16027
  0
LINE
  8
別途部材
  6
CONTINUOUS
 10
-92.435405
 20
11.66027
 11
-80.34652
 21
23.749155
  0
LINE
  8
別途部材
  6
CONTINUOUS
 62
    96
 10
-94.935405
 20
-52.279985
 11
-95.535405
 21
-53.779985
  0
LINE
  8
別途部材
  6
CONTINUOUS
 62
    96
 10
-94.935405
 20
-52.279985
 11
-69.935405
 21
-52.279985
  0
LINE
  8
別途部材
  6
CONTINUOUS
 10
-95.535405
 20
-53.779985
 11
-69.935405
 21
-53.779985
  0
LINE
  8
別途部材
  6
CONTINUOUS
 62
    96
 10
-44.935405
 20
-52.279985
 11
-44.335405
 21
-53.779985
  0
LINE
  8
別途部材
  6
CONTINUOUS
 62
    96
 10
-44.935405
 20
-52.279985
 11
-69.935405
 21
-52.279985
  0
LINE
  8
別途部材
  6
CONTINUOUS
 10
-44.335405
 20
-53.779985
 11
-69.935405
 21
-53.779985
  0
ARC
  8
別途部材
  6
CONTINUOUS
 10
-69.935404
 20
-66.279985
 40
26.5
 50
31.890792
 51
148.109208
  0
LINE
  8
別途部材
  6
CONTINUOUS
 10
-94.935405
 20
9.16027
 11
-69.935405
 21
9.16027
  0
LINE
  8
別途部材
  6
CONTINUOUS
 10
-95.535405
 20
8.56027
 11
-69.935405
 21
8.56027
  0
LINE
  8
別途部材
  6
CONTINUOUS
 10
-95.535405
 20
8.56027
 11
-95.535405
 21
34.16027
  0
LINE
  8
別途部材
  6
CONTINUOUS
 10
-94.935405
 20
9.16027
 11
-94.935405
 21
34.16027
  0
LINE
  8
別途部材
  6
CONTINUOUS
 10
-44.335405
 20
8.56027
 11
-44.935405
 21
9.16027
  0
LINE
  8
別途部材
  6
CONTINUOUS
 10
-47.435405
 20
11.66027
 11
-59.52429
 21
23.749155
  0
LINE
  8
別途部材
  6
CONTINUOUS
 10
-44.935405
 20
9.16027
 11
-69.935405
 21
9.16027
  0
LINE
  8
別途部材
  6
CONTINUOUS
 10
-44.335405
 20
8.56027
 11
-69.935405
 21
8.56027
  0
LINE
  8
別途部材
  6
CONTINUOUS
 10
-44.335405
 20
8.56027
 11
-44.335405
 21
34.16027
  0
LINE
  8
別途部材
  6
CONTINUOUS
 10
-44.935405
 20
9.16027
 11
-44.935405
 21
34.16027
  0
LINE
  8
別途部材
  6
CONTINUOUS
 10
-95.535405
 20
59.76027
 11
-94.935405
 21
59.16027
  0
LINE
  8
別途部材
  6
CONTINUOUS
 10
-92.435405
 20
56.66027
 11
-80.34652
 21
44.571385
  0
LINE
  8
別途部材
  6
CONTINUOUS
 10
-94.935405
 20
59.16027
 11
-69.935405
 21
59.16027
  0
LINE
  8
別途部材
  6
CONTINUOUS
 10
-95.535405
 20
59.76027
 11
-69.935405
 21
59.76027
  0
LINE
  8
別途部材
  6
CONTINUOUS
 10
-95.535405
 20
59.76027
 11
-95.535405
 21
34.16027
  0
LINE
  8
別途部材
  6
CONTINUOUS
 10
-94.935405
 20
59.16027
 11
-94.935405
 21
34.16027
  0
LINE
  8
別途部材
  6
CONTINUOUS
 10
-44.335405
 20
59.76027
 11
-44.935405
 21
59.16027
  0
LINE
  8
別途部材
  6
CONTINUOUS
 10
-47.435405
 20
56.66027
 11
-59.52429
 21
44.571385
  0
LINE
  8
別途部材
  6
CONTINUOUS
 10
-44.935405
 20
59.16027
 11
-69.935405
 21
59.16027
  0
LINE
  8
別途部材
  6
CONTINUOUS
 10
-44.335405
 20
59.76027
 11
-69.935405
 21
59.76027
  0
LINE
  8
別途部材
  6
CONTINUOUS
 10
-44.335405
 20
59.76027
 11
-44.335405
 21
34.16027
  0
LINE
  8
別途部材
  6
CONTINUOUS
 10
-44.935405
 20
59.16027
 11
-44.935405
 21
34.16027
  0
INSERT
  2
*GRP_0028
  8
別途部材
  6
CONTINUOUS
 10
0.0
 20
0.0
  0
LINE
  8
別途部材
  6
CONTINUOUS
 62
    96
 10
49.283907
 20
-52.279985
 11
48.683907
 21
-53.779985
  0
LINE
  8
別途部材
  6
CONTINUOUS
 62
    96
 10
49.283907
 20
-52.279985
 11
74.283907
 21
-52.279985
  0
LINE
  8
別途部材
  6
CONTINUOUS
 10
48.683907
 20
-53.779985
 11
74.283907
 21
-53.779985
  0
LINE
  8
別途部材
  6
CONTINUOUS
 62
    96
 10
99.283907
 20
-52.279985
 11
99.883907
 21
-53.779985
  0
LINE
  8
別途部材
  6
CONTINUOUS
 62
    96
 10
99.283907
 20
-52.279985
 11
74.283907
 21
-52.279985
  0
LINE
  8
別途部材
  6
CONTINUOUS
 10
99.883907
 20
-53.779985
 11
74.283907
 21
-53.779985
  0
ARC
  8
別途部材
  6
CONTINUOUS
 10
74.283908
 20
-66.279985
 40
26.5
 50
31.890792
 51
148.109208
  0
INSERT
  2
*GRP_0037
  8
別途部材
  6
CONTINUOUS
 10
0.0
 20
0.0
  0
LINE
  8
別途部材
  6
CONTINUOUS
 62
    96
 10
49.283907
 20
-52.279985
 11
48.683907
 21
-53.779985
  0
LINE
  8
別途部材
  6
CONTINUOUS
 62
    96
 10
49.283907
 20
-52.279985
 11
74.283907
 21
-52.279985
  0
LINE
  8
別途部材
  6
CONTINUOUS
 10
48.683907
 20
-53.779985
 11
74.283907
 21
-53.779985
  0
LINE
  8
別途部材
  6
CONTINUOUS
 62
    96
 10
99.283907
 20
-52.279985
 11
99.883907
 21
-53.779985
  0
LINE
  8
別途部材
  6
CONTINUOUS
 62
    96
 10
99.283907
 20
-52.279985
 11
74.283907
 21
-52.279985
  0
LINE
  8
別途部材
  6
CONTINUOUS
 10
99.883907
 20
-53.779985
 11
74.283907
 21
-53.779985
  0
ARC
  8
別途部材
  6
CONTINUOUS
 10
74.283908
 20
-66.279985
 40
26.5
 50
31.890792
 51
148.109208
  0
LINE
  8
別途部材
  6
DOT
 62
    96
 10
44.853903
 20
-52.035337
 11
45.4903
 21
-53.520262
  0
LINE
  8
別途部材
  6
DOT
 62
    96
 10
44.853903
 20
-52.035337
 11
62.531573
 21
-34.357668
  0
LINE
  8
別途部材
  6
DOT
 10
45.4903
 20
-53.520262
 11
63.592232
 21
-35.418328
  0
LINE
  8
別途部材
  6
DOT
 62
    96
 10
80.209243
 20
-16.68
 11
81.694165
 21
-17.316395
  0
LINE
  8
別途部材
  6
DOT
 62
    96
 10
80.209243
 20
-16.68
 11
62.531573
 21
-34.357668
  0
LINE
  8
別途部材
  6
DOT
 10
81.694165
 20
-17.316395
 11
63.592232
 21
-35.418328
  0
ARC
  8
別途部材
  6
DOT
 10
72.431068
 20
-44.257163
 40
26.5
 50
76.890792
 51
193.109208
  0
LINE
  8
別途部材
  6
DOT
 62
    96
 10
44.853903
 20
-52.035337
 11
45.4903
 21
-53.520262
  0
LINE
  8
別途部材
  6
DOT
 62
    96
 10
44.853903
 20
-52.035337
 11
62.531573
 21
-34.357668
  0
LINE
  8
別途部材
  6
DOT
 10
45.4903
 20
-53.520262
 11
63.592232
 21
-35.418328
  0
LINE
  8
別途部材
  6
DOT
 62
    96
 10
80.209243
 20
-16.68
 11
81.694165
 21
-17.316395
  0
LINE
  8
別途部材
  6
DOT
 62
    96
 10
80.209243
 20
-16.68
 11
62.531573
 21
-34.357668
  0
LINE
  8
別途部材
  6
DOT
 10
81.694165
 20
-17.316395
 11
63.592232
 21
-35.418328
  0
ARC
  8
別途部材
  6
DOT
 10
72.431068
 20
-44.257163
 40
26.5
 50
76.890792
 51
193.109208
  0
INSERT
  2
*GRP_0040
  8
別途部材
  6
DOT
 10
0.0
 20
0.0
  0
INSERT
  2
*GRP_0041
  8
別途部材
  6
DOT
 10
0.0
 20
0.0
  0
INSERT
  2
*GRP_0042
  8
別途部材
  6
DOT
 10
0.0
 20
0.0
  0
INSERT
  2
*GRP_0043
  8
別途部材
  6
DOT
 10
0.0
 20
0.0
  0
INSERT
  2
*GRP_0044
  8
別途部材
  6
DOT
 10
0.0
 20
0.0
  0
INSERT
  2
*GRP_0045
  8
別途部材
  6
DOT
 10
0.0
 20
0.0
  0
ENDSEC
  0
EOF
