  0
SECTION
  2
HEADER
  9
$EXTMIN
 10
-210.0
 20
-148.5
  9
$EXTMAX
 10
210.0
 20
148.5
  9
$PDMODE
 70
    32
  9
$PDSIZE
 40
1.5
  9
$LTSCALE
 40
10.0
  0
ENDSEC
  0
SECTION
  2
TABLES
  0
TABLE
  2
LTYPE
 70
    15
  0
LTYPE
  2
CONTINUOUS
 70
    64
  3
実線
 72
    65
 73
     0
 40
0.0
  0
LTYPE
  2
DASHED
 70
    64
  3
破線A
 72
    65
 73
     2
 40
0.6
 49
0.4
 49
-0.2
  0
LTYPE
  2
DASHEDX2
 70
    64
  3
破線B
 72
    65
 73
     2
 40
1.3
 49
0.9
 49
-0.4
  0
LTYPE
  2
DASHDOT
 70
    64
  3
１点鎖線A
 72
    65
 73
     4
 40
0.5375
 49
0.375
 49
-0.05
 49
0.0625
 49
-0.05
  0
LTYPE
  2
DASHDOTX2
 70
    64
  3
１点鎖線B
 72
    65
 73
     4
 40
1.075
 49
0.75
 49
-0.1
 49
0.125
 49
-0.1
  0
LTYPE
  2
DIVIDE2
 70
    64
  3
２点鎖線A
 72
    65
 73
     6
 40
0.5125
 49
0.3
 49
-0.0375
 49
0.05
 49
-0.0375
 49
0.05
 49
-0.0375
  0
LTYPE
  2
DIVIDE
 70
    64
  3
２点鎖線B
 72
    65
 73
     6
 40
1.05
 49
0.55
 49
-0.1
 49
0.1
 49
-0.1
 49
0.1
 49
-0.1
  0
LTYPE
  2
DOT
 70
    64
  3
点線A
 72
    65
 73
     2
 40
0.1125
 49
0.0625
 49
-0.05
  0
LTYPE
  2
DOTX2
 70
    64
  3
点線B
 72
    65
 73
     2
 40
0.275
 49
0.15
 49
-0.125
  0
LTYPE
  2
CONTINUOUS
 70
    64
  3
実線
 72
    65
 73
     0
 40
0.0
  0
LTYPE
  2
CONTINUOUS
 70
    64
  3
実線
 72
    65
 73
     0
 40
0.0
  0
LTYPE
  2
CONTINUOUS
 70
    64
  3
実線
 72
    65
 73
     0
 40
0.0
  0
LTYPE
  2
CONTINUOUS
 70
    64
  3
実線
 72
    65
 73
     0
 40
0.0
  0
LTYPE
  2
CONTINUOUS
 70
    64
  3
実線
 72
    65
 73
     0
 40
0.0
  0
LTYPE
  2
CONTINUOUS
 70
    64
  3
実線
 72
    65
 73
     0
 40
0.0
  0
ENDTAB
  0
TABLE
  2
LAYER
 70
    34
  0
LAYER
  2
通り芯
 70
     0
 62
    15
  6
CONTINUOUS
  0
LAYER
  2
補助線
 70
     0
 62
    16
  6
DOT
  0
LAYER
  2
躯体
 70
     0
 62
    31
  6
CONTINUOUS
  0
LAYER
  2
型材
 70
     0
 62
    32
  6
CONTINUOUS
  0
LAYER
  2
型材断面
 70
     0
 62
    47
  6
CONTINUOUS
  0
LAYER
  2
ガラス
 70
     0
 62
    48
  6
CONTINUOUS
  0
LAYER
  2
ゴム等
 70
     0
 62
    63
  6
CONTINUOUS
  0
LAYER
  2
ボルト／ビス
 70
     0
 62
    64
  6
CONTINUOUS
  0
LAYER
  2
文字
 70
     0
 62
    79
  6
CONTINUOUS
  0
LAYER
  2
寸法
 70
     0
 62
    80
  6
CONTINUOUS
  0
LAYER
  2
ﾊｯﾁﾝｸﾞ
 70
     0
 62
    95
  6
CONTINUOUS
  0
LAYER
  2
別途部材
 70
     0
 62
    96
  6
CONTINUOUS
  0
LAYER
  2
曲げ物
 70
     0
 62
   111
  6
CONTINUOUS
  0
LAYER
  2
鉄骨等
 70
     0
 62
   112
  6
CONTINUOUS
  0
LAYER
  2
St
 70
     0
 62
   127
  6
CONTINUOUS
  0
LAYER
  2
その他部品等
 70
     0
 62
   128
  6
CONTINUOUS
  0
LAYER
  2
ｶﾞｽｹｯﾄ
 70
     0
 62
   143
  6
CONTINUOUS
  0
LAYER
  2
ｽｹｯﾁ
 70
     0
 62
    14
  6
CONTINUOUS
  0
LAYER
  2
0
 70
     0
 62
    17
  6
CONTINUOUS
  0
LAYER
  2
1
 70
     0
 62
    30
  6
CONTINUOUS
  0
LAYER
  2
4
 70
     0
 62
    33
  6
CONTINUOUS
  0
LAYER
  2
ﾚｲﾔ3
 70
     0
 62
    46
  6
CONTINUOUS
  0
LAYER
  2
外形線
 70
     0
 62
    49
  6
CONTINUOUS
  0
LAYER
  2
部品
 70
     0
 62
    14
  6
CONTINUOUS
  0
LAYER
  2
サッシ芯
 70
     0
 62
    17
  6
DASHDOTX2
  0
LAYER
  2
寸法線
 70
     0
 62
    62
  6
CONTINUOUS
  0
LAYER
  2
姿図外形線
 70
     0
 62
    65
  6
CONTINUOUS
  0
LAYER
  2
姿補助線
 70
     0
 62
    30
  6
CONTINUOUS
  0
LAYER
  2
透視線
 70
     0
 62
    78
  6
DOT
  0
LAYER
  2
用紙
 70
     0
 62
    81
  6
CONTINUOUS
  0
LAYER
  2
実線図枠
 70
     0
 62
    94
  6
CONTINUOUS
  0
LAYER
  2
補助図枠
 70
     0
 62
    97
  6
CONTINUOUS
  0
LAYER
  2
建具記号
 70
     0
 62
   110
  6
CONTINUOUS
  0
LAYER
  2
補助文字
 70
     0
 62
   113
  6
CONTINUOUS
  0
ENDTAB
  0
TABLE
  2
STYLE
 70
    10
  0
STYLE
  2
STANDARD
 70
     0
 40
1.0
 41
1.0
 42
1.0
 50
0.0
 71
     0
  3
TXT
  4
BIGFONT
  0
STYLE
  2
TATE
 70
     4
 40
1.0
 41
1.0
 42
1.0
 50
0.0
 71
     0
  3
TXT
  4
BIGFONT
  0
STYLE
  2
TextStyle03
 70
     0
 40
1.0
 41
1.0
 42
1.0
 50
0.0
 71
     0
  3
MONOTXT
  4
BIGFONT
  0
STYLE
  2
TextStyle04
 70
     0
 40
1.0
 41
1.0
 42
1.0
 50
0.0
 71
     0
  3
MONOTXT
  4
BIGFONT
  0
STYLE
  2
TextStyle05
 70
     0
 40
1.0
 41
1.0
 42
1.0
 50
0.0
 71
     0
  3
MONOTXT
  4
BIGFONT
  0
STYLE
  2
TextStyle06
 70
     0
 40
1.0
 41
1.0
 42
1.0
 50
0.0
 71
     0
  3
MONOTXT
  4
BIGFONT
  0
STYLE
  2
TextStyle07
 70
     0
 40
1.0
 41
1.0
 42
1.0
 50
0.0
 71
     0
  3
MONOTXT
  4
BIGFONT
  0
STYLE
  2
TextStyle08
 70
     0
 40
1.0
 41
1.0
 42
1.0
 50
0.0
 71
     0
  3
MONOTXT
  4
BIGFONT
  0
STYLE
  2
TextStyle09
 70
     0
 40
1.0
 41
1.0
 42
1.0
 50
0.0
 71
     0
  3
MONOTXT
  4
BIGFONT
  0
STYLE
  2
TextStyle10
 70
     0
 40
1.0
 41
1.0
 42
1.0
 50
0.0
 71
     0
  3
MONOTXT
  4
BIGFONT
  0
ENDTAB
  0
ENDSEC
  0
SECTION
  2
BLOCKS
  0
BLOCK
  2
*GRP_0001
 70
    65
 10
0.0
 20
0.0
  0
LINE
  8
型材断面
  6
CONTINUOUS
 10
195.0
 20
133.5
 11
195.0
 21
-133.5
  0
LINE
  8
型材断面
  6
CONTINUOUS
 10
195.0
 20
-133.5
 11
-185.0
 21
-133.5
  0
LINE
  8
型材断面
  6
CONTINUOUS
 10
-185.0
 20
-133.5
 11
-185.0
 21
133.5
  0
LINE
  8
型材断面
  6
CONTINUOUS
 10
195.0
 20
133.5
 11
-185.0
 21
133.5
  0
LINE
  8
型材断面
  6
CONTINUOUS
 10
145.0
 20
-133.5
 11
145.0
 21
-118.5
  0
LINE
  8
型材断面
  6
CONTINUOUS
 10
195.0
 20
-118.5
 11
145.0
 21
-118.5
  0
ENDBLK
  0
BLOCK
  2
*DIM_0002
 70
    65
 10
0.0
 20
0.0
  0
LINE
  8
寸法
  6
BYBLOCK
 62
     0
 10
19.403067
 20
17.20722
 11
19.403067
 21
14.182178
  0
LINE
  8
寸法
  6
BYBLOCK
 62
     0
 10
21.403067
 20
14.182178
 11
19.403067
 21
14.182178
  0
POINT
  8
寸法
 62
     0
 10
21.403067
 20
14.182178
  0
POINT
  8
寸法
 62
     0
 10
19.403067
 20
14.182178
  0
TEXT
  7
TextStyle03
  8
寸法
  6
CONTINUOUS
 62
     0
 10
17.53125
 20
10.4
  1
60
 40
3.0
 72
     5
 11
20.71875
 21
10.4
  0
ENDBLK
  0
BLOCK
  2
*DIM_0003
 70
    65
 10
0.0
 20
0.0
  0
LINE
  8
寸法
  6
BYBLOCK
 62
     0
 10
-59.930267
 20
17.20722
 11
-59.930267
 21
14.182178
  0
LINE
  8
寸法
  6
BYBLOCK
 62
     0
 10
-61.930267
 20
14.182178
 11
-59.930267
 21
14.182178
  0
POINT
  8
寸法
 62
     0
 10
-61.930267
 20
14.182178
  0
POINT
  8
寸法
 62
     0
 10
-59.930267
 20
14.182178
  0
TEXT
  7
TextStyle03
  8
寸法
  6
CONTINUOUS
 62
     0
 10
-61.24375
 20
10.4
  1
60
 40
3.0
 72
     5
 11
-58.05625
 21
10.4
  0
ENDBLK
  0
BLOCK
  2
*DIM_0004
 70
    65
 10
0.0
 20
0.0
  0
LINE
  8
寸法
  6
BYBLOCK
 62
     0
 10
-64.930265
 20
47.814033
 11
-78.223103
 21
47.814033
  0
LINE
  8
寸法
  6
BYBLOCK
 62
     0
 10
-64.930265
 20
27.814033
 11
-78.223103
 21
27.814033
  0
LINE
  8
寸法
  6
BYBLOCK
 62
     0
 10
-78.223103
 20
47.814033
 11
-78.223103
 21
27.814033
  0
POINT
  8
寸法
 62
     0
 10
-78.223103
 20
47.814033
  0
POINT
  8
寸法
 62
     0
 10
-78.223103
 20
27.814033
  0
TEXT
  7
TextStyle03
  8
寸法
  6
CONTINUOUS
 62
     0
 10
-78.6
 20
35.3625
  1
600
 40
3.0
 50
90.0
 72
     5
 11
-78.6
 21
40.2375
  0
ENDBLK
  0
BLOCK
  2
*DIM_0005
 70
    65
 10
0.0
 20
0.0
  0
LINE
  8
寸法
  6
BYBLOCK
 62
     0
 10
-55.2636
 20
55.814033
 11
-55.2636
 21
85.561652
  0
LINE
  8
寸法
  6
BYBLOCK
 62
     0
 10
-31.930267
 20
55.814033
 11
-31.930267
 21
85.561652
  0
LINE
  8
寸法
  6
BYBLOCK
 62
     0
 10
-55.2636
 20
85.561652
 11
-31.930267
 21
85.561652
  0
POINT
  8
寸法
 62
     0
 10
-55.2636
 20
85.561652
  0
POINT
  8
寸法
 62
     0
 10
-31.930267
 20
85.561652
  0
TEXT
  7
TextStyle03
  8
寸法
  6
CONTINUOUS
 62
     0
 10
-46.0375
 20
85.925
  1
700
 40
3.0
 72
     5
 11
-41.1625
 21
85.925
  0
ENDBLK
  0
BLOCK
  2
*DIM_0006
 70
    65
 10
0.0
 20
0.0
  0
LINE
  8
寸法
  6
BYBLOCK
 62
     0
 10
-8.596933
 20
55.814033
 11
-8.596933
 21
85.561652
  0
LINE
  8
寸法
  6
BYBLOCK
 62
     0
 10
-31.930267
 20
85.561652
 11
-8.596933
 21
85.561652
  0
POINT
  8
寸法
 62
     0
 10
-8.596933
 20
85.561652
  0
TEXT
  7
TextStyle03
  8
寸法
  6
CONTINUOUS
 62
     0
 10
-22.7125
 20
85.925
  1
700
 40
3.0
 72
     5
 11
-17.8375
 21
85.925
  0
ENDBLK
  0
BLOCK
  2
*DIM_0007
 70
    65
 10
0.0
 20
0.0
  0
LINE
  8
寸法
  6
BYBLOCK
 62
     0
 10
14.7364
 20
55.814033
 11
14.7364
 21
85.561652
  0
LINE
  8
寸法
  6
BYBLOCK
 62
     0
 10
-8.596933
 20
85.561652
 11
14.7364
 21
85.561652
  0
POINT
  8
寸法
 62
     0
 10
14.7364
 20
85.561652
  0
TEXT
  7
TextStyle03
  8
寸法
  6
CONTINUOUS
 62
     0
 10
0.6375
 20
85.925
  1
700
 40
3.0
 72
     5
 11
5.5125
 21
85.925
  0
ENDBLK
  0
BLOCK
  2
*DIM_0008
 70
    65
 10
0.0
 20
0.0
  0
LINE
  8
寸法
  6
BYBLOCK
 62
     0
 10
-45.263598
 20
15.262702
 11
-45.263598
 21
10.09722
  0
LINE
  8
寸法
  6
BYBLOCK
 62
     0
 10
4.736398
 20
15.262702
 11
4.736398
 21
10.09722
  0
LINE
  8
寸法
  6
BYBLOCK
 62
     0
 10
-45.263598
 20
10.09722
 11
4.736398
 21
10.09722
  0
POINT
  8
寸法
 62
     0
 10
-45.263598
 20
10.09722
  0
POINT
  8
寸法
 62
     0
 10
4.736398
 20
10.09722
  0
TEXT
  7
TextStyle03
  8
寸法
  6
CONTINUOUS
 62
     0
 10
-23.55625
 20
10.475
  1
1500
 40
3.0
 72
     5
 11
-16.99375
 21
10.475
  0
ENDBLK
  0
BLOCK
  2
*DIM_0009
 70
    65
 10
0.0
 20
0.0
  0
LINE
  8
寸法
  6
CONTINUOUS
 10
79.813693
 20
-40.4876
 11
79.813693
 21
-30.999195
  0
LINE
  8
寸法
  6
CONTINUOUS
 10
120.730358
 20
-40.4876
 11
120.730358
 21
-30.999195
  0
LINE
  8
寸法
  6
CONTINUOUS
 10
79.813693
 20
-30.999195
 11
120.730358
 21
-30.999195
  0
POINT
  8
寸法
 10
79.813693
 20
-30.999195
  0
POINT
  8
寸法
 10
120.730358
 20
-30.999195
  0
TEXT
  7
TextStyle03
  8
寸法
  6
CONTINUOUS
 10
95.28125
 20
-30.65
  1
1227.5
 40
3.0
 72
     5
 11
105.21875
 21
-30.65
  0
ENDBLK
  0
BLOCK
  2
*DIM_0010
 70
    65
 10
0.0
 20
0.0
  0
LINE
  8
寸法
  6
CONTINUOUS
 10
121.730358
 20
-41.4876
 11
130.706065
 21
-41.4876
  0
LINE
  8
寸法
  6
CONTINUOUS
 10
121.730358
 20
-71.4876
 11
130.706065
 21
-71.4876
  0
LINE
  8
寸法
  6
CONTINUOUS
 10
130.706065
 20
-41.4876
 11
130.706065
 21
-71.4876
  0
POINT
  8
寸法
 10
130.706065
 20
-41.4876
  0
POINT
  8
寸法
 10
130.706065
 20
-71.4876
  0
TEXT
  7
TextStyle03
  8
寸法
  6
CONTINUOUS
 10
130.325
 20
-58.9375
  1
900
 40
3.0
 50
90.0
 72
     5
 11
130.325
 21
-54.0625
  0
ENDBLK
  0
BLOCK
  2
*GRP_0011
 70
    65
 10
0.0
 20
0.0
  0
LINE
  8
型材断面
  6
DOT
 62
    47
 10
112.024208
 20
55.286867
 11
113.367737
 21
53.943338
  0
LINE
  8
型材断面
  6
DOT
 62
    47
 10
89.396767
 20
32.65943
 11
90.740298
 21
31.3159
  0
LINE
  8
型材断面
  6
DOT
 10
90.740298
 20
31.3159
 11
113.367737
 21
53.943338
  0
LINE
  8
型材断面
  6
DOT
 10
89.23189
 20
33.837885
 11
88.882993
 21
34.186782
  0
LINE
  8
型材断面
  6
DOT
 10
88.253732
 20
32.85973
 11
88.725137
 21
32.388325
  0
LINE
  8
型材断面
  6
DOT
 10
109.942973
 20
55.246762
 11
110.461528
 21
55.765317
  0
LINE
  8
型材断面
  6
DOT
 10
110.84578
 20
55.451775
 11
110.496883
 21
55.800672
  0
LINE
  8
型材断面
  6
DOT
 10
111.823937
 20
56.429932
 11
112.29534
 21
55.958527
  0
LINE
  8
型材断面
  6
DOT
 10
88.882993
 20
34.186782
 11
110.496883
 21
55.800672
  0
LINE
  8
型材断面
  6
DOT
 10
88.253732
 20
32.85973
 11
111.823937
 21
56.429932
  0
LINE
  8
型材断面
  6
DOT
 10
88.725137
 20
32.388325
 11
112.29534
 21
55.958527
  0
ENDBLK
  0
BLOCK
  2
*GRP_0012
 70
    65
 10
0.0
 20
0.0
  0
INSERT
  2
*GRP_0013
  8
補助線
  6
CONTINUOUS
 10
0.0
 20
0.0
  0
CIRCLE
  8
別途部材
  6
CONTINUOUS
 10
113.579868
 20
54.014048
 40
0.2
  0
CIRCLE
  8
別途部材
  6
CONTINUOUS
 10
113.579868
 20
54.014048
 40
0.1
  0
LINE
  8
別途部材
  6
CONTINUOUS
 10
112.179868
 20
53.914048
 11
112.179868
 21
53.814048
  0
LINE
  8
別途部材
  6
CONTINUOUS
 10
113.579868
 20
53.814048
 11
112.179868
 21
53.814048
  0
LINE
  8
別途部材
  6
CONTINUOUS
 10
112.179868
 20
53.914048
 11
113.406662
 21
53.914048
  0
LINE
  8
別途部材
  6
CONTINUOUS
 10
114.979868
 20
53.914048
 11
114.979868
 21
53.814048
  0
LINE
  8
別途部材
  6
CONTINUOUS
 10
113.579868
 20
53.814048
 11
114.979868
 21
53.814048
  0
LINE
  8
別途部材
  6
CONTINUOUS
 10
114.979868
 20
53.914048
 11
113.753073
 21
53.914048
  0
LINE
  8
別途部材
  6
CONTINUOUS
 10
112.446532
 20
53.914048
 11
112.446532
 21
53.814048
  0
LINE
  8
別途部材
  6
CONTINUOUS
 10
112.7132
 20
53.914048
 11
112.7132
 21
53.814048
  0
LINE
  8
別途部材
  6
CONTINUOUS
 10
112.979868
 20
53.914048
 11
112.979868
 21
53.814048
  0
LINE
  8
別途部材
  6
CONTINUOUS
 10
114.7132
 20
53.914048
 11
114.7132
 21
53.814048
  0
LINE
  8
別途部材
  6
CONTINUOUS
 10
114.446532
 20
53.914048
 11
114.446532
 21
53.814048
  0
LINE
  8
別途部材
  6
CONTINUOUS
 10
114.179868
 20
53.914048
 11
114.179868
 21
53.814048
  0
ENDBLK
  0
BLOCK
  2
*GRP_0013
 70
    65
 10
0.0
 20
0.0
  0
LINE
  8
補助線
  6
BYBLOCK
 62
     0
 10
113.579868
 20
53.84738
 11
113.579868
 21
54.180715
  0
LINE
  8
補助線
  6
BYBLOCK
 62
     0
 10
113.4132
 20
54.014048
 11
113.746532
 21
54.014048
  0
ENDBLK
  0
BLOCK
  2
*DIM_0014
 70
    65
 10
0.0
 20
0.0
  0
LINE
  8
寸法
  6
CONTINUOUS
 10
85.977292
 20
22.814033
 11
85.977292
 21
52.814033
  0
POINT
  8
寸法
 10
85.977292
 20
22.814033
  0
POINT
  8
寸法
 10
85.977292
 20
52.814033
  0
TEXT
  7
TextStyle03
  8
寸法
  6
CONTINUOUS
 10
85.6
 20
26.925
  1
呼称寸法　900
 40
3.0
 50
90.0
 72
     5
 11
85.6
 21
48.675
  0
ENDBLK
  0
BLOCK
  2
*DIM_0015
 70
    65
 10
0.0
 20
0.0
  0
LINE
  8
寸法
  6
CONTINUOUS
 10
115.746498
 20
16.314018
 11
85.977292
 21
16.314018
  0
LINE
  8
寸法
  6
CONTINUOUS
 10
85.977292
 20
22.814033
 11
85.977292
 21
16.314018
  0
POINT
  8
寸法
 10
85.977292
 20
22.814033
  0
POINT
  8
寸法
 10
85.977292
 20
16.314018
  0
TEXT
  7
TextStyle03
  8
寸法
  6
CONTINUOUS
 10
85.6
 20
18.05
  1
※
 40
3.0
 50
90.0
 72
     5
 11
85.6
 21
21.05
  0
ENDBLK
  0
BLOCK
  2
*DIM_0016
 70
    65
 10
0.0
 20
0.0
  0
LINE
  8
寸法
  6
CONTINUOUS
 10
115.746498
 20
59.314048
 11
85.977292
 21
59.314048
  0
LINE
  8
寸法
  6
CONTINUOUS
 10
85.977292
 20
52.814033
 11
85.977292
 21
59.314048
  0
POINT
  8
寸法
 10
85.977292
 20
52.814033
  0
POINT
  8
寸法
 10
85.977292
 20
59.314048
  0
TEXT
  7
TextStyle03
  8
寸法
  6
CONTINUOUS
 10
85.6
 20
54.55
  1
※
 40
3.0
 50
90.0
 72
     5
 11
85.6
 21
57.55
  0
ENDBLK
  0
BLOCK
  2
*DIM_0017
 70
    65
 10
0.0
 20
0.0
  0
LINE
  8
寸法
  6
CONTINUOUS
 10
116.07983
 20
54.814048
 11
116.07983
 21
67.741883
  0
LINE
  8
寸法
  6
CONTINUOUS
 10
110.136533
 20
54.047382
 11
110.136533
 21
67.741883
  0
LINE
  8
寸法
  6
CONTINUOUS
 10
116.07983
 20
67.741883
 11
110.136533
 21
67.741883
  0
POINT
  8
寸法
 10
116.07983
 20
67.741883
  0
POINT
  8
寸法
 10
110.136533
 20
67.741883
  0
TEXT
  7
TextStyle03
  8
寸法
  6
CONTINUOUS
 10
101.65
 20
64.975
  1
178.3
 40
3.0
 72
     5
 11
109.9
 21
64.975
  0
ENDBLK
  0
BLOCK
  2
*DIM_0018
 70
    65
 10
0.0
 20
0.0
  0
LINE
  8
寸法
  6
CONTINUOUS
 10
119.07983
 20
60.314048
 11
119.07983
 21
67.741883
  0
LINE
  8
寸法
  6
CONTINUOUS
 10
116.07983
 20
67.741883
 11
119.07983
 21
67.741883
  0
POINT
  8
寸法
 10
119.07983
 20
67.741883
  0
TEXT
  7
TextStyle03
  8
寸法
  6
CONTINUOUS
 10
116.075
 20
68.1
  1
※
 40
3.0
 72
     5
 11
119.075
 21
68.1
  0
ENDBLK
  0
BLOCK
  2
*DIM_0019
 70
    65
 10
0.0
 20
0.0
  0
LINE
  8
寸法
  6
BYBLOCK
 62
     0
 10
21.403067
 20
-13.121378
 11
-61.930265
 21
-13.121378
  0
POINT
  8
寸法
 62
     0
 10
21.403067
 20
-13.121378
  0
POINT
  8
寸法
 62
     0
 10
-61.930265
 20
-13.121378
  0
TEXT
  7
TextStyle03
  8
寸法
  6
CONTINUOUS
 62
     0
 10
-32.01875
 20
-12.75
  1
呼称寸法　2500
 40
3.0
 72
     5
 11
-8.58125
 21
-12.75
  0
ENDBLK
  0
BLOCK
  2
*GRP_0020
 70
    65
 10
0.0
 20
0.0
  0
LINE
  8
ボルト／ビス
  6
CONTINUOUS
 10
-62.596933
 20
-70.209608
 11
-62.596933
 21
-69.74294
  0
LINE
  8
ボルト／ビス
  6
CONTINUOUS
 10
-62.230265
 20
-70.209608
 11
-62.230265
 21
-70.14294
  0
LINE
  8
ボルト／ビス
  6
CONTINUOUS
 10
-62.230265
 20
-70.14294
 11
-62.9636
 21
-70.14294
  0
LINE
  8
ボルト／ビス
  6
CONTINUOUS
 10
-62.9636
 20
-70.14294
 11
-62.9636
 21
-70.209608
  0
LINE
  8
ボルト／ビス
  6
CONTINUOUS
 10
-62.230265
 20
-70.209608
 11
-62.9636
 21
-70.209608
  0
LINE
  8
ボルト／ビス
  6
CONTINUOUS
 10
-62.296933
 20
-70.109608
 11
-62.296933
 21
-70.14294
  0
LINE
  8
ボルト／ビス
  6
CONTINUOUS
 10
-62.296933
 20
-70.109608
 11
-62.896933
 21
-70.109608
  0
LINE
  8
ボルト／ビス
  6
CONTINUOUS
 10
-62.896933
 20
-70.109608
 11
-62.896933
 21
-70.14294
  0
LINE
  8
ボルト／ビス
  6
CONTINUOUS
 62
    64
 10
-62.436557
 20
-69.909608
 11
-62.404482
 21
-69.921282
  0
ARC
  8
ボルト／ビス
  6
CONTINUOUS
 62
    64
 10
-62.452594
 20
-70.014588
 40
0.104978
 50
90.0
 51
117.278033
  0
ARC
  8
ボルト／ビス
  6
CONTINUOUS
 62
    64
 10
-62.596932
 20
-70.312012
 40
0.402402
 50
76.165015
 51
103.834998
  0
LINE
  8
ボルト／ビス
  6
CONTINUOUS
 62
    64
 10
-62.757308
 20
-69.909608
 11
-62.789383
 21
-69.921282
  0
ARC
  8
ボルト／ビス
  6
CONTINUOUS
 62
    64
 10
-62.741269
 20
-70.014588
 40
0.104978
 50
62.721967
 51
90.0
  0
LINE
  8
ボルト／ビス
  6
CONTINUOUS
 62
    64
 10
-62.436557
 20
-69.909608
 11
-62.757308
 21
-69.909608
  0
LINE
  8
ボルト／ビス
  6
CONTINUOUS
 62
    64
 10
-62.789383
 20
-69.921282
 11
-62.789383
 21
-70.04294
  0
LINE
  8
ボルト／ビス
  6
CONTINUOUS
 62
    64
 10
-62.693157
 20
-69.921282
 11
-62.693157
 21
-70.04294
  0
LINE
  8
ボルト／ビス
  6
CONTINUOUS
 62
    64
 10
-62.404482
 20
-69.921282
 11
-62.404482
 21
-70.04294
  0
LINE
  8
ボルト／ビス
  6
CONTINUOUS
 62
    64
 10
-62.500708
 20
-69.921282
 11
-62.500708
 21
-70.04294
  0
LINE
  8
ボルト／ビス
  6
CONTINUOUS
 10
-62.404482
 20
-70.04294
 11
-62.789383
 21
-70.04294
  0
LINE
  8
ボルト／ビス
  6
CONTINUOUS
 10
-62.396933
 20
-70.04294
 11
-62.396933
 21
-70.109608
  0
LINE
  8
ボルト／ビス
  6
CONTINUOUS
 10
-62.396933
 20
-70.04294
 11
-62.796933
 21
-70.04294
  0
LINE
  8
ボルト／ビス
  6
CONTINUOUS
 10
-62.796933
 20
-70.04294
 11
-62.796933
 21
-70.109608
  0
ENDBLK
  0
BLOCK
  2
*GRP_0021
 70
    65
 10
0.0
 20
0.0
  0
LINE
  8
ボルト／ビス
  6
CONTINUOUS
 10
22.069735
 20
-70.209613
 11
22.069735
 21
-69.742945
  0
LINE
  8
ボルト／ビス
  6
CONTINUOUS
 10
22.436403
 20
-70.209613
 11
22.436403
 21
-70.142945
  0
LINE
  8
ボルト／ビス
  6
CONTINUOUS
 10
22.436403
 20
-70.142945
 11
21.703067
 21
-70.142945
  0
LINE
  8
ボルト／ビス
  6
CONTINUOUS
 10
21.703067
 20
-70.142945
 11
21.703067
 21
-70.209613
  0
LINE
  8
ボルト／ビス
  6
CONTINUOUS
 10
22.436403
 20
-70.209613
 11
21.703067
 21
-70.209613
  0
LINE
  8
ボルト／ビス
  6
CONTINUOUS
 10
22.369735
 20
-70.109612
 11
22.369735
 21
-70.142945
  0
LINE
  8
ボルト／ビス
  6
CONTINUOUS
 10
22.369735
 20
-70.109612
 11
21.769735
 21
-70.109612
  0
LINE
  8
ボルト／ビス
  6
CONTINUOUS
 10
21.769735
 20
-70.109612
 11
21.769735
 21
-70.142945
  0
LINE
  8
ボルト／ビス
  6
CONTINUOUS
 62
    64
 10
22.23011
 20
-69.909613
 11
22.262185
 21
-69.921288
  0
ARC
  8
ボルト／ビス
  6
CONTINUOUS
 62
    64
 10
22.214073
 20
-70.014593
 40
0.104978
 50
90.0
 51
117.278033
  0
ARC
  8
ボルト／ビス
  6
CONTINUOUS
 62
    64
 10
22.069736
 20
-70.312017
 40
0.402402
 50
76.165015
 51
103.834998
  0
LINE
  8
ボルト／ビス
  6
CONTINUOUS
 62
    64
 10
21.90936
 20
-69.909613
 11
21.877285
 21
-69.921288
  0
ARC
  8
ボルト／ビス
  6
CONTINUOUS
 62
    64
 10
21.925398
 20
-70.014593
 40
0.104978
 50
62.721967
 51
90.0
  0
LINE
  8
ボルト／ビス
  6
CONTINUOUS
 62
    64
 10
22.23011
 20
-69.909613
 11
21.90936
 21
-69.909613
  0
LINE
  8
ボルト／ビス
  6
CONTINUOUS
 62
    64
 10
21.877285
 20
-69.921288
 11
21.877285
 21
-70.042945
  0
LINE
  8
ボルト／ビス
  6
CONTINUOUS
 62
    64
 10
21.97351
 20
-69.921288
 11
21.97351
 21
-70.042945
  0
LINE
  8
ボルト／ビス
  6
CONTINUOUS
 62
    64
 10
22.262185
 20
-69.921288
 11
22.262185
 21
-70.042945
  0
LINE
  8
ボルト／ビス
  6
CONTINUOUS
 62
    64
 10
22.16596
 20
-69.921288
 11
22.16596
 21
-70.042945
  0
LINE
  8
ボルト／ビス
  6
CONTINUOUS
 10
22.262185
 20
-70.042945
 11
21.877285
 21
-70.042945
  0
LINE
  8
ボルト／ビス
  6
CONTINUOUS
 10
22.269735
 20
-70.042945
 11
22.269735
 21
-70.109612
  0
LINE
  8
ボルト／ビス
  6
CONTINUOUS
 10
22.269735
 20
-70.042945
 11
21.869735
 21
-70.042945
  0
LINE
  8
ボルト／ビス
  6
CONTINUOUS
 10
21.869735
 20
-70.042945
 11
21.869735
 21
-70.109612
  0
ENDBLK
  0
BLOCK
  2
*DIM_0022
 70
    65
 10
0.0
 20
0.0
  0
LINE
  8
寸法
  6
CONTINUOUS
 10
28.903082
 20
-78.709613
 11
37.20747
 21
-78.709613
  0
LINE
  8
寸法
  6
CONTINUOUS
 10
37.20747
 20
-75.709613
 11
37.20747
 21
-78.709613
  0
POINT
  8
寸法
 10
37.20747
 20
-78.709613
  0
TEXT
  7
TextStyle03
  8
寸法
  6
CONTINUOUS
 10
36.8
 20
-78.725
  1
※
 40
3.0
 50
90.0
 72
     5
 11
36.8
 21
-75.725
  0
ENDBLK
  0
BLOCK
  2
*DIM_0023
 70
    65
 10
0.0
 20
0.0
  0
LINE
  8
寸法
  6
CONTINUOUS
 10
27.903082
 20
-75.376282
 11
27.903082
 21
-13.121378
  0
LINE
  8
寸法
  6
CONTINUOUS
 10
21.403067
 20
-13.121378
 11
27.903082
 21
-13.121378
  0
POINT
  8
寸法
 10
21.403067
 20
-13.121378
  0
POINT
  8
寸法
 10
27.903082
 20
-13.121378
  0
TEXT
  7
TextStyle03
  8
寸法
  6
CONTINUOUS
 10
23.125
 20
-12.75
  1
※
 40
3.0
 72
     5
 11
26.125
 21
-12.75
  0
ENDBLK
  0
BLOCK
  2
*DIM_0024
 70
    65
 10
0.0
 20
0.0
  0
LINE
  8
寸法
  6
CONTINUOUS
 10
-68.43028
 20
-75.376282
 11
-68.43028
 21
-13.121378
  0
LINE
  8
寸法
  6
CONTINUOUS
 10
-61.930265
 20
-13.121378
 11
-68.43028
 21
-13.121378
  0
POINT
  8
寸法
 10
-61.930265
 20
-13.121378
  0
POINT
  8
寸法
 10
-68.43028
 20
-13.121378
  0
TEXT
  7
TextStyle03
  8
寸法
  6
CONTINUOUS
 10
-66.7
 20
-12.75
  1
※
 40
3.0
 72
     5
 11
-63.7
 21
-12.75
  0
ENDBLK
  0
BLOCK
  2
*DIM_0025
 70
    65
 10
0.0
 20
0.0
  0
LINE
  8
寸法
  6
CONTINUOUS
 10
23.403082
 20
-75.709613
 11
37.20747
 21
-75.709613
  0
LINE
  8
寸法
  6
CONTINUOUS
 10
22.636418
 20
-69.766315
 11
37.20747
 21
-69.766315
  0
LINE
  8
寸法
  6
CONTINUOUS
 10
37.20747
 20
-75.709613
 11
37.20747
 21
-69.766315
  0
POINT
  8
寸法
 10
37.20747
 20
-75.709613
  0
POINT
  8
寸法
 10
37.20747
 20
-69.766315
  0
TEXT
  7
TextStyle03
  8
寸法
  6
CONTINUOUS
 10
41.2
 20
-76.95
  1
178.3
 40
3.0
 50
90.0
 72
     5
 11
41.2
 21
-68.7
  0
ENDBLK
  0
ENDSEC
  0
SECTION
  2
ENTITIES
  0
POLYLINE
  8
通り芯
  6
CONTINUOUS
 66
     1
 70
     1
  0
VERTEX
  8
通り芯
 10
-210.0
 20
-148.5
  0
VERTEX
  8
通り芯
 10
210.0
 20
-148.5
  0
VERTEX
  8
通り芯
 10
210.0
 20
148.5
  0
VERTEX
  8
通り芯
 10
-210.0
 20
148.5
  0
SEQEND
  0
INSERT
  2
*GRP_0001
  8
型材断面
  6
CONTINUOUS
 10
0.0
 20
0.0
  0
LINE
  8
型材断面
  6
DASHDOT
 10
21.403067
 20
-77.836442
 11
21.403067
 21
52.814033
  0
LINE
  8
型材断面
  6
DASHDOT
 10
-20.2636
 20
-77.836442
 11
-20.2636
 21
52.814033
  0
LINE
  8
型材断面
  6
DASHDOT
 10
-61.930265
 20
-77.836442
 11
-61.930265
 21
52.814033
  0
LINE
  8
型材断面
  6
DASHDOT
 10
119.07983
 20
52.814033
 11
-61.930265
 21
52.814033
  0
LINE
  8
型材断面
  6
DASHDOT
 10
119.07983
 20
37.814033
 11
-61.930265
 21
37.814033
  0
LINE
  8
型材断面
  6
DASHDOT
 10
119.07983
 20
22.814033
 11
-61.930265
 21
22.814033
  0
LINE
  8
型材断面
  6
CONTINUOUS
 10
-45.263598
 20
55.444162
 11
-46.759227
 21
58.03467
  0
LINE
  8
型材断面
  6
CONTINUOUS
 10
-45.263598
 20
55.444162
 11
-43.767968
 21
58.03467
  0
LINE
  8
型材断面
  6
CONTINUOUS
 10
-43.767968
 20
58.03467
 11
-46.759227
 21
58.03467
  0
LINE
  8
型材断面
  6
CONTINUOUS
 10
-64.560395
 20
37.814033
 11
-67.150903
 21
39.309663
  0
LINE
  8
型材断面
  6
CONTINUOUS
 10
-64.560395
 20
37.814033
 11
-67.150903
 21
36.318403
  0
LINE
  8
型材断面
  6
CONTINUOUS
 10
-67.150903
 20
36.318403
 11
-67.150903
 21
39.309663
  0
LINE
  8
型材断面
  6
CONTINUOUS
 10
-45.263598
 20
20.183902
 11
-46.759227
 21
17.593395
  0
LINE
  8
型材断面
  6
CONTINUOUS
 10
-45.263598
 20
20.183902
 11
-43.767968
 21
17.593395
  0
LINE
  8
型材断面
  6
CONTINUOUS
 10
-43.767968
 20
17.593395
 11
-46.759227
 21
17.593395
  0
LINE
  8
型材断面
  6
CONTINUOUS
 10
-115.808788
 20
90.791505
 11
-115.212733
 21
88.200998
  0
LINE
  8
型材断面
  6
CONTINUOUS
 10
-115.808788
 20
90.791505
 11
-116.404845
 21
88.200998
  0
LINE
  8
型材断面
  6
CONTINUOUS
 10
-116.404845
 20
88.200998
 11
-115.212733
 21
88.200998
  0
LINE
  8
型材断面
  6
CONTINUOUS
 10
-121.831375
 20
84.922105
 11
-75.589598
 21
84.922105
  0
LINE
  8
型材断面
  6
CONTINUOUS
 10
-115.808788
 20
97.32138
 11
-117.304418
 21
94.730873
  0
LINE
  8
型材断面
  6
CONTINUOUS
 10
-115.808788
 20
97.32138
 11
-114.313158
 21
94.730873
  0
LINE
  8
型材断面
  6
CONTINUOUS
 10
-114.313158
 20
94.730873
 11
-117.304418
 21
94.730873
  0
LINE
  8
型材断面
  6
CONTINUOUS
 10
-121.831375
 20
93.792277
 11
-75.589598
 21
93.792277
  0
LINE
  8
型材断面
  6
CONTINUOUS
 10
-121.831375
 20
79.134073
 11
-75.589598
 21
79.134073
  0
LINE
  8
型材断面
  6
CONTINUOUS
 10
4.736398
 20
55.444162
 11
6.232028
 21
58.03467
  0
LINE
  8
型材断面
  6
CONTINUOUS
 10
4.736398
 20
55.444162
 11
3.240768
 21
58.03467
  0
LINE
  8
型材断面
  6
CONTINUOUS
 10
3.240768
 20
58.03467
 11
6.232028
 21
58.03467
  0
LINE
  8
型材断面
  6
CONTINUOUS
 10
24.033195
 20
37.814033
 11
26.623703
 21
39.309663
  0
LINE
  8
型材断面
  6
CONTINUOUS
 10
24.033195
 20
37.814033
 11
26.623703
 21
36.318403
  0
LINE
  8
型材断面
  6
CONTINUOUS
 10
26.623703
 20
36.318403
 11
26.623703
 21
39.309663
  0
LINE
  8
型材断面
  6
CONTINUOUS
 10
4.736398
 20
20.183902
 11
6.232028
 21
17.593395
  0
LINE
  8
型材断面
  6
CONTINUOUS
 10
4.736398
 20
20.183902
 11
3.240768
 21
17.593395
  0
LINE
  8
型材断面
  6
CONTINUOUS
 10
3.240768
 20
17.593395
 11
6.232028
 21
17.593395
  0
LINE
  8
型材断面
  6
CONTINUOUS
 10
19.403067
 20
20.20722
 11
18.80701
 21
17.616715
  0
LINE
  8
型材断面
  6
CONTINUOUS
 10
19.403067
 20
20.20722
 11
19.999125
 21
17.616715
  0
LINE
  8
型材断面
  6
CONTINUOUS
 10
19.999125
 20
17.616715
 11
18.80701
 21
17.616715
  0
LINE
  8
型材断面
  6
CONTINUOUS
 10
-59.930267
 20
20.20722
 11
-59.33421
 21
17.616715
  0
LINE
  8
型材断面
  6
CONTINUOUS
 10
-59.930267
 20
20.20722
 11
-60.526325
 21
17.616715
  0
LINE
  8
型材断面
  6
CONTINUOUS
 10
-60.526325
 20
17.616715
 11
-59.33421
 21
17.616715
  0
LINE
  8
型材断面
  6
CONTINUOUS
 10
-68.430282
 20
16.314018
 11
-63.996937
 21
20.747363
  0
LINE
  8
型材断面
  6
CONTINUOUS
 10
23.469735
 20
20.747363
 11
27.90308
 21
16.314018
  0
LINE
  8
型材断面
  6
CONTINUOUS
 10
27.90308
 20
16.314018
 11
-68.430282
 21
16.314018
  0
LINE
  8
型材断面
  6
CONTINUOUS
 10
-63.996937
 20
54.880703
 11
-68.430282
 21
59.314048
  0
LINE
  8
型材断面
  6
CONTINUOUS
 10
-68.430282
 20
16.314018
 11
-68.430282
 21
59.314048
  0
LINE
  8
型材断面
  6
CONTINUOUS
 10
23.469735
 20
54.880703
 11
27.90308
 21
59.314048
  0
LINE
  8
型材断面
  6
CONTINUOUS
 10
27.90308
 20
59.314048
 11
27.90308
 21
16.314018
  0
LINE
  8
型材断面
  6
CONTINUOUS
 10
27.90308
 20
59.314048
 11
-68.430282
 21
59.314048
  0
POLYLINE
  8
型材断面
  6
DASHDOT
 66
     1
  0
VERTEX
  8
型材断面
 10
-61.930267
 20
22.814033
  0
VERTEX
  8
型材断面
 10
-20.2636
 20
52.814033
  0
VERTEX
  8
型材断面
 10
21.403065
 20
22.814033
  0
SEQEND
  0
LINE
  8
型材断面
  6
DASHDOT
 10
-20.2636
 20
52.814033
 11
-20.2636
 21
22.814033
  0
LINE
  8
型材断面
  6
CONTINUOUS
 62
    47
 10
111.57983
 20
53.814048
 11
113.479868
 21
53.814048
  0
LINE
  8
型材断面
  6
CONTINUOUS
 10
113.679868
 20
53.814048
 11
116.07983
 21
53.814048
  0
LINE
  8
型材断面
  6
CONTINUOUS
 10
116.07983
 20
53.814048
 11
116.746498
 21
59.314048
  0
LINE
  8
型材断面
  6
CONTINUOUS
 10
119.07983
 20
59.314048
 11
116.746498
 21
59.314048
  0
LINE
  8
型材断面
  6
CONTINUOUS
 62
    47
 10
111.57983
 20
21.814018
 11
113.479868
 21
21.814018
  0
LINE
  8
型材断面
  6
CONTINUOUS
 10
113.679868
 20
21.814018
 11
116.07983
 21
21.814018
  0
LINE
  8
型材断面
  6
CONTINUOUS
 10
116.07983
 20
21.814018
 11
116.746498
 21
16.314018
  0
LINE
  8
型材断面
  6
CONTINUOUS
 10
119.07983
 20
16.314018
 11
116.746498
 21
16.314018
  0
LINE
  8
型材断面
  6
CONTINUOUS
 10
119.07983
 20
59.314048
 11
119.07983
 21
16.314018
  0
LINE
  8
型材断面
  6
CONTINUOUS
 10
116.746498
 20
59.314048
 11
116.746498
 21
16.314018
  0
LINE
  8
型材断面
  6
CONTINUOUS
 10
113.479868
 20
21.814018
 11
113.479868
 21
53.814048
  0
LINE
  8
型材断面
  6
CONTINUOUS
 10
113.679868
 20
21.814018
 11
113.679868
 21
53.814048
  0
LINE
  8
型材断面
  6
CONTINUOUS
 10
116.07983
 20
21.814018
 11
116.07983
 21
53.814048
  0
ARC
  8
型材断面
  6
DASHDOT
 10
113.579868
 20
54.014048
 40
33.003318
 50
219.78455
 51
264.78455
  0
LINE
  8
型材断面
  6
CONTINUOUS
 10
110.629947
 20
22.530725
 11
110.136533
 21
22.530725
  0
LINE
  8
型材断面
  6
CONTINUOUS
 10
110.629947
 20
21.147405
 11
111.296615
 21
21.147405
  0
LINE
  8
型材断面
  6
CONTINUOUS
 10
110.136533
 20
52.314035
 11
110.136533
 21
53.047382
  0
LINE
  8
型材断面
  6
CONTINUOUS
 10
110.629947
 20
53.097382
 11
110.136533
 21
53.097382
  0
LINE
  8
型材断面
  6
CONTINUOUS
 10
110.629947
 20
54.480705
 11
111.296615
 21
54.480705
  0
LINE
  8
型材断面
  6
CONTINUOUS
 10
110.136533
 20
22.530725
 11
110.136533
 21
53.097382
  0
LINE
  8
型材断面
  6
CONTINUOUS
 10
110.629947
 20
21.147405
 11
110.629947
 21
54.480705
  0
LINE
  8
型材断面
  6
CONTINUOUS
 10
111.296615
 20
21.147405
 11
111.296615
 21
54.480705
  0
INSERT
  2
*GRP_0011
  8
型材断面
  6
DASHDOT
 10
0.0
 20
0.0
  0
LINE
  8
型材断面
  6
CONTINUOUS
 62
    47
 10
-62.93028
 20
-71.209613
 11
-62.93028
 21
-73.109652
  0
LINE
  8
型材断面
  6
CONTINUOUS
 10
-62.93028
 20
-73.309652
 11
-62.93028
 21
-75.709613
  0
LINE
  8
型材断面
  6
CONTINUOUS
 10
-62.93028
 20
-75.709613
 11
-68.43028
 21
-76.376282
  0
LINE
  8
型材断面
  6
CONTINUOUS
 10
-68.43028
 20
-78.709613
 11
-68.43028
 21
-76.376282
  0
LINE
  8
型材断面
  6
CONTINUOUS
 62
    47
 10
22.403082
 20
-71.209613
 11
22.403082
 21
-73.109652
  0
LINE
  8
型材断面
  6
CONTINUOUS
 10
22.403082
 20
-73.309652
 11
22.403082
 21
-75.709613
  0
LINE
  8
型材断面
  6
CONTINUOUS
 10
22.403082
 20
-75.709613
 11
27.903082
 21
-76.376282
  0
LINE
  8
型材断面
  6
CONTINUOUS
 10
27.903082
 20
-78.709613
 11
27.903082
 21
-76.376282
  0
LINE
  8
型材断面
  6
CONTINUOUS
 10
-68.43028
 20
-78.709613
 11
27.903082
 21
-78.709613
  0
LINE
  8
型材断面
  6
CONTINUOUS
 10
-68.43028
 20
-76.376282
 11
27.903082
 21
-76.376282
  0
LINE
  8
型材断面
  6
CONTINUOUS
 10
22.403082
 20
-73.109652
 11
-62.93028
 21
-73.109652
  0
LINE
  8
型材断面
  6
CONTINUOUS
 10
22.403082
 20
-73.309652
 11
-62.93028
 21
-73.309652
  0
LINE
  8
型材断面
  6
CONTINUOUS
 10
22.403082
 20
-75.709613
 11
-62.93028
 21
-75.709613
  0
LINE
  8
型材断面
  6
CONTINUOUS
 10
-62.213573
 20
-70.25973
 11
-62.213573
 21
-69.766315
  0
LINE
  8
型材断面
  6
CONTINUOUS
 10
-63.596895
 20
-70.25973
 11
-63.596895
 21
-70.926397
  0
LINE
  8
型材断面
  6
CONTINUOUS
 10
20.90307
 20
-69.766315
 11
21.636418
 21
-69.766315
  0
LINE
  8
型材断面
  6
CONTINUOUS
 10
21.686418
 20
-70.25973
 11
21.686418
 21
-69.766315
  0
LINE
  8
型材断面
  6
CONTINUOUS
 10
23.06974
 20
-70.25973
 11
23.06974
 21
-70.926397
  0
LINE
  8
型材断面
  6
CONTINUOUS
 10
-62.213573
 20
-69.766315
 11
21.686418
 21
-69.766315
  0
LINE
  8
型材断面
  6
CONTINUOUS
 10
-63.596895
 20
-70.25973
 11
23.06974
 21
-70.25973
  0
LINE
  8
型材断面
  6
CONTINUOUS
 10
-63.596895
 20
-70.926397
 11
23.06974
 21
-70.926397
  0
LINE
  8
型材断面
  6
CONTINUOUS
 10
-63.596918
 20
54.480682
 11
-61.430248
 21
52.314015
  0
LINE
  8
型材断面
  6
CONTINUOUS
 10
-63.596918
 20
21.147382
 11
-61.430248
 21
23.31405
  0
LINE
  8
型材断面
  6
CONTINUOUS
 10
-61.430248
 20
23.31405
 11
-61.430248
 21
52.314015
  0
LINE
  8
型材断面
  6
CONTINUOUS
 10
-62.213595
 20
22.530705
 11
-62.213595
 21
53.09736
  0
LINE
  8
型材断面
  6
CONTINUOUS
 10
-63.596918
 20
21.147382
 11
-63.596918
 21
54.480682
  0
LINE
  8
型材断面
  6
CONTINUOUS
 10
20.903047
 20
52.314015
 11
23.069717
 21
54.480682
  0
LINE
  8
型材断面
  6
CONTINUOUS
 10
20.903047
 20
23.31405
 11
23.069717
 21
21.147382
  0
LINE
  8
型材断面
  6
CONTINUOUS
 10
20.903047
 20
23.31405
 11
20.903047
 21
52.314015
  0
LINE
  8
型材断面
  6
CONTINUOUS
 10
21.686395
 20
22.530705
 11
21.686395
 21
53.09736
  0
LINE
  8
型材断面
  6
CONTINUOUS
 10
23.069717
 20
21.147382
 11
23.069717
 21
54.480682
  0
LINE
  8
型材断面
  6
CONTINUOUS
 10
20.903047
 20
52.314015
 11
-61.430248
 21
52.314015
  0
LINE
  8
型材断面
  6
CONTINUOUS
 10
21.686395
 20
53.09736
 11
-62.213595
 21
53.09736
  0
LINE
  8
型材断面
  6
CONTINUOUS
 10
23.069717
 20
54.480682
 11
-63.596918
 21
54.480682
  0
LINE
  8
型材断面
  6
CONTINUOUS
 10
-61.430248
 20
23.31405
 11
20.903047
 21
23.31405
  0
LINE
  8
型材断面
  6
CONTINUOUS
 10
-62.213595
 20
22.530705
 11
21.686395
 21
22.530705
  0
LINE
  8
型材断面
  6
CONTINUOUS
 10
-63.596918
 20
21.147382
 11
23.069717
 21
21.147382
  0
LINE
  8
型材断面
  6
CONTINUOUS
 10
-21.430267
 20
24.147382
 11
-19.096933
 21
24.147382
  0
LINE
  8
型材断面
  6
CONTINUOUS
 10
-21.430267
 20
24.147382
 11
-21.430267
 21
51.480682
  0
LINE
  8
型材断面
  6
CONTINUOUS
 10
-21.430267
 20
51.480682
 11
-19.096933
 21
51.480682
  0
LINE
  8
型材断面
  6
CONTINUOUS
 10
-19.096933
 20
24.147382
 11
-19.096933
 21
51.480682
  0
LINE
  8
型材断面
  6
CONTINUOUS
 10
-19.930267
 20
24.147382
 11
-19.930267
 21
51.480682
  0
LINE
  8
型材断面
  6
CONTINUOUS
 10
-20.596933
 20
24.147382
 11
-20.596933
 21
51.480682
  0
LINE
  8
ガラス
  6
CONTINUOUS
 10
120.730358
 20
-41.4876
 11
79.813693
 21
-41.4876
  0
LINE
  8
ガラス
  6
CONTINUOUS
 10
120.730358
 20
-41.4876
 11
120.730358
 21
-71.4876
  0
LINE
  8
ガラス
  6
CONTINUOUS
 10
79.813693
 20
-41.4876
 11
79.813693
 21
-71.4876
  0
LINE
  8
ガラス
  6
CONTINUOUS
 10
79.813693
 20
-71.4876
 11
120.730358
 21
-71.4876
  0
LINE
  8
ガラス
  6
CONTINUOUS
 10
3.200692
 20
40.444993
 11
-2.061237
 21
35.183065
  0
LINE
  8
ガラス
  6
CONTINUOUS
 10
1.888342
 20
36.495413
 11
-0.748888
 21
39.132655
  0
LINE
  8
ガラス
  6
CONTINUOUS
 10
0.182252
 20
36.556313
 11
2.215285
 21
38.589345
  0
LINE
  8
ガラス
  6
CONTINUOUS
 10
0.957195
 20
39.071753
 11
-1.075828
 21
37.038723
  0
LINE
  8
ガラス
  6
CONTINUOUS
 10
-38.465975
 20
40.444993
 11
-43.727905
 21
35.183065
  0
LINE
  8
ガラス
  6
CONTINUOUS
 10
-39.778325
 20
36.495413
 11
-42.415555
 21
39.132655
  0
LINE
  8
ガラス
  6
CONTINUOUS
 10
-41.484415
 20
36.556313
 11
-39.451383
 21
38.589345
  0
LINE
  8
ガラス
  6
CONTINUOUS
 10
-40.709472
 20
39.071753
 11
-42.742495
 21
37.038723
  0
TEXT
  7
TextStyle03
  8
文字
  6
CONTINUOUS
 10
78.1
 20
125.25
  1
シリーズ：ＳＴＦＦＨＬ
 40
5.0
 72
     5
 11
139.35
 21
125.25
  0
TEXT
  7
TextStyle03
  8
文字
  6
CONTINUOUS
 10
78.1
 20
119.625
  1
　　　　　（片側開閉）900×2500タイプ
 40
5.0
 72
     5
 11
181.5375
 21
119.625
  0
TEXT
  7
TextStyle03
  8
文字
  6
CONTINUOUS
 10
78.1
 20
114.0
  1
図面名　：外観姿図
 40
5.0
 72
     5
 11
128.1
 21
114.0
  0
TEXT
  7
TextStyle03
  8
文字
  6
CONTINUOUS
 10
78.1
 20
108.375
  1
　　　　　　
 40
5.0
 72
     5
 11
111.225
 21
108.375
  0
TEXT
  7
TextStyle03
  8
文字
  6
CONTINUOUS
 10
-113.025
 20
94.925
  1
は排水穴位置を示す
 40
3.0
 72
     5
 11
-83.025
 21
94.925
  0
TEXT
  7
TextStyle03
  8
文字
  6
CONTINUOUS
 10
-113.025
 20
89.4
  1
はケーシング位置を示す
 40
3.0
 72
     5
 11
-76.275
 21
89.4
  0
TEXT
  7
TextStyle03
  8
文字
  6
CONTINUOUS
 10
-113.025
 20
86.025
  1
２ヶ所中1ヶ所に設定
 40
3.0
 72
     5
 11
-81.3375
 21
86.025
  0
TEXT
  7
TextStyle03
  8
文字
  6
CONTINUOUS
 10
-82.925
 20
16.275
  1
アンカーピッチ
 40
3.0
 50
90.0
 72
     5
 11
-82.925
 21
39.525
  0
TEXT
  7
TextStyle03
  8
文字
  6
CONTINUOUS
 10
-55.3
 20
90.825
  1
アンカーピッチ
 40
3.0
 72
     5
 11
-32.05
 21
90.825
  0
TEXT
  7
TextStyle03
  8
文字
  6
CONTINUOUS
 10
-116.75
 20
80.05
  1
アンカー数量　１２ヶ所
 40
3.0
 72
     5
 11
-80.0
 21
80.05
  0
TEXT
  7
TextStyle03
  8
文字
  6
CONTINUOUS
 10
24.75
 20
-89.0
  1
※は物件対応寸法
 40
3.0
 72
     5
 11
51.375
 21
-89.0
  0
TEXT
  7
TextStyle03
  8
文字
  6
CONTINUOUS
 10
101.875
 20
-64.5
  1
網入り6.8t
 40
3.0
 72
     5
 11
118.5625
 21
-64.5
  0
TEXT
  7
TextStyle03
  8
文字
  6
CONTINUOUS
 10
108.55
 20
-69.175
  1
×２枚
 40
3.0
 72
     5
 11
118.3
 21
-69.175
  0
TEXT
  7
TextStyle03
  8
文字
  6
CONTINUOUS
 10
99.425
 20
16.35
  1
45°
 40
3.0
 50
90.0
 72
     5
 11
99.425
 21
22.725
  0
INSERT
  2
*DIM_0002
  8
寸法
  6
CONTINUOUS
 10
0.0
 20
0.0
  0
INSERT
  2
*DIM_0003
  8
寸法
  6
CONTINUOUS
 10
0.0
 20
0.0
  0
INSERT
  2
*DIM_0004
  8
寸法
  6
CONTINUOUS
 10
0.0
 20
0.0
  0
INSERT
  2
*DIM_0005
  8
寸法
  6
CONTINUOUS
 10
0.0
 20
0.0
  0
INSERT
  2
*DIM_0006
  8
寸法
  6
CONTINUOUS
 10
0.0
 20
0.0
  0
INSERT
  2
*DIM_0007
  8
寸法
  6
CONTINUOUS
 10
0.0
 20
0.0
  0
INSERT
  2
*DIM_0008
  8
寸法
  6
CONTINUOUS
 10
0.0
 20
0.0
  0
INSERT
  2
*DIM_0009
  8
寸法
  6
CONTINUOUS
 10
0.0
 20
0.0
  0
INSERT
  2
*DIM_0010
  8
寸法
  6
CONTINUOUS
 10
0.0
 20
0.0
  0
INSERT
  2
*DIM_0014
  8
寸法
  6
CONTINUOUS
 10
0.0
 20
0.0
  0
INSERT
  2
*DIM_0015
  8
寸法
  6
CONTINUOUS
 10
0.0
 20
0.0
  0
INSERT
  2
*DIM_0016
  8
寸法
  6
CONTINUOUS
 10
0.0
 20
0.0
  0
INSERT
  2
*DIM_0017
  8
寸法
  6
CONTINUOUS
 10
0.0
 20
0.0
  0
INSERT
  2
*DIM_0018
  8
寸法
  6
CONTINUOUS
 10
0.0
 20
0.0
  0
INSERT
  2
*DIM_0019
  8
寸法
  6
CONTINUOUS
 10
0.0
 20
0.0
  0
INSERT
  2
*DIM_0022
  8
寸法
  6
CONTINUOUS
 10
0.0
 20
0.0
  0
INSERT
  2
*DIM_0023
  8
寸法
  6
CONTINUOUS
 10
0.0
 20
0.0
  0
INSERT
  2
*DIM_0024
  8
寸法
  6
CONTINUOUS
 10
0.0
 20
0.0
  0
INSERT
  2
*DIM_0025
  8
寸法
  6
CONTINUOUS
 10
0.0
 20
0.0
  0
INSERT
  2
*GRP_0012
  8
別途部材
  6
CONTINUOUS
 10
0.0
 20
0.0
  0
INSERT
  2
*GRP_0020
  8
別途部材
  6
DOT
 10
0.0
 20
0.0
  0
INSERT
  2
*GRP_0021
  8
別途部材
  6
DOT
 10
0.0
 20
0.0
  0
ENDSEC
  0
EOF
