  0
SECTION
  2
HEADER
  9
$EXTMIN
 10
-210.0
 20
-148.5
  9
$EXTMAX
 10
210.0
 20
148.5
  9
$PDMODE
 70
    32
  9
$PDSIZE
 40
1.5
  9
$LTSCALE
 40
10.0
  0
ENDSEC
  0
SECTION
  2
TABLES
  0
TABLE
  2
LTYPE
 70
    15
  0
LTYPE
  2
CONTINUOUS
 70
    64
  3
実線
 72
    65
 73
     0
 40
0.0
  0
LTYPE
  2
DASHED
 70
    64
  3
破線A
 72
    65
 73
     2
 40
0.6
 49
0.4
 49
-0.2
  0
LTYPE
  2
DASHEDX2
 70
    64
  3
破線B
 72
    65
 73
     2
 40
1.3
 49
0.9
 49
-0.4
  0
LTYPE
  2
DASHDOT
 70
    64
  3
１点鎖線A
 72
    65
 73
     4
 40
0.5375
 49
0.375
 49
-0.05
 49
0.0625
 49
-0.05
  0
LTYPE
  2
DASHDOTX2
 70
    64
  3
１点鎖線B
 72
    65
 73
     4
 40
1.075
 49
0.75
 49
-0.1
 49
0.125
 49
-0.1
  0
LTYPE
  2
DIVIDE2
 70
    64
  3
２点鎖線A
 72
    65
 73
     6
 40
0.5125
 49
0.3
 49
-0.0375
 49
0.05
 49
-0.0375
 49
0.05
 49
-0.0375
  0
LTYPE
  2
DIVIDE
 70
    64
  3
２点鎖線B
 72
    65
 73
     6
 40
1.05
 49
0.55
 49
-0.1
 49
0.1
 49
-0.1
 49
0.1
 49
-0.1
  0
LTYPE
  2
DOT
 70
    64
  3
点線A
 72
    65
 73
     2
 40
0.1125
 49
0.0625
 49
-0.05
  0
LTYPE
  2
DOTX2
 70
    64
  3
点線B
 72
    65
 73
     2
 40
0.275
 49
0.15
 49
-0.125
  0
LTYPE
  2
CONTINUOUS
 70
    64
  3
実線
 72
    65
 73
     0
 40
0.0
  0
LTYPE
  2
CONTINUOUS
 70
    64
  3
実線
 72
    65
 73
     0
 40
0.0
  0
LTYPE
  2
CONTINUOUS
 70
    64
  3
実線
 72
    65
 73
     0
 40
0.0
  0
LTYPE
  2
CONTINUOUS
 70
    64
  3
実線
 72
    65
 73
     0
 40
0.0
  0
LTYPE
  2
CONTINUOUS
 70
    64
  3
実線
 72
    65
 73
     0
 40
0.0
  0
LTYPE
  2
CONTINUOUS
 70
    64
  3
実線
 72
    65
 73
     0
 40
0.0
  0
ENDTAB
  0
TABLE
  2
LAYER
 70
    34
  0
LAYER
  2
通り芯
 70
     0
 62
    15
  6
CONTINUOUS
  0
LAYER
  2
補助線
 70
     0
 62
    16
  6
DOT
  0
LAYER
  2
躯体
 70
     0
 62
    31
  6
CONTINUOUS
  0
LAYER
  2
型材
 70
     0
 62
    32
  6
CONTINUOUS
  0
LAYER
  2
型材断面
 70
     0
 62
    47
  6
CONTINUOUS
  0
LAYER
  2
ガラス
 70
     0
 62
    48
  6
CONTINUOUS
  0
LAYER
  2
ゴム等
 70
     0
 62
    63
  6
CONTINUOUS
  0
LAYER
  2
ボルト／ビス
 70
     0
 62
    64
  6
CONTINUOUS
  0
LAYER
  2
文字
 70
     0
 62
    79
  6
CONTINUOUS
  0
LAYER
  2
寸法
 70
     0
 62
    80
  6
CONTINUOUS
  0
LAYER
  2
ﾊｯﾁﾝｸﾞ
 70
     0
 62
    95
  6
CONTINUOUS
  0
LAYER
  2
別途部材
 70
     0
 62
    96
  6
CONTINUOUS
  0
LAYER
  2
曲げ物
 70
     0
 62
   111
  6
CONTINUOUS
  0
LAYER
  2
鉄骨等
 70
     0
 62
   112
  6
CONTINUOUS
  0
LAYER
  2
St
 70
     0
 62
   127
  6
CONTINUOUS
  0
LAYER
  2
その他部品等
 70
     0
 62
   128
  6
CONTINUOUS
  0
LAYER
  2
ｶﾞｽｹｯﾄ
 70
     0
 62
   143
  6
CONTINUOUS
  0
LAYER
  2
ｽｹｯﾁ
 70
     0
 62
    14
  6
CONTINUOUS
  0
LAYER
  2
0
 70
     0
 62
    17
  6
CONTINUOUS
  0
LAYER
  2
1
 70
     0
 62
    30
  6
CONTINUOUS
  0
LAYER
  2
4
 70
     0
 62
    33
  6
CONTINUOUS
  0
LAYER
  2
ﾚｲﾔ3
 70
     0
 62
    46
  6
CONTINUOUS
  0
LAYER
  2
外形線
 70
     0
 62
    49
  6
CONTINUOUS
  0
LAYER
  2
部品
 70
     0
 62
    14
  6
CONTINUOUS
  0
LAYER
  2
サッシ芯
 70
     0
 62
    17
  6
DASHDOTX2
  0
LAYER
  2
寸法線
 70
     0
 62
    62
  6
CONTINUOUS
  0
LAYER
  2
姿図外形線
 70
     0
 62
    65
  6
CONTINUOUS
  0
LAYER
  2
姿補助線
 70
     0
 62
    30
  6
CONTINUOUS
  0
LAYER
  2
透視線
 70
     0
 62
    78
  6
DOT
  0
LAYER
  2
用紙
 70
     0
 62
    81
  6
CONTINUOUS
  0
LAYER
  2
実線図枠
 70
     0
 62
    94
  6
CONTINUOUS
  0
LAYER
  2
補助図枠
 70
     0
 62
    97
  6
CONTINUOUS
  0
LAYER
  2
建具記号
 70
     0
 62
   110
  6
CONTINUOUS
  0
LAYER
  2
補助文字
 70
     0
 62
   113
  6
CONTINUOUS
  0
ENDTAB
  0
TABLE
  2
STYLE
 70
    10
  0
STYLE
  2
STANDARD
 70
     0
 40
1.0
 41
1.0
 42
1.0
 50
0.0
 71
     0
  3
TXT
  4
BIGFONT
  0
STYLE
  2
TATE
 70
     4
 40
1.0
 41
1.0
 42
1.0
 50
0.0
 71
     0
  3
TXT
  4
BIGFONT
  0
STYLE
  2
TextStyle03
 70
     0
 40
1.0
 41
1.0
 42
1.0
 50
0.0
 71
     0
  3
MONOTXT
  4
BIGFONT
  0
STYLE
  2
TextStyle04
 70
     0
 40
1.0
 41
1.0
 42
1.0
 50
0.0
 71
     0
  3
MONOTXT
  4
BIGFONT
  0
STYLE
  2
TextStyle05
 70
     0
 40
1.0
 41
1.0
 42
1.0
 50
0.0
 71
     0
  3
MONOTXT
  4
BIGFONT
  0
STYLE
  2
TextStyle06
 70
     0
 40
1.0
 41
1.0
 42
1.0
 50
0.0
 71
     0
  3
MONOTXT
  4
BIGFONT
  0
STYLE
  2
TextStyle07
 70
     0
 40
1.0
 41
1.0
 42
1.0
 50
0.0
 71
     0
  3
MONOTXT
  4
BIGFONT
  0
STYLE
  2
TextStyle08
 70
     0
 40
1.0
 41
1.0
 42
1.0
 50
0.0
 71
     0
  3
MONOTXT
  4
BIGFONT
  0
STYLE
  2
TextStyle09
 70
     0
 40
1.0
 41
1.0
 42
1.0
 50
0.0
 71
     0
  3
MONOTXT
  4
BIGFONT
  0
STYLE
  2
TextStyle10
 70
     0
 40
1.0
 41
1.0
 42
1.0
 50
0.0
 71
     0
  3
MONOTXT
  4
BIGFONT
  0
ENDTAB
  0
ENDSEC
  0
SECTION
  2
BLOCKS
  0
BLOCK
  2
*GRP_0001
 70
    65
 10
0.0
 20
0.0
  0
LINE
  8
型材断面
  6
CONTINUOUS
 10
195.0
 20
133.5
 11
195.0
 21
-133.5
  0
LINE
  8
型材断面
  6
CONTINUOUS
 10
195.0
 20
-133.5
 11
-185.0
 21
-133.5
  0
LINE
  8
型材断面
  6
CONTINUOUS
 10
-185.0
 20
-133.5
 11
-185.0
 21
133.5
  0
LINE
  8
型材断面
  6
CONTINUOUS
 10
195.0
 20
133.5
 11
-185.0
 21
133.5
  0
LINE
  8
型材断面
  6
CONTINUOUS
 10
145.0
 20
-133.5
 11
145.0
 21
-118.5
  0
LINE
  8
型材断面
  6
CONTINUOUS
 10
195.0
 20
-118.5
 11
145.0
 21
-118.5
  0
ENDBLK
  0
BLOCK
  2
*DIM_0002
 70
    65
 10
0.0
 20
0.0
  0
LINE
  8
寸法
  6
BYBLOCK
 62
     0
 10
4.712865
 20
-13.121378
 11
-95.287135
 21
-13.121378
  0
POINT
  8
寸法
 62
     0
 10
4.712865
 20
-13.121378
  0
POINT
  8
寸法
 62
     0
 10
-95.287135
 20
-13.121378
  0
TEXT
  7
TextStyle03
  8
寸法
  6
CONTINUOUS
 62
     0
 10
-57.01875
 20
-12.75
  1
呼称寸法　3000
 40
3.0
 72
     5
 11
-33.58125
 21
-12.75
  0
ENDBLK
  0
BLOCK
  2
*DIM_0003
 70
    65
 10
0.0
 20
0.0
  0
LINE
  8
寸法
  6
BYBLOCK
 62
     0
 10
2.712865
 20
17.20722
 11
2.712865
 21
14.182178
  0
LINE
  8
寸法
  6
BYBLOCK
 62
     0
 10
4.712865
 20
14.182178
 11
2.712865
 21
14.182178
  0
POINT
  8
寸法
 62
     0
 10
4.712865
 20
14.182178
  0
POINT
  8
寸法
 62
     0
 10
2.712865
 20
14.182178
  0
TEXT
  7
TextStyle03
  8
寸法
  6
CONTINUOUS
 62
     0
 10
0.83125
 20
10.4
  1
60
 40
3.0
 72
     5
 11
4.01875
 21
10.4
  0
ENDBLK
  0
BLOCK
  2
*DIM_0004
 70
    65
 10
0.0
 20
0.0
  0
LINE
  8
寸法
  6
BYBLOCK
 62
     0
 10
-93.287135
 20
17.20722
 11
-93.287135
 21
14.182178
  0
LINE
  8
寸法
  6
BYBLOCK
 62
     0
 10
-95.287135
 20
14.182178
 11
-93.287135
 21
14.182178
  0
POINT
  8
寸法
 62
     0
 10
-95.287135
 20
14.182178
  0
POINT
  8
寸法
 62
     0
 10
-93.287135
 20
14.182178
  0
TEXT
  7
TextStyle03
  8
寸法
  6
CONTINUOUS
 62
     0
 10
-94.59375
 20
10.4
  1
60
 40
3.0
 72
     5
 11
-91.40625
 21
10.4
  0
ENDBLK
  0
BLOCK
  2
*DIM_0005
 70
    65
 10
0.0
 20
0.0
  0
LINE
  8
寸法
  6
BYBLOCK
 62
     0
 10
-98.287135
 20
39.4807
 11
-111.579972
 21
39.4807
  0
LINE
  8
寸法
  6
BYBLOCK
 62
     0
 10
-98.287135
 20
26.147365
 11
-111.579972
 21
26.147365
  0
LINE
  8
寸法
  6
BYBLOCK
 62
     0
 10
-111.579972
 20
39.4807
 11
-111.579972
 21
26.147365
  0
POINT
  8
寸法
 62
     0
 10
-111.579972
 20
39.4807
  0
POINT
  8
寸法
 62
     0
 10
-111.579972
 20
26.147365
  0
TEXT
  7
TextStyle03
  8
寸法
  6
CONTINUOUS
 62
     0
 10
-112.0
 20
30.3625
  1
400
 40
3.0
 50
90.0
 72
     5
 11
-112.0
 21
35.2375
  0
ENDBLK
  0
BLOCK
  2
*DIM_0006
 70
    65
 10
0.0
 20
0.0
  0
LINE
  8
寸法
  6
BYBLOCK
 62
     0
 10
-85.287135
 20
45.814033
 11
-85.287135
 21
74.922105
  0
LINE
  8
寸法
  6
BYBLOCK
 62
     0
 10
-58.620467
 20
45.814033
 11
-58.620467
 21
74.922105
  0
LINE
  8
寸法
  6
BYBLOCK
 62
     0
 10
-85.287135
 20
74.922105
 11
-58.620467
 21
74.922105
  0
POINT
  8
寸法
 62
     0
 10
-85.287135
 20
74.922105
  0
POINT
  8
寸法
 62
     0
 10
-58.620467
 20
74.922105
  0
TEXT
  7
TextStyle03
  8
寸法
  6
CONTINUOUS
 62
     0
 10
-74.4125
 20
75.275
  1
800
 40
3.0
 72
     5
 11
-69.5375
 21
75.275
  0
ENDBLK
  0
BLOCK
  2
*DIM_0007
 70
    65
 10
0.0
 20
0.0
  0
LINE
  8
寸法
  6
BYBLOCK
 62
     0
 10
-31.953802
 20
45.814033
 11
-31.953802
 21
74.922105
  0
LINE
  8
寸法
  6
BYBLOCK
 62
     0
 10
-58.620467
 20
74.922105
 11
-31.953802
 21
74.922105
  0
POINT
  8
寸法
 62
     0
 10
-31.953802
 20
74.922105
  0
TEXT
  7
TextStyle03
  8
寸法
  6
CONTINUOUS
 62
     0
 10
-47.7375
 20
75.275
  1
800
 40
3.0
 72
     5
 11
-42.8625
 21
75.275
  0
ENDBLK
  0
BLOCK
  2
*DIM_0008
 70
    65
 10
0.0
 20
0.0
  0
LINE
  8
寸法
  6
BYBLOCK
 62
     0
 10
-5.287135
 20
45.814033
 11
-5.287135
 21
74.922105
  0
LINE
  8
寸法
  6
BYBLOCK
 62
     0
 10
-31.953802
 20
74.922105
 11
-5.287135
 21
74.922105
  0
POINT
  8
寸法
 62
     0
 10
-5.287135
 20
74.922105
  0
TEXT
  7
TextStyle03
  8
寸法
  6
CONTINUOUS
 62
     0
 10
-21.0625
 20
75.275
  1
800
 40
3.0
 72
     5
 11
-16.1875
 21
75.275
  0
ENDBLK
  0
BLOCK
  2
*GRP_0009
 70
    65
 10
0.0
 20
0.0
  0
LINE
  8
ボルト／ビス
  6
CONTINUOUS
 10
-95.9538
 20
-70.209608
 11
-95.9538
 21
-69.74294
  0
LINE
  8
ボルト／ビス
  6
CONTINUOUS
 10
-95.587133
 20
-70.209608
 11
-95.587133
 21
-70.14294
  0
LINE
  8
ボルト／ビス
  6
CONTINUOUS
 10
-95.587133
 20
-70.14294
 11
-96.320467
 21
-70.14294
  0
LINE
  8
ボルト／ビス
  6
CONTINUOUS
 10
-96.320467
 20
-70.14294
 11
-96.320467
 21
-70.209608
  0
LINE
  8
ボルト／ビス
  6
CONTINUOUS
 10
-95.587133
 20
-70.209608
 11
-96.320467
 21
-70.209608
  0
LINE
  8
ボルト／ビス
  6
CONTINUOUS
 10
-95.6538
 20
-70.109608
 11
-95.6538
 21
-70.14294
  0
LINE
  8
ボルト／ビス
  6
CONTINUOUS
 10
-95.6538
 20
-70.109608
 11
-96.2538
 21
-70.109608
  0
LINE
  8
ボルト／ビス
  6
CONTINUOUS
 10
-96.2538
 20
-70.109608
 11
-96.2538
 21
-70.14294
  0
LINE
  8
ボルト／ビス
  6
CONTINUOUS
 62
    64
 10
-95.793425
 20
-69.909608
 11
-95.76135
 21
-69.921282
  0
ARC
  8
ボルト／ビス
  6
CONTINUOUS
 62
    64
 10
-95.809462
 20
-70.014588
 40
0.104978
 50
90.0
 51
117.278033
  0
ARC
  8
ボルト／ビス
  6
CONTINUOUS
 62
    64
 10
-95.953799
 20
-70.312012
 40
0.402402
 50
76.165015
 51
103.834998
  0
LINE
  8
ボルト／ビス
  6
CONTINUOUS
 62
    64
 10
-96.114175
 20
-69.909608
 11
-96.14625
 21
-69.921282
  0
ARC
  8
ボルト／ビス
  6
CONTINUOUS
 62
    64
 10
-96.098137
 20
-70.014588
 40
0.104978
 50
62.721967
 51
90.0
  0
LINE
  8
ボルト／ビス
  6
CONTINUOUS
 62
    64
 10
-95.793425
 20
-69.909608
 11
-96.114175
 21
-69.909608
  0
LINE
  8
ボルト／ビス
  6
CONTINUOUS
 62
    64
 10
-96.14625
 20
-69.921282
 11
-96.14625
 21
-70.04294
  0
LINE
  8
ボルト／ビス
  6
CONTINUOUS
 62
    64
 10
-96.050025
 20
-69.921282
 11
-96.050025
 21
-70.04294
  0
LINE
  8
ボルト／ビス
  6
CONTINUOUS
 62
    64
 10
-95.76135
 20
-69.921282
 11
-95.76135
 21
-70.04294
  0
LINE
  8
ボルト／ビス
  6
CONTINUOUS
 62
    64
 10
-95.857575
 20
-69.921282
 11
-95.857575
 21
-70.04294
  0
LINE
  8
ボルト／ビス
  6
CONTINUOUS
 10
-95.76135
 20
-70.04294
 11
-96.14625
 21
-70.04294
  0
LINE
  8
ボルト／ビス
  6
CONTINUOUS
 10
-95.7538
 20
-70.04294
 11
-95.7538
 21
-70.109608
  0
LINE
  8
ボルト／ビス
  6
CONTINUOUS
 10
-95.7538
 20
-70.04294
 11
-96.1538
 21
-70.04294
  0
LINE
  8
ボルト／ビス
  6
CONTINUOUS
 10
-96.1538
 20
-70.04294
 11
-96.1538
 21
-70.109608
  0
ENDBLK
  0
BLOCK
  2
*GRP_0010
 70
    65
 10
0.0
 20
0.0
  0
LINE
  8
ボルト／ビス
  6
CONTINUOUS
 10
5.379535
 20
-70.209613
 11
5.379535
 21
-69.742945
  0
LINE
  8
ボルト／ビス
  6
CONTINUOUS
 10
5.746203
 20
-70.209613
 11
5.746203
 21
-70.142945
  0
LINE
  8
ボルト／ビス
  6
CONTINUOUS
 10
5.746203
 20
-70.142945
 11
5.012867
 21
-70.142945
  0
LINE
  8
ボルト／ビス
  6
CONTINUOUS
 10
5.012867
 20
-70.142945
 11
5.012867
 21
-70.209613
  0
LINE
  8
ボルト／ビス
  6
CONTINUOUS
 10
5.746203
 20
-70.209613
 11
5.012867
 21
-70.209613
  0
LINE
  8
ボルト／ビス
  6
CONTINUOUS
 10
5.679535
 20
-70.109612
 11
5.679535
 21
-70.142945
  0
LINE
  8
ボルト／ビス
  6
CONTINUOUS
 10
5.679535
 20
-70.109612
 11
5.079535
 21
-70.109612
  0
LINE
  8
ボルト／ビス
  6
CONTINUOUS
 10
5.079535
 20
-70.109612
 11
5.079535
 21
-70.142945
  0
LINE
  8
ボルト／ビス
  6
CONTINUOUS
 62
    64
 10
5.53991
 20
-69.909613
 11
5.571985
 21
-69.921288
  0
ARC
  8
ボルト／ビス
  6
CONTINUOUS
 62
    64
 10
5.523873
 20
-70.014593
 40
0.104978
 50
90.0
 51
117.278033
  0
ARC
  8
ボルト／ビス
  6
CONTINUOUS
 62
    64
 10
5.379536
 20
-70.312017
 40
0.402402
 50
76.165015
 51
103.834998
  0
LINE
  8
ボルト／ビス
  6
CONTINUOUS
 62
    64
 10
5.21916
 20
-69.909613
 11
5.187085
 21
-69.921288
  0
ARC
  8
ボルト／ビス
  6
CONTINUOUS
 62
    64
 10
5.235198
 20
-70.014593
 40
0.104978
 50
62.721967
 51
90.0
  0
LINE
  8
ボルト／ビス
  6
CONTINUOUS
 62
    64
 10
5.53991
 20
-69.909613
 11
5.21916
 21
-69.909613
  0
LINE
  8
ボルト／ビス
  6
CONTINUOUS
 62
    64
 10
5.187085
 20
-69.921288
 11
5.187085
 21
-70.042945
  0
LINE
  8
ボルト／ビス
  6
CONTINUOUS
 62
    64
 10
5.28331
 20
-69.921288
 11
5.28331
 21
-70.042945
  0
LINE
  8
ボルト／ビス
  6
CONTINUOUS
 62
    64
 10
5.571985
 20
-69.921288
 11
5.571985
 21
-70.042945
  0
LINE
  8
ボルト／ビス
  6
CONTINUOUS
 62
    64
 10
5.47576
 20
-69.921288
 11
5.47576
 21
-70.042945
  0
LINE
  8
ボルト／ビス
  6
CONTINUOUS
 10
5.571985
 20
-70.042945
 11
5.187085
 21
-70.042945
  0
LINE
  8
ボルト／ビス
  6
CONTINUOUS
 10
5.579535
 20
-70.042945
 11
5.579535
 21
-70.109612
  0
LINE
  8
ボルト／ビス
  6
CONTINUOUS
 10
5.579535
 20
-70.042945
 11
5.179535
 21
-70.042945
  0
LINE
  8
ボルト／ビス
  6
CONTINUOUS
 10
5.179535
 20
-70.042945
 11
5.179535
 21
-70.109612
  0
ENDBLK
  0
BLOCK
  2
*DIM_0011
 70
    65
 10
0.0
 20
0.0
  0
LINE
  8
寸法
  6
CONTINUOUS
 10
101.921003
 20
-36.348672
 11
110.89671
 21
-36.348672
  0
LINE
  8
寸法
  6
CONTINUOUS
 10
101.921003
 20
-56.348672
 11
110.89671
 21
-56.348672
  0
LINE
  8
寸法
  6
CONTINUOUS
 10
110.89671
 20
-36.348672
 11
110.89671
 21
-56.348672
  0
POINT
  8
寸法
 10
110.89671
 20
-36.348672
  0
POINT
  8
寸法
 10
110.89671
 20
-56.348672
  0
TEXT
  7
TextStyle03
  8
寸法
  6
CONTINUOUS
 10
110.5
 20
-48.8125
  1
600
 40
3.0
 50
90.0
 72
     5
 11
110.5
 21
-43.9375
  0
ENDBLK
  0
BLOCK
  2
*DIM_0012
 70
    65
 10
0.0
 20
0.0
  0
LINE
  8
寸法
  6
BYBLOCK
 62
     0
 10
-78.620467
 20
14.478463
 11
-78.620467
 21
9.39785
  0
LINE
  8
寸法
  6
BYBLOCK
 62
     0
 10
-11.953802
 20
14.478463
 11
-11.953802
 21
9.39785
  0
LINE
  8
寸法
  6
BYBLOCK
 62
     0
 10
-78.620467
 20
9.39785
 11
-11.953802
 21
9.39785
  0
POINT
  8
寸法
 62
     0
 10
-78.620467
 20
9.39785
  0
POINT
  8
寸法
 62
     0
 10
-11.953802
 20
9.39785
  0
TEXT
  7
TextStyle03
  8
寸法
  6
CONTINUOUS
 62
     0
 10
-48.55625
 20
9.775
  1
2000
 40
3.0
 72
     5
 11
-41.99375
 21
9.775
  0
ENDBLK
  0
BLOCK
  2
*DIM_0013
 70
    65
 10
0.0
 20
0.0
  0
LINE
  8
寸法
  6
CONTINUOUS
 10
12.212877
 20
-78.70961
 11
20.682515
 21
-78.70961
  0
LINE
  8
寸法
  6
CONTINUOUS
 10
20.682515
 20
-75.70961
 11
20.682515
 21
-78.70961
  0
POINT
  8
寸法
 10
20.682515
 20
-78.70961
  0
TEXT
  7
TextStyle03
  8
寸法
  6
CONTINUOUS
 10
20.3
 20
-78.725
  1
※
 40
3.0
 50
90.0
 72
     5
 11
20.3
 21
-75.725
  0
ENDBLK
  0
BLOCK
  2
*DIM_0014
 70
    65
 10
0.0
 20
0.0
  0
LINE
  8
寸法
  6
CONTINUOUS
 10
11.212877
 20
-75.37628
 11
11.212877
 21
-13.121378
  0
LINE
  8
寸法
  6
CONTINUOUS
 10
4.712865
 20
-13.121378
 11
11.212877
 21
-13.121378
  0
POINT
  8
寸法
 10
4.712865
 20
-13.121378
  0
POINT
  8
寸法
 10
11.212877
 20
-13.121378
  0
TEXT
  7
TextStyle03
  8
寸法
  6
CONTINUOUS
 10
6.45
 20
-12.75
  1
※
 40
3.0
 72
     5
 11
9.45
 21
-12.75
  0
ENDBLK
  0
BLOCK
  2
*DIM_0015
 70
    65
 10
0.0
 20
0.0
  0
LINE
  8
寸法
  6
CONTINUOUS
 10
-101.78715
 20
-75.37628
 11
-101.78715
 21
-13.121378
  0
LINE
  8
寸法
  6
CONTINUOUS
 10
-95.287135
 20
-13.121378
 11
-101.78715
 21
-13.121378
  0
POINT
  8
寸法
 10
-95.287135
 20
-13.121378
  0
POINT
  8
寸法
 10
-101.78715
 20
-13.121378
  0
TEXT
  7
TextStyle03
  8
寸法
  6
CONTINUOUS
 10
-100.05
 20
-12.75
  1
※
 40
3.0
 72
     5
 11
-97.05
 21
-12.75
  0
ENDBLK
  0
BLOCK
  2
*DIM_0016
 70
    65
 10
0.0
 20
0.0
  0
LINE
  8
寸法
  6
CONTINUOUS
 10
68.58767
 20
-35.348672
 11
68.58767
 21
-25.994145
  0
LINE
  8
寸法
  6
CONTINUOUS
 10
100.921003
 20
-35.348672
 11
100.921003
 21
-25.994145
  0
LINE
  8
寸法
  6
CONTINUOUS
 10
68.58767
 20
-25.994145
 11
100.921003
 21
-25.994145
  0
POINT
  8
寸法
 10
68.58767
 20
-25.994145
  0
POINT
  8
寸法
 10
100.921003
 20
-25.994145
  0
TEXT
  7
TextStyle03
  8
寸法
  6
CONTINUOUS
 10
82.3125
 20
-25.625
  1
970
 40
3.0
 72
     5
 11
87.1875
 21
-25.625
  0
ENDBLK
  0
BLOCK
  2
*DIM_0017
 70
    65
 10
0.0
 20
0.0
  0
LINE
  8
寸法
  6
CONTINUOUS
 10
6.712877
 20
-75.70961
 11
20.682515
 21
-75.70961
  0
LINE
  8
寸法
  6
CONTINUOUS
 10
5.946213
 20
-69.766312
 11
20.682515
 21
-69.766312
  0
LINE
  8
寸法
  6
CONTINUOUS
 10
20.682515
 20
-75.70961
 11
20.682515
 21
-69.766312
  0
POINT
  8
寸法
 10
20.682515
 20
-75.70961
  0
POINT
  8
寸法
 10
20.682515
 20
-69.766312
  0
TEXT
  7
TextStyle03
  8
寸法
  6
CONTINUOUS
 10
24.8
 20
-76.725
  1
178.3
 40
3.0
 50
90.0
 72
     5
 11
24.8
 21
-68.475
  0
ENDBLK
  0
BLOCK
  2
*GRP_0018
 70
    65
 10
0.0
 20
0.0
  0
LINE
  8
ボルト／ビス
  6
CONTINUOUS
 10
94.246133
 20
43.480703
 11
93.779465
 21
43.480703
  0
LINE
  8
ボルト／ビス
  6
CONTINUOUS
 10
94.246133
 20
43.84737
 11
94.179465
 21
43.84737
  0
LINE
  8
ボルト／ビス
  6
CONTINUOUS
 10
94.179465
 20
43.84737
 11
94.179465
 21
43.114035
  0
LINE
  8
ボルト／ビス
  6
CONTINUOUS
 10
94.179465
 20
43.114035
 11
94.246133
 21
43.114035
  0
LINE
  8
ボルト／ビス
  6
CONTINUOUS
 10
94.246133
 20
43.84737
 11
94.246133
 21
43.114035
  0
LINE
  8
ボルト／ビス
  6
CONTINUOUS
 10
94.146133
 20
43.780703
 11
94.179465
 21
43.780703
  0
LINE
  8
ボルト／ビス
  6
CONTINUOUS
 10
94.146133
 20
43.780703
 11
94.146133
 21
43.180703
  0
LINE
  8
ボルト／ビス
  6
CONTINUOUS
 10
94.146133
 20
43.180703
 11
94.179465
 21
43.180703
  0
LINE
  8
ボルト／ビス
  6
CONTINUOUS
 62
    64
 10
93.946133
 20
43.641078
 11
93.957807
 21
43.673152
  0
ARC
  8
ボルト／ビス
  6
CONTINUOUS
 62
    64
 10
94.051112
 20
43.625043
 40
0.104978
 50
180.0
 51
207.278033
  0
ARC
  8
ボルト／ビス
  6
CONTINUOUS
 62
    64
 10
94.348536
 20
43.480705
 40
0.402402
 50
166.165015
 51
193.834998
  0
LINE
  8
ボルト／ビス
  6
CONTINUOUS
 62
    64
 10
93.946133
 20
43.320327
 11
93.957807
 21
43.288253
  0
ARC
  8
ボルト／ビス
  6
CONTINUOUS
 62
    64
 10
94.051112
 20
43.336368
 40
0.104978
 50
152.721967
 51
180.0
  0
LINE
  8
ボルト／ビス
  6
CONTINUOUS
 62
    64
 10
93.946133
 20
43.641078
 11
93.946133
 21
43.320327
  0
LINE
  8
ボルト／ビス
  6
CONTINUOUS
 62
    64
 10
93.957807
 20
43.288253
 11
94.079465
 21
43.288253
  0
LINE
  8
ボルト／ビス
  6
CONTINUOUS
 62
    64
 10
93.957807
 20
43.384477
 11
94.079465
 21
43.384477
  0
LINE
  8
ボルト／ビス
  6
CONTINUOUS
 62
    64
 10
93.957807
 20
43.673152
 11
94.079465
 21
43.673152
  0
LINE
  8
ボルト／ビス
  6
CONTINUOUS
 62
    64
 10
93.957807
 20
43.576928
 11
94.079465
 21
43.576928
  0
LINE
  8
ボルト／ビス
  6
CONTINUOUS
 10
94.079465
 20
43.673152
 11
94.079465
 21
43.288253
  0
LINE
  8
ボルト／ビス
  6
CONTINUOUS
 10
94.079465
 20
43.680703
 11
94.146133
 21
43.680703
  0
LINE
  8
ボルト／ビス
  6
CONTINUOUS
 10
94.079465
 20
43.680703
 11
94.079465
 21
43.280703
  0
LINE
  8
ボルト／ビス
  6
CONTINUOUS
 10
94.079465
 20
43.280703
 11
94.146133
 21
43.280703
  0
ENDBLK
  0
BLOCK
  2
*GRP_0019
 70
    65
 10
0.0
 20
0.0
  0
LINE
  8
ボルト／ビス
  6
CONTINUOUS
 10
94.246133
 20
22.147365
 11
93.779465
 21
22.147365
  0
LINE
  8
ボルト／ビス
  6
CONTINUOUS
 10
94.246133
 20
21.780697
 11
94.179465
 21
21.780697
  0
LINE
  8
ボルト／ビス
  6
CONTINUOUS
 10
94.179465
 20
21.780697
 11
94.179465
 21
22.514033
  0
LINE
  8
ボルト／ビス
  6
CONTINUOUS
 10
94.179465
 20
22.514033
 11
94.246133
 21
22.514033
  0
LINE
  8
ボルト／ビス
  6
CONTINUOUS
 10
94.246133
 20
21.780697
 11
94.246133
 21
22.514033
  0
LINE
  8
ボルト／ビス
  6
CONTINUOUS
 10
94.146133
 20
21.847365
 11
94.179465
 21
21.847365
  0
LINE
  8
ボルト／ビス
  6
CONTINUOUS
 10
94.146133
 20
21.847365
 11
94.146133
 21
22.447365
  0
LINE
  8
ボルト／ビス
  6
CONTINUOUS
 10
94.146133
 20
22.447365
 11
94.179465
 21
22.447365
  0
LINE
  8
ボルト／ビス
  6
CONTINUOUS
 62
    64
 10
93.946133
 20
21.98699
 11
93.957807
 21
21.954915
  0
ARC
  8
ボルト／ビス
  6
CONTINUOUS
 62
    64
 10
94.051112
 20
22.003029
 40
0.104978
 50
152.721967
 51
180.0
  0
ARC
  8
ボルト／ビス
  6
CONTINUOUS
 62
    64
 10
94.348536
 20
22.147367
 40
0.402402
 50
166.165002
 51
193.834985
  0
LINE
  8
ボルト／ビス
  6
CONTINUOUS
 62
    64
 10
93.946133
 20
22.30774
 11
93.957807
 21
22.339815
  0
ARC
  8
ボルト／ビス
  6
CONTINUOUS
 62
    64
 10
94.051112
 20
22.291704
 40
0.104978
 50
180.0
 51
207.278033
  0
LINE
  8
ボルト／ビス
  6
CONTINUOUS
 62
    64
 10
93.946133
 20
21.98699
 11
93.946133
 21
22.30774
  0
LINE
  8
ボルト／ビス
  6
CONTINUOUS
 62
    64
 10
93.957807
 20
22.339815
 11
94.079465
 21
22.339815
  0
LINE
  8
ボルト／ビス
  6
CONTINUOUS
 62
    64
 10
93.957807
 20
22.24359
 11
94.079465
 21
22.24359
  0
LINE
  8
ボルト／ビス
  6
CONTINUOUS
 62
    64
 10
93.957807
 20
21.954915
 11
94.079465
 21
21.954915
  0
LINE
  8
ボルト／ビス
  6
CONTINUOUS
 62
    64
 10
93.957807
 20
22.05114
 11
94.079465
 21
22.05114
  0
LINE
  8
ボルト／ビス
  6
CONTINUOUS
 10
94.079465
 20
21.954915
 11
94.079465
 21
22.339815
  0
LINE
  8
ボルト／ビス
  6
CONTINUOUS
 10
94.079465
 20
21.947365
 11
94.146133
 21
21.947365
  0
LINE
  8
ボルト／ビス
  6
CONTINUOUS
 10
94.079465
 20
21.947365
 11
94.079465
 21
22.347365
  0
LINE
  8
ボルト／ビス
  6
CONTINUOUS
 10
94.079465
 20
22.347365
 11
94.146133
 21
22.347365
  0
ENDBLK
  0
BLOCK
  2
*GRP_0020
 70
    65
 10
0.0
 20
0.0
  0
INSERT
  2
*GRP_0021
  8
補助線
  6
CONTINUOUS
 10
0.0
 20
0.0
  0
CIRCLE
  8
別途部材
  6
CONTINUOUS
 10
97.24617
 20
44.014048
 40
0.2
  0
CIRCLE
  8
別途部材
  6
CONTINUOUS
 10
97.24617
 20
44.014048
 40
0.1
  0
LINE
  8
別途部材
  6
CONTINUOUS
 10
95.84617
 20
43.914048
 11
95.84617
 21
43.814048
  0
LINE
  8
別途部材
  6
CONTINUOUS
 10
97.24617
 20
43.814048
 11
95.84617
 21
43.814048
  0
LINE
  8
別途部材
  6
CONTINUOUS
 10
95.84617
 20
43.914048
 11
97.072965
 21
43.914048
  0
LINE
  8
別途部材
  6
CONTINUOUS
 10
98.64617
 20
43.914048
 11
98.64617
 21
43.814048
  0
LINE
  8
別途部材
  6
CONTINUOUS
 10
97.24617
 20
43.814048
 11
98.64617
 21
43.814048
  0
LINE
  8
別途部材
  6
CONTINUOUS
 10
98.64617
 20
43.914048
 11
97.419375
 21
43.914048
  0
LINE
  8
別途部材
  6
CONTINUOUS
 10
96.112835
 20
43.914048
 11
96.112835
 21
43.814048
  0
LINE
  8
別途部材
  6
CONTINUOUS
 10
96.3795
 20
43.914048
 11
96.3795
 21
43.814048
  0
LINE
  8
別途部材
  6
CONTINUOUS
 10
96.64617
 20
43.914048
 11
96.64617
 21
43.814048
  0
LINE
  8
別途部材
  6
CONTINUOUS
 10
98.3795
 20
43.914048
 11
98.3795
 21
43.814048
  0
LINE
  8
別途部材
  6
CONTINUOUS
 10
98.112835
 20
43.914048
 11
98.112835
 21
43.814048
  0
LINE
  8
別途部材
  6
CONTINUOUS
 10
97.84617
 20
43.914048
 11
97.84617
 21
43.814048
  0
ENDBLK
  0
BLOCK
  2
*GRP_0021
 70
    65
 10
0.0
 20
0.0
  0
LINE
  8
補助線
  6
BYBLOCK
 62
     0
 10
97.24617
 20
43.84738
 11
97.24617
 21
44.180715
  0
LINE
  8
補助線
  6
BYBLOCK
 62
     0
 10
97.0795
 20
44.014048
 11
97.412835
 21
44.014048
  0
ENDBLK
  0
BLOCK
  2
*GRP_0022
 70
    65
 10
0.0
 20
0.0
  0
LINE
  8
型材断面
  6
DOT
 62
    47
 10
95.69051
 20
45.286867
 11
97.03404
 21
43.943338
  0
LINE
  8
型材断面
  6
DOT
 62
    47
 10
80.13414
 20
29.730497
 11
81.47767
 21
28.386967
  0
LINE
  8
型材断面
  6
DOT
 10
81.47767
 20
28.386967
 11
97.03404
 21
43.943338
  0
LINE
  8
型材断面
  6
DOT
 10
94.512053
 20
45.451748
 11
94.163155
 21
45.800642
  0
LINE
  8
型材断面
  6
DOT
 10
95.490207
 20
46.429903
 11
95.961613
 21
45.958497
  0
LINE
  8
型材断面
  6
DOT
 10
79.96923
 20
30.908922
 11
79.620333
 21
31.25782
  0
LINE
  8
型材断面
  6
DOT
 10
78.991072
 20
29.930768
 11
79.462478
 21
29.459362
  0
LINE
  8
型材断面
  6
DOT
 10
94.163155
 20
45.800642
 11
79.620333
 21
31.25782
  0
LINE
  8
型材断面
  6
DOT
 10
95.490207
 20
46.429903
 11
78.991072
 21
29.930768
  0
LINE
  8
型材断面
  6
DOT
 10
95.961613
 20
45.958497
 11
79.462478
 21
29.459362
  0
INSERT
  2
*GRP_0023
  8
別途部材
  6
DOT
 10
0.0
 20
0.0
  0
INSERT
  2
*GRP_0024
  8
別途部材
  6
DOT
 10
0.0
 20
0.0
  0
ENDBLK
  0
BLOCK
  2
*GRP_0023
 70
    65
 10
0.0
 20
0.0
  0
LINE
  8
ボルト／ビス
  6
DOT
 10
94.747693
 20
45.758262
 11
94.41771
 21
46.088248
  0
LINE
  8
ボルト／ビス
  6
DOT
 10
95.006965
 20
46.017538
 11
94.959825
 21
46.064677
  0
LINE
  8
ボルト／ビス
  6
DOT
 10
94.959825
 20
46.064677
 11
94.44128
 21
45.546133
  0
LINE
  8
ボルト／ビス
  6
DOT
 10
94.44128
 20
45.546133
 11
94.48842
 21
45.49899
  0
LINE
  8
ボルト／ビス
  6
DOT
 10
95.006965
 20
46.017538
 11
94.48842
 21
45.49899
  0
LINE
  8
ボルト／ビス
  6
DOT
 10
94.889115
 20
46.041105
 11
94.912682
 21
46.017538
  0
LINE
  8
ボルト／ビス
  6
DOT
 10
94.889115
 20
46.041105
 11
94.46485
 21
45.616842
  0
LINE
  8
ボルト／ビス
  6
DOT
 10
94.46485
 20
45.616842
 11
94.48842
 21
45.593273
  0
LINE
  8
ボルト／ビス
  6
DOT
 62
    64
 10
94.648963
 20
46.083798
 11
94.6799
 21
46.098222
  0
ARC
  8
ボルト／ビス
  6
DOT
 62
    64
 10
94.711855
 20
45.998226
 40
0.104978
 50
135.0
 51
162.278033
  0
ARC
  8
ボルト／ビス
  6
DOT
 62
    64
 10
94.820103
 20
45.685853
 40
0.402402
 50
121.165015
 51
148.834998
  0
LINE
  8
ボルト／ビス
  6
DOT
 62
    64
 10
94.42216
 20
45.856992
 11
94.407735
 21
45.826058
  0
ARC
  8
ボルト／ビス
  6
DOT
 62
    64
 10
94.507731
 20
45.794102
 40
0.104978
 50
107.721967
 51
135.0
  0
LINE
  8
ボルト／ビス
  6
DOT
 62
    64
 10
94.648963
 20
46.083798
 11
94.42216
 21
45.856992
  0
LINE
  8
ボルト／ビス
  6
DOT
 62
    64
 10
94.407735
 20
45.826058
 11
94.493757
 21
45.740033
  0
LINE
  8
ボルト／ビス
  6
DOT
 62
    64
 10
94.475775
 20
45.894097
 11
94.5618
 21
45.808072
  0
LINE
  8
ボルト／ビス
  6
DOT
 62
    64
 10
94.6799
 20
46.098222
 11
94.765922
 21
46.012197
  0
LINE
  8
ボルト／ビス
  6
DOT
 62
    64
 10
94.611858
 20
46.03018
 11
94.697883
 21
45.944158
  0
LINE
  8
ボルト／ビス
  6
DOT
 10
94.765922
 20
46.012197
 11
94.493757
 21
45.740033
  0
LINE
  8
ボルト／ビス
  6
DOT
 10
94.771263
 20
46.017538
 11
94.818405
 21
45.970395
  0
LINE
  8
ボルト／ビス
  6
DOT
 10
94.771263
 20
46.017538
 11
94.48842
 21
45.734692
  0
LINE
  8
ボルト／ビス
  6
DOT
 10
94.48842
 20
45.734692
 11
94.53556
 21
45.687552
  0
ENDBLK
  0
BLOCK
  2
*GRP_0024
 70
    65
 10
0.0
 20
0.0
  0
LINE
  8
ボルト／ビス
  6
DOT
 10
79.662745
 20
30.673315
 11
79.33276
 21
31.0033
  0
LINE
  8
ボルト／ビス
  6
DOT
 10
79.403472
 20
30.414042
 11
79.35633
 21
30.461182
  0
LINE
  8
ボルト／ビス
  6
DOT
 10
79.35633
 20
30.461182
 11
79.874875
 21
30.97973
  0
LINE
  8
ボルト／ビス
  6
DOT
 10
79.874875
 20
30.97973
 11
79.922018
 21
30.932588
  0
LINE
  8
ボルト／ビス
  6
DOT
 10
79.403472
 20
30.414042
 11
79.922018
 21
30.932588
  0
LINE
  8
ボルト／ビス
  6
DOT
 10
79.379903
 20
30.531895
 11
79.403472
 21
30.508325
  0
LINE
  8
ボルト／ビス
  6
DOT
 10
79.379903
 20
30.531895
 11
79.804168
 21
30.956157
  0
LINE
  8
ボルト／ビス
  6
DOT
 10
79.804168
 20
30.956157
 11
79.827735
 21
30.93259
  0
LINE
  8
ボルト／ビス
  6
DOT
 62
    64
 10
79.33721
 20
30.772045
 11
79.322785
 21
30.74111
  0
ARC
  8
ボルト／ビス
  6
DOT
 62
    64
 10
79.422782
 20
30.709153
 40
0.104978
 50
107.721967
 51
135.0
  0
ARC
  8
ボルト／ビス
  6
DOT
 62
    64
 10
79.735155
 20
30.600905
 40
0.402402
 50
121.165002
 51
148.834985
  0
LINE
  8
ボルト／ビス
  6
DOT
 62
    64
 10
79.564015
 20
30.99885
 11
79.594953
 21
31.013275
  0
ARC
  8
ボルト／ビス
  6
DOT
 62
    64
 10
79.626907
 20
30.913277
 40
0.104978
 50
135.0
 51
162.278033
  0
LINE
  8
ボルト／ビス
  6
DOT
 62
    64
 10
79.33721
 20
30.772045
 11
79.564015
 21
30.99885
  0
LINE
  8
ボルト／ビス
  6
DOT
 62
    64
 10
79.594953
 20
31.013275
 11
79.680975
 21
30.92725
  0
LINE
  8
ボルト／ビス
  6
DOT
 62
    64
 10
79.52691
 20
30.945233
 11
79.612935
 21
30.85921
  0
LINE
  8
ボルト／ビス
  6
DOT
 62
    64
 10
79.322785
 20
30.74111
 11
79.40881
 21
30.655085
  0
LINE
  8
ボルト／ビス
  6
DOT
 62
    64
 10
79.390827
 20
30.809152
 11
79.476852
 21
30.723128
  0
LINE
  8
ボルト／ビス
  6
DOT
 10
79.40881
 20
30.655085
 11
79.680975
 21
30.92725
  0
LINE
  8
ボルト／ビス
  6
DOT
 10
79.403472
 20
30.649748
 11
79.450615
 21
30.602605
  0
LINE
  8
ボルト／ビス
  6
DOT
 10
79.403472
 20
30.649748
 11
79.686315
 21
30.93259
  0
LINE
  8
ボルト／ビス
  6
DOT
 10
79.686315
 20
30.93259
 11
79.733455
 21
30.885448
  0
ENDBLK
  0
BLOCK
  2
*DIM_0025
 70
    65
 10
0.0
 20
0.0
  0
LINE
  8
寸法
  6
CONTINUOUS
 10
102.74613
 20
50.314048
 11
102.74613
 21
60.666798
  0
LINE
  8
寸法
  6
CONTINUOUS
 10
99.74613
 20
60.666798
 11
102.74613
 21
60.666798
  0
POINT
  8
寸法
 10
102.74613
 20
60.666798
  0
TEXT
  7
TextStyle03
  8
寸法
  6
CONTINUOUS
 10
99.725
 20
61.025
  1
※
 40
3.0
 72
     5
 11
102.725
 21
61.025
  0
ENDBLK
  0
BLOCK
  2
*DIM_0026
 70
    65
 10
0.0
 20
0.0
  0
LINE
  8
寸法
  6
CONTINUOUS
 10
64.31834
 20
22.814033
 11
64.31834
 21
42.814033
  0
POINT
  8
寸法
 10
64.31834
 20
22.814033
  0
POINT
  8
寸法
 10
64.31834
 20
42.814033
  0
TEXT
  7
TextStyle03
  8
寸法
  6
CONTINUOUS
 10
63.925
 20
30.3625
  1
600
 40
3.0
 50
90.0
 72
     5
 11
63.925
 21
35.2375
  0
ENDBLK
  0
BLOCK
  2
*DIM_0027
 70
    65
 10
0.0
 20
0.0
  0
LINE
  8
寸法
  6
CONTINUOUS
 10
99.4128
 20
49.314048
 11
64.31834
 21
49.314048
  0
LINE
  8
寸法
  6
CONTINUOUS
 10
64.31834
 20
42.814033
 11
64.31834
 21
49.314048
  0
POINT
  8
寸法
 10
64.31834
 20
42.814033
  0
POINT
  8
寸法
 10
64.31834
 20
49.314048
  0
TEXT
  7
TextStyle03
  8
寸法
  6
CONTINUOUS
 10
63.925
 20
44.55
  1
※
 40
3.0
 50
90.0
 72
     5
 11
63.925
 21
47.55
  0
ENDBLK
  0
BLOCK
  2
*DIM_0028
 70
    65
 10
0.0
 20
0.0
  0
LINE
  8
寸法
  6
CONTINUOUS
 10
99.4128
 20
16.314018
 11
64.31834
 21
16.314018
  0
LINE
  8
寸法
  6
CONTINUOUS
 10
64.31834
 20
22.814033
 11
64.31834
 21
16.314018
  0
POINT
  8
寸法
 10
64.31834
 20
22.814033
  0
POINT
  8
寸法
 10
64.31834
 20
16.314018
  0
TEXT
  7
TextStyle03
  8
寸法
  6
CONTINUOUS
 10
63.925
 20
18.05
  1
※
 40
3.0
 50
90.0
 72
     5
 11
63.925
 21
21.05
  0
ENDBLK
  0
BLOCK
  2
*DIM_0029
 70
    65
 10
0.0
 20
0.0
  0
LINE
  8
寸法
  6
CONTINUOUS
 10
99.74613
 20
44.814048
 11
99.74613
 21
60.666798
  0
LINE
  8
寸法
  6
CONTINUOUS
 10
93.802832
 20
44.047382
 11
93.802832
 21
60.666798
  0
LINE
  8
寸法
  6
CONTINUOUS
 10
99.74613
 20
60.666798
 11
93.802832
 21
60.666798
  0
POINT
  8
寸法
 10
99.74613
 20
60.666798
  0
POINT
  8
寸法
 10
93.802832
 20
60.666798
  0
TEXT
  7
TextStyle03
  8
寸法
  6
CONTINUOUS
 10
83.175
 20
57.65
  1
178.3
 40
3.0
 72
     5
 11
91.425
 21
57.65
  0
ENDBLK
  0
ENDSEC
  0
SECTION
  2
ENTITIES
  0
POLYLINE
  8
通り芯
  6
CONTINUOUS
 66
     1
 70
     1
  0
VERTEX
  8
通り芯
 10
-210.0
 20
-148.5
  0
VERTEX
  8
通り芯
 10
210.0
 20
-148.5
  0
VERTEX
  8
通り芯
 10
210.0
 20
148.5
  0
VERTEX
  8
通り芯
 10
-210.0
 20
148.5
  0
SEQEND
  0
INSERT
  2
*GRP_0001
  8
型材断面
  6
CONTINUOUS
 10
0.0
 20
0.0
  0
LINE
  8
型材断面
  6
DASHDOT
 10
4.712865
 20
-77.836442
 11
4.712865
 21
42.814033
  0
LINE
  8
型材断面
  6
DASHDOT
 10
-45.287135
 20
-77.836442
 11
-45.287135
 21
42.814033
  0
LINE
  8
型材断面
  6
DASHDOT
 10
-95.287135
 20
-77.836442
 11
-95.287135
 21
42.814033
  0
LINE
  8
型材断面
  6
DASHDOT
 10
102.389627
 20
42.814033
 11
-95.287135
 21
42.814033
  0
LINE
  8
型材断面
  6
DASHDOT
 10
102.389627
 20
32.814033
 11
-95.287135
 21
32.814033
  0
LINE
  8
型材断面
  6
DASHDOT
 10
102.389627
 20
22.814033
 11
-95.287135
 21
22.814033
  0
LINE
  8
型材断面
  6
CONTINUOUS
 10
-78.620467
 20
45.444162
 11
-80.116097
 21
48.03467
  0
LINE
  8
型材断面
  6
CONTINUOUS
 10
-78.620467
 20
45.444162
 11
-77.124838
 21
48.03467
  0
LINE
  8
型材断面
  6
CONTINUOUS
 10
-77.124838
 20
48.03467
 11
-80.116097
 21
48.03467
  0
LINE
  8
型材断面
  6
CONTINUOUS
 10
-136.139343
 20
80.791505
 11
-135.543288
 21
78.200998
  0
LINE
  8
型材断面
  6
CONTINUOUS
 10
-136.139343
 20
80.791505
 11
-136.7354
 21
78.200998
  0
LINE
  8
型材断面
  6
CONTINUOUS
 10
-136.7354
 20
78.200998
 11
-135.543288
 21
78.200998
  0
LINE
  8
型材断面
  6
CONTINUOUS
 10
-142.16193
 20
74.922105
 11
-95.920153
 21
74.922105
  0
LINE
  8
型材断面
  6
CONTINUOUS
 10
-136.139343
 20
87.32138
 11
-137.634973
 21
84.730873
  0
LINE
  8
型材断面
  6
CONTINUOUS
 10
-136.139343
 20
87.32138
 11
-134.643713
 21
84.730873
  0
LINE
  8
型材断面
  6
CONTINUOUS
 10
-134.643713
 20
84.730873
 11
-137.634973
 21
84.730873
  0
LINE
  8
型材断面
  6
CONTINUOUS
 10
-142.16193
 20
83.792277
 11
-95.920153
 21
83.792277
  0
LINE
  8
型材断面
  6
CONTINUOUS
 10
-142.16193
 20
69.134073
 11
-95.920153
 21
69.134073
  0
LINE
  8
型材断面
  6
CONTINUOUS
 10
-97.917265
 20
32.814033
 11
-100.507773
 21
34.309663
  0
LINE
  8
型材断面
  6
CONTINUOUS
 10
-97.917265
 20
32.814033
 11
-100.507773
 21
31.318403
  0
LINE
  8
型材断面
  6
CONTINUOUS
 10
-100.507773
 20
31.318403
 11
-100.507773
 21
34.309663
  0
LINE
  8
型材断面
  6
CONTINUOUS
 10
-78.620467
 20
20.183902
 11
-80.116097
 21
17.593395
  0
LINE
  8
型材断面
  6
CONTINUOUS
 10
-78.620467
 20
20.183902
 11
-77.124838
 21
17.593395
  0
LINE
  8
型材断面
  6
CONTINUOUS
 10
-77.124838
 20
17.593395
 11
-80.116097
 21
17.593395
  0
LINE
  8
型材断面
  6
CONTINUOUS
 10
-11.953802
 20
45.444162
 11
-10.458173
 21
48.03467
  0
LINE
  8
型材断面
  6
CONTINUOUS
 10
-11.953802
 20
45.444162
 11
-13.449432
 21
48.03467
  0
LINE
  8
型材断面
  6
CONTINUOUS
 10
-13.449432
 20
48.03467
 11
-10.458173
 21
48.03467
  0
LINE
  8
型材断面
  6
CONTINUOUS
 10
-11.953802
 20
20.183902
 11
-10.458173
 21
17.593395
  0
LINE
  8
型材断面
  6
CONTINUOUS
 10
-11.953802
 20
20.183902
 11
-13.449432
 21
17.593395
  0
LINE
  8
型材断面
  6
CONTINUOUS
 10
-13.449432
 20
17.593395
 11
-10.458173
 21
17.593395
  0
LINE
  8
型材断面
  6
CONTINUOUS
 10
7.342995
 20
32.814033
 11
9.933503
 21
34.309663
  0
LINE
  8
型材断面
  6
CONTINUOUS
 10
7.342995
 20
32.814033
 11
9.933503
 21
31.318403
  0
LINE
  8
型材断面
  6
CONTINUOUS
 10
9.933503
 20
31.318403
 11
9.933503
 21
34.309663
  0
LINE
  8
型材断面
  6
CONTINUOUS
 10
2.712865
 20
20.20722
 11
2.116807
 21
17.616715
  0
LINE
  8
型材断面
  6
CONTINUOUS
 10
2.712865
 20
20.20722
 11
3.308922
 21
17.616715
  0
LINE
  8
型材断面
  6
CONTINUOUS
 10
3.308922
 20
17.616715
 11
2.116807
 21
17.616715
  0
LINE
  8
型材断面
  6
CONTINUOUS
 10
-93.287135
 20
20.20722
 11
-92.691078
 21
17.616715
  0
LINE
  8
型材断面
  6
CONTINUOUS
 10
-93.287135
 20
20.20722
 11
-93.883193
 21
17.616715
  0
LINE
  8
型材断面
  6
CONTINUOUS
 10
-93.883193
 20
17.616715
 11
-92.691078
 21
17.616715
  0
LINE
  8
型材断面
  6
CONTINUOUS
 10
-97.353805
 20
44.880703
 11
-101.78715
 21
49.314048
  0
LINE
  8
型材断面
  6
CONTINUOUS
 10
-101.78715
 20
16.314018
 11
-97.353805
 21
20.747363
  0
LINE
  8
型材断面
  6
CONTINUOUS
 10
-101.78715
 20
16.314018
 11
-101.78715
 21
49.314048
  0
LINE
  8
型材断面
  6
CONTINUOUS
 10
6.779532
 20
44.880703
 11
11.212877
 21
49.314048
  0
LINE
  8
型材断面
  6
CONTINUOUS
 10
6.779532
 20
20.747363
 11
11.212877
 21
16.314018
  0
LINE
  8
型材断面
  6
CONTINUOUS
 10
11.212877
 20
49.314048
 11
11.212877
 21
16.314018
  0
LINE
  8
型材断面
  6
CONTINUOUS
 10
11.212877
 20
49.314048
 11
-101.78715
 21
49.314048
  0
LINE
  8
型材断面
  6
CONTINUOUS
 10
11.212877
 20
16.314018
 11
-101.78715
 21
16.314018
  0
POLYLINE
  8
型材断面
  6
DASHDOT
 66
     1
  0
VERTEX
  8
型材断面
 10
-95.287135
 20
22.814033
  0
VERTEX
  8
型材断面
 10
-45.287135
 20
42.814033
  0
VERTEX
  8
型材断面
 10
4.712862
 20
22.814033
  0
SEQEND
  0
LINE
  8
型材断面
  6
DASHDOT
 10
-28.37047
 20
42.814033
 11
-28.37047
 21
22.814033
  0
LINE
  8
型材断面
  6
DASHDOT
 10
-62.203805
 20
42.814033
 11
-62.203805
 21
22.814033
  0
LINE
  8
型材断面
  6
CONTINUOUS
 62
    47
 10
-96.28715
 20
-71.20961
 11
-96.28715
 21
-73.10965
  0
LINE
  8
型材断面
  6
CONTINUOUS
 10
-96.28715
 20
-73.30965
 11
-96.28715
 21
-75.70961
  0
LINE
  8
型材断面
  6
CONTINUOUS
 10
-96.28715
 20
-75.70961
 11
-101.78715
 21
-76.37628
  0
LINE
  8
型材断面
  6
CONTINUOUS
 10
-101.78715
 20
-78.70961
 11
-101.78715
 21
-76.37628
  0
LINE
  8
型材断面
  6
CONTINUOUS
 62
    47
 10
5.712877
 20
-71.20961
 11
5.712877
 21
-73.10965
  0
LINE
  8
型材断面
  6
CONTINUOUS
 10
5.712877
 20
-73.30965
 11
5.712877
 21
-75.70961
  0
LINE
  8
型材断面
  6
CONTINUOUS
 10
5.712877
 20
-75.70961
 11
11.212877
 21
-76.37628
  0
LINE
  8
型材断面
  6
CONTINUOUS
 10
11.212877
 20
-78.70961
 11
11.212877
 21
-76.37628
  0
LINE
  8
型材断面
  6
CONTINUOUS
 10
-101.78715
 20
-78.70961
 11
11.212877
 21
-78.70961
  0
LINE
  8
型材断面
  6
CONTINUOUS
 10
-101.78715
 20
-76.37628
 11
11.212877
 21
-76.37628
  0
LINE
  8
型材断面
  6
CONTINUOUS
 10
5.712877
 20
-73.10965
 11
-96.28715
 21
-73.10965
  0
LINE
  8
型材断面
  6
CONTINUOUS
 10
5.712877
 20
-73.30965
 11
-96.28715
 21
-73.30965
  0
LINE
  8
型材断面
  6
CONTINUOUS
 10
5.712877
 20
-75.70961
 11
-96.28715
 21
-75.70961
  0
LINE
  8
型材断面
  6
CONTINUOUS
 10
-96.953785
 20
44.480682
 11
-94.787118
 21
42.314015
  0
LINE
  8
型材断面
  6
CONTINUOUS
 10
-96.953785
 20
21.147382
 11
-94.787118
 21
23.31405
  0
LINE
  8
型材断面
  6
CONTINUOUS
 10
-94.787118
 20
23.31405
 11
-94.787118
 21
42.314015
  0
LINE
  8
型材断面
  6
CONTINUOUS
 10
-95.570463
 20
22.530705
 11
-95.570463
 21
43.09736
  0
LINE
  8
型材断面
  6
CONTINUOUS
 10
-96.953785
 20
21.147382
 11
-96.953785
 21
44.480682
  0
LINE
  8
型材断面
  6
CONTINUOUS
 10
4.212847
 20
42.314015
 11
6.379515
 21
44.480682
  0
LINE
  8
型材断面
  6
CONTINUOUS
 10
4.212847
 20
23.31405
 11
6.379515
 21
21.147382
  0
LINE
  8
型材断面
  6
CONTINUOUS
 10
4.212847
 20
23.31405
 11
4.212847
 21
42.314015
  0
LINE
  8
型材断面
  6
CONTINUOUS
 10
4.996192
 20
22.530705
 11
4.996192
 21
43.09736
  0
LINE
  8
型材断面
  6
CONTINUOUS
 10
6.379515
 20
21.147382
 11
6.379515
 21
44.480682
  0
LINE
  8
型材断面
  6
CONTINUOUS
 10
4.212847
 20
42.314015
 11
-94.787118
 21
42.314015
  0
LINE
  8
型材断面
  6
CONTINUOUS
 10
4.996192
 20
43.09736
 11
-95.570463
 21
43.09736
  0
LINE
  8
型材断面
  6
CONTINUOUS
 10
6.379515
 20
44.480682
 11
-96.953785
 21
44.480682
  0
LINE
  8
型材断面
  6
CONTINUOUS
 10
-94.787118
 20
23.31405
 11
4.212847
 21
23.31405
  0
LINE
  8
型材断面
  6
CONTINUOUS
 10
-95.570463
 20
22.530705
 11
4.996192
 21
22.530705
  0
LINE
  8
型材断面
  6
CONTINUOUS
 10
-96.953785
 20
21.147382
 11
6.379515
 21
21.147382
  0
LINE
  8
型材断面
  6
CONTINUOUS
 10
-95.570445
 20
-70.259728
 11
-95.570445
 21
-69.766312
  0
LINE
  8
型材断面
  6
CONTINUOUS
 10
-96.953765
 20
-70.259728
 11
-96.953765
 21
-70.926395
  0
LINE
  8
型材断面
  6
CONTINUOUS
 10
4.212865
 20
-69.766312
 11
4.946213
 21
-69.766312
  0
LINE
  8
型材断面
  6
CONTINUOUS
 10
4.996213
 20
-70.259728
 11
4.996213
 21
-69.766312
  0
LINE
  8
型材断面
  6
CONTINUOUS
 10
6.379535
 20
-70.259728
 11
6.379535
 21
-70.926395
  0
LINE
  8
型材断面
  6
CONTINUOUS
 10
-95.570445
 20
-69.766312
 11
4.996213
 21
-69.766312
  0
LINE
  8
型材断面
  6
CONTINUOUS
 10
-96.953765
 20
-70.259728
 11
6.379535
 21
-70.259728
  0
LINE
  8
型材断面
  6
CONTINUOUS
 10
-96.953765
 20
-70.926395
 11
6.379535
 21
-70.926395
  0
LINE
  8
型材断面
  6
CONTINUOUS
 62
    47
 10
95.24613
 20
43.814048
 11
97.14617
 21
43.814048
  0
LINE
  8
型材断面
  6
CONTINUOUS
 10
97.34617
 20
43.814048
 11
99.74613
 21
43.814048
  0
LINE
  8
型材断面
  6
CONTINUOUS
 10
99.74613
 20
43.814048
 11
100.4128
 21
49.314048
  0
LINE
  8
型材断面
  6
CONTINUOUS
 10
102.74613
 20
49.314048
 11
100.4128
 21
49.314048
  0
LINE
  8
型材断面
  6
CONTINUOUS
 62
    47
 10
95.24613
 20
21.814018
 11
97.14617
 21
21.814018
  0
LINE
  8
型材断面
  6
CONTINUOUS
 10
97.34617
 20
21.814018
 11
99.74613
 21
21.814018
  0
LINE
  8
型材断面
  6
CONTINUOUS
 10
99.74613
 20
21.814018
 11
100.4128
 21
16.314018
  0
LINE
  8
型材断面
  6
CONTINUOUS
 10
102.74613
 20
16.314018
 11
100.4128
 21
16.314018
  0
LINE
  8
型材断面
  6
CONTINUOUS
 10
102.74613
 20
49.314048
 11
102.74613
 21
16.314018
  0
LINE
  8
型材断面
  6
CONTINUOUS
 10
100.4128
 20
49.314048
 11
100.4128
 21
16.314018
  0
LINE
  8
型材断面
  6
CONTINUOUS
 10
97.14617
 20
21.814018
 11
97.14617
 21
43.814048
  0
LINE
  8
型材断面
  6
CONTINUOUS
 10
97.34617
 20
21.814018
 11
97.34617
 21
43.814048
  0
LINE
  8
型材断面
  6
CONTINUOUS
 10
99.74613
 20
21.814018
 11
99.74613
 21
43.814048
  0
ARC
  8
型材断面
  6
DASHDOT
 10
97.246169
 20
44.014048
 40
23.06264
 50
217.525659
 51
262.525659
  0
INSERT
  2
*GRP_0022
  8
型材断面
  6
CONTINUOUS
 10
0.0
 20
0.0
  0
LINE
  8
型材断面
  6
CONTINUOUS
 10
94.296248
 20
22.530727
 11
93.802832
 21
22.530727
  0
LINE
  8
型材断面
  6
CONTINUOUS
 10
94.296248
 20
21.147405
 11
94.962915
 21
21.147405
  0
LINE
  8
型材断面
  6
CONTINUOUS
 10
93.802832
 20
42.314038
 11
93.802832
 21
43.047382
  0
LINE
  8
型材断面
  6
CONTINUOUS
 10
94.296248
 20
43.097382
 11
93.802832
 21
43.097382
  0
LINE
  8
型材断面
  6
CONTINUOUS
 10
94.296248
 20
44.480705
 11
94.962915
 21
44.480705
  0
LINE
  8
型材断面
  6
CONTINUOUS
 10
93.802832
 20
22.530727
 11
93.802832
 21
43.097382
  0
LINE
  8
型材断面
  6
CONTINUOUS
 10
94.296248
 20
21.147405
 11
94.296248
 21
44.480705
  0
LINE
  8
型材断面
  6
CONTINUOUS
 10
94.962915
 20
21.147405
 11
94.962915
 21
44.480705
  0
LINE
  8
型材断面
  6
CONTINUOUS
 10
-63.370472
 20
24.147382
 11
-61.037137
 21
24.147382
  0
LINE
  8
型材断面
  6
CONTINUOUS
 10
-61.037137
 20
24.147382
 11
-61.037137
 21
41.480682
  0
LINE
  8
型材断面
  6
CONTINUOUS
 10
-61.037137
 20
41.480682
 11
-63.370472
 21
41.480682
  0
LINE
  8
型材断面
  6
CONTINUOUS
 10
-63.370472
 20
24.147382
 11
-63.370472
 21
41.480682
  0
LINE
  8
型材断面
  6
CONTINUOUS
 10
-62.537137
 20
24.147382
 11
-62.537137
 21
41.480682
  0
LINE
  8
型材断面
  6
CONTINUOUS
 10
-61.870472
 20
24.147382
 11
-61.870472
 21
41.480682
  0
LINE
  8
型材断面
  6
CONTINUOUS
 10
-29.537137
 20
24.147382
 11
-27.203802
 21
24.147382
  0
LINE
  8
型材断面
  6
CONTINUOUS
 10
-27.203802
 20
24.147382
 11
-27.203802
 21
41.480682
  0
LINE
  8
型材断面
  6
CONTINUOUS
 10
-27.203802
 20
41.480682
 11
-29.537137
 21
41.480682
  0
LINE
  8
型材断面
  6
CONTINUOUS
 10
-29.537137
 20
24.147382
 11
-29.537137
 21
41.480682
  0
LINE
  8
型材断面
  6
CONTINUOUS
 10
-28.703802
 20
24.147382
 11
-28.703802
 21
41.480682
  0
LINE
  8
型材断面
  6
CONTINUOUS
 10
-28.037137
 20
24.147382
 11
-28.037137
 21
41.480682
  0
LINE
  8
ガラス
  6
CONTINUOUS
 10
100.921003
 20
-36.348672
 11
100.921003
 21
-56.348672
  0
LINE
  8
ガラス
  6
CONTINUOUS
 10
100.921003
 20
-36.348672
 11
68.58767
 21
-36.348672
  0
LINE
  8
ガラス
  6
CONTINUOUS
 10
68.58767
 20
-36.348672
 11
68.58767
 21
-56.348672
  0
LINE
  8
ガラス
  6
CONTINUOUS
 10
100.921003
 20
-56.348672
 11
68.58767
 21
-56.348672
  0
LINE
  8
ガラス
  6
CONTINUOUS
 10
-42.656175
 20
35.444993
 11
-47.918105
 21
30.183065
  0
LINE
  8
ガラス
  6
CONTINUOUS
 10
-43.968525
 20
31.495413
 11
-46.605755
 21
34.132655
  0
LINE
  8
ガラス
  6
CONTINUOUS
 10
-45.674615
 20
31.556313
 11
-43.641583
 21
33.589345
  0
LINE
  8
ガラス
  6
CONTINUOUS
 10
-44.899672
 20
34.071753
 11
-46.932695
 21
32.038723
  0
LINE
  8
ガラス
  6
CONTINUOUS
 10
-76.99404
 20
35.444993
 11
-82.25597
 21
30.183065
  0
LINE
  8
ガラス
  6
CONTINUOUS
 10
-78.30639
 20
31.495413
 11
-80.94362
 21
34.132655
  0
LINE
  8
ガラス
  6
CONTINUOUS
 10
-80.01248
 20
31.556313
 11
-77.979447
 21
33.589345
  0
LINE
  8
ガラス
  6
CONTINUOUS
 10
-79.237537
 20
34.071753
 11
-81.27056
 21
32.038723
  0
LINE
  8
ガラス
  6
CONTINUOUS
 10
-8.99404
 20
35.444993
 11
-14.25597
 21
30.183065
  0
LINE
  8
ガラス
  6
CONTINUOUS
 10
-10.30639
 20
31.495413
 11
-12.94362
 21
34.132655
  0
LINE
  8
ガラス
  6
CONTINUOUS
 10
-12.01248
 20
31.556313
 11
-9.979447
 21
33.589345
  0
LINE
  8
ガラス
  6
CONTINUOUS
 10
-11.237537
 20
34.071753
 11
-13.27056
 21
32.038723
  0
TEXT
  7
TextStyle03
  8
文字
  6
CONTINUOUS
 10
78.1
 20
125.25
  1
シリーズ：ＳＴＦＦＨＬ
 40
5.0
 72
     5
 11
139.35
 21
125.25
  0
TEXT
  7
TextStyle03
  8
文字
  6
CONTINUOUS
 10
78.1
 20
119.625
  1
　　　　　（片側開閉）600×3000タイプ
 40
5.0
 72
     5
 11
181.5375
 21
119.625
  0
TEXT
  7
TextStyle03
  8
文字
  6
CONTINUOUS
 10
78.1
 20
114.0
  1
図面名　：外観姿図
 40
5.0
 72
     5
 11
128.1
 21
114.0
  0
TEXT
  7
TextStyle03
  8
文字
  6
CONTINUOUS
 10
78.1
 20
108.375
  1
　　　　　　
 40
5.0
 72
     5
 11
111.225
 21
108.375
  0
TEXT
  7
TextStyle03
  8
文字
  6
CONTINUOUS
 10
-133.325
 20
84.95
  1
は排水穴位置を示す
 40
3.0
 72
     5
 11
-103.325
 21
84.95
  0
TEXT
  7
TextStyle03
  8
文字
  6
CONTINUOUS
 10
-133.325
 20
79.425
  1
はケーシング位置を示す
 40
3.0
 72
     5
 11
-96.575
 21
79.425
  0
TEXT
  7
TextStyle03
  8
文字
  6
CONTINUOUS
 10
-133.325
 20
76.05
  1
２ヶ所中1ヶ所に設定
 40
3.0
 72
     5
 11
-101.6375
 21
76.05
  0
TEXT
  7
TextStyle03
  8
文字
  6
CONTINUOUS
 10
-116.35
 20
11.275
  1
アンカーピッチ
 40
3.0
 50
90.0
 72
     5
 11
-116.35
 21
34.525
  0
TEXT
  7
TextStyle03
  8
文字
  6
CONTINUOUS
 10
-85.325
 20
80.2
  1
アンカーピッチ
 40
3.0
 72
     5
 11
-62.075
 21
80.2
  0
TEXT
  7
TextStyle03
  8
文字
  6
CONTINUOUS
 10
-137.05
 20
70.075
  1
アンカー数量　１２ヶ所
 40
3.0
 72
     5
 11
-100.3
 21
70.075
  0
TEXT
  7
TextStyle03
  8
文字
  6
CONTINUOUS
 10
82.075
 20
-49.35
  1
網入り6.8t
 40
3.0
 72
     5
 11
98.7625
 21
-49.35
  0
TEXT
  7
TextStyle03
  8
文字
  6
CONTINUOUS
 10
-3.1
 20
-87.375
  1
※は物件対応寸法
 40
3.0
 72
     5
 11
23.525
 21
-87.375
  0
TEXT
  7
TextStyle03
  8
文字
  6
CONTINUOUS
 10
88.75
 20
-54.025
  1
×３枚
 40
3.0
 72
     5
 11
98.5
 21
-54.025
  0
TEXT
  7
TextStyle03
  8
文字
  6
CONTINUOUS
 10
85.975
 20
17.6
  1
45°
 40
3.0
 50
90.0
 72
     5
 11
85.975
 21
23.975
  0
INSERT
  2
*DIM_0002
  8
寸法
  6
CONTINUOUS
 10
0.0
 20
0.0
  0
INSERT
  2
*DIM_0003
  8
寸法
  6
CONTINUOUS
 10
0.0
 20
0.0
  0
INSERT
  2
*DIM_0004
  8
寸法
  6
CONTINUOUS
 10
0.0
 20
0.0
  0
INSERT
  2
*DIM_0005
  8
寸法
  6
CONTINUOUS
 10
0.0
 20
0.0
  0
INSERT
  2
*DIM_0006
  8
寸法
  6
CONTINUOUS
 10
0.0
 20
0.0
  0
INSERT
  2
*DIM_0007
  8
寸法
  6
CONTINUOUS
 10
0.0
 20
0.0
  0
INSERT
  2
*DIM_0008
  8
寸法
  6
CONTINUOUS
 10
0.0
 20
0.0
  0
INSERT
  2
*DIM_0011
  8
寸法
  6
CONTINUOUS
 10
0.0
 20
0.0
  0
INSERT
  2
*DIM_0012
  8
寸法
  6
CONTINUOUS
 10
0.0
 20
0.0
  0
INSERT
  2
*DIM_0013
  8
寸法
  6
CONTINUOUS
 10
0.0
 20
0.0
  0
INSERT
  2
*DIM_0014
  8
寸法
  6
CONTINUOUS
 10
0.0
 20
0.0
  0
INSERT
  2
*DIM_0015
  8
寸法
  6
CONTINUOUS
 10
0.0
 20
0.0
  0
INSERT
  2
*DIM_0016
  8
寸法
  6
CONTINUOUS
 10
0.0
 20
0.0
  0
INSERT
  2
*DIM_0017
  8
寸法
  6
CONTINUOUS
 10
0.0
 20
0.0
  0
INSERT
  2
*DIM_0025
  8
寸法
  6
CONTINUOUS
 10
0.0
 20
0.0
  0
INSERT
  2
*DIM_0026
  8
寸法
  6
CONTINUOUS
 10
0.0
 20
0.0
  0
INSERT
  2
*DIM_0027
  8
寸法
  6
CONTINUOUS
 10
0.0
 20
0.0
  0
INSERT
  2
*DIM_0028
  8
寸法
  6
CONTINUOUS
 10
0.0
 20
0.0
  0
INSERT
  2
*DIM_0029
  8
寸法
  6
CONTINUOUS
 10
0.0
 20
0.0
  0
INSERT
  2
*GRP_0009
  8
別途部材
  6
DOT
 10
0.0
 20
0.0
  0
INSERT
  2
*GRP_0010
  8
別途部材
  6
DOT
 10
0.0
 20
0.0
  0
INSERT
  2
*GRP_0018
  8
別途部材
  6
DOT
 10
0.0
 20
0.0
  0
INSERT
  2
*GRP_0019
  8
別途部材
  6
DOT
 10
0.0
 20
0.0
  0
INSERT
  2
*GRP_0020
  8
別途部材
  6
CONTINUOUS
 10
0.0
 20
0.0
  0
ENDSEC
  0
EOF
