  0
SECTION
  2
HEADER
  9
$EXTMIN
 10
-210.0
 20
-148.5
  9
$EXTMAX
 10
210.0
 20
148.5
  9
$PDMODE
 70
    32
  9
$PDSIZE
 40
1.5
  9
$LTSCALE
 40
10.0
  0
ENDSEC
  0
SECTION
  2
TABLES
  0
TABLE
  2
LTYPE
 70
    15
  0
LTYPE
  2
CONTINUOUS
 70
    64
  3
実線
 72
    65
 73
     0
 40
0.0
  0
LTYPE
  2
DASHED
 70
    64
  3
破線A
 72
    65
 73
     2
 40
0.6
 49
0.4
 49
-0.2
  0
LTYPE
  2
DASHEDX2
 70
    64
  3
破線B
 72
    65
 73
     2
 40
1.3
 49
0.9
 49
-0.4
  0
LTYPE
  2
DASHDOT
 70
    64
  3
１点鎖線A
 72
    65
 73
     4
 40
0.5375
 49
0.375
 49
-0.05
 49
0.0625
 49
-0.05
  0
LTYPE
  2
DASHDOTX2
 70
    64
  3
１点鎖線B
 72
    65
 73
     4
 40
1.075
 49
0.75
 49
-0.1
 49
0.125
 49
-0.1
  0
LTYPE
  2
DIVIDE2
 70
    64
  3
２点鎖線A
 72
    65
 73
     6
 40
0.5125
 49
0.3
 49
-0.0375
 49
0.05
 49
-0.0375
 49
0.05
 49
-0.0375
  0
LTYPE
  2
DIVIDE
 70
    64
  3
２点鎖線B
 72
    65
 73
     6
 40
1.05
 49
0.55
 49
-0.1
 49
0.1
 49
-0.1
 49
0.1
 49
-0.1
  0
LTYPE
  2
DOT
 70
    64
  3
点線A
 72
    65
 73
     2
 40
0.1125
 49
0.0625
 49
-0.05
  0
LTYPE
  2
DOTX2
 70
    64
  3
点線B
 72
    65
 73
     2
 40
0.275
 49
0.15
 49
-0.125
  0
LTYPE
  2
CONTINUOUS
 70
    64
  3
実線
 72
    65
 73
     0
 40
0.0
  0
LTYPE
  2
CONTINUOUS
 70
    64
  3
実線
 72
    65
 73
     0
 40
0.0
  0
LTYPE
  2
CONTINUOUS
 70
    64
  3
実線
 72
    65
 73
     0
 40
0.0
  0
LTYPE
  2
CONTINUOUS
 70
    64
  3
実線
 72
    65
 73
     0
 40
0.0
  0
LTYPE
  2
CONTINUOUS
 70
    64
  3
実線
 72
    65
 73
     0
 40
0.0
  0
LTYPE
  2
CONTINUOUS
 70
    64
  3
実線
 72
    65
 73
     0
 40
0.0
  0
ENDTAB
  0
TABLE
  2
LAYER
 70
    34
  0
LAYER
  2
通り芯
 70
     0
 62
    15
  6
CONTINUOUS
  0
LAYER
  2
補助線
 70
     0
 62
    16
  6
DOT
  0
LAYER
  2
躯体
 70
     0
 62
    31
  6
CONTINUOUS
  0
LAYER
  2
型材
 70
     0
 62
    32
  6
CONTINUOUS
  0
LAYER
  2
型材断面
 70
     0
 62
    47
  6
CONTINUOUS
  0
LAYER
  2
ガラス
 70
     0
 62
    48
  6
CONTINUOUS
  0
LAYER
  2
ゴム等
 70
     0
 62
    63
  6
CONTINUOUS
  0
LAYER
  2
ボルト／ビス
 70
     0
 62
    64
  6
CONTINUOUS
  0
LAYER
  2
文字
 70
     0
 62
    79
  6
CONTINUOUS
  0
LAYER
  2
寸法
 70
     0
 62
    80
  6
CONTINUOUS
  0
LAYER
  2
ﾊｯﾁﾝｸﾞ
 70
     0
 62
    95
  6
CONTINUOUS
  0
LAYER
  2
別途部材
 70
     0
 62
    96
  6
CONTINUOUS
  0
LAYER
  2
曲げ物
 70
     0
 62
   111
  6
CONTINUOUS
  0
LAYER
  2
鉄骨等
 70
     0
 62
   112
  6
CONTINUOUS
  0
LAYER
  2
St
 70
     0
 62
   127
  6
CONTINUOUS
  0
LAYER
  2
その他部品等
 70
     0
 62
   128
  6
CONTINUOUS
  0
LAYER
  2
ｶﾞｽｹｯﾄ
 70
     0
 62
   143
  6
CONTINUOUS
  0
LAYER
  2
ｽｹｯﾁ
 70
     0
 62
    14
  6
CONTINUOUS
  0
LAYER
  2
0
 70
     0
 62
    17
  6
CONTINUOUS
  0
LAYER
  2
1
 70
     0
 62
    30
  6
CONTINUOUS
  0
LAYER
  2
4
 70
     0
 62
    33
  6
CONTINUOUS
  0
LAYER
  2
ﾚｲﾔ3
 70
     0
 62
    46
  6
CONTINUOUS
  0
LAYER
  2
外形線
 70
     0
 62
    49
  6
CONTINUOUS
  0
LAYER
  2
部品
 70
     0
 62
    14
  6
CONTINUOUS
  0
LAYER
  2
サッシ芯
 70
     0
 62
    17
  6
DASHDOTX2
  0
LAYER
  2
寸法線
 70
     0
 62
    62
  6
CONTINUOUS
  0
LAYER
  2
姿図外形線
 70
     0
 62
    65
  6
CONTINUOUS
  0
LAYER
  2
姿補助線
 70
     0
 62
    30
  6
CONTINUOUS
  0
LAYER
  2
透視線
 70
     0
 62
    78
  6
DOT
  0
LAYER
  2
用紙
 70
     0
 62
    81
  6
CONTINUOUS
  0
LAYER
  2
実線図枠
 70
     0
 62
    94
  6
CONTINUOUS
  0
LAYER
  2
補助図枠
 70
     0
 62
    97
  6
CONTINUOUS
  0
LAYER
  2
建具記号
 70
     0
 62
   110
  6
CONTINUOUS
  0
LAYER
  2
補助文字
 70
     0
 62
   113
  6
CONTINUOUS
  0
ENDTAB
  0
TABLE
  2
STYLE
 70
    10
  0
STYLE
  2
STANDARD
 70
     0
 40
1.0
 41
1.0
 42
1.0
 50
0.0
 71
     0
  3
TXT
  4
BIGFONT
  0
STYLE
  2
TATE
 70
     4
 40
1.0
 41
1.0
 42
1.0
 50
0.0
 71
     0
  3
TXT
  4
BIGFONT
  0
STYLE
  2
TextStyle03
 70
     0
 40
1.0
 41
1.0
 42
1.0
 50
0.0
 71
     0
  3
MONOTXT
  4
BIGFONT
  0
STYLE
  2
TextStyle04
 70
     0
 40
1.0
 41
1.0
 42
1.0
 50
0.0
 71
     0
  3
MONOTXT
  4
BIGFONT
  0
STYLE
  2
TextStyle05
 70
     0
 40
1.0
 41
1.0
 42
1.0
 50
0.0
 71
     0
  3
MONOTXT
  4
BIGFONT
  0
STYLE
  2
TextStyle06
 70
     0
 40
1.0
 41
1.0
 42
1.0
 50
0.0
 71
     0
  3
MONOTXT
  4
BIGFONT
  0
STYLE
  2
TextStyle07
 70
     0
 40
1.0
 41
1.0
 42
1.0
 50
0.0
 71
     0
  3
MONOTXT
  4
BIGFONT
  0
STYLE
  2
TextStyle08
 70
     0
 40
1.0
 41
1.0
 42
1.0
 50
0.0
 71
     0
  3
MONOTXT
  4
BIGFONT
  0
STYLE
  2
TextStyle09
 70
     0
 40
1.0
 41
1.0
 42
1.0
 50
0.0
 71
     0
  3
MONOTXT
  4
BIGFONT
  0
STYLE
  2
TextStyle10
 70
     0
 40
1.0
 41
1.0
 42
1.0
 50
0.0
 71
     0
  3
MONOTXT
  4
BIGFONT
  0
ENDTAB
  0
ENDSEC
  0
SECTION
  2
BLOCKS
  0
BLOCK
  2
*GRP_0001
 70
    65
 10
0.0
 20
0.0
  0
LINE
  8
型材断面
  6
CONTINUOUS
 10
195.0
 20
133.5
 11
195.0
 21
-133.5
  0
LINE
  8
型材断面
  6
CONTINUOUS
 10
195.0
 20
-133.5
 11
-185.0
 21
-133.5
  0
LINE
  8
型材断面
  6
CONTINUOUS
 10
-185.0
 20
-133.5
 11
-185.0
 21
133.5
  0
LINE
  8
型材断面
  6
CONTINUOUS
 10
195.0
 20
133.5
 11
-185.0
 21
133.5
  0
LINE
  8
型材断面
  6
CONTINUOUS
 10
145.0
 20
-133.5
 11
145.0
 21
-118.5
  0
LINE
  8
型材断面
  6
CONTINUOUS
 10
195.0
 20
-118.5
 11
145.0
 21
-118.5
  0
ENDBLK
  0
BLOCK
  2
*DIM_0002
 70
    65
 10
0.0
 20
0.0
  0
LINE
  8
寸法
  6
BYBLOCK
 62
     0
 10
4.712865
 20
-13.121378
 11
-78.620467
 21
-13.121378
  0
POINT
  8
寸法
 62
     0
 10
4.712865
 20
-13.121378
  0
POINT
  8
寸法
 62
     0
 10
-78.620467
 20
-13.121378
  0
TEXT
  7
TextStyle03
  8
寸法
  6
CONTINUOUS
 62
     0
 10
-48.69375
 20
-12.75
  1
呼称寸法　2500
 40
3.0
 72
     5
 11
-25.25625
 21
-12.75
  0
ENDBLK
  0
BLOCK
  2
*DIM_0003
 70
    65
 10
0.0
 20
0.0
  0
LINE
  8
寸法
  6
BYBLOCK
 62
     0
 10
2.712865
 20
17.20722
 11
2.712865
 21
14.182178
  0
LINE
  8
寸法
  6
BYBLOCK
 62
     0
 10
4.712865
 20
14.182178
 11
2.712865
 21
14.182178
  0
POINT
  8
寸法
 62
     0
 10
4.712865
 20
14.182178
  0
POINT
  8
寸法
 62
     0
 10
2.712865
 20
14.182178
  0
TEXT
  7
TextStyle03
  8
寸法
  6
CONTINUOUS
 62
     0
 10
0.83125
 20
10.4
  1
60
 40
3.0
 72
     5
 11
4.01875
 21
10.4
  0
ENDBLK
  0
BLOCK
  2
*DIM_0004
 70
    65
 10
0.0
 20
0.0
  0
LINE
  8
寸法
  6
BYBLOCK
 62
     0
 10
-76.62047
 20
17.20722
 11
-76.62047
 21
14.182178
  0
LINE
  8
寸法
  6
BYBLOCK
 62
     0
 10
-78.62047
 20
14.182178
 11
-76.62047
 21
14.182178
  0
POINT
  8
寸法
 62
     0
 10
-78.62047
 20
14.182178
  0
POINT
  8
寸法
 62
     0
 10
-76.62047
 20
14.182178
  0
TEXT
  7
TextStyle03
  8
寸法
  6
CONTINUOUS
 62
     0
 10
-77.94375
 20
10.4
  1
60
 40
3.0
 72
     5
 11
-74.75625
 21
10.4
  0
ENDBLK
  0
BLOCK
  2
*DIM_0005
 70
    65
 10
0.0
 20
0.0
  0
LINE
  8
寸法
  6
BYBLOCK
 62
     0
 10
-81.620467
 20
39.4807
 11
-94.913305
 21
39.4807
  0
LINE
  8
寸法
  6
BYBLOCK
 62
     0
 10
-81.620467
 20
26.147365
 11
-94.913305
 21
26.147365
  0
LINE
  8
寸法
  6
BYBLOCK
 62
     0
 10
-94.913305
 20
39.4807
 11
-94.913305
 21
26.147365
  0
POINT
  8
寸法
 62
     0
 10
-94.913305
 20
39.4807
  0
POINT
  8
寸法
 62
     0
 10
-94.913305
 20
26.147365
  0
TEXT
  7
TextStyle03
  8
寸法
  6
CONTINUOUS
 62
     0
 10
-95.35
 20
30.3625
  1
400
 40
3.0
 50
90.0
 72
     5
 11
-95.35
 21
35.2375
  0
ENDBLK
  0
BLOCK
  2
*DIM_0006
 70
    65
 10
0.0
 20
0.0
  0
LINE
  8
寸法
  6
BYBLOCK
 62
     0
 10
-71.953802
 20
45.814033
 11
-71.953802
 21
75.561652
  0
LINE
  8
寸法
  6
BYBLOCK
 62
     0
 10
-48.62047
 20
45.814033
 11
-48.62047
 21
75.561652
  0
LINE
  8
寸法
  6
BYBLOCK
 62
     0
 10
-71.953802
 20
75.561652
 11
-48.62047
 21
75.561652
  0
POINT
  8
寸法
 62
     0
 10
-71.953802
 20
75.561652
  0
POINT
  8
寸法
 62
     0
 10
-48.62047
 20
75.561652
  0
TEXT
  7
TextStyle03
  8
寸法
  6
CONTINUOUS
 62
     0
 10
-62.7375
 20
75.925
  1
700
 40
3.0
 72
     5
 11
-57.8625
 21
75.925
  0
ENDBLK
  0
BLOCK
  2
*DIM_0007
 70
    65
 10
0.0
 20
0.0
  0
LINE
  8
寸法
  6
BYBLOCK
 62
     0
 10
-25.287135
 20
45.814033
 11
-25.287135
 21
75.561652
  0
LINE
  8
寸法
  6
BYBLOCK
 62
     0
 10
-48.62047
 20
75.561652
 11
-25.287135
 21
75.561652
  0
POINT
  8
寸法
 62
     0
 10
-25.287135
 20
75.561652
  0
TEXT
  7
TextStyle03
  8
寸法
  6
CONTINUOUS
 62
     0
 10
-39.4125
 20
75.925
  1
700
 40
3.0
 72
     5
 11
-34.5375
 21
75.925
  0
ENDBLK
  0
BLOCK
  2
*DIM_0008
 70
    65
 10
0.0
 20
0.0
  0
LINE
  8
寸法
  6
BYBLOCK
 62
     0
 10
-1.953802
 20
45.814033
 11
-1.953802
 21
75.561652
  0
LINE
  8
寸法
  6
BYBLOCK
 62
     0
 10
-25.287135
 20
75.561652
 11
-1.953802
 21
75.561652
  0
POINT
  8
寸法
 62
     0
 10
-1.953802
 20
75.561652
  0
TEXT
  7
TextStyle03
  8
寸法
  6
CONTINUOUS
 62
     0
 10
-16.0625
 20
75.925
  1
700
 40
3.0
 72
     5
 11
-11.1875
 21
75.925
  0
ENDBLK
  0
BLOCK
  2
*GRP_0009
 70
    65
 10
0.0
 20
0.0
  0
LINE
  8
ボルト／ビス
  6
CONTINUOUS
 10
-79.287135
 20
-70.209608
 11
-79.287135
 21
-69.74294
  0
LINE
  8
ボルト／ビス
  6
CONTINUOUS
 10
-78.920468
 20
-70.209608
 11
-78.920468
 21
-70.14294
  0
LINE
  8
ボルト／ビス
  6
CONTINUOUS
 10
-78.920468
 20
-70.14294
 11
-79.653802
 21
-70.14294
  0
LINE
  8
ボルト／ビス
  6
CONTINUOUS
 10
-79.653802
 20
-70.14294
 11
-79.653802
 21
-70.209608
  0
LINE
  8
ボルト／ビス
  6
CONTINUOUS
 10
-78.920468
 20
-70.209608
 11
-79.653802
 21
-70.209608
  0
LINE
  8
ボルト／ビス
  6
CONTINUOUS
 10
-78.987135
 20
-70.109608
 11
-78.987135
 21
-70.14294
  0
LINE
  8
ボルト／ビス
  6
CONTINUOUS
 10
-78.987135
 20
-70.109608
 11
-79.587135
 21
-70.109608
  0
LINE
  8
ボルト／ビス
  6
CONTINUOUS
 10
-79.587135
 20
-70.109608
 11
-79.587135
 21
-70.14294
  0
LINE
  8
ボルト／ビス
  6
CONTINUOUS
 62
    64
 10
-79.12676
 20
-69.909608
 11
-79.094685
 21
-69.921282
  0
ARC
  8
ボルト／ビス
  6
CONTINUOUS
 62
    64
 10
-79.142797
 20
-70.014588
 40
0.104978
 50
90.0
 51
117.278033
  0
ARC
  8
ボルト／ビス
  6
CONTINUOUS
 62
    64
 10
-79.287134
 20
-70.312012
 40
0.402402
 50
76.165015
 51
103.834998
  0
LINE
  8
ボルト／ビス
  6
CONTINUOUS
 62
    64
 10
-79.44751
 20
-69.909608
 11
-79.479585
 21
-69.921282
  0
ARC
  8
ボルト／ビス
  6
CONTINUOUS
 62
    64
 10
-79.431472
 20
-70.014588
 40
0.104978
 50
62.721967
 51
90.0
  0
LINE
  8
ボルト／ビス
  6
CONTINUOUS
 62
    64
 10
-79.12676
 20
-69.909608
 11
-79.44751
 21
-69.909608
  0
LINE
  8
ボルト／ビス
  6
CONTINUOUS
 62
    64
 10
-79.479585
 20
-69.921282
 11
-79.479585
 21
-70.04294
  0
LINE
  8
ボルト／ビス
  6
CONTINUOUS
 62
    64
 10
-79.38336
 20
-69.921282
 11
-79.38336
 21
-70.04294
  0
LINE
  8
ボルト／ビス
  6
CONTINUOUS
 62
    64
 10
-79.094685
 20
-69.921282
 11
-79.094685
 21
-70.04294
  0
LINE
  8
ボルト／ビス
  6
CONTINUOUS
 62
    64
 10
-79.19091
 20
-69.921282
 11
-79.19091
 21
-70.04294
  0
LINE
  8
ボルト／ビス
  6
CONTINUOUS
 10
-79.094685
 20
-70.04294
 11
-79.479585
 21
-70.04294
  0
LINE
  8
ボルト／ビス
  6
CONTINUOUS
 10
-79.087135
 20
-70.04294
 11
-79.087135
 21
-70.109608
  0
LINE
  8
ボルト／ビス
  6
CONTINUOUS
 10
-79.087135
 20
-70.04294
 11
-79.487135
 21
-70.04294
  0
LINE
  8
ボルト／ビス
  6
CONTINUOUS
 10
-79.487135
 20
-70.04294
 11
-79.487135
 21
-70.109608
  0
ENDBLK
  0
BLOCK
  2
*GRP_0010
 70
    65
 10
0.0
 20
0.0
  0
LINE
  8
ボルト／ビス
  6
CONTINUOUS
 10
5.379532
 20
-70.209613
 11
5.379532
 21
-69.742945
  0
LINE
  8
ボルト／ビス
  6
CONTINUOUS
 10
5.7462
 20
-70.209613
 11
5.7462
 21
-70.142945
  0
LINE
  8
ボルト／ビス
  6
CONTINUOUS
 10
5.7462
 20
-70.142945
 11
5.012865
 21
-70.142945
  0
LINE
  8
ボルト／ビス
  6
CONTINUOUS
 10
5.012865
 20
-70.142945
 11
5.012865
 21
-70.209613
  0
LINE
  8
ボルト／ビス
  6
CONTINUOUS
 10
5.7462
 20
-70.209613
 11
5.012865
 21
-70.209613
  0
LINE
  8
ボルト／ビス
  6
CONTINUOUS
 10
5.679532
 20
-70.109612
 11
5.679532
 21
-70.142945
  0
LINE
  8
ボルト／ビス
  6
CONTINUOUS
 10
5.679532
 20
-70.109612
 11
5.079532
 21
-70.109612
  0
LINE
  8
ボルト／ビス
  6
CONTINUOUS
 10
5.079532
 20
-70.109612
 11
5.079532
 21
-70.142945
  0
LINE
  8
ボルト／ビス
  6
CONTINUOUS
 62
    64
 10
5.539907
 20
-69.909613
 11
5.571983
 21
-69.921288
  0
ARC
  8
ボルト／ビス
  6
CONTINUOUS
 62
    64
 10
5.523871
 20
-70.014593
 40
0.104978
 50
90.0
 51
117.278033
  0
ARC
  8
ボルト／ビス
  6
CONTINUOUS
 62
    64
 10
5.379533
 20
-70.312017
 40
0.402402
 50
76.165015
 51
103.834998
  0
LINE
  8
ボルト／ビス
  6
CONTINUOUS
 62
    64
 10
5.219158
 20
-69.909613
 11
5.187082
 21
-69.921288
  0
ARC
  8
ボルト／ビス
  6
CONTINUOUS
 62
    64
 10
5.235196
 20
-70.014593
 40
0.104978
 50
62.721967
 51
90.0
  0
LINE
  8
ボルト／ビス
  6
CONTINUOUS
 62
    64
 10
5.539907
 20
-69.909613
 11
5.219158
 21
-69.909613
  0
LINE
  8
ボルト／ビス
  6
CONTINUOUS
 62
    64
 10
5.187082
 20
-69.921288
 11
5.187082
 21
-70.042945
  0
LINE
  8
ボルト／ビス
  6
CONTINUOUS
 62
    64
 10
5.283308
 20
-69.921288
 11
5.283308
 21
-70.042945
  0
LINE
  8
ボルト／ビス
  6
CONTINUOUS
 62
    64
 10
5.571983
 20
-69.921288
 11
5.571983
 21
-70.042945
  0
LINE
  8
ボルト／ビス
  6
CONTINUOUS
 62
    64
 10
5.475757
 20
-69.921288
 11
5.475757
 21
-70.042945
  0
LINE
  8
ボルト／ビス
  6
CONTINUOUS
 10
5.571983
 20
-70.042945
 11
5.187082
 21
-70.042945
  0
LINE
  8
ボルト／ビス
  6
CONTINUOUS
 10
5.579532
 20
-70.042945
 11
5.579532
 21
-70.109612
  0
LINE
  8
ボルト／ビス
  6
CONTINUOUS
 10
5.579532
 20
-70.042945
 11
5.179532
 21
-70.042945
  0
LINE
  8
ボルト／ビス
  6
CONTINUOUS
 10
5.179532
 20
-70.042945
 11
5.179532
 21
-70.109612
  0
ENDBLK
  0
BLOCK
  2
*DIM_0011
 70
    65
 10
0.0
 20
0.0
  0
LINE
  8
寸法
  6
BYBLOCK
 62
     0
 10
-61.9538
 20
14.282402
 11
-61.9538
 21
9.11692
  0
LINE
  8
寸法
  6
BYBLOCK
 62
     0
 10
-11.953805
 20
14.282402
 11
-11.953805
 21
9.11692
  0
LINE
  8
寸法
  6
BYBLOCK
 62
     0
 10
-61.9538
 20
9.11692
 11
-11.953805
 21
9.11692
  0
POINT
  8
寸法
 62
     0
 10
-61.9538
 20
9.11692
  0
POINT
  8
寸法
 62
     0
 10
-11.953805
 20
9.11692
  0
TEXT
  7
TextStyle03
  8
寸法
  6
CONTINUOUS
 62
     0
 10
-40.23125
 20
9.475
  1
1500
 40
3.0
 72
     5
 11
-33.66875
 21
9.475
  0
ENDBLK
  0
BLOCK
  2
*DIM_0012
 70
    65
 10
0.0
 20
0.0
  0
LINE
  8
寸法
  6
CONTINUOUS
 10
12.21288
 20
-78.709613
 11
20.517267
 21
-78.709613
  0
LINE
  8
寸法
  6
CONTINUOUS
 10
20.517267
 20
-75.709613
 11
20.517267
 21
-78.709613
  0
POINT
  8
寸法
 10
20.517267
 20
-78.709613
  0
TEXT
  7
TextStyle03
  8
寸法
  6
CONTINUOUS
 10
20.125
 20
-78.725
  1
※
 40
3.0
 50
90.0
 72
     5
 11
20.125
 21
-75.725
  0
ENDBLK
  0
BLOCK
  2
*DIM_0013
 70
    65
 10
0.0
 20
0.0
  0
LINE
  8
寸法
  6
CONTINUOUS
 10
11.21288
 20
-75.376282
 11
11.21288
 21
-13.121378
  0
LINE
  8
寸法
  6
CONTINUOUS
 10
4.712865
 20
-13.121378
 11
11.21288
 21
-13.121378
  0
POINT
  8
寸法
 10
4.712865
 20
-13.121378
  0
POINT
  8
寸法
 10
11.21288
 20
-13.121378
  0
TEXT
  7
TextStyle03
  8
寸法
  6
CONTINUOUS
 10
6.45
 20
-12.75
  1
※
 40
3.0
 72
     5
 11
9.45
 21
-12.75
  0
ENDBLK
  0
BLOCK
  2
*DIM_0014
 70
    65
 10
0.0
 20
0.0
  0
LINE
  8
寸法
  6
CONTINUOUS
 10
-85.120482
 20
-75.376282
 11
-85.120482
 21
-13.121378
  0
LINE
  8
寸法
  6
CONTINUOUS
 10
-78.620467
 20
-13.121378
 11
-85.120482
 21
-13.121378
  0
POINT
  8
寸法
 10
-78.620467
 20
-13.121378
  0
POINT
  8
寸法
 10
-85.120482
 20
-13.121378
  0
TEXT
  7
TextStyle03
  8
寸法
  6
CONTINUOUS
 10
-83.375
 20
-12.75
  1
※
 40
3.0
 72
     5
 11
-80.375
 21
-12.75
  0
ENDBLK
  0
BLOCK
  2
*DIM_0015
 70
    65
 10
0.0
 20
0.0
  0
LINE
  8
寸法
  6
CONTINUOUS
 10
115.744333
 20
-50.665427
 11
124.72004
 21
-50.665427
  0
LINE
  8
寸法
  6
CONTINUOUS
 10
115.744333
 20
-70.665427
 11
124.72004
 21
-70.665427
  0
LINE
  8
寸法
  6
CONTINUOUS
 10
124.72004
 20
-50.665427
 11
124.72004
 21
-70.665427
  0
POINT
  8
寸法
 10
124.72004
 20
-50.665427
  0
POINT
  8
寸法
 10
124.72004
 20
-70.665427
  0
TEXT
  7
TextStyle03
  8
寸法
  6
CONTINUOUS
 10
124.325
 20
-63.1375
  1
600
 40
3.0
 50
90.0
 72
     5
 11
124.325
 21
-58.2625
  0
ENDBLK
  0
BLOCK
  2
*DIM_0016
 70
    65
 10
0.0
 20
0.0
  0
LINE
  8
寸法
  6
CONTINUOUS
 10
73.827667
 20
-49.665427
 11
73.827667
 21
-40.177023
  0
LINE
  8
寸法
  6
CONTINUOUS
 10
114.744333
 20
-49.665427
 11
114.744333
 21
-40.177023
  0
LINE
  8
寸法
  6
CONTINUOUS
 10
73.827667
 20
-40.177023
 11
114.744333
 21
-40.177023
  0
POINT
  8
寸法
 10
73.827667
 20
-40.177023
  0
POINT
  8
寸法
 10
114.744333
 20
-40.177023
  0
TEXT
  7
TextStyle03
  8
寸法
  6
CONTINUOUS
 10
89.30625
 20
-39.825
  1
1227.5
 40
3.0
 72
     5
 11
99.24375
 21
-39.825
  0
ENDBLK
  0
BLOCK
  2
*DIM_0017
 70
    65
 10
0.0
 20
0.0
  0
LINE
  8
寸法
  6
CONTINUOUS
 10
6.71288
 20
-75.709613
 11
20.517267
 21
-75.709613
  0
LINE
  8
寸法
  6
CONTINUOUS
 10
5.946215
 20
-69.766315
 11
20.517267
 21
-69.766315
  0
LINE
  8
寸法
  6
CONTINUOUS
 10
20.517267
 20
-75.709613
 11
20.517267
 21
-69.766315
  0
POINT
  8
寸法
 10
20.517267
 20
-75.709613
  0
POINT
  8
寸法
 10
20.517267
 20
-69.766315
  0
TEXT
  7
TextStyle03
  8
寸法
  6
CONTINUOUS
 10
24.525
 20
-76.95
  1
178.3
 40
3.0
 50
90.0
 72
     5
 11
24.525
 21
-68.7
  0
ENDBLK
  0
BLOCK
  2
*GRP_0018
 70
    65
 10
0.0
 20
0.0
  0
LINE
  8
ボルト／ビス
  6
CONTINUOUS
 10
94.246133
 20
43.480703
 11
93.779465
 21
43.480703
  0
LINE
  8
ボルト／ビス
  6
CONTINUOUS
 10
94.246133
 20
43.84737
 11
94.179465
 21
43.84737
  0
LINE
  8
ボルト／ビス
  6
CONTINUOUS
 10
94.179465
 20
43.84737
 11
94.179465
 21
43.114035
  0
LINE
  8
ボルト／ビス
  6
CONTINUOUS
 10
94.179465
 20
43.114035
 11
94.246133
 21
43.114035
  0
LINE
  8
ボルト／ビス
  6
CONTINUOUS
 10
94.246133
 20
43.84737
 11
94.246133
 21
43.114035
  0
LINE
  8
ボルト／ビス
  6
CONTINUOUS
 10
94.146133
 20
43.780703
 11
94.179465
 21
43.780703
  0
LINE
  8
ボルト／ビス
  6
CONTINUOUS
 10
94.146133
 20
43.780703
 11
94.146133
 21
43.180703
  0
LINE
  8
ボルト／ビス
  6
CONTINUOUS
 10
94.146133
 20
43.180703
 11
94.179465
 21
43.180703
  0
LINE
  8
ボルト／ビス
  6
CONTINUOUS
 62
    64
 10
93.946133
 20
43.641078
 11
93.957807
 21
43.673152
  0
ARC
  8
ボルト／ビス
  6
CONTINUOUS
 62
    64
 10
94.051112
 20
43.625043
 40
0.104978
 50
180.0
 51
207.278033
  0
ARC
  8
ボルト／ビス
  6
CONTINUOUS
 62
    64
 10
94.348536
 20
43.480705
 40
0.402402
 50
166.165015
 51
193.834998
  0
LINE
  8
ボルト／ビス
  6
CONTINUOUS
 62
    64
 10
93.946133
 20
43.320327
 11
93.957807
 21
43.288253
  0
ARC
  8
ボルト／ビス
  6
CONTINUOUS
 62
    64
 10
94.051112
 20
43.336368
 40
0.104978
 50
152.721967
 51
180.0
  0
LINE
  8
ボルト／ビス
  6
CONTINUOUS
 62
    64
 10
93.946133
 20
43.641078
 11
93.946133
 21
43.320327
  0
LINE
  8
ボルト／ビス
  6
CONTINUOUS
 62
    64
 10
93.957807
 20
43.288253
 11
94.079465
 21
43.288253
  0
LINE
  8
ボルト／ビス
  6
CONTINUOUS
 62
    64
 10
93.957807
 20
43.384477
 11
94.079465
 21
43.384477
  0
LINE
  8
ボルト／ビス
  6
CONTINUOUS
 62
    64
 10
93.957807
 20
43.673152
 11
94.079465
 21
43.673152
  0
LINE
  8
ボルト／ビス
  6
CONTINUOUS
 62
    64
 10
93.957807
 20
43.576928
 11
94.079465
 21
43.576928
  0
LINE
  8
ボルト／ビス
  6
CONTINUOUS
 10
94.079465
 20
43.673152
 11
94.079465
 21
43.288253
  0
LINE
  8
ボルト／ビス
  6
CONTINUOUS
 10
94.079465
 20
43.680703
 11
94.146133
 21
43.680703
  0
LINE
  8
ボルト／ビス
  6
CONTINUOUS
 10
94.079465
 20
43.680703
 11
94.079465
 21
43.280703
  0
LINE
  8
ボルト／ビス
  6
CONTINUOUS
 10
94.079465
 20
43.280703
 11
94.146133
 21
43.280703
  0
ENDBLK
  0
BLOCK
  2
*GRP_0019
 70
    65
 10
0.0
 20
0.0
  0
LINE
  8
ボルト／ビス
  6
CONTINUOUS
 10
94.246133
 20
22.147365
 11
93.779465
 21
22.147365
  0
LINE
  8
ボルト／ビス
  6
CONTINUOUS
 10
94.246133
 20
21.780697
 11
94.179465
 21
21.780697
  0
LINE
  8
ボルト／ビス
  6
CONTINUOUS
 10
94.179465
 20
21.780697
 11
94.179465
 21
22.514033
  0
LINE
  8
ボルト／ビス
  6
CONTINUOUS
 10
94.179465
 20
22.514033
 11
94.246133
 21
22.514033
  0
LINE
  8
ボルト／ビス
  6
CONTINUOUS
 10
94.246133
 20
21.780697
 11
94.246133
 21
22.514033
  0
LINE
  8
ボルト／ビス
  6
CONTINUOUS
 10
94.146133
 20
21.847365
 11
94.179465
 21
21.847365
  0
LINE
  8
ボルト／ビス
  6
CONTINUOUS
 10
94.146133
 20
21.847365
 11
94.146133
 21
22.447365
  0
LINE
  8
ボルト／ビス
  6
CONTINUOUS
 10
94.146133
 20
22.447365
 11
94.179465
 21
22.447365
  0
LINE
  8
ボルト／ビス
  6
CONTINUOUS
 62
    64
 10
93.946133
 20
21.98699
 11
93.957807
 21
21.954915
  0
ARC
  8
ボルト／ビス
  6
CONTINUOUS
 62
    64
 10
94.051112
 20
22.003029
 40
0.104978
 50
152.721967
 51
180.0
  0
ARC
  8
ボルト／ビス
  6
CONTINUOUS
 62
    64
 10
94.348536
 20
22.147367
 40
0.402402
 50
166.165002
 51
193.834985
  0
LINE
  8
ボルト／ビス
  6
CONTINUOUS
 62
    64
 10
93.946133
 20
22.30774
 11
93.957807
 21
22.339815
  0
ARC
  8
ボルト／ビス
  6
CONTINUOUS
 62
    64
 10
94.051112
 20
22.291704
 40
0.104978
 50
180.0
 51
207.278033
  0
LINE
  8
ボルト／ビス
  6
CONTINUOUS
 62
    64
 10
93.946133
 20
21.98699
 11
93.946133
 21
22.30774
  0
LINE
  8
ボルト／ビス
  6
CONTINUOUS
 62
    64
 10
93.957807
 20
22.339815
 11
94.079465
 21
22.339815
  0
LINE
  8
ボルト／ビス
  6
CONTINUOUS
 62
    64
 10
93.957807
 20
22.24359
 11
94.079465
 21
22.24359
  0
LINE
  8
ボルト／ビス
  6
CONTINUOUS
 62
    64
 10
93.957807
 20
21.954915
 11
94.079465
 21
21.954915
  0
LINE
  8
ボルト／ビス
  6
CONTINUOUS
 62
    64
 10
93.957807
 20
22.05114
 11
94.079465
 21
22.05114
  0
LINE
  8
ボルト／ビス
  6
CONTINUOUS
 10
94.079465
 20
21.954915
 11
94.079465
 21
22.339815
  0
LINE
  8
ボルト／ビス
  6
CONTINUOUS
 10
94.079465
 20
21.947365
 11
94.146133
 21
21.947365
  0
LINE
  8
ボルト／ビス
  6
CONTINUOUS
 10
94.079465
 20
21.947365
 11
94.079465
 21
22.347365
  0
LINE
  8
ボルト／ビス
  6
CONTINUOUS
 10
94.079465
 20
22.347365
 11
94.146133
 21
22.347365
  0
ENDBLK
  0
BLOCK
  2
*GRP_0020
 70
    65
 10
0.0
 20
0.0
  0
INSERT
  2
*GRP_0021
  8
補助線
  6
CONTINUOUS
 10
0.0
 20
0.0
  0
CIRCLE
  8
別途部材
  6
CONTINUOUS
 10
97.24617
 20
44.014048
 40
0.2
  0
CIRCLE
  8
別途部材
  6
CONTINUOUS
 10
97.24617
 20
44.014048
 40
0.1
  0
LINE
  8
別途部材
  6
CONTINUOUS
 10
95.84617
 20
43.914048
 11
95.84617
 21
43.814048
  0
LINE
  8
別途部材
  6
CONTINUOUS
 10
97.24617
 20
43.814048
 11
95.84617
 21
43.814048
  0
LINE
  8
別途部材
  6
CONTINUOUS
 10
95.84617
 20
43.914048
 11
97.072965
 21
43.914048
  0
LINE
  8
別途部材
  6
CONTINUOUS
 10
98.64617
 20
43.914048
 11
98.64617
 21
43.814048
  0
LINE
  8
別途部材
  6
CONTINUOUS
 10
97.24617
 20
43.814048
 11
98.64617
 21
43.814048
  0
LINE
  8
別途部材
  6
CONTINUOUS
 10
98.64617
 20
43.914048
 11
97.419375
 21
43.914048
  0
LINE
  8
別途部材
  6
CONTINUOUS
 10
96.112835
 20
43.914048
 11
96.112835
 21
43.814048
  0
LINE
  8
別途部材
  6
CONTINUOUS
 10
96.3795
 20
43.914048
 11
96.3795
 21
43.814048
  0
LINE
  8
別途部材
  6
CONTINUOUS
 10
96.64617
 20
43.914048
 11
96.64617
 21
43.814048
  0
LINE
  8
別途部材
  6
CONTINUOUS
 10
98.3795
 20
43.914048
 11
98.3795
 21
43.814048
  0
LINE
  8
別途部材
  6
CONTINUOUS
 10
98.112835
 20
43.914048
 11
98.112835
 21
43.814048
  0
LINE
  8
別途部材
  6
CONTINUOUS
 10
97.84617
 20
43.914048
 11
97.84617
 21
43.814048
  0
ENDBLK
  0
BLOCK
  2
*GRP_0021
 70
    65
 10
0.0
 20
0.0
  0
LINE
  8
補助線
  6
BYBLOCK
 62
     0
 10
97.24617
 20
43.84738
 11
97.24617
 21
44.180715
  0
LINE
  8
補助線
  6
BYBLOCK
 62
     0
 10
97.0795
 20
44.014048
 11
97.412835
 21
44.014048
  0
ENDBLK
  0
BLOCK
  2
*GRP_0022
 70
    65
 10
0.0
 20
0.0
  0
LINE
  8
型材断面
  6
DOT
 62
    47
 10
95.69051
 20
45.286867
 11
97.03404
 21
43.943338
  0
LINE
  8
型材断面
  6
DOT
 62
    47
 10
80.13414
 20
29.730497
 11
81.47767
 21
28.386967
  0
LINE
  8
型材断面
  6
DOT
 10
81.47767
 20
28.386967
 11
97.03404
 21
43.943338
  0
LINE
  8
型材断面
  6
DOT
 10
94.512053
 20
45.451748
 11
94.163155
 21
45.800642
  0
LINE
  8
型材断面
  6
DOT
 10
95.490207
 20
46.429903
 11
95.961613
 21
45.958497
  0
LINE
  8
型材断面
  6
DOT
 10
79.96923
 20
30.908922
 11
79.620333
 21
31.25782
  0
LINE
  8
型材断面
  6
DOT
 10
78.991072
 20
29.930768
 11
79.462478
 21
29.459362
  0
LINE
  8
型材断面
  6
DOT
 10
94.163155
 20
45.800642
 11
79.620333
 21
31.25782
  0
LINE
  8
型材断面
  6
DOT
 10
95.490207
 20
46.429903
 11
78.991072
 21
29.930768
  0
LINE
  8
型材断面
  6
DOT
 10
95.961613
 20
45.958497
 11
79.462478
 21
29.459362
  0
INSERT
  2
*GRP_0023
  8
別途部材
  6
DOT
 10
0.0
 20
0.0
  0
INSERT
  2
*GRP_0024
  8
別途部材
  6
DOT
 10
0.0
 20
0.0
  0
ENDBLK
  0
BLOCK
  2
*GRP_0023
 70
    65
 10
0.0
 20
0.0
  0
LINE
  8
ボルト／ビス
  6
DOT
 10
94.747693
 20
45.758262
 11
94.41771
 21
46.088248
  0
LINE
  8
ボルト／ビス
  6
DOT
 10
95.006965
 20
46.017538
 11
94.959825
 21
46.064677
  0
LINE
  8
ボルト／ビス
  6
DOT
 10
94.959825
 20
46.064677
 11
94.44128
 21
45.546133
  0
LINE
  8
ボルト／ビス
  6
DOT
 10
94.44128
 20
45.546133
 11
94.48842
 21
45.49899
  0
LINE
  8
ボルト／ビス
  6
DOT
 10
95.006965
 20
46.017538
 11
94.48842
 21
45.49899
  0
LINE
  8
ボルト／ビス
  6
DOT
 10
94.889115
 20
46.041105
 11
94.912682
 21
46.017538
  0
LINE
  8
ボルト／ビス
  6
DOT
 10
94.889115
 20
46.041105
 11
94.46485
 21
45.616842
  0
LINE
  8
ボルト／ビス
  6
DOT
 10
94.46485
 20
45.616842
 11
94.48842
 21
45.593273
  0
LINE
  8
ボルト／ビス
  6
DOT
 62
    64
 10
94.648963
 20
46.083798
 11
94.6799
 21
46.098222
  0
ARC
  8
ボルト／ビス
  6
DOT
 62
    64
 10
94.711855
 20
45.998226
 40
0.104978
 50
135.0
 51
162.278033
  0
ARC
  8
ボルト／ビス
  6
DOT
 62
    64
 10
94.820103
 20
45.685853
 40
0.402402
 50
121.165015
 51
148.834998
  0
LINE
  8
ボルト／ビス
  6
DOT
 62
    64
 10
94.42216
 20
45.856992
 11
94.407735
 21
45.826058
  0
ARC
  8
ボルト／ビス
  6
DOT
 62
    64
 10
94.507731
 20
45.794102
 40
0.104978
 50
107.721967
 51
135.0
  0
LINE
  8
ボルト／ビス
  6
DOT
 62
    64
 10
94.648963
 20
46.083798
 11
94.42216
 21
45.856992
  0
LINE
  8
ボルト／ビス
  6
DOT
 62
    64
 10
94.407735
 20
45.826058
 11
94.493757
 21
45.740033
  0
LINE
  8
ボルト／ビス
  6
DOT
 62
    64
 10
94.475775
 20
45.894097
 11
94.5618
 21
45.808072
  0
LINE
  8
ボルト／ビス
  6
DOT
 62
    64
 10
94.6799
 20
46.098222
 11
94.765922
 21
46.012197
  0
LINE
  8
ボルト／ビス
  6
DOT
 62
    64
 10
94.611858
 20
46.03018
 11
94.697883
 21
45.944158
  0
LINE
  8
ボルト／ビス
  6
DOT
 10
94.765922
 20
46.012197
 11
94.493757
 21
45.740033
  0
LINE
  8
ボルト／ビス
  6
DOT
 10
94.771263
 20
46.017538
 11
94.818405
 21
45.970395
  0
LINE
  8
ボルト／ビス
  6
DOT
 10
94.771263
 20
46.017538
 11
94.48842
 21
45.734692
  0
LINE
  8
ボルト／ビス
  6
DOT
 10
94.48842
 20
45.734692
 11
94.53556
 21
45.687552
  0
ENDBLK
  0
BLOCK
  2
*GRP_0024
 70
    65
 10
0.0
 20
0.0
  0
LINE
  8
ボルト／ビス
  6
DOT
 10
79.662745
 20
30.673315
 11
79.33276
 21
31.0033
  0
LINE
  8
ボルト／ビス
  6
DOT
 10
79.403472
 20
30.414042
 11
79.35633
 21
30.461182
  0
LINE
  8
ボルト／ビス
  6
DOT
 10
79.35633
 20
30.461182
 11
79.874875
 21
30.97973
  0
LINE
  8
ボルト／ビス
  6
DOT
 10
79.874875
 20
30.97973
 11
79.922018
 21
30.932588
  0
LINE
  8
ボルト／ビス
  6
DOT
 10
79.403472
 20
30.414042
 11
79.922018
 21
30.932588
  0
LINE
  8
ボルト／ビス
  6
DOT
 10
79.379903
 20
30.531895
 11
79.403472
 21
30.508325
  0
LINE
  8
ボルト／ビス
  6
DOT
 10
79.379903
 20
30.531895
 11
79.804168
 21
30.956157
  0
LINE
  8
ボルト／ビス
  6
DOT
 10
79.804168
 20
30.956157
 11
79.827735
 21
30.93259
  0
LINE
  8
ボルト／ビス
  6
DOT
 62
    64
 10
79.33721
 20
30.772045
 11
79.322785
 21
30.74111
  0
ARC
  8
ボルト／ビス
  6
DOT
 62
    64
 10
79.422782
 20
30.709153
 40
0.104978
 50
107.721967
 51
135.0
  0
ARC
  8
ボルト／ビス
  6
DOT
 62
    64
 10
79.735155
 20
30.600905
 40
0.402402
 50
121.165002
 51
148.834985
  0
LINE
  8
ボルト／ビス
  6
DOT
 62
    64
 10
79.564015
 20
30.99885
 11
79.594953
 21
31.013275
  0
ARC
  8
ボルト／ビス
  6
DOT
 62
    64
 10
79.626907
 20
30.913277
 40
0.104978
 50
135.0
 51
162.278033
  0
LINE
  8
ボルト／ビス
  6
DOT
 62
    64
 10
79.33721
 20
30.772045
 11
79.564015
 21
30.99885
  0
LINE
  8
ボルト／ビス
  6
DOT
 62
    64
 10
79.594953
 20
31.013275
 11
79.680975
 21
30.92725
  0
LINE
  8
ボルト／ビス
  6
DOT
 62
    64
 10
79.52691
 20
30.945233
 11
79.612935
 21
30.85921
  0
LINE
  8
ボルト／ビス
  6
DOT
 62
    64
 10
79.322785
 20
30.74111
 11
79.40881
 21
30.655085
  0
LINE
  8
ボルト／ビス
  6
DOT
 62
    64
 10
79.390827
 20
30.809152
 11
79.476852
 21
30.723128
  0
LINE
  8
ボルト／ビス
  6
DOT
 10
79.40881
 20
30.655085
 11
79.680975
 21
30.92725
  0
LINE
  8
ボルト／ビス
  6
DOT
 10
79.403472
 20
30.649748
 11
79.450615
 21
30.602605
  0
LINE
  8
ボルト／ビス
  6
DOT
 10
79.403472
 20
30.649748
 11
79.686315
 21
30.93259
  0
LINE
  8
ボルト／ビス
  6
DOT
 10
79.686315
 20
30.93259
 11
79.733455
 21
30.885448
  0
ENDBLK
  0
BLOCK
  2
*DIM_0025
 70
    65
 10
0.0
 20
0.0
  0
LINE
  8
寸法
  6
CONTINUOUS
 10
102.74613
 20
50.314048
 11
102.74613
 21
60.666798
  0
LINE
  8
寸法
  6
CONTINUOUS
 10
99.74613
 20
60.666798
 11
102.74613
 21
60.666798
  0
POINT
  8
寸法
 10
102.74613
 20
60.666798
  0
TEXT
  7
TextStyle03
  8
寸法
  6
CONTINUOUS
 10
99.725
 20
61.025
  1
※
 40
3.0
 72
     5
 11
102.725
 21
61.025
  0
ENDBLK
  0
BLOCK
  2
*DIM_0026
 70
    65
 10
0.0
 20
0.0
  0
LINE
  8
寸法
  6
CONTINUOUS
 10
64.31834
 20
22.814033
 11
64.31834
 21
42.814033
  0
POINT
  8
寸法
 10
64.31834
 20
22.814033
  0
POINT
  8
寸法
 10
64.31834
 20
42.814033
  0
TEXT
  7
TextStyle03
  8
寸法
  6
CONTINUOUS
 10
63.925
 20
30.3625
  1
600
 40
3.0
 50
90.0
 72
     5
 11
63.925
 21
35.2375
  0
ENDBLK
  0
BLOCK
  2
*DIM_0027
 70
    65
 10
0.0
 20
0.0
  0
LINE
  8
寸法
  6
CONTINUOUS
 10
99.4128
 20
49.314048
 11
64.31834
 21
49.314048
  0
LINE
  8
寸法
  6
CONTINUOUS
 10
64.31834
 20
42.814033
 11
64.31834
 21
49.314048
  0
POINT
  8
寸法
 10
64.31834
 20
42.814033
  0
POINT
  8
寸法
 10
64.31834
 20
49.314048
  0
TEXT
  7
TextStyle03
  8
寸法
  6
CONTINUOUS
 10
63.925
 20
44.55
  1
※
 40
3.0
 50
90.0
 72
     5
 11
63.925
 21
47.55
  0
ENDBLK
  0
BLOCK
  2
*DIM_0028
 70
    65
 10
0.0
 20
0.0
  0
LINE
  8
寸法
  6
CONTINUOUS
 10
99.4128
 20
16.314018
 11
64.31834
 21
16.314018
  0
LINE
  8
寸法
  6
CONTINUOUS
 10
64.31834
 20
22.814033
 11
64.31834
 21
16.314018
  0
POINT
  8
寸法
 10
64.31834
 20
22.814033
  0
POINT
  8
寸法
 10
64.31834
 20
16.314018
  0
TEXT
  7
TextStyle03
  8
寸法
  6
CONTINUOUS
 10
63.925
 20
18.05
  1
※
 40
3.0
 50
90.0
 72
     5
 11
63.925
 21
21.05
  0
ENDBLK
  0
BLOCK
  2
*DIM_0029
 70
    65
 10
0.0
 20
0.0
  0
LINE
  8
寸法
  6
CONTINUOUS
 10
99.74613
 20
44.814048
 11
99.74613
 21
60.666798
  0
LINE
  8
寸法
  6
CONTINUOUS
 10
93.802832
 20
44.047382
 11
93.802832
 21
60.666798
  0
LINE
  8
寸法
  6
CONTINUOUS
 10
99.74613
 20
60.666798
 11
93.802832
 21
60.666798
  0
POINT
  8
寸法
 10
99.74613
 20
60.666798
  0
POINT
  8
寸法
 10
93.802832
 20
60.666798
  0
TEXT
  7
TextStyle03
  8
寸法
  6
CONTINUOUS
 10
83.175
 20
57.65
  1
178.3
 40
3.0
 72
     5
 11
91.425
 21
57.65
  0
ENDBLK
  0
ENDSEC
  0
SECTION
  2
ENTITIES
  0
POLYLINE
  8
通り芯
  6
CONTINUOUS
 66
     1
 70
     1
  0
VERTEX
  8
通り芯
 10
-210.0
 20
-148.5
  0
VERTEX
  8
通り芯
 10
210.0
 20
-148.5
  0
VERTEX
  8
通り芯
 10
210.0
 20
148.5
  0
VERTEX
  8
通り芯
 10
-210.0
 20
148.5
  0
SEQEND
  0
INSERT
  2
*GRP_0001
  8
型材断面
  6
CONTINUOUS
 10
0.0
 20
0.0
  0
LINE
  8
型材断面
  6
DASHDOT
 10
4.712865
 20
-77.836442
 11
4.712865
 21
42.814033
  0
LINE
  8
型材断面
  6
DASHDOT
 10
-36.953802
 20
-77.836442
 11
-36.953802
 21
42.814033
  0
LINE
  8
型材断面
  6
DASHDOT
 10
-78.620467
 20
-77.836442
 11
-78.620467
 21
42.814033
  0
LINE
  8
型材断面
  6
DASHDOT
 10
102.389627
 20
42.814033
 11
-78.620467
 21
42.814033
  0
LINE
  8
型材断面
  6
DASHDOT
 10
102.389627
 20
32.814033
 11
-78.620467
 21
32.814033
  0
LINE
  8
型材断面
  6
DASHDOT
 10
102.389627
 20
22.814033
 11
-78.620467
 21
22.814033
  0
LINE
  8
型材断面
  6
CONTINUOUS
 10
-61.9538
 20
45.444162
 11
-63.44943
 21
48.03467
  0
LINE
  8
型材断面
  6
CONTINUOUS
 10
-61.9538
 20
45.444162
 11
-60.45817
 21
48.03467
  0
LINE
  8
型材断面
  6
CONTINUOUS
 10
-60.45817
 20
48.03467
 11
-63.44943
 21
48.03467
  0
LINE
  8
型材断面
  6
CONTINUOUS
 10
-119.472675
 20
80.791505
 11
-118.87662
 21
78.200998
  0
LINE
  8
型材断面
  6
CONTINUOUS
 10
-119.472675
 20
80.791505
 11
-120.068732
 21
78.200998
  0
LINE
  8
型材断面
  6
CONTINUOUS
 10
-120.068732
 20
78.200998
 11
-118.87662
 21
78.200998
  0
LINE
  8
型材断面
  6
CONTINUOUS
 10
-125.495263
 20
74.922105
 11
-79.253485
 21
74.922105
  0
LINE
  8
型材断面
  6
CONTINUOUS
 10
-119.472675
 20
87.32138
 11
-120.968305
 21
84.730873
  0
LINE
  8
型材断面
  6
CONTINUOUS
 10
-119.472675
 20
87.32138
 11
-117.977045
 21
84.730873
  0
LINE
  8
型材断面
  6
CONTINUOUS
 10
-117.977045
 20
84.730873
 11
-120.968305
 21
84.730873
  0
LINE
  8
型材断面
  6
CONTINUOUS
 10
-125.495263
 20
83.792277
 11
-79.253485
 21
83.792277
  0
LINE
  8
型材断面
  6
CONTINUOUS
 10
-125.495263
 20
69.134073
 11
-79.253485
 21
69.134073
  0
LINE
  8
型材断面
  6
CONTINUOUS
 10
-81.250597
 20
32.814033
 11
-83.841105
 21
34.309663
  0
LINE
  8
型材断面
  6
CONTINUOUS
 10
-81.250597
 20
32.814033
 11
-83.841105
 21
31.318403
  0
LINE
  8
型材断面
  6
CONTINUOUS
 10
-83.841105
 20
31.318403
 11
-83.841105
 21
34.309663
  0
LINE
  8
型材断面
  6
CONTINUOUS
 10
-61.9538
 20
20.183902
 11
-63.44943
 21
17.593395
  0
LINE
  8
型材断面
  6
CONTINUOUS
 10
-61.9538
 20
20.183902
 11
-60.45817
 21
17.593395
  0
LINE
  8
型材断面
  6
CONTINUOUS
 10
-60.45817
 20
17.593395
 11
-63.44943
 21
17.593395
  0
LINE
  8
型材断面
  6
CONTINUOUS
 10
-11.953805
 20
45.444162
 11
-10.458175
 21
48.03467
  0
LINE
  8
型材断面
  6
CONTINUOUS
 10
-11.953805
 20
45.444162
 11
-13.449435
 21
48.03467
  0
LINE
  8
型材断面
  6
CONTINUOUS
 10
-13.449435
 20
48.03467
 11
-10.458175
 21
48.03467
  0
LINE
  8
型材断面
  6
CONTINUOUS
 10
7.342993
 20
32.814033
 11
9.9335
 21
34.309663
  0
LINE
  8
型材断面
  6
CONTINUOUS
 10
7.342993
 20
32.814033
 11
9.9335
 21
31.318403
  0
LINE
  8
型材断面
  6
CONTINUOUS
 10
9.9335
 20
31.318403
 11
9.9335
 21
34.309663
  0
LINE
  8
型材断面
  6
CONTINUOUS
 10
-11.953805
 20
20.183902
 11
-10.458175
 21
17.593395
  0
LINE
  8
型材断面
  6
CONTINUOUS
 10
-11.953805
 20
20.183902
 11
-13.449435
 21
17.593395
  0
LINE
  8
型材断面
  6
CONTINUOUS
 10
-13.449435
 20
17.593395
 11
-10.458175
 21
17.593395
  0
LINE
  8
型材断面
  6
CONTINUOUS
 10
2.712865
 20
20.20722
 11
2.116807
 21
17.616715
  0
LINE
  8
型材断面
  6
CONTINUOUS
 10
2.712865
 20
20.20722
 11
3.308922
 21
17.616715
  0
LINE
  8
型材断面
  6
CONTINUOUS
 10
3.308922
 20
17.616715
 11
2.116807
 21
17.616715
  0
LINE
  8
型材断面
  6
CONTINUOUS
 10
-76.62047
 20
20.20722
 11
-76.024413
 21
17.616715
  0
LINE
  8
型材断面
  6
CONTINUOUS
 10
-76.62047
 20
20.20722
 11
-77.216528
 21
17.616715
  0
LINE
  8
型材断面
  6
CONTINUOUS
 10
-77.216528
 20
17.616715
 11
-76.024413
 21
17.616715
  0
LINE
  8
型材断面
  6
CONTINUOUS
 10
-80.687137
 20
44.880703
 11
-85.120482
 21
49.314048
  0
LINE
  8
型材断面
  6
CONTINUOUS
 10
-85.120482
 20
16.314018
 11
-80.687137
 21
20.747363
  0
LINE
  8
型材断面
  6
CONTINUOUS
 10
-85.120482
 20
16.314018
 11
-85.120482
 21
49.314048
  0
LINE
  8
型材断面
  6
CONTINUOUS
 10
6.779535
 20
44.880703
 11
11.21288
 21
49.314048
  0
LINE
  8
型材断面
  6
CONTINUOUS
 10
6.779535
 20
20.747363
 11
11.21288
 21
16.314018
  0
LINE
  8
型材断面
  6
CONTINUOUS
 10
11.21288
 20
49.314048
 11
11.21288
 21
16.314018
  0
LINE
  8
型材断面
  6
CONTINUOUS
 10
11.21288
 20
49.314048
 11
-85.120482
 21
49.314048
  0
LINE
  8
型材断面
  6
CONTINUOUS
 10
11.21288
 20
16.314018
 11
-85.120482
 21
16.314018
  0
POLYLINE
  8
型材断面
  6
DASHDOT
 66
     1
  0
VERTEX
  8
型材断面
 10
-78.620467
 20
22.814033
  0
VERTEX
  8
型材断面
 10
-36.9538
 20
42.814033
  0
VERTEX
  8
型材断面
 10
4.712865
 20
22.814033
  0
SEQEND
  0
LINE
  8
型材断面
  6
CONTINUOUS
 62
    47
 10
-79.620482
 20
-71.209613
 11
-79.620482
 21
-73.109652
  0
LINE
  8
型材断面
  6
CONTINUOUS
 10
-79.620482
 20
-73.309652
 11
-79.620482
 21
-75.709613
  0
LINE
  8
型材断面
  6
CONTINUOUS
 10
-79.620482
 20
-75.709613
 11
-85.120482
 21
-76.376282
  0
LINE
  8
型材断面
  6
CONTINUOUS
 10
-85.120482
 20
-78.709613
 11
-85.120482
 21
-76.376282
  0
LINE
  8
型材断面
  6
CONTINUOUS
 62
    47
 10
5.71288
 20
-71.209613
 11
5.71288
 21
-73.109652
  0
LINE
  8
型材断面
  6
CONTINUOUS
 10
5.71288
 20
-73.309652
 11
5.71288
 21
-75.709613
  0
LINE
  8
型材断面
  6
CONTINUOUS
 10
5.71288
 20
-75.709613
 11
11.21288
 21
-76.376282
  0
LINE
  8
型材断面
  6
CONTINUOUS
 10
11.21288
 20
-78.709613
 11
11.21288
 21
-76.376282
  0
LINE
  8
型材断面
  6
CONTINUOUS
 10
-85.120482
 20
-78.709613
 11
11.21288
 21
-78.709613
  0
LINE
  8
型材断面
  6
CONTINUOUS
 10
-85.120482
 20
-76.376282
 11
11.21288
 21
-76.376282
  0
LINE
  8
型材断面
  6
CONTINUOUS
 10
5.71288
 20
-73.109652
 11
-79.620482
 21
-73.109652
  0
LINE
  8
型材断面
  6
CONTINUOUS
 10
5.71288
 20
-73.309652
 11
-79.620482
 21
-73.309652
  0
LINE
  8
型材断面
  6
CONTINUOUS
 10
5.71288
 20
-75.709613
 11
-79.620482
 21
-75.709613
  0
LINE
  8
型材断面
  6
CONTINUOUS
 10
-80.28712
 20
44.480682
 11
-78.12045
 21
42.314015
  0
LINE
  8
型材断面
  6
CONTINUOUS
 10
-80.28712
 20
21.147382
 11
-78.12045
 21
23.31405
  0
LINE
  8
型材断面
  6
CONTINUOUS
 10
-78.12045
 20
23.31405
 11
-78.12045
 21
42.314015
  0
LINE
  8
型材断面
  6
CONTINUOUS
 10
-78.903798
 20
22.530705
 11
-78.903798
 21
43.09736
  0
LINE
  8
型材断面
  6
CONTINUOUS
 10
-80.28712
 20
21.147382
 11
-80.28712
 21
44.480682
  0
LINE
  8
型材断面
  6
CONTINUOUS
 10
4.212845
 20
42.314015
 11
6.379515
 21
44.480682
  0
LINE
  8
型材断面
  6
CONTINUOUS
 10
4.212845
 20
23.31405
 11
6.379515
 21
21.147382
  0
LINE
  8
型材断面
  6
CONTINUOUS
 10
4.212845
 20
23.31405
 11
4.212845
 21
42.314015
  0
LINE
  8
型材断面
  6
CONTINUOUS
 10
4.996192
 20
22.530705
 11
4.996192
 21
43.09736
  0
LINE
  8
型材断面
  6
CONTINUOUS
 10
6.379515
 20
21.147382
 11
6.379515
 21
44.480682
  0
LINE
  8
型材断面
  6
CONTINUOUS
 10
4.212845
 20
42.314015
 11
-78.12045
 21
42.314015
  0
LINE
  8
型材断面
  6
CONTINUOUS
 10
4.996192
 20
43.09736
 11
-78.903798
 21
43.09736
  0
LINE
  8
型材断面
  6
CONTINUOUS
 10
6.379515
 20
44.480682
 11
-80.28712
 21
44.480682
  0
LINE
  8
型材断面
  6
CONTINUOUS
 10
-78.12045
 20
23.31405
 11
4.212845
 21
23.31405
  0
LINE
  8
型材断面
  6
CONTINUOUS
 10
-78.903798
 20
22.530705
 11
4.996192
 21
22.530705
  0
LINE
  8
型材断面
  6
CONTINUOUS
 10
-80.28712
 20
21.147382
 11
6.379515
 21
21.147382
  0
LINE
  8
型材断面
  6
CONTINUOUS
 10
-38.12047
 20
24.147382
 11
-35.787135
 21
24.147382
  0
LINE
  8
型材断面
  6
CONTINUOUS
 10
-35.787135
 20
24.147382
 11
-35.787135
 21
41.480682
  0
LINE
  8
型材断面
  6
CONTINUOUS
 10
-35.787135
 20
41.480682
 11
-38.12047
 21
41.480682
  0
LINE
  8
型材断面
  6
CONTINUOUS
 10
-38.12047
 20
24.147382
 11
-38.12047
 21
41.480682
  0
LINE
  8
型材断面
  6
CONTINUOUS
 10
-37.287135
 20
24.147382
 11
-37.287135
 21
41.480682
  0
LINE
  8
型材断面
  6
CONTINUOUS
 10
-36.62047
 20
24.147382
 11
-36.62047
 21
41.480682
  0
LINE
  8
型材断面
  6
CONTINUOUS
 10
-78.903775
 20
-70.25973
 11
-78.903775
 21
-69.766315
  0
LINE
  8
型材断面
  6
CONTINUOUS
 10
-80.287097
 20
-70.25973
 11
-80.287097
 21
-70.926397
  0
LINE
  8
型材断面
  6
CONTINUOUS
 10
4.212867
 20
-69.766315
 11
4.946215
 21
-69.766315
  0
LINE
  8
型材断面
  6
CONTINUOUS
 10
4.996215
 20
-70.25973
 11
4.996215
 21
-69.766315
  0
LINE
  8
型材断面
  6
CONTINUOUS
 10
6.379537
 20
-70.25973
 11
6.379537
 21
-70.926397
  0
LINE
  8
型材断面
  6
CONTINUOUS
 10
-78.903775
 20
-69.766315
 11
4.996215
 21
-69.766315
  0
LINE
  8
型材断面
  6
CONTINUOUS
 10
-80.287097
 20
-70.25973
 11
6.379537
 21
-70.25973
  0
LINE
  8
型材断面
  6
CONTINUOUS
 10
-80.287097
 20
-70.926397
 11
6.379537
 21
-70.926397
  0
LINE
  8
型材断面
  6
CONTINUOUS
 62
    47
 10
95.24613
 20
43.814048
 11
97.14617
 21
43.814048
  0
LINE
  8
型材断面
  6
CONTINUOUS
 10
97.34617
 20
43.814048
 11
99.74613
 21
43.814048
  0
LINE
  8
型材断面
  6
CONTINUOUS
 10
99.74613
 20
43.814048
 11
100.4128
 21
49.314048
  0
LINE
  8
型材断面
  6
CONTINUOUS
 10
102.74613
 20
49.314048
 11
100.4128
 21
49.314048
  0
LINE
  8
型材断面
  6
CONTINUOUS
 62
    47
 10
95.24613
 20
21.814018
 11
97.14617
 21
21.814018
  0
LINE
  8
型材断面
  6
CONTINUOUS
 10
97.34617
 20
21.814018
 11
99.74613
 21
21.814018
  0
LINE
  8
型材断面
  6
CONTINUOUS
 10
99.74613
 20
21.814018
 11
100.4128
 21
16.314018
  0
LINE
  8
型材断面
  6
CONTINUOUS
 10
102.74613
 20
16.314018
 11
100.4128
 21
16.314018
  0
LINE
  8
型材断面
  6
CONTINUOUS
 10
102.74613
 20
49.314048
 11
102.74613
 21
16.314018
  0
LINE
  8
型材断面
  6
CONTINUOUS
 10
100.4128
 20
49.314048
 11
100.4128
 21
16.314018
  0
LINE
  8
型材断面
  6
CONTINUOUS
 10
97.14617
 20
21.814018
 11
97.14617
 21
43.814048
  0
LINE
  8
型材断面
  6
CONTINUOUS
 10
97.34617
 20
21.814018
 11
97.34617
 21
43.814048
  0
LINE
  8
型材断面
  6
CONTINUOUS
 10
99.74613
 20
21.814018
 11
99.74613
 21
43.814048
  0
ARC
  8
型材断面
  6
DASHDOT
 10
97.246169
 20
44.014048
 40
23.06264
 50
217.525659
 51
262.525659
  0
INSERT
  2
*GRP_0022
  8
型材断面
  6
CONTINUOUS
 10
0.0
 20
0.0
  0
LINE
  8
型材断面
  6
CONTINUOUS
 10
94.296248
 20
22.530727
 11
93.802832
 21
22.530727
  0
LINE
  8
型材断面
  6
CONTINUOUS
 10
94.296248
 20
21.147405
 11
94.962915
 21
21.147405
  0
LINE
  8
型材断面
  6
CONTINUOUS
 10
93.802832
 20
42.314038
 11
93.802832
 21
43.047382
  0
LINE
  8
型材断面
  6
CONTINUOUS
 10
94.296248
 20
43.097382
 11
93.802832
 21
43.097382
  0
LINE
  8
型材断面
  6
CONTINUOUS
 10
94.296248
 20
44.480705
 11
94.962915
 21
44.480705
  0
LINE
  8
型材断面
  6
CONTINUOUS
 10
93.802832
 20
22.530727
 11
93.802832
 21
43.097382
  0
LINE
  8
型材断面
  6
CONTINUOUS
 10
94.296248
 20
21.147405
 11
94.296248
 21
44.480705
  0
LINE
  8
型材断面
  6
CONTINUOUS
 10
94.962915
 20
21.147405
 11
94.962915
 21
44.480705
  0
LINE
  8
ガラス
  6
CONTINUOUS
 10
114.744333
 20
-50.665427
 11
114.744333
 21
-70.665427
  0
LINE
  8
ガラス
  6
CONTINUOUS
 10
114.744333
 20
-50.665427
 11
73.827667
 21
-50.665427
  0
LINE
  8
ガラス
  6
CONTINUOUS
 10
73.827667
 20
-50.665427
 11
73.827667
 21
-70.665427
  0
LINE
  8
ガラス
  6
CONTINUOUS
 10
73.827667
 20
-70.665427
 11
114.744333
 21
-70.665427
  0
LINE
  8
ガラス
  6
CONTINUOUS
 10
-55.156172
 20
35.444993
 11
-60.418102
 21
30.183065
  0
LINE
  8
ガラス
  6
CONTINUOUS
 10
-56.468523
 20
31.495413
 11
-59.105753
 21
34.132655
  0
LINE
  8
ガラス
  6
CONTINUOUS
 10
-58.174612
 20
31.556313
 11
-56.14158
 21
33.589345
  0
LINE
  8
ガラス
  6
CONTINUOUS
 10
-57.39967
 20
34.071753
 11
-59.432693
 21
32.038723
  0
LINE
  8
ガラス
  6
CONTINUOUS
 10
-13.489508
 20
35.444993
 11
-18.751437
 21
30.183065
  0
LINE
  8
ガラス
  6
CONTINUOUS
 10
-14.801858
 20
31.495413
 11
-17.439088
 21
34.132655
  0
LINE
  8
ガラス
  6
CONTINUOUS
 10
-16.507947
 20
31.556313
 11
-14.474915
 21
33.589345
  0
LINE
  8
ガラス
  6
CONTINUOUS
 10
-15.733005
 20
34.071753
 11
-17.766028
 21
32.038723
  0
TEXT
  7
TextStyle03
  8
文字
  6
CONTINUOUS
 10
78.1
 20
125.25
  1
シリーズ：ＳＴＦＦＨＬ
 40
5.0
 72
     5
 11
139.35
 21
125.25
  0
TEXT
  7
TextStyle03
  8
文字
  6
CONTINUOUS
 10
78.1
 20
119.625
  1
　　　　　（片側開閉）600×2500タイプ
 40
5.0
 72
     5
 11
181.5375
 21
119.625
  0
TEXT
  7
TextStyle03
  8
文字
  6
CONTINUOUS
 10
78.1
 20
114.0
  1
図面名　：外観姿図
 40
5.0
 72
     5
 11
128.1
 21
114.0
  0
TEXT
  7
TextStyle03
  8
文字
  6
CONTINUOUS
 10
78.1
 20
108.375
  1
　　　　　　
 40
5.0
 72
     5
 11
111.225
 21
108.375
  0
TEXT
  7
TextStyle03
  8
文字
  6
CONTINUOUS
 10
-116.675
 20
84.95
  1
は排水穴位置を示す
 40
3.0
 72
     5
 11
-86.675
 21
84.95
  0
TEXT
  7
TextStyle03
  8
文字
  6
CONTINUOUS
 10
-116.675
 20
79.425
  1
はケーシング位置を示す
 40
3.0
 72
     5
 11
-79.925
 21
79.425
  0
TEXT
  7
TextStyle03
  8
文字
  6
CONTINUOUS
 10
-116.675
 20
76.05
  1
２ヶ所中1ヶ所に設定
 40
3.0
 72
     5
 11
-84.9875
 21
76.05
  0
TEXT
  7
TextStyle03
  8
文字
  6
CONTINUOUS
 10
-99.7
 20
11.275
  1
アンカーピッチ
 40
3.0
 50
90.0
 72
     5
 11
-99.7
 21
34.525
  0
TEXT
  7
TextStyle03
  8
文字
  6
CONTINUOUS
 10
-72.0
 20
80.825
  1
アンカーピッチ
 40
3.0
 72
     5
 11
-48.75
 21
80.825
  0
TEXT
  7
TextStyle03
  8
文字
  6
CONTINUOUS
 10
-120.4
 20
70.075
  1
アンカー数量　１２ヶ所
 40
3.0
 72
     5
 11
-83.65
 21
70.075
  0
TEXT
  7
TextStyle03
  8
文字
  6
CONTINUOUS
 10
-3.25
 20
-87.4
  1
※は物件対応寸法
 40
3.0
 72
     5
 11
23.375
 21
-87.4
  0
TEXT
  7
TextStyle03
  8
文字
  6
CONTINUOUS
 10
95.9
 20
-63.675
  1
網入り6.8t
 40
3.0
 72
     5
 11
112.5875
 21
-63.675
  0
TEXT
  7
TextStyle03
  8
文字
  6
CONTINUOUS
 10
102.575
 20
-68.35
  1
×２枚
 40
3.0
 72
     5
 11
112.325
 21
-68.35
  0
TEXT
  7
TextStyle03
  8
文字
  6
CONTINUOUS
 10
85.975
 20
17.6
  1
45°
 40
3.0
 50
90.0
 72
     5
 11
85.975
 21
23.975
  0
INSERT
  2
*DIM_0002
  8
寸法
  6
CONTINUOUS
 10
0.0
 20
0.0
  0
INSERT
  2
*DIM_0003
  8
寸法
  6
CONTINUOUS
 10
0.0
 20
0.0
  0
INSERT
  2
*DIM_0004
  8
寸法
  6
CONTINUOUS
 10
0.0
 20
0.0
  0
INSERT
  2
*DIM_0005
  8
寸法
  6
CONTINUOUS
 10
0.0
 20
0.0
  0
INSERT
  2
*DIM_0006
  8
寸法
  6
CONTINUOUS
 10
0.0
 20
0.0
  0
INSERT
  2
*DIM_0007
  8
寸法
  6
CONTINUOUS
 10
0.0
 20
0.0
  0
INSERT
  2
*DIM_0008
  8
寸法
  6
CONTINUOUS
 10
0.0
 20
0.0
  0
INSERT
  2
*DIM_0011
  8
寸法
  6
CONTINUOUS
 10
0.0
 20
0.0
  0
INSERT
  2
*DIM_0012
  8
寸法
  6
CONTINUOUS
 10
0.0
 20
0.0
  0
INSERT
  2
*DIM_0013
  8
寸法
  6
CONTINUOUS
 10
0.0
 20
0.0
  0
INSERT
  2
*DIM_0014
  8
寸法
  6
CONTINUOUS
 10
0.0
 20
0.0
  0
INSERT
  2
*DIM_0015
  8
寸法
  6
CONTINUOUS
 10
0.0
 20
0.0
  0
INSERT
  2
*DIM_0016
  8
寸法
  6
CONTINUOUS
 10
0.0
 20
0.0
  0
INSERT
  2
*DIM_0017
  8
寸法
  6
CONTINUOUS
 10
0.0
 20
0.0
  0
INSERT
  2
*DIM_0025
  8
寸法
  6
CONTINUOUS
 10
0.0
 20
0.0
  0
INSERT
  2
*DIM_0026
  8
寸法
  6
CONTINUOUS
 10
0.0
 20
0.0
  0
INSERT
  2
*DIM_0027
  8
寸法
  6
CONTINUOUS
 10
0.0
 20
0.0
  0
INSERT
  2
*DIM_0028
  8
寸法
  6
CONTINUOUS
 10
0.0
 20
0.0
  0
INSERT
  2
*DIM_0029
  8
寸法
  6
CONTINUOUS
 10
0.0
 20
0.0
  0
INSERT
  2
*GRP_0009
  8
別途部材
  6
DOT
 10
0.0
 20
0.0
  0
INSERT
  2
*GRP_0010
  8
別途部材
  6
DOT
 10
0.0
 20
0.0
  0
INSERT
  2
*GRP_0018
  8
別途部材
  6
DOT
 10
0.0
 20
0.0
  0
INSERT
  2
*GRP_0019
  8
別途部材
  6
DOT
 10
0.0
 20
0.0
  0
INSERT
  2
*GRP_0020
  8
別途部材
  6
CONTINUOUS
 10
0.0
 20
0.0
  0
ENDSEC
  0
EOF
