  0
SECTION
  2
HEADER
  9
$EXTMIN
 10
-210.0
 20
-148.5
  9
$EXTMAX
 10
210.0
 20
148.5
  9
$PDMODE
 70
    32
  9
$PDSIZE
 40
1.5
  9
$LTSCALE
 40
10.0
  0
ENDSEC
  0
SECTION
  2
TABLES
  0
TABLE
  2
LTYPE
 70
    15
  0
LTYPE
  2
CONTINUOUS
 70
    64
  3
実線
 72
    65
 73
     0
 40
0.0
  0
LTYPE
  2
DASHED
 70
    64
  3
破線A
 72
    65
 73
     2
 40
0.6
 49
0.4
 49
-0.2
  0
LTYPE
  2
DASHEDX2
 70
    64
  3
破線B
 72
    65
 73
     2
 40
1.3
 49
0.9
 49
-0.4
  0
LTYPE
  2
DASHDOT
 70
    64
  3
１点鎖線A
 72
    65
 73
     4
 40
0.5375
 49
0.375
 49
-0.05
 49
0.0625
 49
-0.05
  0
LTYPE
  2
DASHDOTX2
 70
    64
  3
１点鎖線B
 72
    65
 73
     4
 40
1.075
 49
0.75
 49
-0.1
 49
0.125
 49
-0.1
  0
LTYPE
  2
DIVIDE2
 70
    64
  3
２点鎖線A
 72
    65
 73
     6
 40
0.5125
 49
0.3
 49
-0.0375
 49
0.05
 49
-0.0375
 49
0.05
 49
-0.0375
  0
LTYPE
  2
DIVIDE
 70
    64
  3
２点鎖線B
 72
    65
 73
     6
 40
1.05
 49
0.55
 49
-0.1
 49
0.1
 49
-0.1
 49
0.1
 49
-0.1
  0
LTYPE
  2
DOT
 70
    64
  3
点線A
 72
    65
 73
     2
 40
0.1125
 49
0.0625
 49
-0.05
  0
LTYPE
  2
DOTX2
 70
    64
  3
点線B
 72
    65
 73
     2
 40
0.275
 49
0.15
 49
-0.125
  0
LTYPE
  2
CONTINUOUS
 70
    64
  3
実線
 72
    65
 73
     0
 40
0.0
  0
LTYPE
  2
CONTINUOUS
 70
    64
  3
実線
 72
    65
 73
     0
 40
0.0
  0
LTYPE
  2
CONTINUOUS
 70
    64
  3
実線
 72
    65
 73
     0
 40
0.0
  0
LTYPE
  2
CONTINUOUS
 70
    64
  3
実線
 72
    65
 73
     0
 40
0.0
  0
LTYPE
  2
CONTINUOUS
 70
    64
  3
実線
 72
    65
 73
     0
 40
0.0
  0
LTYPE
  2
CONTINUOUS
 70
    64
  3
実線
 72
    65
 73
     0
 40
0.0
  0
ENDTAB
  0
TABLE
  2
LAYER
 70
    34
  0
LAYER
  2
通り芯
 70
     0
 62
    15
  6
CONTINUOUS
  0
LAYER
  2
補助線
 70
     0
 62
    16
  6
DOT
  0
LAYER
  2
躯体
 70
     0
 62
    31
  6
CONTINUOUS
  0
LAYER
  2
型材
 70
     0
 62
    32
  6
CONTINUOUS
  0
LAYER
  2
型材断面
 70
     0
 62
    47
  6
CONTINUOUS
  0
LAYER
  2
ガラス
 70
     0
 62
    48
  6
CONTINUOUS
  0
LAYER
  2
ゴム等
 70
     0
 62
    63
  6
CONTINUOUS
  0
LAYER
  2
ボルト／ビス
 70
     0
 62
    64
  6
CONTINUOUS
  0
LAYER
  2
文字
 70
     0
 62
    79
  6
CONTINUOUS
  0
LAYER
  2
寸法
 70
     0
 62
    80
  6
CONTINUOUS
  0
LAYER
  2
ﾊｯﾁﾝｸﾞ
 70
     0
 62
    95
  6
CONTINUOUS
  0
LAYER
  2
別途部材
 70
     0
 62
    96
  6
CONTINUOUS
  0
LAYER
  2
曲げ物
 70
     0
 62
   111
  6
CONTINUOUS
  0
LAYER
  2
鉄骨等
 70
     0
 62
   112
  6
CONTINUOUS
  0
LAYER
  2
St
 70
     0
 62
   127
  6
CONTINUOUS
  0
LAYER
  2
その他部品等
 70
     0
 62
   128
  6
CONTINUOUS
  0
LAYER
  2
ｶﾞｽｹｯﾄ
 70
     0
 62
   143
  6
CONTINUOUS
  0
LAYER
  2
ｽｹｯﾁ
 70
     0
 62
    14
  6
CONTINUOUS
  0
LAYER
  2
0
 70
     0
 62
    17
  6
CONTINUOUS
  0
LAYER
  2
1
 70
     0
 62
    30
  6
CONTINUOUS
  0
LAYER
  2
4
 70
     0
 62
    33
  6
CONTINUOUS
  0
LAYER
  2
ﾚｲﾔ3
 70
     0
 62
    46
  6
CONTINUOUS
  0
LAYER
  2
外形線
 70
     0
 62
    49
  6
CONTINUOUS
  0
LAYER
  2
部品
 70
     0
 62
    14
  6
CONTINUOUS
  0
LAYER
  2
サッシ芯
 70
     0
 62
    17
  6
DASHDOTX2
  0
LAYER
  2
寸法線
 70
     0
 62
    62
  6
CONTINUOUS
  0
LAYER
  2
姿図外形線
 70
     0
 62
    65
  6
CONTINUOUS
  0
LAYER
  2
姿補助線
 70
     0
 62
    30
  6
CONTINUOUS
  0
LAYER
  2
透視線
 70
     0
 62
    78
  6
DOT
  0
LAYER
  2
用紙
 70
     0
 62
    81
  6
CONTINUOUS
  0
LAYER
  2
実線図枠
 70
     0
 62
    94
  6
CONTINUOUS
  0
LAYER
  2
補助図枠
 70
     0
 62
    97
  6
CONTINUOUS
  0
LAYER
  2
建具記号
 70
     0
 62
   110
  6
CONTINUOUS
  0
LAYER
  2
補助文字
 70
     0
 62
   113
  6
CONTINUOUS
  0
ENDTAB
  0
TABLE
  2
STYLE
 70
    10
  0
STYLE
  2
STANDARD
 70
     0
 40
1.0
 41
1.0
 42
1.0
 50
0.0
 71
     0
  3
TXT
  4
BIGFONT
  0
STYLE
  2
TATE
 70
     4
 40
1.0
 41
1.0
 42
1.0
 50
0.0
 71
     0
  3
TXT
  4
BIGFONT
  0
STYLE
  2
TextStyle03
 70
     0
 40
1.0
 41
1.0
 42
1.0
 50
0.0
 71
     0
  3
MONOTXT
  4
BIGFONT
  0
STYLE
  2
TextStyle04
 70
     0
 40
1.0
 41
1.0
 42
1.0
 50
0.0
 71
     0
  3
MONOTXT
  4
BIGFONT
  0
STYLE
  2
TextStyle05
 70
     0
 40
1.0
 41
1.0
 42
1.0
 50
0.0
 71
     0
  3
MONOTXT
  4
BIGFONT
  0
STYLE
  2
TextStyle06
 70
     0
 40
1.0
 41
1.0
 42
1.0
 50
0.0
 71
     0
  3
MONOTXT
  4
BIGFONT
  0
STYLE
  2
TextStyle07
 70
     0
 40
1.0
 41
1.0
 42
1.0
 50
0.0
 71
     0
  3
MONOTXT
  4
BIGFONT
  0
STYLE
  2
TextStyle08
 70
     0
 40
1.0
 41
1.0
 42
1.0
 50
0.0
 71
     0
  3
MONOTXT
  4
BIGFONT
  0
STYLE
  2
TextStyle09
 70
     0
 40
1.0
 41
1.0
 42
1.0
 50
0.0
 71
     0
  3
MONOTXT
  4
BIGFONT
  0
STYLE
  2
TextStyle10
 70
     0
 40
1.0
 41
1.0
 42
1.0
 50
0.0
 71
     0
  3
MONOTXT
  4
BIGFONT
  0
ENDTAB
  0
ENDSEC
  0
SECTION
  2
BLOCKS
  0
BLOCK
  2
*GRP_0001
 70
    65
 10
0.0
 20
0.0
  0
LINE
  8
型材断面
  6
CONTINUOUS
 10
195.0
 20
133.5
 11
195.0
 21
-133.5
  0
LINE
  8
型材断面
  6
CONTINUOUS
 10
195.0
 20
-133.5
 11
-185.0
 21
-133.5
  0
LINE
  8
型材断面
  6
CONTINUOUS
 10
-185.0
 20
-133.5
 11
-185.0
 21
133.5
  0
LINE
  8
型材断面
  6
CONTINUOUS
 10
195.0
 20
133.5
 11
-185.0
 21
133.5
  0
LINE
  8
型材断面
  6
CONTINUOUS
 10
145.0
 20
-133.5
 11
145.0
 21
-118.5
  0
LINE
  8
型材断面
  6
CONTINUOUS
 10
195.0
 20
-118.5
 11
145.0
 21
-118.5
  0
ENDBLK
  0
BLOCK
  2
*DIM_0002
 70
    65
 10
0.0
 20
0.0
  0
LINE
  8
寸法
  6
BYBLOCK
 62
     0
 10
-114.998442
 20
23.399048
 11
-143.943607
 21
23.399048
  0
LINE
  8
寸法
  6
BYBLOCK
 62
     0
 10
-114.998442
 20
46.732382
 11
-143.943607
 21
46.732382
  0
LINE
  8
寸法
  6
BYBLOCK
 62
     0
 10
-143.943607
 20
23.399048
 11
-143.943607
 21
46.732382
  0
POINT
  8
寸法
 62
     0
 10
-143.943607
 20
23.399048
  0
POINT
  8
寸法
 62
     0
 10
-143.943607
 20
46.732382
  0
TEXT
  7
TextStyle03
  8
寸法
  6
CONTINUOUS
 62
     0
 10
-144.4
 20
32.6125
  1
700
 40
3.0
 50
90.0
 72
     5
 11
-144.4
 21
37.4875
  0
ENDBLK
  0
BLOCK
  2
*DIM_0008
 70
    65
 10
0.0
 20
0.0
  0
LINE
  8
寸法
  6
BYBLOCK
 62
     0
 10
-95.331775
 20
4.67136
 11
-95.331775
 21
-0.223875
  0
LINE
  8
寸法
  6
BYBLOCK
 62
     0
 10
4.66822
 20
4.67136
 11
4.66822
 21
-0.223875
  0
LINE
  8
寸法
  6
BYBLOCK
 62
     0
 10
-95.331775
 20
-0.223875
 11
4.66822
 21
-0.223875
  0
POINT
  8
寸法
 62
     0
 10
-95.331775
 20
-0.223875
  0
POINT
  8
寸法
 62
     0
 10
4.66822
 20
-0.223875
  0
TEXT
  7
TextStyle03
  8
寸法
  6
CONTINUOUS
 62
     0
 10
-48.63125
 20
0.15
  1
3000
 40
3.0
 72
     5
 11
-42.06875
 21
0.15
  0
ENDBLK
  0
BLOCK
  2
*DIM_0009
 70
    65
 10
0.0
 20
0.0
  0
LINE
  8
寸法
  6
CONTINUOUS
 10
117.878105
 20
-38.739412
 11
117.878105
 21
-29.399832
  0
LINE
  8
寸法
  6
CONTINUOUS
 10
85.668105
 20
-38.739412
 11
85.668105
 21
-29.399832
  0
LINE
  8
寸法
  6
CONTINUOUS
 10
117.878105
 20
-29.399832
 11
85.668105
 21
-29.399832
  0
POINT
  8
寸法
 10
117.878105
 20
-29.399832
  0
POINT
  8
寸法
 10
85.668105
 20
-29.399832
  0
TEXT
  7
TextStyle03
  8
寸法
  6
CONTINUOUS
 10
97.65
 20
-29.05
  1
966.3
 40
3.0
 72
     5
 11
105.9
 21
-29.05
  0
ENDBLK
  0
BLOCK
  2
*DIM_0010
 70
    65
 10
0.0
 20
0.0
  0
LINE
  8
寸法
  6
CONTINUOUS
 10
118.878105
 20
-39.739412
 11
127.853812
 21
-39.739412
  0
LINE
  8
寸法
  6
CONTINUOUS
 10
118.878105
 20
-83.072745
 11
127.853812
 21
-83.072745
  0
LINE
  8
寸法
  6
CONTINUOUS
 10
127.853812
 20
-39.739412
 11
127.853812
 21
-83.072745
  0
POINT
  8
寸法
 10
127.853812
 20
-39.739412
  0
POINT
  8
寸法
 10
127.853812
 20
-83.072745
  0
TEXT
  7
TextStyle03
  8
寸法
  6
CONTINUOUS
 10
127.475
 20
-64.70625
  1
1300
 40
3.0
 50
90.0
 72
     5
 11
127.475
 21
-58.14375
  0
ENDBLK
  0
BLOCK
  2
*DIM_0011
 70
    65
 10
0.0
 20
0.0
  0
LINE
  8
寸法
  6
BYBLOCK
 62
     0
 10
21.33489
 20
-24.663192
 11
-111.998442
 21
-24.663192
  0
POINT
  8
寸法
 62
     0
 10
21.33489
 20
-24.663192
  0
POINT
  8
寸法
 62
     0
 10
-111.998442
 20
-24.663192
  0
TEXT
  7
TextStyle03
  8
寸法
  6
CONTINUOUS
 62
     0
 10
-57.06875
 20
-24.275
  1
呼称寸法　4000
 40
3.0
 72
     5
 11
-33.63125
 21
-24.275
  0
ENDBLK
  0
BLOCK
  2
*GRP_0012
 70
    65
 10
0.0
 20
0.0
  0
LINE
  8
ボルト／ビス
  6
CONTINUOUS
 10
-112.665107
 20
-81.75142
 11
-112.665107
 21
-81.284753
  0
LINE
  8
ボルト／ビス
  6
CONTINUOUS
 10
-112.29844
 20
-81.75142
 11
-112.29844
 21
-81.684753
  0
LINE
  8
ボルト／ビス
  6
CONTINUOUS
 10
-112.29844
 20
-81.684753
 11
-113.031775
 21
-81.684753
  0
LINE
  8
ボルト／ビス
  6
CONTINUOUS
 10
-113.031775
 20
-81.684753
 11
-113.031775
 21
-81.75142
  0
LINE
  8
ボルト／ビス
  6
CONTINUOUS
 10
-112.29844
 20
-81.75142
 11
-113.031775
 21
-81.75142
  0
LINE
  8
ボルト／ビス
  6
CONTINUOUS
 10
-112.365107
 20
-81.65142
 11
-112.365107
 21
-81.684753
  0
LINE
  8
ボルト／ビス
  6
CONTINUOUS
 10
-112.365107
 20
-81.65142
 11
-112.965107
 21
-81.65142
  0
LINE
  8
ボルト／ビス
  6
CONTINUOUS
 10
-112.965107
 20
-81.65142
 11
-112.965107
 21
-81.684753
  0
LINE
  8
ボルト／ビス
  6
CONTINUOUS
 62
    64
 10
-112.504732
 20
-81.45142
 11
-112.472657
 21
-81.463095
  0
ARC
  8
ボルト／ビス
  6
CONTINUOUS
 62
    64
 10
-112.520769
 20
-81.556401
 40
0.104978
 50
90.0
 51
117.278033
  0
ARC
  8
ボルト／ビス
  6
CONTINUOUS
 62
    64
 10
-112.665106
 20
-81.853825
 40
0.402402
 50
76.165015
 51
103.834998
  0
LINE
  8
ボルト／ビス
  6
CONTINUOUS
 62
    64
 10
-112.825482
 20
-81.45142
 11
-112.857557
 21
-81.463095
  0
ARC
  8
ボルト／ビス
  6
CONTINUOUS
 62
    64
 10
-112.809444
 20
-81.556401
 40
0.104978
 50
62.721967
 51
90.0
  0
LINE
  8
ボルト／ビス
  6
CONTINUOUS
 62
    64
 10
-112.504732
 20
-81.45142
 11
-112.825482
 21
-81.45142
  0
LINE
  8
ボルト／ビス
  6
CONTINUOUS
 62
    64
 10
-112.857557
 20
-81.463095
 11
-112.857557
 21
-81.584753
  0
LINE
  8
ボルト／ビス
  6
CONTINUOUS
 62
    64
 10
-112.761333
 20
-81.463095
 11
-112.761333
 21
-81.584753
  0
LINE
  8
ボルト／ビス
  6
CONTINUOUS
 62
    64
 10
-112.472657
 20
-81.463095
 11
-112.472657
 21
-81.584753
  0
LINE
  8
ボルト／ビス
  6
CONTINUOUS
 62
    64
 10
-112.568883
 20
-81.463095
 11
-112.568883
 21
-81.584753
  0
LINE
  8
ボルト／ビス
  6
CONTINUOUS
 10
-112.472657
 20
-81.584753
 11
-112.857557
 21
-81.584753
  0
LINE
  8
ボルト／ビス
  6
CONTINUOUS
 10
-112.465107
 20
-81.584753
 11
-112.465107
 21
-81.65142
  0
LINE
  8
ボルト／ビス
  6
CONTINUOUS
 10
-112.465107
 20
-81.584753
 11
-112.865107
 21
-81.584753
  0
LINE
  8
ボルト／ビス
  6
CONTINUOUS
 10
-112.865107
 20
-81.584753
 11
-112.865107
 21
-81.65142
  0
ENDBLK
  0
BLOCK
  2
*GRP_0013
 70
    65
 10
0.0
 20
0.0
  0
LINE
  8
ボルト／ビス
  6
CONTINUOUS
 10
22.001562
 20
-81.751425
 11
22.001562
 21
-81.284757
  0
LINE
  8
ボルト／ビス
  6
CONTINUOUS
 10
22.36823
 20
-81.751425
 11
22.36823
 21
-81.684757
  0
LINE
  8
ボルト／ビス
  6
CONTINUOUS
 10
22.36823
 20
-81.684757
 11
21.634895
 21
-81.684757
  0
LINE
  8
ボルト／ビス
  6
CONTINUOUS
 10
21.634895
 20
-81.684757
 11
21.634895
 21
-81.751425
  0
LINE
  8
ボルト／ビス
  6
CONTINUOUS
 10
22.36823
 20
-81.751425
 11
21.634895
 21
-81.751425
  0
LINE
  8
ボルト／ビス
  6
CONTINUOUS
 10
22.301562
 20
-81.651425
 11
22.301562
 21
-81.684757
  0
LINE
  8
ボルト／ビス
  6
CONTINUOUS
 10
22.301562
 20
-81.651425
 11
21.701563
 21
-81.651425
  0
LINE
  8
ボルト／ビス
  6
CONTINUOUS
 10
21.701563
 20
-81.651425
 11
21.701563
 21
-81.684757
  0
LINE
  8
ボルト／ビス
  6
CONTINUOUS
 62
    64
 10
22.161938
 20
-81.451425
 11
22.194012
 21
-81.4631
  0
ARC
  8
ボルト／ビス
  6
CONTINUOUS
 62
    64
 10
22.145901
 20
-81.556406
 40
0.104978
 50
90.0
 51
117.278033
  0
ARC
  8
ボルト／ビス
  6
CONTINUOUS
 62
    64
 10
22.001564
 20
-81.85383
 40
0.402402
 50
76.165015
 51
103.834998
  0
LINE
  8
ボルト／ビス
  6
CONTINUOUS
 62
    64
 10
21.841187
 20
-81.451425
 11
21.809113
 21
-81.4631
  0
ARC
  8
ボルト／ビス
  6
CONTINUOUS
 62
    64
 10
21.857226
 20
-81.556406
 40
0.104978
 50
62.721967
 51
90.0
  0
LINE
  8
ボルト／ビス
  6
CONTINUOUS
 62
    64
 10
22.161938
 20
-81.451425
 11
21.841187
 21
-81.451425
  0
LINE
  8
ボルト／ビス
  6
CONTINUOUS
 62
    64
 10
21.809113
 20
-81.4631
 11
21.809113
 21
-81.584757
  0
LINE
  8
ボルト／ビス
  6
CONTINUOUS
 62
    64
 10
21.905337
 20
-81.4631
 11
21.905337
 21
-81.584757
  0
LINE
  8
ボルト／ビス
  6
CONTINUOUS
 62
    64
 10
22.194012
 20
-81.4631
 11
22.194012
 21
-81.584757
  0
LINE
  8
ボルト／ビス
  6
CONTINUOUS
 62
    64
 10
22.097788
 20
-81.4631
 11
22.097788
 21
-81.584757
  0
LINE
  8
ボルト／ビス
  6
CONTINUOUS
 10
22.194012
 20
-81.584757
 11
21.809113
 21
-81.584757
  0
LINE
  8
ボルト／ビス
  6
CONTINUOUS
 10
22.201563
 20
-81.584757
 11
22.201563
 21
-81.651425
  0
LINE
  8
ボルト／ビス
  6
CONTINUOUS
 10
22.201563
 20
-81.584757
 11
21.801562
 21
-81.584757
  0
LINE
  8
ボルト／ビス
  6
CONTINUOUS
 10
21.801562
 20
-81.584757
 11
21.801562
 21
-81.651425
  0
ENDBLK
  0
BLOCK
  2
*DIM_0014
 70
    65
 10
0.0
 20
0.0
  0
LINE
  8
寸法
  6
CONTINUOUS
 10
28.834905
 20
-90.251428
 11
37.30454
 21
-90.251428
  0
LINE
  8
寸法
  6
CONTINUOUS
 10
37.30454
 20
-87.251428
 11
37.30454
 21
-90.251428
  0
POINT
  8
寸法
 10
37.30454
 20
-90.251428
  0
TEXT
  7
TextStyle03
  8
寸法
  6
CONTINUOUS
 10
36.9
 20
-90.25
  1
※
 40
3.0
 50
90.0
 72
     5
 11
36.9
 21
-87.25
  0
ENDBLK
  0
BLOCK
  2
*DIM_0015
 70
    65
 10
0.0
 20
0.0
  0
LINE
  8
寸法
  6
CONTINUOUS
 10
-118.498452
 20
-86.918098
 11
-118.498452
 21
-24.663192
  0
LINE
  8
寸法
  6
CONTINUOUS
 10
-111.998442
 20
-24.663192
 11
-118.498452
 21
-24.663192
  0
POINT
  8
寸法
 10
-111.998442
 20
-24.663192
  0
POINT
  8
寸法
 10
-118.498452
 20
-24.663192
  0
TEXT
  7
TextStyle03
  8
寸法
  6
CONTINUOUS
 10
-116.775
 20
-24.275
  1
※
 40
3.0
 72
     5
 11
-113.775
 21
-24.275
  0
ENDBLK
  0
BLOCK
  2
*DIM_0016
 70
    65
 10
0.0
 20
0.0
  0
LINE
  8
寸法
  6
CONTINUOUS
 10
27.834905
 20
-86.918098
 11
27.834905
 21
-24.663192
  0
LINE
  8
寸法
  6
CONTINUOUS
 10
21.33489
 20
-24.663192
 11
27.834905
 21
-24.663192
  0
POINT
  8
寸法
 10
21.33489
 20
-24.663192
  0
POINT
  8
寸法
 10
27.834905
 20
-24.663192
  0
TEXT
  7
TextStyle03
  8
寸法
  6
CONTINUOUS
 10
23.05
 20
-24.275
  1
※
 40
3.0
 72
     5
 11
26.05
 21
-24.275
  0
ENDBLK
  0
BLOCK
  2
*DIM_0017
 70
    65
 10
0.0
 20
0.0
  0
LINE
  8
寸法
  6
CONTINUOUS
 10
23.334905
 20
-87.251428
 11
37.30454
 21
-87.251428
  0
LINE
  8
寸法
  6
CONTINUOUS
 10
22.56824
 20
-81.30813
 11
37.30454
 21
-81.30813
  0
LINE
  8
寸法
  6
CONTINUOUS
 10
37.30454
 20
-87.251428
 11
37.30454
 21
-81.30813
  0
POINT
  8
寸法
 10
37.30454
 20
-87.251428
  0
POINT
  8
寸法
 10
37.30454
 20
-81.30813
  0
TEXT
  7
TextStyle03
  8
寸法
  6
CONTINUOUS
 10
41.9
 20
-88.45
  1
178.3
 40
3.0
 50
90.0
 72
     5
 11
41.9
 21
-80.2
  0
ENDBLK
  0
BLOCK
  2
*GRP_0018
 70
    65
 10
0.0
 20
0.0
  0
LINE
  8
型材断面
  6
DOT
 62
    47
 10
79.9005
 20
27.149688
 11
81.24403
 21
25.806157
  0
LINE
  8
型材断面
  6
DOT
 62
    47
 10
111.95603
 20
59.205218
 11
113.29956
 21
57.861687
  0
LINE
  8
型材断面
  6
DOT
 10
81.24403
 20
25.806157
 11
113.29956
 21
57.861687
  0
LINE
  8
型材断面
  6
DOT
 10
110.777572
 20
59.370095
 11
110.428675
 21
59.718993
  0
LINE
  8
型材断面
  6
DOT
 10
111.755727
 20
60.34825
 11
112.227132
 21
59.876848
  0
LINE
  8
型材断面
  6
DOT
 10
79.73559
 20
28.328112
 11
79.386695
 21
28.677012
  0
LINE
  8
型材断面
  6
DOT
 10
110.428675
 20
59.718993
 11
79.386695
 21
28.677012
  0
LINE
  8
型材断面
  6
DOT
 10
111.755727
 20
60.34825
 11
78.757435
 21
27.349957
  0
LINE
  8
型材断面
  6
DOT
 10
78.757435
 20
27.349957
 11
79.22884
 21
26.878552
  0
LINE
  8
型材断面
  6
DOT
 10
112.227132
 20
59.876848
 11
79.22884
 21
26.878552
  0
ENDBLK
  0
BLOCK
  2
*GRP_0019
 70
    65
 10
0.0
 20
0.0
  0
LINE
  8
ボルト／ビス
  6
CONTINUOUS
 10
110.511655
 20
12.732382
 11
110.044985
 21
12.732382
  0
LINE
  8
ボルト／ビス
  6
CONTINUOUS
 10
110.511655
 20
12.365712
 11
110.444985
 21
12.365712
  0
LINE
  8
ボルト／ビス
  6
CONTINUOUS
 10
110.444985
 20
12.365712
 11
110.444985
 21
13.099048
  0
LINE
  8
ボルト／ビス
  6
CONTINUOUS
 10
110.444985
 20
13.099048
 11
110.511655
 21
13.099048
  0
LINE
  8
ボルト／ビス
  6
CONTINUOUS
 10
110.511655
 20
12.365712
 11
110.511655
 21
13.099048
  0
LINE
  8
ボルト／ビス
  6
CONTINUOUS
 10
110.411655
 20
12.432382
 11
110.444985
 21
12.432382
  0
LINE
  8
ボルト／ビス
  6
CONTINUOUS
 10
110.411655
 20
12.432382
 11
110.411655
 21
13.032382
  0
LINE
  8
ボルト／ビス
  6
CONTINUOUS
 10
110.411655
 20
13.032382
 11
110.444985
 21
13.032382
  0
LINE
  8
ボルト／ビス
  6
CONTINUOUS
 62
    64
 10
110.211655
 20
12.572007
 11
110.22333
 21
12.539933
  0
ARC
  8
ボルト／ビス
  6
CONTINUOUS
 62
    64
 10
110.316635
 20
12.588042
 40
0.104978
 50
152.721967
 51
180.0
  0
ARC
  8
ボルト／ビス
  6
CONTINUOUS
 62
    64
 10
110.614059
 20
12.73238
 40
0.402402
 50
166.165002
 51
193.834985
  0
LINE
  8
ボルト／ビス
  6
CONTINUOUS
 62
    64
 10
110.211655
 20
12.892757
 11
110.22333
 21
12.924833
  0
ARC
  8
ボルト／ビス
  6
CONTINUOUS
 62
    64
 10
110.316635
 20
12.876718
 40
0.104978
 50
180.0
 51
207.278033
  0
LINE
  8
ボルト／ビス
  6
CONTINUOUS
 62
    64
 10
110.211655
 20
12.572007
 11
110.211655
 21
12.892757
  0
LINE
  8
ボルト／ビス
  6
CONTINUOUS
 62
    64
 10
110.22333
 20
12.924833
 11
110.344985
 21
12.924833
  0
LINE
  8
ボルト／ビス
  6
CONTINUOUS
 62
    64
 10
110.22333
 20
12.828607
 11
110.344985
 21
12.828607
  0
LINE
  8
ボルト／ビス
  6
CONTINUOUS
 62
    64
 10
110.22333
 20
12.539933
 11
110.344985
 21
12.539933
  0
LINE
  8
ボルト／ビス
  6
CONTINUOUS
 62
    64
 10
110.22333
 20
12.636158
 11
110.344985
 21
12.636158
  0
LINE
  8
ボルト／ビス
  6
CONTINUOUS
 10
110.344985
 20
12.539933
 11
110.344985
 21
12.924833
  0
LINE
  8
ボルト／ビス
  6
CONTINUOUS
 10
110.344985
 20
12.532382
 11
110.411655
 21
12.532382
  0
LINE
  8
ボルト／ビス
  6
CONTINUOUS
 10
110.344985
 20
12.532382
 11
110.344985
 21
12.932382
  0
LINE
  8
ボルト／ビス
  6
CONTINUOUS
 10
110.344985
 20
12.932382
 11
110.411655
 21
12.932382
  0
ENDBLK
  0
BLOCK
  2
*GRP_0020
 70
    65
 10
0.0
 20
0.0
  0
LINE
  8
ボルト／ビス
  6
CONTINUOUS
 10
110.511655
 20
57.399052
 11
110.044985
 21
57.399052
  0
LINE
  8
ボルト／ビス
  6
CONTINUOUS
 10
110.511655
 20
57.76572
 11
110.444985
 21
57.76572
  0
LINE
  8
ボルト／ビス
  6
CONTINUOUS
 10
110.444985
 20
57.76572
 11
110.444985
 21
57.032385
  0
LINE
  8
ボルト／ビス
  6
CONTINUOUS
 10
110.444985
 20
57.032385
 11
110.511655
 21
57.032385
  0
LINE
  8
ボルト／ビス
  6
CONTINUOUS
 10
110.511655
 20
57.76572
 11
110.511655
 21
57.032385
  0
LINE
  8
ボルト／ビス
  6
CONTINUOUS
 10
110.411655
 20
57.699052
 11
110.444985
 21
57.699052
  0
LINE
  8
ボルト／ビス
  6
CONTINUOUS
 10
110.411655
 20
57.699052
 11
110.411655
 21
57.099052
  0
LINE
  8
ボルト／ビス
  6
CONTINUOUS
 10
110.411655
 20
57.099052
 11
110.444985
 21
57.099052
  0
LINE
  8
ボルト／ビス
  6
CONTINUOUS
 62
    64
 10
110.211655
 20
57.559427
 11
110.22333
 21
57.591503
  0
ARC
  8
ボルト／ビス
  6
CONTINUOUS
 62
    64
 10
110.316635
 20
57.54339
 40
0.104978
 50
180.0
 51
207.278033
  0
ARC
  8
ボルト／ビス
  6
CONTINUOUS
 62
    64
 10
110.614059
 20
57.399052
 40
0.402402
 50
166.165015
 51
193.834998
  0
LINE
  8
ボルト／ビス
  6
CONTINUOUS
 62
    64
 10
110.211655
 20
57.238678
 11
110.22333
 21
57.206603
  0
ARC
  8
ボルト／ビス
  6
CONTINUOUS
 62
    64
 10
110.316635
 20
57.254715
 40
0.104978
 50
152.721967
 51
180.0
  0
LINE
  8
ボルト／ビス
  6
CONTINUOUS
 62
    64
 10
110.211655
 20
57.559427
 11
110.211655
 21
57.238678
  0
LINE
  8
ボルト／ビス
  6
CONTINUOUS
 62
    64
 10
110.22333
 20
57.206603
 11
110.344985
 21
57.206603
  0
LINE
  8
ボルト／ビス
  6
CONTINUOUS
 62
    64
 10
110.22333
 20
57.302828
 11
110.344985
 21
57.302828
  0
LINE
  8
ボルト／ビス
  6
CONTINUOUS
 62
    64
 10
110.22333
 20
57.591503
 11
110.344985
 21
57.591503
  0
LINE
  8
ボルト／ビス
  6
CONTINUOUS
 62
    64
 10
110.22333
 20
57.495277
 11
110.344985
 21
57.495277
  0
LINE
  8
ボルト／ビス
  6
CONTINUOUS
 10
110.344985
 20
57.591503
 11
110.344985
 21
57.206603
  0
LINE
  8
ボルト／ビス
  6
CONTINUOUS
 10
110.344985
 20
57.599052
 11
110.411655
 21
57.599052
  0
LINE
  8
ボルト／ビス
  6
CONTINUOUS
 10
110.344985
 20
57.599052
 11
110.344985
 21
57.199052
  0
LINE
  8
ボルト／ビス
  6
CONTINUOUS
 10
110.344985
 20
57.199052
 11
110.411655
 21
57.199052
  0
ENDBLK
  0
BLOCK
  2
*GRP_0021
 70
    65
 10
0.0
 20
0.0
  0
INSERT
  2
*GRP_0022
  8
補助線
  6
CONTINUOUS
 10
0.0
 20
0.0
  0
CIRCLE
  8
別途部材
  6
CONTINUOUS
 10
113.51169
 20
57.932397
 40
0.2
  0
CIRCLE
  8
別途部材
  6
CONTINUOUS
 10
113.51169
 20
57.932397
 40
0.1
  0
LINE
  8
別途部材
  6
CONTINUOUS
 10
112.11169
 20
57.832397
 11
112.11169
 21
57.732397
  0
LINE
  8
別途部材
  6
CONTINUOUS
 10
113.51169
 20
57.732397
 11
112.11169
 21
57.732397
  0
LINE
  8
別途部材
  6
CONTINUOUS
 10
112.11169
 20
57.832397
 11
113.338485
 21
57.832397
  0
LINE
  8
別途部材
  6
CONTINUOUS
 10
114.91169
 20
57.832397
 11
114.91169
 21
57.732397
  0
LINE
  8
別途部材
  6
CONTINUOUS
 10
113.51169
 20
57.732397
 11
114.91169
 21
57.732397
  0
LINE
  8
別途部材
  6
CONTINUOUS
 10
114.91169
 20
57.832397
 11
113.684895
 21
57.832397
  0
LINE
  8
別途部材
  6
CONTINUOUS
 10
112.378355
 20
57.832397
 11
112.378355
 21
57.732397
  0
LINE
  8
別途部材
  6
CONTINUOUS
 10
112.645023
 20
57.832397
 11
112.645023
 21
57.732397
  0
LINE
  8
別途部材
  6
CONTINUOUS
 10
112.91169
 20
57.832397
 11
112.91169
 21
57.732397
  0
LINE
  8
別途部材
  6
CONTINUOUS
 10
114.645023
 20
57.832397
 11
114.645023
 21
57.732397
  0
LINE
  8
別途部材
  6
CONTINUOUS
 10
114.378355
 20
57.832397
 11
114.378355
 21
57.732397
  0
LINE
  8
別途部材
  6
CONTINUOUS
 10
114.11169
 20
57.832397
 11
114.11169
 21
57.732397
  0
ENDBLK
  0
BLOCK
  2
*GRP_0022
 70
    65
 10
0.0
 20
0.0
  0
LINE
  8
補助線
  6
BYBLOCK
 62
     0
 10
113.51169
 20
57.76573
 11
113.51169
 21
58.099063
  0
LINE
  8
補助線
  6
BYBLOCK
 62
     0
 10
113.345023
 20
57.932397
 11
113.678355
 21
57.932397
  0
ENDBLK
  0
BLOCK
  2
*DIM_0023
 70
    65
 10
0.0
 20
0.0
  0
LINE
  8
寸法
  6
CONTINUOUS
 10
119.011652
 20
64.232397
 11
119.011652
 21
70.020713
  0
LINE
  8
寸法
  6
CONTINUOUS
 10
116.011652
 20
58.732397
 11
116.011652
 21
70.020713
  0
LINE
  8
寸法
  6
CONTINUOUS
 10
119.011652
 20
70.020713
 11
116.011652
 21
70.020713
  0
POINT
  8
寸法
 10
119.011652
 20
70.020713
  0
POINT
  8
寸法
 10
116.011652
 20
70.020713
  0
TEXT
  7
TextStyle03
  8
寸法
  6
CONTINUOUS
 10
116.0
 20
70.375
  1
※
 40
3.0
 72
     5
 11
119.0
 21
70.375
  0
ENDBLK
  0
BLOCK
  2
*DIM_0024
 70
    65
 10
0.0
 20
0.0
  0
LINE
  8
寸法
  6
CONTINUOUS
 10
110.068355
 20
58.015688
 11
110.068355
 21
70.020713
  0
LINE
  8
寸法
  6
CONTINUOUS
 10
116.011652
 20
70.020713
 11
110.068355
 21
70.020713
  0
POINT
  8
寸法
 10
110.068355
 20
70.020713
  0
TEXT
  7
TextStyle03
  8
寸法
  6
CONTINUOUS
 10
100.05
 20
67.375
  1
178.3
 40
3.0
 72
     5
 11
108.3
 21
67.375
  0
ENDBLK
  0
BLOCK
  2
*DIM_0025
 70
    65
 10
0.0
 20
0.0
  0
LINE
  8
寸法
  6
CONTINUOUS
 10
115.67832
 20
6.899033
 11
73.197543
 21
6.899033
  0
LINE
  8
寸法
  6
CONTINUOUS
 10
73.197543
 20
13.399048
 11
73.197543
 21
6.899033
  0
POINT
  8
寸法
 10
73.197543
 20
13.399048
  0
POINT
  8
寸法
 10
73.197543
 20
6.899033
  0
TEXT
  7
TextStyle03
  8
寸法
  6
CONTINUOUS
 10
72.8
 20
8.625
  1
※
 40
3.0
 50
90.0
 72
     5
 11
72.8
 21
11.625
  0
ENDBLK
  0
BLOCK
  2
*DIM_0026
 70
    65
 10
0.0
 20
0.0
  0
LINE
  8
寸法
  6
CONTINUOUS
 10
115.67832
 20
63.232397
 11
73.197543
 21
63.232397
  0
LINE
  8
寸法
  6
CONTINUOUS
 10
73.197543
 20
56.732382
 11
73.197543
 21
63.232397
  0
POINT
  8
寸法
 10
73.197543
 20
56.732382
  0
POINT
  8
寸法
 10
73.197543
 20
63.232397
  0
TEXT
  7
TextStyle03
  8
寸法
  6
CONTINUOUS
 10
72.8
 20
58.475
  1
※
 40
3.0
 50
90.0
 72
     5
 11
72.8
 21
61.475
  0
ENDBLK
  0
BLOCK
  2
*DIM_0027
 70
    65
 10
0.0
 20
0.0
  0
LINE
  8
寸法
  6
CONTINUOUS
 10
73.197543
 20
56.732382
 11
73.197543
 21
13.399048
  0
POINT
  8
寸法
 10
73.197543
 20
56.732382
  0
POINT
  8
寸法
 10
73.197543
 20
13.399048
  0
TEXT
  7
TextStyle03
  8
寸法
  6
CONTINUOUS
 10
72.8
 20
23.33125
  1
呼称寸法　1300
 40
3.0
 50
90.0
 72
     5
 11
72.8
 21
46.76875
  0
ENDBLK
  0
BLOCK
  2
*DIM_0028
 70
    65
 10
0.0
 20
0.0
  0
LINE
  8
寸法
  6
BYBLOCK
 62
     0
 10
-103.66511
 20
65.124028
 11
-103.66511
 21
94.2321
  0
LINE
  8
寸法
  6
BYBLOCK
 62
     0
 10
-80.331778
 20
65.124028
 11
-80.331778
 21
94.2321
  0
LINE
  8
寸法
  6
BYBLOCK
 62
     0
 10
-103.66511
 20
94.2321
 11
-80.331778
 21
94.2321
  0
POINT
  8
寸法
 62
     0
 10
-103.66511
 20
94.2321
  0
POINT
  8
寸法
 62
     0
 10
-80.331778
 20
94.2321
  0
TEXT
  7
TextStyle03
  8
寸法
  6
CONTINUOUS
 62
     0
 10
-94.4375
 20
94.575
  1
700
 40
3.0
 72
     5
 11
-89.5625
 21
94.575
  0
ENDBLK
  0
BLOCK
  2
*DIM_0029
 70
    65
 10
0.0
 20
0.0
  0
LINE
  8
寸法
  6
BYBLOCK
 62
     0
 10
-56.998445
 20
65.124028
 11
-56.998445
 21
94.2321
  0
LINE
  8
寸法
  6
BYBLOCK
 62
     0
 10
-80.331778
 20
94.2321
 11
-56.998445
 21
94.2321
  0
POINT
  8
寸法
 62
     0
 10
-56.998445
 20
94.2321
  0
TEXT
  7
TextStyle03
  8
寸法
  6
CONTINUOUS
 62
     0
 10
-71.1125
 20
94.575
  1
700
 40
3.0
 72
     5
 11
-66.2375
 21
94.575
  0
ENDBLK
  0
BLOCK
  2
*DIM_0030
 70
    65
 10
0.0
 20
0.0
  0
LINE
  8
寸法
  6
BYBLOCK
 62
     0
 10
-33.66511
 20
65.124028
 11
-33.66511
 21
94.2321
  0
LINE
  8
寸法
  6
BYBLOCK
 62
     0
 10
-56.998445
 20
94.2321
 11
-33.66511
 21
94.2321
  0
POINT
  8
寸法
 62
     0
 10
-33.66511
 20
94.2321
  0
TEXT
  7
TextStyle03
  8
寸法
  6
CONTINUOUS
 62
     0
 10
-47.7875
 20
94.575
  1
700
 40
3.0
 72
     5
 11
-42.9125
 21
94.575
  0
ENDBLK
  0
BLOCK
  2
*DIM_0031
 70
    65
 10
0.0
 20
0.0
  0
LINE
  8
寸法
  6
BYBLOCK
 62
     0
 10
-10.331778
 20
65.124028
 11
-10.331778
 21
94.2321
  0
LINE
  8
寸法
  6
BYBLOCK
 62
     0
 10
-33.66511
 20
94.2321
 11
-10.331778
 21
94.2321
  0
POINT
  8
寸法
 62
     0
 10
-10.331778
 20
94.2321
  0
TEXT
  7
TextStyle03
  8
寸法
  6
CONTINUOUS
 62
     0
 10
-24.4375
 20
94.575
  1
700
 40
3.0
 72
     5
 11
-19.5625
 21
94.575
  0
ENDBLK
  0
BLOCK
  2
*DIM_0032
 70
    65
 10
0.0
 20
0.0
  0
LINE
  8
寸法
  6
BYBLOCK
 62
     0
 10
13.001555
 20
65.124028
 11
13.001555
 21
94.2321
  0
LINE
  8
寸法
  6
BYBLOCK
 62
     0
 10
-10.331778
 20
94.2321
 11
13.001555
 21
94.2321
  0
POINT
  8
寸法
 62
     0
 10
13.001555
 20
94.2321
  0
TEXT
  7
TextStyle03
  8
寸法
  6
CONTINUOUS
 62
     0
 10
-1.1125
 20
94.575
  1
700
 40
3.0
 72
     5
 11
3.7625
 21
94.575
  0
ENDBLK
  0
ENDSEC
  0
SECTION
  2
ENTITIES
  0
POLYLINE
  8
通り芯
  6
CONTINUOUS
 66
     1
 70
     1
  0
VERTEX
  8
通り芯
 10
-210.0
 20
-148.5
  0
VERTEX
  8
通り芯
 10
210.0
 20
-148.5
  0
VERTEX
  8
通り芯
 10
210.0
 20
148.5
  0
VERTEX
  8
通り芯
 10
-210.0
 20
148.5
  0
SEQEND
  0
INSERT
  2
*GRP_0001
  8
型材断面
  6
CONTINUOUS
 10
0.0
 20
0.0
  0
LINE
  8
型材断面
  6
DASHDOT
 10
21.33489
 20
-87.251428
 11
21.33489
 21
56.73238
  0
LINE
  8
型材断面
  6
DASHDOT
 10
-45.331778
 20
-87.251428
 11
-45.331778
 21
56.73238
  0
LINE
  8
型材断面
  6
DASHDOT
 10
-111.998442
 20
-87.251428
 11
-111.998442
 21
56.73238
  0
LINE
  8
型材断面
  6
DASHDOT
 10
119.011652
 20
13.399048
 11
-111.998442
 21
13.399048
  0
LINE
  8
型材断面
  6
DASHDOT
 10
119.011652
 20
56.73238
 11
-111.998442
 21
56.73238
  0
LINE
  8
型材断面
  6
DASHDOT
 10
119.011652
 20
35.065715
 11
-111.998442
 21
35.065715
  0
LINE
  8
型材断面
  6
CONTINUOUS
 10
-114.628572
 20
35.065715
 11
-117.21908
 21
36.561345
  0
LINE
  8
型材断面
  6
CONTINUOUS
 10
-114.628572
 20
35.065715
 11
-117.21908
 21
33.570085
  0
LINE
  8
型材断面
  6
CONTINUOUS
 10
-117.21908
 20
33.570085
 11
-117.21908
 21
36.561345
  0
LINE
  8
型材断面
  6
CONTINUOUS
 10
-95.331775
 20
59.36251
 11
-96.827405
 21
61.953017
  0
LINE
  8
型材断面
  6
CONTINUOUS
 10
-95.331775
 20
59.36251
 11
-93.836145
 21
61.953017
  0
LINE
  8
型材断面
  6
CONTINUOUS
 10
-93.836145
 20
61.953017
 11
-96.827405
 21
61.953017
  0
LINE
  8
型材断面
  6
CONTINUOUS
 10
-152.85065
 20
94.709852
 11
-152.254595
 21
92.119345
  0
LINE
  8
型材断面
  6
CONTINUOUS
 10
-152.85065
 20
94.709852
 11
-153.446707
 21
92.119345
  0
LINE
  8
型材断面
  6
CONTINUOUS
 10
-153.446707
 20
92.119345
 11
-152.254595
 21
92.119345
  0
LINE
  8
型材断面
  6
CONTINUOUS
 10
-158.873237
 20
88.840452
 11
-112.63146
 21
88.840452
  0
LINE
  8
型材断面
  6
CONTINUOUS
 10
-152.85065
 20
101.239727
 11
-154.34628
 21
98.64922
  0
LINE
  8
型材断面
  6
CONTINUOUS
 10
-152.85065
 20
101.239727
 11
-151.35502
 21
98.64922
  0
LINE
  8
型材断面
  6
CONTINUOUS
 10
-151.35502
 20
98.64922
 11
-154.34628
 21
98.64922
  0
LINE
  8
型材断面
  6
CONTINUOUS
 10
-158.873237
 20
97.710625
 11
-112.63146
 21
97.710625
  0
LINE
  8
型材断面
  6
CONTINUOUS
 10
-158.873237
 20
83.05242
 11
-112.63146
 21
83.05242
  0
LINE
  8
型材断面
  6
CONTINUOUS
 10
-95.331775
 20
10.76892
 11
-96.827405
 21
8.178413
  0
LINE
  8
型材断面
  6
CONTINUOUS
 10
-95.331775
 20
10.76892
 11
-93.836145
 21
8.178413
  0
LINE
  8
型材断面
  6
CONTINUOUS
 10
-93.836145
 20
8.178413
 11
-96.827405
 21
8.178413
  0
LINE
  8
型材断面
  6
CONTINUOUS
 10
23.965018
 20
35.065715
 11
26.555525
 21
36.561345
  0
LINE
  8
型材断面
  6
CONTINUOUS
 10
23.965018
 20
35.065715
 11
26.555525
 21
33.570085
  0
LINE
  8
型材断面
  6
CONTINUOUS
 10
26.555525
 20
33.570085
 11
26.555525
 21
36.561345
  0
LINE
  8
型材断面
  6
CONTINUOUS
 10
4.66822
 20
59.36251
 11
6.16385
 21
61.953017
  0
LINE
  8
型材断面
  6
CONTINUOUS
 10
4.66822
 20
59.36251
 11
3.17259
 21
61.953017
  0
LINE
  8
型材断面
  6
CONTINUOUS
 10
3.17259
 20
61.953017
 11
6.16385
 21
61.953017
  0
LINE
  8
型材断面
  6
CONTINUOUS
 10
4.66822
 20
10.76892
 11
6.16385
 21
8.178413
  0
LINE
  8
型材断面
  6
CONTINUOUS
 10
4.66822
 20
10.76892
 11
3.17259
 21
8.178413
  0
LINE
  8
型材断面
  6
CONTINUOUS
 10
3.17259
 20
8.178413
 11
6.16385
 21
8.178413
  0
LINE
  8
型材断面
  6
CONTINUOUS
 10
-118.498458
 20
6.899033
 11
-114.065113
 21
11.332378
  0
LINE
  8
型材断面
  6
CONTINUOUS
 10
23.401555
 20
11.332378
 11
27.8349
 21
6.899033
  0
LINE
  8
型材断面
  6
CONTINUOUS
 10
27.8349
 20
6.899033
 11
-118.498458
 21
6.899033
  0
LINE
  8
型材断面
  6
CONTINUOUS
 10
-114.065113
 20
58.79905
 11
-118.498458
 21
63.232395
  0
LINE
  8
型材断面
  6
CONTINUOUS
 10
-118.498458
 20
6.899033
 11
-118.498458
 21
63.232395
  0
LINE
  8
型材断面
  6
CONTINUOUS
 10
23.401555
 20
58.79905
 11
27.8349
 21
63.232395
  0
LINE
  8
型材断面
  6
CONTINUOUS
 10
27.8349
 20
63.232395
 11
27.8349
 21
6.899033
  0
LINE
  8
型材断面
  6
CONTINUOUS
 10
27.8349
 20
63.232395
 11
-118.498458
 21
63.232395
  0
POLYLINE
  8
型材断面
  6
DASHDOT
 66
     1
  0
VERTEX
  8
型材断面
 10
-111.998442
 20
13.399048
  0
VERTEX
  8
型材断面
 10
-45.331778
 20
56.73238
  0
VERTEX
  8
型材断面
 10
21.334885
 20
13.399048
  0
SEQEND
  0
LINE
  8
型材断面
  6
DASHDOT
 10
-45.331778
 20
56.73238
 11
-45.331778
 21
13.399048
  0
LINE
  8
型材断面
  6
DASHDOT
 10
-79.04011
 20
56.73238
 11
-79.04011
 21
13.399048
  0
LINE
  8
型材断面
  6
DASHDOT
 10
-11.623445
 20
56.73238
 11
-11.623445
 21
13.399048
  0
LINE
  8
型材断面
  6
DASHDOT
 10
-45.331778
 20
56.73238
 11
-45.331778
 21
13.399048
  0
LINE
  8
型材断面
  6
CONTINUOUS
 10
-113.665095
 20
11.732397
 11
-111.498425
 21
13.899067
  0
LINE
  8
型材断面
  6
CONTINUOUS
 10
-111.498425
 20
13.899067
 11
-111.498425
 21
56.232363
  0
LINE
  8
型材断面
  6
CONTINUOUS
 10
-112.281772
 20
13.11572
 11
-112.281772
 21
57.01571
  0
LINE
  8
型材断面
  6
CONTINUOUS
 10
-113.665095
 20
11.732397
 11
-113.665095
 21
58.399033
  0
LINE
  8
型材断面
  6
CONTINUOUS
 10
-113.665095
 20
58.399033
 11
-111.498425
 21
56.232363
  0
LINE
  8
型材断面
  6
CONTINUOUS
 10
20.83487
 20
13.899067
 11
23.00154
 21
11.732397
  0
LINE
  8
型材断面
  6
CONTINUOUS
 10
20.83487
 20
13.899067
 11
20.83487
 21
56.232363
  0
LINE
  8
型材断面
  6
CONTINUOUS
 10
21.618217
 20
13.11572
 11
21.618217
 21
57.01571
  0
LINE
  8
型材断面
  6
CONTINUOUS
 10
23.00154
 20
11.732397
 11
23.00154
 21
58.399033
  0
LINE
  8
型材断面
  6
CONTINUOUS
 10
20.83487
 20
56.232363
 11
23.00154
 21
58.399033
  0
LINE
  8
型材断面
  6
CONTINUOUS
 10
-111.498425
 20
13.899067
 11
20.83487
 21
13.899067
  0
LINE
  8
型材断面
  6
CONTINUOUS
 10
-112.281772
 20
13.11572
 11
21.618217
 21
13.11572
  0
LINE
  8
型材断面
  6
CONTINUOUS
 10
-113.665095
 20
11.732397
 11
23.00154
 21
11.732397
  0
LINE
  8
型材断面
  6
CONTINUOUS
 10
20.83487
 20
56.232363
 11
-111.498425
 21
56.232363
  0
LINE
  8
型材断面
  6
CONTINUOUS
 10
21.618217
 20
57.01571
 11
-112.281772
 21
57.01571
  0
LINE
  8
型材断面
  6
CONTINUOUS
 10
23.00154
 20
58.399033
 11
-113.665095
 21
58.399033
  0
LINE
  8
型材断面
  6
CONTINUOUS
 62
    47
 10
-112.998452
 20
-82.751428
 11
-112.998452
 21
-84.651468
  0
LINE
  8
型材断面
  6
CONTINUOUS
 10
-112.998452
 20
-84.851468
 11
-112.998452
 21
-87.251428
  0
LINE
  8
型材断面
  6
CONTINUOUS
 10
-112.998452
 20
-87.251428
 11
-118.498452
 21
-87.918098
  0
LINE
  8
型材断面
  6
CONTINUOUS
 10
-118.498452
 20
-90.251428
 11
-118.498452
 21
-87.918098
  0
LINE
  8
型材断面
  6
CONTINUOUS
 62
    47
 10
22.334905
 20
-82.751428
 11
22.334905
 21
-84.651468
  0
LINE
  8
型材断面
  6
CONTINUOUS
 10
22.334905
 20
-84.851468
 11
22.334905
 21
-87.251428
  0
LINE
  8
型材断面
  6
CONTINUOUS
 10
22.334905
 20
-87.251428
 11
27.834905
 21
-87.918098
  0
LINE
  8
型材断面
  6
CONTINUOUS
 10
27.834905
 20
-90.251428
 11
27.834905
 21
-87.918098
  0
LINE
  8
型材断面
  6
CONTINUOUS
 10
-118.498452
 20
-90.251428
 11
27.834905
 21
-90.251428
  0
LINE
  8
型材断面
  6
CONTINUOUS
 10
-118.498452
 20
-87.918098
 11
27.834905
 21
-87.918098
  0
LINE
  8
型材断面
  6
CONTINUOUS
 10
22.334905
 20
-84.651468
 11
-112.998452
 21
-84.651468
  0
LINE
  8
型材断面
  6
CONTINUOUS
 10
22.334905
 20
-84.851468
 11
-112.998452
 21
-84.851468
  0
LINE
  8
型材断面
  6
CONTINUOUS
 10
22.334905
 20
-87.251428
 11
-112.998452
 21
-87.251428
  0
LINE
  8
型材断面
  6
CONTINUOUS
 10
-45.331778
 20
-87.251428
 11
-45.331772
 21
-90.251428
  0
LINE
  8
型材断面
  6
CONTINUOUS
 10
-112.28175
 20
-81.801545
 11
-112.28175
 21
-81.30813
  0
LINE
  8
型材断面
  6
CONTINUOUS
 10
-113.665073
 20
-81.801545
 11
-113.665073
 21
-82.468213
  0
LINE
  8
型材断面
  6
CONTINUOUS
 10
20.834893
 20
-81.30813
 11
21.56824
 21
-81.30813
  0
LINE
  8
型材断面
  6
CONTINUOUS
 10
21.61824
 20
-81.801545
 11
21.61824
 21
-81.30813
  0
LINE
  8
型材断面
  6
CONTINUOUS
 10
23.001562
 20
-81.801545
 11
23.001562
 21
-82.468213
  0
LINE
  8
型材断面
  6
CONTINUOUS
 10
-112.28175
 20
-81.30813
 11
21.61824
 21
-81.30813
  0
LINE
  8
型材断面
  6
CONTINUOUS
 10
-113.665073
 20
-81.801545
 11
23.001562
 21
-81.801545
  0
LINE
  8
型材断面
  6
CONTINUOUS
 10
-113.665073
 20
-82.468213
 11
23.001562
 21
-82.468213
  0
LINE
  8
型材断面
  6
CONTINUOUS
 10
119.011652
 20
63.232397
 11
119.011652
 21
6.899033
  0
LINE
  8
型材断面
  6
CONTINUOUS
 10
116.67832
 20
63.232397
 11
116.67832
 21
6.899033
  0
LINE
  8
型材断面
  6
CONTINUOUS
 62
    47
 10
111.511652
 20
12.399033
 11
113.41169
 21
12.399033
  0
LINE
  8
型材断面
  6
CONTINUOUS
 10
113.61169
 20
12.399033
 11
116.011652
 21
12.399033
  0
LINE
  8
型材断面
  6
CONTINUOUS
 10
116.011652
 20
12.399033
 11
116.67832
 21
6.899033
  0
LINE
  8
型材断面
  6
CONTINUOUS
 10
119.011652
 20
6.899033
 11
116.67832
 21
6.899033
  0
LINE
  8
型材断面
  6
CONTINUOUS
 62
    47
 10
111.511652
 20
57.732397
 11
113.41169
 21
57.732397
  0
LINE
  8
型材断面
  6
CONTINUOUS
 10
113.61169
 20
57.732397
 11
116.011652
 21
57.732397
  0
LINE
  8
型材断面
  6
CONTINUOUS
 10
116.011652
 20
57.732397
 11
116.67832
 21
63.232397
  0
LINE
  8
型材断面
  6
CONTINUOUS
 10
119.011652
 20
63.232397
 11
116.67832
 21
63.232397
  0
LINE
  8
型材断面
  6
CONTINUOUS
 10
113.41169
 20
12.399033
 11
113.41169
 21
57.732397
  0
LINE
  8
型材断面
  6
CONTINUOUS
 10
113.61169
 20
12.399033
 11
113.61169
 21
57.732397
  0
LINE
  8
型材断面
  6
CONTINUOUS
 10
116.011652
 20
12.399033
 11
116.011652
 21
57.732397
  0
ARC
  8
型材断面
  6
DASHDOT
 10
113.511693
 20
57.932395
 40
46.297318
 50
221.284665
 51
266.284665
  0
LINE
  8
型材断面
  6
CONTINUOUS
 10
110.56177
 20
57.015688
 11
110.068355
 21
57.015688
  0
LINE
  8
型材断面
  6
CONTINUOUS
 10
110.56177
 20
58.39901
 11
111.228437
 21
58.39901
  0
LINE
  8
型材断面
  6
CONTINUOUS
 10
110.56177
 20
13.115697
 11
110.068355
 21
13.115697
  0
LINE
  8
型材断面
  6
CONTINUOUS
 10
110.068355
 20
57.015688
 11
110.068355
 21
13.115697
  0
LINE
  8
型材断面
  6
CONTINUOUS
 10
110.56177
 20
58.39901
 11
110.56177
 21
11.732378
  0
LINE
  8
型材断面
  6
CONTINUOUS
 10
110.56177
 20
11.732378
 11
111.228437
 21
11.732378
  0
LINE
  8
型材断面
  6
CONTINUOUS
 10
111.228437
 20
58.39901
 11
111.228437
 21
11.732378
  0
INSERT
  2
*GRP_0018
  8
型材断面
  6
DASHDOT
 10
0.0
 20
0.0
  0
LINE
  8
型材断面
  6
CONTINUOUS
 10
-80.206778
 20
14.7324
 11
-77.873442
 21
14.7324
  0
LINE
  8
型材断面
  6
CONTINUOUS
 10
-80.206778
 20
14.7324
 11
-80.206778
 21
55.399033
  0
LINE
  8
型材断面
  6
CONTINUOUS
 10
-80.206778
 20
55.399033
 11
-77.873442
 21
55.399033
  0
LINE
  8
型材断面
  6
CONTINUOUS
 10
-77.873442
 20
14.7324
 11
-77.873442
 21
55.399033
  0
LINE
  8
型材断面
  6
CONTINUOUS
 10
-78.706778
 20
14.7324
 11
-78.706778
 21
55.399033
  0
LINE
  8
型材断面
  6
CONTINUOUS
 10
-79.373442
 20
14.7324
 11
-79.373442
 21
55.399033
  0
LINE
  8
型材断面
  6
CONTINUOUS
 10
-46.498445
 20
14.7324
 11
-44.16511
 21
14.7324
  0
LINE
  8
型材断面
  6
CONTINUOUS
 10
-46.498445
 20
14.7324
 11
-46.498445
 21
55.399033
  0
LINE
  8
型材断面
  6
CONTINUOUS
 10
-46.498445
 20
55.399033
 11
-44.16511
 21
55.399033
  0
LINE
  8
型材断面
  6
CONTINUOUS
 10
-44.16511
 20
14.7324
 11
-44.16511
 21
55.399033
  0
LINE
  8
型材断面
  6
CONTINUOUS
 10
-44.998445
 20
14.7324
 11
-44.998445
 21
55.399033
  0
LINE
  8
型材断面
  6
CONTINUOUS
 10
-45.66511
 20
14.7324
 11
-45.66511
 21
55.399033
  0
LINE
  8
型材断面
  6
CONTINUOUS
 10
-12.790113
 20
14.7324
 11
-10.456778
 21
14.7324
  0
LINE
  8
型材断面
  6
CONTINUOUS
 10
-12.790113
 20
14.7324
 11
-12.790113
 21
55.399033
  0
LINE
  8
型材断面
  6
CONTINUOUS
 10
-12.790113
 20
55.399033
 11
-10.456778
 21
55.399033
  0
LINE
  8
型材断面
  6
CONTINUOUS
 10
-10.456778
 20
14.7324
 11
-10.456778
 21
55.399033
  0
LINE
  8
型材断面
  6
CONTINUOUS
 10
-11.290113
 20
14.7324
 11
-11.290113
 21
55.399033
  0
LINE
  8
型材断面
  6
CONTINUOUS
 10
-11.956778
 20
14.7324
 11
-11.956778
 21
55.399033
  0
LINE
  8
型材断面
  6
CONTINUOUS
 10
-45.33178
 20
63.232395
 11
-45.33178
 21
58.399033
  0
LINE
  8
型材断面
  6
CONTINUOUS
 10
-45.33178
 20
6.899035
 11
-45.33178
 21
11.732397
  0
LINE
  8
ガラス
  6
CONTINUOUS
 10
117.878105
 20
-39.739412
 11
85.668105
 21
-39.739412
  0
LINE
  8
ガラス
  6
CONTINUOUS
 10
117.878105
 20
-39.739412
 11
117.878105
 21
-83.072745
  0
LINE
  8
ガラス
  6
CONTINUOUS
 10
85.668105
 20
-39.739412
 11
85.668105
 21
-83.072745
  0
LINE
  8
ガラス
  6
CONTINUOUS
 10
117.878105
 20
-83.072745
 11
85.668105
 21
-83.072745
  0
LINE
  8
ガラス
  6
CONTINUOUS
 10
-93.49404
 20
37.696675
 11
-98.75597
 21
32.434748
  0
LINE
  8
ガラス
  6
CONTINUOUS
 10
-94.80639
 20
33.747095
 11
-97.44362
 21
36.384338
  0
LINE
  8
ガラス
  6
CONTINUOUS
 10
-96.51248
 20
33.807995
 11
-94.479447
 21
35.841028
  0
LINE
  8
ガラス
  6
CONTINUOUS
 10
-95.737537
 20
36.323435
 11
-97.77056
 21
34.290405
  0
LINE
  8
ガラス
  6
CONTINUOUS
 10
-59.49404
 20
37.696675
 11
-64.75597
 21
32.434748
  0
LINE
  8
ガラス
  6
CONTINUOUS
 10
-60.80639
 20
33.747095
 11
-63.44362
 21
36.384338
  0
LINE
  8
ガラス
  6
CONTINUOUS
 10
-62.51248
 20
33.807995
 11
-60.479447
 21
35.841028
  0
LINE
  8
ガラス
  6
CONTINUOUS
 10
-61.737537
 20
36.323435
 11
-63.77056
 21
34.290405
  0
LINE
  8
ガラス
  6
CONTINUOUS
 10
-25.61904
 20
37.696675
 11
-30.88097
 21
32.434748
  0
LINE
  8
ガラス
  6
CONTINUOUS
 10
-26.93139
 20
33.747095
 11
-29.56862
 21
36.384338
  0
LINE
  8
ガラス
  6
CONTINUOUS
 10
-28.63748
 20
33.807995
 11
-26.604447
 21
35.841028
  0
LINE
  8
ガラス
  6
CONTINUOUS
 10
-27.862537
 20
36.323435
 11
-29.89556
 21
34.290405
  0
LINE
  8
ガラス
  6
CONTINUOUS
 10
7.88096
 20
37.696675
 11
2.61903
 21
32.434748
  0
LINE
  8
ガラス
  6
CONTINUOUS
 10
6.56861
 20
33.747095
 11
3.93138
 21
36.384338
  0
LINE
  8
ガラス
  6
CONTINUOUS
 10
4.86252
 20
33.807995
 11
6.895552
 21
35.841028
  0
LINE
  8
ガラス
  6
CONTINUOUS
 10
5.637463
 20
36.323435
 11
3.60444
 21
34.290405
  0
TEXT
  7
TextStyle03
  8
文字
  6
CONTINUOUS
 10
78.1
 20
125.25
  1
シリーズ：ＳＴＦＦＨＬ
 40
5.0
 72
     5
 11
139.35
 21
125.25
  0
TEXT
  7
TextStyle03
  8
文字
  6
CONTINUOUS
 10
78.1
 20
119.625
  1
　　　　　（片側開閉）1300×4000タイプ
 40
5.0
 72
     5
 11
184.35
 21
119.625
  0
TEXT
  7
TextStyle03
  8
文字
  6
CONTINUOUS
 10
78.1
 20
114.0
  1
図面名　：外観姿図
 40
5.0
 72
     5
 11
128.1
 21
114.0
  0
TEXT
  7
TextStyle03
  8
文字
  6
CONTINUOUS
 10
78.1
 20
108.375
  1
　　　　　　
 40
5.0
 72
     5
 11
111.225
 21
108.375
  0
TEXT
  7
TextStyle03
  8
文字
  6
CONTINUOUS
 10
-150.05
 20
98.85
  1
は排水穴位置を示す
 40
3.0
 72
     5
 11
-120.05
 21
98.85
  0
TEXT
  7
TextStyle03
  8
文字
  6
CONTINUOUS
 10
-150.05
 20
93.325
  1
はケーシング位置を示す
 40
3.0
 72
     5
 11
-113.3
 21
93.325
  0
TEXT
  7
TextStyle03
  8
文字
  6
CONTINUOUS
 10
-150.05
 20
89.95
  1
２ヶ所中1ヶ所に設定
 40
3.0
 72
     5
 11
-118.3625
 21
89.95
  0
TEXT
  7
TextStyle03
  8
文字
  6
CONTINUOUS
 10
-149.6
 20
23.975
  1
アンカーピッチ
 40
3.0
 50
90.0
 72
     5
 11
-149.6
 21
47.225
  0
TEXT
  7
TextStyle03
  8
文字
  6
CONTINUOUS
 10
-153.775
 20
83.975
  1
アンカー数量　１６ヶ所
 40
3.0
 72
     5
 11
-117.025
 21
83.975
  0
TEXT
  7
TextStyle03
  8
文字
  6
CONTINUOUS
 10
30.1
 20
-98.45
  1
※は物件対応寸法
 40
3.0
 72
     5
 11
56.725
 21
-98.45
  0
TEXT
  7
TextStyle03
  8
文字
  6
CONTINUOUS
 10
99.05
 20
-76.075
  1
網入り6.8t
 40
3.0
 72
     5
 11
115.7375
 21
-76.075
  0
TEXT
  7
TextStyle03
  8
文字
  6
CONTINUOUS
 10
105.725
 20
-80.75
  1
×４枚
 40
3.0
 72
     5
 11
115.475
 21
-80.75
  0
TEXT
  7
TextStyle03
  8
文字
  6
CONTINUOUS
 10
84.75
 20
13.95
  1
45°
 40
3.0
 50
90.0
 72
     5
 11
84.75
 21
20.325
  0
TEXT
  7
TextStyle03
  8
文字
  6
CONTINUOUS
 10
-103.9
 20
100.125
  1
アンカーピッチ
 40
3.0
 72
     5
 11
-80.65
 21
100.125
  0
INSERT
  2
*DIM_0002
  8
寸法
  6
CONTINUOUS
 10
0.0
 20
0.0
  0
INSERT
  2
*DIM_0008
  8
寸法
  6
CONTINUOUS
 10
0.0
 20
0.0
  0
INSERT
  2
*DIM_0009
  8
寸法
  6
CONTINUOUS
 10
0.0
 20
0.0
  0
INSERT
  2
*DIM_0010
  8
寸法
  6
CONTINUOUS
 10
0.0
 20
0.0
  0
INSERT
  2
*DIM_0011
  8
寸法
  6
CONTINUOUS
 10
0.0
 20
0.0
  0
INSERT
  2
*DIM_0014
  8
寸法
  6
CONTINUOUS
 10
0.0
 20
0.0
  0
INSERT
  2
*DIM_0015
  8
寸法
  6
CONTINUOUS
 10
0.0
 20
0.0
  0
INSERT
  2
*DIM_0016
  8
寸法
  6
CONTINUOUS
 10
0.0
 20
0.0
  0
INSERT
  2
*DIM_0017
  8
寸法
  6
CONTINUOUS
 10
0.0
 20
0.0
  0
INSERT
  2
*DIM_0023
  8
寸法
  6
CONTINUOUS
 10
0.0
 20
0.0
  0
INSERT
  2
*DIM_0024
  8
寸法
  6
CONTINUOUS
 10
0.0
 20
0.0
  0
INSERT
  2
*DIM_0025
  8
寸法
  6
CONTINUOUS
 10
0.0
 20
0.0
  0
INSERT
  2
*DIM_0026
  8
寸法
  6
CONTINUOUS
 10
0.0
 20
0.0
  0
INSERT
  2
*DIM_0027
  8
寸法
  6
CONTINUOUS
 10
0.0
 20
0.0
  0
INSERT
  2
*DIM_0028
  8
寸法
  6
CONTINUOUS
 10
0.0
 20
0.0
  0
INSERT
  2
*DIM_0029
  8
寸法
  6
CONTINUOUS
 10
0.0
 20
0.0
  0
INSERT
  2
*DIM_0030
  8
寸法
  6
CONTINUOUS
 10
0.0
 20
0.0
  0
INSERT
  2
*DIM_0031
  8
寸法
  6
CONTINUOUS
 10
0.0
 20
0.0
  0
INSERT
  2
*DIM_0032
  8
寸法
  6
CONTINUOUS
 10
0.0
 20
0.0
  0
INSERT
  2
*GRP_0012
  8
別途部材
  6
DOT
 10
0.0
 20
0.0
  0
INSERT
  2
*GRP_0013
  8
別途部材
  6
DOT
 10
0.0
 20
0.0
  0
INSERT
  2
*GRP_0019
  8
別途部材
  6
DOT
 10
0.0
 20
0.0
  0
INSERT
  2
*GRP_0020
  8
別途部材
  6
DOT
 10
0.0
 20
0.0
  0
INSERT
  2
*GRP_0021
  8
別途部材
  6
CONTINUOUS
 10
0.0
 20
0.0
  0
ENDSEC
  0
EOF
