  0
SECTION
  2
HEADER
  9
$EXTMIN
 10
-210.0
 20
-148.5
  9
$EXTMAX
 10
210.0
 20
148.5
  9
$PDMODE
 70
    32
  9
$PDSIZE
 40
1.5
  9
$LTSCALE
 40
10.0
  0
ENDSEC
  0
SECTION
  2
TABLES
  0
TABLE
  2
LTYPE
 70
    15
  0
LTYPE
  2
CONTINUOUS
 70
    64
  3
実線
 72
    65
 73
     0
 40
0.0
  0
LTYPE
  2
DASHED
 70
    64
  3
破線A
 72
    65
 73
     2
 40
0.6
 49
0.4
 49
-0.2
  0
LTYPE
  2
DASHEDX2
 70
    64
  3
破線B
 72
    65
 73
     2
 40
1.3
 49
0.9
 49
-0.4
  0
LTYPE
  2
DASHDOT
 70
    64
  3
１点鎖線A
 72
    65
 73
     4
 40
0.5375
 49
0.375
 49
-0.05
 49
0.0625
 49
-0.05
  0
LTYPE
  2
DASHDOTX2
 70
    64
  3
１点鎖線B
 72
    65
 73
     4
 40
1.075
 49
0.75
 49
-0.1
 49
0.125
 49
-0.1
  0
LTYPE
  2
DIVIDE2
 70
    64
  3
２点鎖線A
 72
    65
 73
     6
 40
0.5125
 49
0.3
 49
-0.0375
 49
0.05
 49
-0.0375
 49
0.05
 49
-0.0375
  0
LTYPE
  2
DIVIDE
 70
    64
  3
２点鎖線B
 72
    65
 73
     6
 40
1.05
 49
0.55
 49
-0.1
 49
0.1
 49
-0.1
 49
0.1
 49
-0.1
  0
LTYPE
  2
DOT
 70
    64
  3
点線A
 72
    65
 73
     2
 40
0.1125
 49
0.0625
 49
-0.05
  0
LTYPE
  2
DOTX2
 70
    64
  3
点線B
 72
    65
 73
     2
 40
0.275
 49
0.15
 49
-0.125
  0
LTYPE
  2
CONTINUOUS
 70
    64
  3
実線
 72
    65
 73
     0
 40
0.0
  0
LTYPE
  2
CONTINUOUS
 70
    64
  3
実線
 72
    65
 73
     0
 40
0.0
  0
LTYPE
  2
CONTINUOUS
 70
    64
  3
実線
 72
    65
 73
     0
 40
0.0
  0
LTYPE
  2
CONTINUOUS
 70
    64
  3
実線
 72
    65
 73
     0
 40
0.0
  0
LTYPE
  2
CONTINUOUS
 70
    64
  3
実線
 72
    65
 73
     0
 40
0.0
  0
LTYPE
  2
CONTINUOUS
 70
    64
  3
実線
 72
    65
 73
     0
 40
0.0
  0
ENDTAB
  0
TABLE
  2
LAYER
 70
    34
  0
LAYER
  2
通り芯
 70
     0
 62
    15
  6
CONTINUOUS
  0
LAYER
  2
補助線
 70
     0
 62
    16
  6
DOT
  0
LAYER
  2
躯体
 70
     0
 62
    31
  6
CONTINUOUS
  0
LAYER
  2
型材
 70
     0
 62
    32
  6
CONTINUOUS
  0
LAYER
  2
型材断面
 70
     0
 62
    47
  6
CONTINUOUS
  0
LAYER
  2
ガラス
 70
     0
 62
    48
  6
CONTINUOUS
  0
LAYER
  2
ゴム等
 70
     0
 62
    63
  6
CONTINUOUS
  0
LAYER
  2
ボルト／ビス
 70
     0
 62
    64
  6
CONTINUOUS
  0
LAYER
  2
文字
 70
     0
 62
    79
  6
CONTINUOUS
  0
LAYER
  2
寸法
 70
     0
 62
    80
  6
CONTINUOUS
  0
LAYER
  2
ﾊｯﾁﾝｸﾞ
 70
     0
 62
    95
  6
CONTINUOUS
  0
LAYER
  2
別途部材
 70
     0
 62
    96
  6
CONTINUOUS
  0
LAYER
  2
曲げ物
 70
     0
 62
   111
  6
CONTINUOUS
  0
LAYER
  2
鉄骨等
 70
     0
 62
   112
  6
CONTINUOUS
  0
LAYER
  2
St
 70
     0
 62
   127
  6
CONTINUOUS
  0
LAYER
  2
その他部品等
 70
     0
 62
   128
  6
CONTINUOUS
  0
LAYER
  2
ｶﾞｽｹｯﾄ
 70
     0
 62
   143
  6
CONTINUOUS
  0
LAYER
  2
ｽｹｯﾁ
 70
     0
 62
    14
  6
CONTINUOUS
  0
LAYER
  2
0
 70
     0
 62
    17
  6
CONTINUOUS
  0
LAYER
  2
1
 70
     0
 62
    30
  6
CONTINUOUS
  0
LAYER
  2
4
 70
     0
 62
    33
  6
CONTINUOUS
  0
LAYER
  2
ﾚｲﾔ3
 70
     0
 62
    46
  6
CONTINUOUS
  0
LAYER
  2
外形線
 70
     0
 62
    49
  6
CONTINUOUS
  0
LAYER
  2
部品
 70
     0
 62
    14
  6
CONTINUOUS
  0
LAYER
  2
サッシ芯
 70
     0
 62
    17
  6
DASHDOTX2
  0
LAYER
  2
寸法線
 70
     0
 62
    62
  6
CONTINUOUS
  0
LAYER
  2
姿図外形線
 70
     0
 62
    65
  6
CONTINUOUS
  0
LAYER
  2
姿補助線
 70
     0
 62
    30
  6
CONTINUOUS
  0
LAYER
  2
透視線
 70
     0
 62
    78
  6
DOT
  0
LAYER
  2
用紙
 70
     0
 62
    81
  6
CONTINUOUS
  0
LAYER
  2
実線図枠
 70
     0
 62
    94
  6
CONTINUOUS
  0
LAYER
  2
補助図枠
 70
     0
 62
    97
  6
CONTINUOUS
  0
LAYER
  2
建具記号
 70
     0
 62
   110
  6
CONTINUOUS
  0
LAYER
  2
補助文字
 70
     0
 62
   113
  6
CONTINUOUS
  0
ENDTAB
  0
TABLE
  2
STYLE
 70
    10
  0
STYLE
  2
STANDARD
 70
     0
 40
1.0
 41
1.0
 42
1.0
 50
0.0
 71
     0
  3
TXT
  4
BIGFONT
  0
STYLE
  2
TATE
 70
     4
 40
1.0
 41
1.0
 42
1.0
 50
0.0
 71
     0
  3
TXT
  4
BIGFONT
  0
STYLE
  2
TextStyle03
 70
     0
 40
1.0
 41
1.0
 42
1.0
 50
0.0
 71
     0
  3
MONOTXT
  4
BIGFONT
  0
STYLE
  2
TextStyle04
 70
     0
 40
1.0
 41
1.0
 42
1.0
 50
0.0
 71
     0
  3
MONOTXT
  4
BIGFONT
  0
STYLE
  2
TextStyle05
 70
     0
 40
1.0
 41
1.0
 42
1.0
 50
0.0
 71
     0
  3
MONOTXT
  4
BIGFONT
  0
STYLE
  2
TextStyle06
 70
     0
 40
1.0
 41
1.0
 42
1.0
 50
0.0
 71
     0
  3
MONOTXT
  4
BIGFONT
  0
STYLE
  2
TextStyle07
 70
     0
 40
1.0
 41
1.0
 42
1.0
 50
0.0
 71
     0
  3
MONOTXT
  4
BIGFONT
  0
STYLE
  2
TextStyle08
 70
     0
 40
1.0
 41
1.0
 42
1.0
 50
0.0
 71
     0
  3
MONOTXT
  4
BIGFONT
  0
STYLE
  2
TextStyle09
 70
     0
 40
1.0
 41
1.0
 42
1.0
 50
0.0
 71
     0
  3
MONOTXT
  4
BIGFONT
  0
STYLE
  2
TextStyle10
 70
     0
 40
1.0
 41
1.0
 42
1.0
 50
0.0
 71
     0
  3
MONOTXT
  4
BIGFONT
  0
ENDTAB
  0
ENDSEC
  0
SECTION
  2
BLOCKS
  0
BLOCK
  2
*GRP_0001
 70
    65
 10
0.0
 20
0.0
  0
LINE
  8
型材断面
  6
CONTINUOUS
 10
195.0
 20
133.5
 11
195.0
 21
-133.5
  0
LINE
  8
型材断面
  6
CONTINUOUS
 10
195.0
 20
-133.5
 11
-185.0
 21
-133.5
  0
LINE
  8
型材断面
  6
CONTINUOUS
 10
-185.0
 20
-133.5
 11
-185.0
 21
133.5
  0
LINE
  8
型材断面
  6
CONTINUOUS
 10
195.0
 20
133.5
 11
-185.0
 21
133.5
  0
LINE
  8
型材断面
  6
CONTINUOUS
 10
145.0
 20
-133.5
 11
145.0
 21
-118.5
  0
LINE
  8
型材断面
  6
CONTINUOUS
 10
195.0
 20
-118.5
 11
145.0
 21
-118.5
  0
ENDBLK
  0
BLOCK
  2
*DIM_0002
 70
    65
 10
0.0
 20
0.0
  0
LINE
  8
寸法
  6
BYBLOCK
 62
     0
 10
-98.331778
 20
23.399048
 11
-127.276943
 21
23.399048
  0
LINE
  8
寸法
  6
BYBLOCK
 62
     0
 10
-98.331778
 20
46.732382
 11
-127.276943
 21
46.732382
  0
LINE
  8
寸法
  6
BYBLOCK
 62
     0
 10
-127.276943
 20
23.399048
 11
-127.276943
 21
46.732382
  0
POINT
  8
寸法
 62
     0
 10
-127.276943
 20
23.399048
  0
POINT
  8
寸法
 62
     0
 10
-127.276943
 20
46.732382
  0
TEXT
  7
TextStyle03
  8
寸法
  6
CONTINUOUS
 62
     0
 10
-127.725
 20
32.6125
  1
700
 40
3.0
 50
90.0
 72
     5
 11
-127.725
 21
37.4875
  0
ENDBLK
  0
BLOCK
  2
*DIM_0007
 70
    65
 10
0.0
 20
0.0
  0
LINE
  8
寸法
  6
BYBLOCK
 62
     0
 10
-78.66511
 20
4.57333
 11
-78.66511
 21
-0.643617
  0
LINE
  8
寸法
  6
BYBLOCK
 62
     0
 10
4.668225
 20
4.57333
 11
4.668225
 21
-0.643617
  0
LINE
  8
寸法
  6
BYBLOCK
 62
     0
 10
-78.66511
 20
-0.643617
 11
4.668225
 21
-0.643617
  0
POINT
  8
寸法
 62
     0
 10
-78.66511
 20
-0.643617
  0
POINT
  8
寸法
 62
     0
 10
4.668225
 20
-0.643617
  0
TEXT
  7
TextStyle03
  8
寸法
  6
CONTINUOUS
 62
     0
 10
-40.28125
 20
-0.25
  1
2500
 40
3.0
 72
     5
 11
-33.71875
 21
-0.25
  0
ENDBLK
  0
BLOCK
  2
*DIM_0008
 70
    65
 10
0.0
 20
0.0
  0
LINE
  8
寸法
  6
CONTINUOUS
 10
119.623543
 20
-36.352753
 11
119.623543
 21
-26.998225
  0
LINE
  8
寸法
  6
CONTINUOUS
 10
75.07021
 20
-36.352753
 11
75.07021
 21
-26.998225
  0
LINE
  8
寸法
  6
CONTINUOUS
 10
119.623543
 20
-26.998225
 11
75.07021
 21
-26.998225
  0
POINT
  8
寸法
 10
119.623543
 20
-26.998225
  0
POINT
  8
寸法
 10
75.07021
 20
-26.998225
  0
TEXT
  7
TextStyle03
  8
寸法
  6
CONTINUOUS
 10
92.40625
 20
-26.625
  1
1336.6
 40
3.0
 72
     5
 11
102.34375
 21
-26.625
  0
ENDBLK
  0
BLOCK
  2
*DIM_0009
 70
    65
 10
0.0
 20
0.0
  0
LINE
  8
寸法
  6
CONTINUOUS
 10
120.623543
 20
-37.352753
 11
129.59925
 21
-37.352753
  0
LINE
  8
寸法
  6
CONTINUOUS
 10
120.623543
 20
-80.686085
 11
129.59925
 21
-80.686085
  0
LINE
  8
寸法
  6
CONTINUOUS
 10
129.59925
 20
-37.352753
 11
129.59925
 21
-80.686085
  0
POINT
  8
寸法
 10
129.59925
 20
-37.352753
  0
POINT
  8
寸法
 10
129.59925
 20
-80.686085
  0
TEXT
  7
TextStyle03
  8
寸法
  6
CONTINUOUS
 10
129.2
 20
-62.30625
  1
1300
 40
3.0
 50
90.0
 72
     5
 11
129.2
 21
-55.74375
  0
ENDBLK
  0
BLOCK
  2
*GRP_0010
 70
    65
 10
0.0
 20
0.0
  0
LINE
  8
型材断面
  6
DOT
 62
    47
 10
79.9005
 20
27.149688
 11
81.24403
 21
25.806157
  0
LINE
  8
型材断面
  6
DOT
 62
    47
 10
111.95603
 20
59.205218
 11
113.29956
 21
57.861687
  0
LINE
  8
型材断面
  6
DOT
 10
81.24403
 20
25.806157
 11
113.29956
 21
57.861687
  0
LINE
  8
型材断面
  6
DOT
 10
110.777572
 20
59.370095
 11
110.428675
 21
59.718993
  0
LINE
  8
型材断面
  6
DOT
 10
111.755727
 20
60.34825
 11
112.227132
 21
59.876848
  0
LINE
  8
型材断面
  6
DOT
 10
79.73559
 20
28.328112
 11
79.386695
 21
28.677012
  0
LINE
  8
型材断面
  6
DOT
 10
110.428675
 20
59.718993
 11
79.386695
 21
28.677012
  0
LINE
  8
型材断面
  6
DOT
 10
111.755727
 20
60.34825
 11
78.757435
 21
27.349957
  0
LINE
  8
型材断面
  6
DOT
 10
78.757435
 20
27.349957
 11
79.22884
 21
26.878552
  0
LINE
  8
型材断面
  6
DOT
 10
112.227132
 20
59.876848
 11
79.22884
 21
26.878552
  0
ENDBLK
  0
BLOCK
  2
*GRP_0011
 70
    65
 10
0.0
 20
0.0
  0
LINE
  8
ボルト／ビス
  6
CONTINUOUS
 10
110.511655
 20
12.732382
 11
110.044985
 21
12.732382
  0
LINE
  8
ボルト／ビス
  6
CONTINUOUS
 10
110.511655
 20
12.365712
 11
110.444985
 21
12.365712
  0
LINE
  8
ボルト／ビス
  6
CONTINUOUS
 10
110.444985
 20
12.365712
 11
110.444985
 21
13.099048
  0
LINE
  8
ボルト／ビス
  6
CONTINUOUS
 10
110.444985
 20
13.099048
 11
110.511655
 21
13.099048
  0
LINE
  8
ボルト／ビス
  6
CONTINUOUS
 10
110.511655
 20
12.365712
 11
110.511655
 21
13.099048
  0
LINE
  8
ボルト／ビス
  6
CONTINUOUS
 10
110.411655
 20
12.432382
 11
110.444985
 21
12.432382
  0
LINE
  8
ボルト／ビス
  6
CONTINUOUS
 10
110.411655
 20
12.432382
 11
110.411655
 21
13.032382
  0
LINE
  8
ボルト／ビス
  6
CONTINUOUS
 10
110.411655
 20
13.032382
 11
110.444985
 21
13.032382
  0
LINE
  8
ボルト／ビス
  6
CONTINUOUS
 62
    64
 10
110.211655
 20
12.572007
 11
110.22333
 21
12.539933
  0
ARC
  8
ボルト／ビス
  6
CONTINUOUS
 62
    64
 10
110.316635
 20
12.588042
 40
0.104978
 50
152.721967
 51
180.0
  0
ARC
  8
ボルト／ビス
  6
CONTINUOUS
 62
    64
 10
110.614059
 20
12.73238
 40
0.402402
 50
166.165002
 51
193.834985
  0
LINE
  8
ボルト／ビス
  6
CONTINUOUS
 62
    64
 10
110.211655
 20
12.892757
 11
110.22333
 21
12.924833
  0
ARC
  8
ボルト／ビス
  6
CONTINUOUS
 62
    64
 10
110.316635
 20
12.876718
 40
0.104978
 50
180.0
 51
207.278033
  0
LINE
  8
ボルト／ビス
  6
CONTINUOUS
 62
    64
 10
110.211655
 20
12.572007
 11
110.211655
 21
12.892757
  0
LINE
  8
ボルト／ビス
  6
CONTINUOUS
 62
    64
 10
110.22333
 20
12.924833
 11
110.344985
 21
12.924833
  0
LINE
  8
ボルト／ビス
  6
CONTINUOUS
 62
    64
 10
110.22333
 20
12.828607
 11
110.344985
 21
12.828607
  0
LINE
  8
ボルト／ビス
  6
CONTINUOUS
 62
    64
 10
110.22333
 20
12.539933
 11
110.344985
 21
12.539933
  0
LINE
  8
ボルト／ビス
  6
CONTINUOUS
 62
    64
 10
110.22333
 20
12.636158
 11
110.344985
 21
12.636158
  0
LINE
  8
ボルト／ビス
  6
CONTINUOUS
 10
110.344985
 20
12.539933
 11
110.344985
 21
12.924833
  0
LINE
  8
ボルト／ビス
  6
CONTINUOUS
 10
110.344985
 20
12.532382
 11
110.411655
 21
12.532382
  0
LINE
  8
ボルト／ビス
  6
CONTINUOUS
 10
110.344985
 20
12.532382
 11
110.344985
 21
12.932382
  0
LINE
  8
ボルト／ビス
  6
CONTINUOUS
 10
110.344985
 20
12.932382
 11
110.411655
 21
12.932382
  0
ENDBLK
  0
BLOCK
  2
*GRP_0012
 70
    65
 10
0.0
 20
0.0
  0
LINE
  8
ボルト／ビス
  6
CONTINUOUS
 10
110.511655
 20
57.399052
 11
110.044985
 21
57.399052
  0
LINE
  8
ボルト／ビス
  6
CONTINUOUS
 10
110.511655
 20
57.76572
 11
110.444985
 21
57.76572
  0
LINE
  8
ボルト／ビス
  6
CONTINUOUS
 10
110.444985
 20
57.76572
 11
110.444985
 21
57.032385
  0
LINE
  8
ボルト／ビス
  6
CONTINUOUS
 10
110.444985
 20
57.032385
 11
110.511655
 21
57.032385
  0
LINE
  8
ボルト／ビス
  6
CONTINUOUS
 10
110.511655
 20
57.76572
 11
110.511655
 21
57.032385
  0
LINE
  8
ボルト／ビス
  6
CONTINUOUS
 10
110.411655
 20
57.699052
 11
110.444985
 21
57.699052
  0
LINE
  8
ボルト／ビス
  6
CONTINUOUS
 10
110.411655
 20
57.699052
 11
110.411655
 21
57.099052
  0
LINE
  8
ボルト／ビス
  6
CONTINUOUS
 10
110.411655
 20
57.099052
 11
110.444985
 21
57.099052
  0
LINE
  8
ボルト／ビス
  6
CONTINUOUS
 62
    64
 10
110.211655
 20
57.559427
 11
110.22333
 21
57.591503
  0
ARC
  8
ボルト／ビス
  6
CONTINUOUS
 62
    64
 10
110.316635
 20
57.54339
 40
0.104978
 50
180.0
 51
207.278033
  0
ARC
  8
ボルト／ビス
  6
CONTINUOUS
 62
    64
 10
110.614059
 20
57.399052
 40
0.402402
 50
166.165015
 51
193.834998
  0
LINE
  8
ボルト／ビス
  6
CONTINUOUS
 62
    64
 10
110.211655
 20
57.238678
 11
110.22333
 21
57.206603
  0
ARC
  8
ボルト／ビス
  6
CONTINUOUS
 62
    64
 10
110.316635
 20
57.254715
 40
0.104978
 50
152.721967
 51
180.0
  0
LINE
  8
ボルト／ビス
  6
CONTINUOUS
 62
    64
 10
110.211655
 20
57.559427
 11
110.211655
 21
57.238678
  0
LINE
  8
ボルト／ビス
  6
CONTINUOUS
 62
    64
 10
110.22333
 20
57.206603
 11
110.344985
 21
57.206603
  0
LINE
  8
ボルト／ビス
  6
CONTINUOUS
 62
    64
 10
110.22333
 20
57.302828
 11
110.344985
 21
57.302828
  0
LINE
  8
ボルト／ビス
  6
CONTINUOUS
 62
    64
 10
110.22333
 20
57.591503
 11
110.344985
 21
57.591503
  0
LINE
  8
ボルト／ビス
  6
CONTINUOUS
 62
    64
 10
110.22333
 20
57.495277
 11
110.344985
 21
57.495277
  0
LINE
  8
ボルト／ビス
  6
CONTINUOUS
 10
110.344985
 20
57.591503
 11
110.344985
 21
57.206603
  0
LINE
  8
ボルト／ビス
  6
CONTINUOUS
 10
110.344985
 20
57.599052
 11
110.411655
 21
57.599052
  0
LINE
  8
ボルト／ビス
  6
CONTINUOUS
 10
110.344985
 20
57.599052
 11
110.344985
 21
57.199052
  0
LINE
  8
ボルト／ビス
  6
CONTINUOUS
 10
110.344985
 20
57.199052
 11
110.411655
 21
57.199052
  0
ENDBLK
  0
BLOCK
  2
*GRP_0013
 70
    65
 10
0.0
 20
0.0
  0
INSERT
  2
*GRP_0014
  8
補助線
  6
CONTINUOUS
 10
0.0
 20
0.0
  0
CIRCLE
  8
別途部材
  6
CONTINUOUS
 10
113.51169
 20
57.932397
 40
0.2
  0
CIRCLE
  8
別途部材
  6
CONTINUOUS
 10
113.51169
 20
57.932397
 40
0.1
  0
LINE
  8
別途部材
  6
CONTINUOUS
 10
112.11169
 20
57.832397
 11
112.11169
 21
57.732397
  0
LINE
  8
別途部材
  6
CONTINUOUS
 10
113.51169
 20
57.732397
 11
112.11169
 21
57.732397
  0
LINE
  8
別途部材
  6
CONTINUOUS
 10
112.11169
 20
57.832397
 11
113.338485
 21
57.832397
  0
LINE
  8
別途部材
  6
CONTINUOUS
 10
114.91169
 20
57.832397
 11
114.91169
 21
57.732397
  0
LINE
  8
別途部材
  6
CONTINUOUS
 10
113.51169
 20
57.732397
 11
114.91169
 21
57.732397
  0
LINE
  8
別途部材
  6
CONTINUOUS
 10
114.91169
 20
57.832397
 11
113.684895
 21
57.832397
  0
LINE
  8
別途部材
  6
CONTINUOUS
 10
112.378355
 20
57.832397
 11
112.378355
 21
57.732397
  0
LINE
  8
別途部材
  6
CONTINUOUS
 10
112.645023
 20
57.832397
 11
112.645023
 21
57.732397
  0
LINE
  8
別途部材
  6
CONTINUOUS
 10
112.91169
 20
57.832397
 11
112.91169
 21
57.732397
  0
LINE
  8
別途部材
  6
CONTINUOUS
 10
114.645023
 20
57.832397
 11
114.645023
 21
57.732397
  0
LINE
  8
別途部材
  6
CONTINUOUS
 10
114.378355
 20
57.832397
 11
114.378355
 21
57.732397
  0
LINE
  8
別途部材
  6
CONTINUOUS
 10
114.11169
 20
57.832397
 11
114.11169
 21
57.732397
  0
ENDBLK
  0
BLOCK
  2
*GRP_0014
 70
    65
 10
0.0
 20
0.0
  0
LINE
  8
補助線
  6
BYBLOCK
 62
     0
 10
113.51169
 20
57.76573
 11
113.51169
 21
58.099063
  0
LINE
  8
補助線
  6
BYBLOCK
 62
     0
 10
113.345023
 20
57.932397
 11
113.678355
 21
57.932397
  0
ENDBLK
  0
BLOCK
  2
*DIM_0015
 70
    65
 10
0.0
 20
0.0
  0
LINE
  8
寸法
  6
CONTINUOUS
 10
119.011652
 20
64.232397
 11
119.011652
 21
70.020713
  0
LINE
  8
寸法
  6
CONTINUOUS
 10
116.011652
 20
58.732397
 11
116.011652
 21
70.020713
  0
LINE
  8
寸法
  6
CONTINUOUS
 10
119.011652
 20
70.020713
 11
116.011652
 21
70.020713
  0
POINT
  8
寸法
 10
119.011652
 20
70.020713
  0
POINT
  8
寸法
 10
116.011652
 20
70.020713
  0
TEXT
  7
TextStyle03
  8
寸法
  6
CONTINUOUS
 10
116.0
 20
70.375
  1
※
 40
3.0
 72
     5
 11
119.0
 21
70.375
  0
ENDBLK
  0
BLOCK
  2
*DIM_0016
 70
    65
 10
0.0
 20
0.0
  0
LINE
  8
寸法
  6
CONTINUOUS
 10
110.068355
 20
58.015688
 11
110.068355
 21
70.020713
  0
LINE
  8
寸法
  6
CONTINUOUS
 10
116.011652
 20
70.020713
 11
110.068355
 21
70.020713
  0
POINT
  8
寸法
 10
110.068355
 20
70.020713
  0
TEXT
  7
TextStyle03
  8
寸法
  6
CONTINUOUS
 10
100.05
 20
67.375
  1
178.3
 40
3.0
 72
     5
 11
108.3
 21
67.375
  0
ENDBLK
  0
BLOCK
  2
*DIM_0017
 70
    65
 10
0.0
 20
0.0
  0
LINE
  8
寸法
  6
CONTINUOUS
 10
115.67832
 20
6.899033
 11
73.197543
 21
6.899033
  0
LINE
  8
寸法
  6
CONTINUOUS
 10
73.197543
 20
13.399048
 11
73.197543
 21
6.899033
  0
POINT
  8
寸法
 10
73.197543
 20
13.399048
  0
POINT
  8
寸法
 10
73.197543
 20
6.899033
  0
TEXT
  7
TextStyle03
  8
寸法
  6
CONTINUOUS
 10
72.8
 20
8.625
  1
※
 40
3.0
 50
90.0
 72
     5
 11
72.8
 21
11.625
  0
ENDBLK
  0
BLOCK
  2
*DIM_0018
 70
    65
 10
0.0
 20
0.0
  0
LINE
  8
寸法
  6
CONTINUOUS
 10
115.67832
 20
63.232397
 11
73.197543
 21
63.232397
  0
LINE
  8
寸法
  6
CONTINUOUS
 10
73.197543
 20
56.732382
 11
73.197543
 21
63.232397
  0
POINT
  8
寸法
 10
73.197543
 20
56.732382
  0
POINT
  8
寸法
 10
73.197543
 20
63.232397
  0
TEXT
  7
TextStyle03
  8
寸法
  6
CONTINUOUS
 10
72.8
 20
58.475
  1
※
 40
3.0
 50
90.0
 72
     5
 11
72.8
 21
61.475
  0
ENDBLK
  0
BLOCK
  2
*DIM_0019
 70
    65
 10
0.0
 20
0.0
  0
LINE
  8
寸法
  6
CONTINUOUS
 10
73.197543
 20
56.732382
 11
73.197543
 21
13.399048
  0
POINT
  8
寸法
 10
73.197543
 20
56.732382
  0
POINT
  8
寸法
 10
73.197543
 20
13.399048
  0
TEXT
  7
TextStyle03
  8
寸法
  6
CONTINUOUS
 10
72.8
 20
23.33125
  1
呼称寸法　1300
 40
3.0
 50
90.0
 72
     5
 11
72.8
 21
46.76875
  0
ENDBLK
  0
BLOCK
  2
*DIM_0020
 70
    65
 10
0.0
 20
0.0
  0
LINE
  8
寸法
  6
BYBLOCK
 62
     0
 10
-95.331778
 20
-28.05302
 11
-95.331778
 21
-24.663192
  0
LINE
  8
寸法
  6
BYBLOCK
 62
     0
 10
21.33489
 20
-24.663192
 11
-95.331778
 21
-24.663192
  0
POINT
  8
寸法
 62
     0
 10
21.33489
 20
-24.663192
  0
POINT
  8
寸法
 62
     0
 10
-95.331778
 20
-24.663192
  0
TEXT
  7
TextStyle03
  8
寸法
  6
CONTINUOUS
 62
     0
 10
-48.71875
 20
-24.275
  1
呼称寸法　3500
 40
3.0
 72
     5
 11
-25.28125
 21
-24.275
  0
ENDBLK
  0
BLOCK
  2
*GRP_0021
 70
    65
 10
0.0
 20
0.0
  0
LINE
  8
ボルト／ビス
  6
CONTINUOUS
 10
-95.99844
 20
-81.75142
 11
-95.99844
 21
-81.284753
  0
LINE
  8
ボルト／ビス
  6
CONTINUOUS
 10
-95.631772
 20
-81.75142
 11
-95.631772
 21
-81.684753
  0
LINE
  8
ボルト／ビス
  6
CONTINUOUS
 10
-95.631772
 20
-81.684753
 11
-96.365107
 21
-81.684753
  0
LINE
  8
ボルト／ビス
  6
CONTINUOUS
 10
-96.365107
 20
-81.684753
 11
-96.365107
 21
-81.75142
  0
LINE
  8
ボルト／ビス
  6
CONTINUOUS
 10
-95.631772
 20
-81.75142
 11
-96.365107
 21
-81.75142
  0
LINE
  8
ボルト／ビス
  6
CONTINUOUS
 10
-95.69844
 20
-81.65142
 11
-95.69844
 21
-81.684753
  0
LINE
  8
ボルト／ビス
  6
CONTINUOUS
 10
-95.69844
 20
-81.65142
 11
-96.29844
 21
-81.65142
  0
LINE
  8
ボルト／ビス
  6
CONTINUOUS
 10
-96.29844
 20
-81.65142
 11
-96.29844
 21
-81.684753
  0
LINE
  8
ボルト／ビス
  6
CONTINUOUS
 62
    64
 10
-95.838065
 20
-81.45142
 11
-95.80599
 21
-81.463095
  0
ARC
  8
ボルト／ビス
  6
CONTINUOUS
 62
    64
 10
-95.854102
 20
-81.5564
 40
0.104978
 50
90.0
 51
117.278033
  0
ARC
  8
ボルト／ビス
  6
CONTINUOUS
 62
    64
 10
-95.99844
 20
-81.853824
 40
0.402402
 50
76.165015
 51
103.834998
  0
LINE
  8
ボルト／ビス
  6
CONTINUOUS
 62
    64
 10
-96.158815
 20
-81.45142
 11
-96.19089
 21
-81.463095
  0
ARC
  8
ボルト／ビス
  6
CONTINUOUS
 62
    64
 10
-96.142777
 20
-81.5564
 40
0.104978
 50
62.721967
 51
90.0
  0
LINE
  8
ボルト／ビス
  6
CONTINUOUS
 62
    64
 10
-95.838065
 20
-81.45142
 11
-96.158815
 21
-81.45142
  0
LINE
  8
ボルト／ビス
  6
CONTINUOUS
 62
    64
 10
-96.19089
 20
-81.463095
 11
-96.19089
 21
-81.584753
  0
LINE
  8
ボルト／ビス
  6
CONTINUOUS
 62
    64
 10
-96.094665
 20
-81.463095
 11
-96.094665
 21
-81.584753
  0
LINE
  8
ボルト／ビス
  6
CONTINUOUS
 62
    64
 10
-95.80599
 20
-81.463095
 11
-95.80599
 21
-81.584753
  0
LINE
  8
ボルト／ビス
  6
CONTINUOUS
 62
    64
 10
-95.902215
 20
-81.463095
 11
-95.902215
 21
-81.584753
  0
LINE
  8
ボルト／ビス
  6
CONTINUOUS
 10
-95.80599
 20
-81.584753
 11
-96.19089
 21
-81.584753
  0
LINE
  8
ボルト／ビス
  6
CONTINUOUS
 10
-95.79844
 20
-81.584753
 11
-95.79844
 21
-81.65142
  0
LINE
  8
ボルト／ビス
  6
CONTINUOUS
 10
-95.79844
 20
-81.584753
 11
-96.19844
 21
-81.584753
  0
LINE
  8
ボルト／ビス
  6
CONTINUOUS
 10
-96.19844
 20
-81.584753
 11
-96.19844
 21
-81.65142
  0
ENDBLK
  0
BLOCK
  2
*GRP_0022
 70
    65
 10
0.0
 20
0.0
  0
LINE
  8
ボルト／ビス
  6
CONTINUOUS
 10
22.001562
 20
-81.751425
 11
22.001562
 21
-81.284757
  0
LINE
  8
ボルト／ビス
  6
CONTINUOUS
 10
22.36823
 20
-81.751425
 11
22.36823
 21
-81.684757
  0
LINE
  8
ボルト／ビス
  6
CONTINUOUS
 10
22.36823
 20
-81.684757
 11
21.634895
 21
-81.684757
  0
LINE
  8
ボルト／ビス
  6
CONTINUOUS
 10
21.634895
 20
-81.684757
 11
21.634895
 21
-81.751425
  0
LINE
  8
ボルト／ビス
  6
CONTINUOUS
 10
22.36823
 20
-81.751425
 11
21.634895
 21
-81.751425
  0
LINE
  8
ボルト／ビス
  6
CONTINUOUS
 10
22.301562
 20
-81.651425
 11
22.301562
 21
-81.684757
  0
LINE
  8
ボルト／ビス
  6
CONTINUOUS
 10
22.301562
 20
-81.651425
 11
21.701563
 21
-81.651425
  0
LINE
  8
ボルト／ビス
  6
CONTINUOUS
 10
21.701563
 20
-81.651425
 11
21.701563
 21
-81.684757
  0
LINE
  8
ボルト／ビス
  6
CONTINUOUS
 62
    64
 10
22.161938
 20
-81.451425
 11
22.194012
 21
-81.4631
  0
ARC
  8
ボルト／ビス
  6
CONTINUOUS
 62
    64
 10
22.1459
 20
-81.556405
 40
0.104978
 50
90.0
 51
117.278033
  0
ARC
  8
ボルト／ビス
  6
CONTINUOUS
 62
    64
 10
22.001563
 20
-81.853829
 40
0.402402
 50
76.165015
 51
103.834998
  0
LINE
  8
ボルト／ビス
  6
CONTINUOUS
 62
    64
 10
21.841187
 20
-81.451425
 11
21.809113
 21
-81.4631
  0
ARC
  8
ボルト／ビス
  6
CONTINUOUS
 62
    64
 10
21.857225
 20
-81.556405
 40
0.104978
 50
62.721967
 51
90.0
  0
LINE
  8
ボルト／ビス
  6
CONTINUOUS
 62
    64
 10
22.161938
 20
-81.451425
 11
21.841187
 21
-81.451425
  0
LINE
  8
ボルト／ビス
  6
CONTINUOUS
 62
    64
 10
21.809113
 20
-81.4631
 11
21.809113
 21
-81.584757
  0
LINE
  8
ボルト／ビス
  6
CONTINUOUS
 62
    64
 10
21.905337
 20
-81.4631
 11
21.905337
 21
-81.584757
  0
LINE
  8
ボルト／ビス
  6
CONTINUOUS
 62
    64
 10
22.194012
 20
-81.4631
 11
22.194012
 21
-81.584757
  0
LINE
  8
ボルト／ビス
  6
CONTINUOUS
 62
    64
 10
22.097788
 20
-81.4631
 11
22.097788
 21
-81.584757
  0
LINE
  8
ボルト／ビス
  6
CONTINUOUS
 10
22.194012
 20
-81.584757
 11
21.809113
 21
-81.584757
  0
LINE
  8
ボルト／ビス
  6
CONTINUOUS
 10
22.201563
 20
-81.584757
 11
22.201563
 21
-81.651425
  0
LINE
  8
ボルト／ビス
  6
CONTINUOUS
 10
22.201563
 20
-81.584757
 11
21.801562
 21
-81.584757
  0
LINE
  8
ボルト／ビス
  6
CONTINUOUS
 10
21.801562
 20
-81.584757
 11
21.801562
 21
-81.651425
  0
ENDBLK
  0
BLOCK
  2
*DIM_0023
 70
    65
 10
0.0
 20
0.0
  0
LINE
  8
寸法
  6
CONTINUOUS
 10
28.834902
 20
-90.251428
 11
37.30454
 21
-90.251428
  0
LINE
  8
寸法
  6
CONTINUOUS
 10
37.30454
 20
-87.251428
 11
37.30454
 21
-90.251428
  0
POINT
  8
寸法
 10
37.30454
 20
-90.251428
  0
TEXT
  7
TextStyle03
  8
寸法
  6
CONTINUOUS
 10
36.925
 20
-90.25
  1
※
 40
3.0
 50
90.0
 72
     5
 11
36.925
 21
-87.25
  0
ENDBLK
  0
BLOCK
  2
*DIM_0024
 70
    65
 10
0.0
 20
0.0
  0
LINE
  8
寸法
  6
CONTINUOUS
 10
27.834902
 20
-86.918098
 11
27.834902
 21
-24.663192
  0
LINE
  8
寸法
  6
CONTINUOUS
 10
21.33489
 20
-24.663192
 11
27.834902
 21
-24.663192
  0
POINT
  8
寸法
 10
21.33489
 20
-24.663192
  0
POINT
  8
寸法
 10
27.834902
 20
-24.663192
  0
TEXT
  7
TextStyle03
  8
寸法
  6
CONTINUOUS
 10
23.075
 20
-24.275
  1
※
 40
3.0
 72
     5
 11
26.075
 21
-24.275
  0
ENDBLK
  0
BLOCK
  2
*DIM_0025
 70
    65
 10
0.0
 20
0.0
  0
LINE
  8
寸法
  6
CONTINUOUS
 10
-101.83179
 20
-86.918098
 11
-101.83179
 21
-24.663192
  0
LINE
  8
寸法
  6
CONTINUOUS
 10
-95.331778
 20
-24.663192
 11
-101.83179
 21
-24.663192
  0
POINT
  8
寸法
 10
-95.331778
 20
-24.663192
  0
POINT
  8
寸法
 10
-101.83179
 20
-24.663192
  0
TEXT
  7
TextStyle03
  8
寸法
  6
CONTINUOUS
 10
-100.075
 20
-24.275
  1
※
 40
3.0
 72
     5
 11
-97.075
 21
-24.275
  0
ENDBLK
  0
BLOCK
  2
*DIM_0026
 70
    65
 10
0.0
 20
0.0
  0
LINE
  8
寸法
  6
CONTINUOUS
 10
23.334902
 20
-87.251428
 11
37.30454
 21
-87.251428
  0
LINE
  8
寸法
  6
CONTINUOUS
 10
22.568238
 20
-81.30813
 11
37.30454
 21
-81.30813
  0
LINE
  8
寸法
  6
CONTINUOUS
 10
37.30454
 20
-87.251428
 11
37.30454
 21
-81.30813
  0
POINT
  8
寸法
 10
37.30454
 20
-87.251428
  0
POINT
  8
寸法
 10
37.30454
 20
-81.30813
  0
TEXT
  7
TextStyle03
  8
寸法
  6
CONTINUOUS
 10
41.2
 20
-88.575
  1
178.3
 40
3.0
 50
90.0
 72
     5
 11
41.2
 21
-80.325
  0
ENDBLK
  0
BLOCK
  2
*DIM_0027
 70
    65
 10
0.0
 20
0.0
  0
LINE
  8
寸法
  6
BYBLOCK
 62
     0
 10
-90.331775
 20
66.88187
 11
-90.331775
 21
95.989942
  0
LINE
  8
寸法
  6
BYBLOCK
 62
     0
 10
-63.66511
 20
66.88187
 11
-63.66511
 21
95.989942
  0
LINE
  8
寸法
  6
BYBLOCK
 62
     0
 10
-90.331775
 20
95.989942
 11
-63.66511
 21
95.989942
  0
POINT
  8
寸法
 62
     0
 10
-90.331775
 20
95.989942
  0
POINT
  8
寸法
 62
     0
 10
-63.66511
 20
95.989942
  0
TEXT
  7
TextStyle03
  8
寸法
  6
CONTINUOUS
 62
     0
 10
-79.4375
 20
96.325
  1
800
 40
3.0
 72
     5
 11
-74.5625
 21
96.325
  0
ENDBLK
  0
BLOCK
  2
*DIM_0028
 70
    65
 10
0.0
 20
0.0
  0
LINE
  8
寸法
  6
BYBLOCK
 62
     0
 10
-36.998442
 20
66.88187
 11
-36.998442
 21
95.989942
  0
LINE
  8
寸法
  6
BYBLOCK
 62
     0
 10
-63.66511
 20
95.989942
 11
-36.998442
 21
95.989942
  0
POINT
  8
寸法
 62
     0
 10
-36.998442
 20
95.989942
  0
TEXT
  7
TextStyle03
  8
寸法
  6
CONTINUOUS
 62
     0
 10
-52.7875
 20
96.325
  1
800
 40
3.0
 72
     5
 11
-47.9125
 21
96.325
  0
ENDBLK
  0
BLOCK
  2
*DIM_0029
 70
    65
 10
0.0
 20
0.0
  0
LINE
  8
寸法
  6
BYBLOCK
 62
     0
 10
-10.331775
 20
66.88187
 11
-10.331775
 21
95.989942
  0
LINE
  8
寸法
  6
BYBLOCK
 62
     0
 10
-36.998442
 20
95.989942
 11
-10.331775
 21
95.989942
  0
POINT
  8
寸法
 62
     0
 10
-10.331775
 20
95.989942
  0
TEXT
  7
TextStyle03
  8
寸法
  6
CONTINUOUS
 62
     0
 10
-26.1125
 20
96.325
  1
800
 40
3.0
 72
     5
 11
-21.2375
 21
96.325
  0
ENDBLK
  0
BLOCK
  2
*DIM_0030
 70
    65
 10
0.0
 20
0.0
  0
LINE
  8
寸法
  6
BYBLOCK
 62
     0
 10
16.33489
 20
66.88187
 11
16.33489
 21
95.989942
  0
LINE
  8
寸法
  6
BYBLOCK
 62
     0
 10
-10.331775
 20
95.989942
 11
16.33489
 21
95.989942
  0
POINT
  8
寸法
 62
     0
 10
16.33489
 20
95.989942
  0
TEXT
  7
TextStyle03
  8
寸法
  6
CONTINUOUS
 62
     0
 10
0.5625
 20
96.325
  1
800
 40
3.0
 72
     5
 11
5.4375
 21
96.325
  0
ENDBLK
  0
ENDSEC
  0
SECTION
  2
ENTITIES
  0
POLYLINE
  8
通り芯
  6
CONTINUOUS
 66
     1
 70
     1
  0
VERTEX
  8
通り芯
 10
-210.0
 20
-148.5
  0
VERTEX
  8
通り芯
 10
210.0
 20
-148.5
  0
VERTEX
  8
通り芯
 10
210.0
 20
148.5
  0
VERTEX
  8
通り芯
 10
-210.0
 20
148.5
  0
SEQEND
  0
INSERT
  2
*GRP_0001
  8
型材断面
  6
CONTINUOUS
 10
0.0
 20
0.0
  0
LINE
  8
型材断面
  6
DASHDOT
 10
21.33489
 20
-87.251428
 11
21.33489
 21
56.73238
  0
LINE
  8
型材断面
  6
DASHDOT
 10
-36.998442
 20
-87.251428
 11
-36.998442
 21
56.73238
  0
LINE
  8
型材断面
  6
DASHDOT
 10
-95.331778
 20
-87.251428
 11
-95.331778
 21
56.73238
  0
LINE
  8
型材断面
  6
DASHDOT
 10
119.011652
 20
13.399048
 11
-95.331778
 21
13.399048
  0
LINE
  8
型材断面
  6
DASHDOT
 10
119.011652
 20
35.065715
 11
-95.331778
 21
35.065715
  0
LINE
  8
型材断面
  6
DASHDOT
 10
119.011652
 20
56.73238
 11
-95.331778
 21
56.73238
  0
LINE
  8
型材断面
  6
CONTINUOUS
 10
-97.961907
 20
35.065715
 11
-100.552415
 21
36.561345
  0
LINE
  8
型材断面
  6
CONTINUOUS
 10
-97.961907
 20
35.065715
 11
-100.552415
 21
33.570085
  0
LINE
  8
型材断面
  6
CONTINUOUS
 10
-100.552415
 20
33.570085
 11
-100.552415
 21
36.561345
  0
LINE
  8
型材断面
  6
CONTINUOUS
 10
-78.66511
 20
59.36251
 11
-80.16074
 21
61.953017
  0
LINE
  8
型材断面
  6
CONTINUOUS
 10
-78.66511
 20
59.36251
 11
-77.16948
 21
61.953017
  0
LINE
  8
型材断面
  6
CONTINUOUS
 10
-77.16948
 20
61.953017
 11
-80.16074
 21
61.953017
  0
LINE
  8
型材断面
  6
CONTINUOUS
 10
-136.183985
 20
94.709852
 11
-135.58793
 21
92.119345
  0
LINE
  8
型材断面
  6
CONTINUOUS
 10
-136.183985
 20
94.709852
 11
-136.780043
 21
92.119345
  0
LINE
  8
型材断面
  6
CONTINUOUS
 10
-136.780043
 20
92.119345
 11
-135.58793
 21
92.119345
  0
LINE
  8
型材断面
  6
CONTINUOUS
 10
-142.206573
 20
88.840452
 11
-95.964795
 21
88.840452
  0
LINE
  8
型材断面
  6
CONTINUOUS
 10
-136.183985
 20
101.239727
 11
-137.679615
 21
98.64922
  0
LINE
  8
型材断面
  6
CONTINUOUS
 10
-136.183985
 20
101.239727
 11
-134.688355
 21
98.64922
  0
LINE
  8
型材断面
  6
CONTINUOUS
 10
-134.688355
 20
98.64922
 11
-137.679615
 21
98.64922
  0
LINE
  8
型材断面
  6
CONTINUOUS
 10
-142.206573
 20
97.710625
 11
-95.964795
 21
97.710625
  0
LINE
  8
型材断面
  6
CONTINUOUS
 10
-142.206573
 20
83.05242
 11
-95.964795
 21
83.05242
  0
LINE
  8
型材断面
  6
CONTINUOUS
 10
-78.66511
 20
10.76892
 11
-80.16074
 21
8.178413
  0
LINE
  8
型材断面
  6
CONTINUOUS
 10
-78.66511
 20
10.76892
 11
-77.16948
 21
8.178413
  0
LINE
  8
型材断面
  6
CONTINUOUS
 10
-77.16948
 20
8.178413
 11
-80.16074
 21
8.178413
  0
LINE
  8
型材断面
  6
CONTINUOUS
 10
23.965022
 20
35.065715
 11
26.55553
 21
36.561345
  0
LINE
  8
型材断面
  6
CONTINUOUS
 10
23.965022
 20
35.065715
 11
26.55553
 21
33.570085
  0
LINE
  8
型材断面
  6
CONTINUOUS
 10
26.55553
 20
33.570085
 11
26.55553
 21
36.561345
  0
LINE
  8
型材断面
  6
CONTINUOUS
 10
4.668225
 20
59.36251
 11
6.163855
 21
61.953017
  0
LINE
  8
型材断面
  6
CONTINUOUS
 10
4.668225
 20
59.36251
 11
3.172595
 21
61.953017
  0
LINE
  8
型材断面
  6
CONTINUOUS
 10
3.172595
 20
61.953017
 11
6.163855
 21
61.953017
  0
LINE
  8
型材断面
  6
CONTINUOUS
 10
4.668225
 20
10.76892
 11
6.163855
 21
8.178413
  0
LINE
  8
型材断面
  6
CONTINUOUS
 10
4.668225
 20
10.76892
 11
3.172595
 21
8.178413
  0
LINE
  8
型材断面
  6
CONTINUOUS
 10
3.172595
 20
8.178413
 11
6.163855
 21
8.178413
  0
LINE
  8
型材断面
  6
CONTINUOUS
 10
-101.83179
 20
6.899033
 11
-97.398445
 21
11.332378
  0
LINE
  8
型材断面
  6
CONTINUOUS
 10
23.401557
 20
11.332378
 11
27.834902
 21
6.899033
  0
LINE
  8
型材断面
  6
CONTINUOUS
 10
27.834902
 20
6.899033
 11
-101.83179
 21
6.899033
  0
LINE
  8
型材断面
  6
CONTINUOUS
 10
-97.398445
 20
58.79905
 11
-101.83179
 21
63.232395
  0
LINE
  8
型材断面
  6
CONTINUOUS
 10
-101.83179
 20
6.899033
 11
-101.83179
 21
63.232395
  0
LINE
  8
型材断面
  6
CONTINUOUS
 10
23.401557
 20
58.79905
 11
27.834902
 21
63.232395
  0
LINE
  8
型材断面
  6
CONTINUOUS
 10
27.834902
 20
63.232395
 11
27.834902
 21
6.899033
  0
LINE
  8
型材断面
  6
CONTINUOUS
 10
27.834902
 20
63.232395
 11
-101.83179
 21
63.232395
  0
POLYLINE
  8
型材断面
  6
DASHDOT
 66
     1
  0
VERTEX
  8
型材断面
 10
-95.331775
 20
13.399048
  0
VERTEX
  8
型材断面
 10
-36.998442
 20
56.73238
  0
VERTEX
  8
型材断面
 10
21.334887
 20
13.399048
  0
SEQEND
  0
LINE
  8
型材断面
  6
DASHDOT
 10
-17.304
 20
56.73238
 11
-17.304
 21
13.399048
  0
LINE
  8
型材断面
  6
DASHDOT
 10
-56.692887
 20
56.73238
 11
-56.692887
 21
13.399048
  0
LINE
  8
型材断面
  6
CONTINUOUS
 10
-96.998425
 20
11.732397
 11
-94.831758
 21
13.899067
  0
LINE
  8
型材断面
  6
CONTINUOUS
 10
-94.831758
 20
13.899067
 11
-94.831758
 21
56.232363
  0
LINE
  8
型材断面
  6
CONTINUOUS
 10
-95.615105
 20
13.11572
 11
-95.615105
 21
57.01571
  0
LINE
  8
型材断面
  6
CONTINUOUS
 10
-96.998425
 20
11.732397
 11
-96.998425
 21
58.399033
  0
LINE
  8
型材断面
  6
CONTINUOUS
 10
-96.998425
 20
58.399033
 11
-94.831758
 21
56.232363
  0
LINE
  8
型材断面
  6
CONTINUOUS
 10
20.834872
 20
13.899067
 11
23.00154
 21
11.732397
  0
LINE
  8
型材断面
  6
CONTINUOUS
 10
20.834872
 20
13.899067
 11
20.834872
 21
56.232363
  0
LINE
  8
型材断面
  6
CONTINUOUS
 10
21.61822
 20
13.11572
 11
21.61822
 21
57.01571
  0
LINE
  8
型材断面
  6
CONTINUOUS
 10
23.00154
 20
11.732397
 11
23.00154
 21
58.399033
  0
LINE
  8
型材断面
  6
CONTINUOUS
 10
20.834872
 20
56.232363
 11
23.00154
 21
58.399033
  0
LINE
  8
型材断面
  6
CONTINUOUS
 10
-94.831758
 20
13.899067
 11
20.834872
 21
13.899067
  0
LINE
  8
型材断面
  6
CONTINUOUS
 10
-95.615105
 20
13.11572
 11
21.61822
 21
13.11572
  0
LINE
  8
型材断面
  6
CONTINUOUS
 10
-96.998425
 20
11.732397
 11
23.00154
 21
11.732397
  0
LINE
  8
型材断面
  6
CONTINUOUS
 10
20.834872
 20
56.232363
 11
-94.831758
 21
56.232363
  0
LINE
  8
型材断面
  6
CONTINUOUS
 10
21.61822
 20
57.01571
 11
-95.615105
 21
57.01571
  0
LINE
  8
型材断面
  6
CONTINUOUS
 10
23.00154
 20
58.399033
 11
-96.998425
 21
58.399033
  0
LINE
  8
型材断面
  6
CONTINUOUS
 10
-57.859555
 20
14.7324
 11
-55.52622
 21
14.7324
  0
LINE
  8
型材断面
  6
CONTINUOUS
 10
-57.859555
 20
14.7324
 11
-57.859555
 21
55.399033
  0
LINE
  8
型材断面
  6
CONTINUOUS
 10
-57.859555
 20
55.399033
 11
-55.52622
 21
55.399033
  0
LINE
  8
型材断面
  6
CONTINUOUS
 10
-55.52622
 20
14.7324
 11
-55.52622
 21
55.399033
  0
LINE
  8
型材断面
  6
CONTINUOUS
 10
-56.359555
 20
14.7324
 11
-56.359555
 21
55.399033
  0
LINE
  8
型材断面
  6
CONTINUOUS
 10
-57.02622
 20
14.7324
 11
-57.02622
 21
55.399033
  0
LINE
  8
型材断面
  6
CONTINUOUS
 10
-18.470668
 20
14.7324
 11
-16.137332
 21
14.7324
  0
LINE
  8
型材断面
  6
CONTINUOUS
 10
-18.470668
 20
14.7324
 11
-18.470668
 21
55.399033
  0
LINE
  8
型材断面
  6
CONTINUOUS
 10
-18.470668
 20
55.399033
 11
-16.137332
 21
55.399033
  0
LINE
  8
型材断面
  6
CONTINUOUS
 10
-16.137332
 20
14.7324
 11
-16.137332
 21
55.399033
  0
LINE
  8
型材断面
  6
CONTINUOUS
 10
-16.970668
 20
14.7324
 11
-16.970668
 21
55.399033
  0
LINE
  8
型材断面
  6
CONTINUOUS
 10
-17.637332
 20
14.7324
 11
-17.637332
 21
55.399033
  0
LINE
  8
型材断面
  6
CONTINUOUS
 10
119.011652
 20
63.232397
 11
119.011652
 21
6.899033
  0
LINE
  8
型材断面
  6
CONTINUOUS
 10
116.67832
 20
63.232397
 11
116.67832
 21
6.899033
  0
LINE
  8
型材断面
  6
CONTINUOUS
 62
    47
 10
111.511652
 20
12.399033
 11
113.41169
 21
12.399033
  0
LINE
  8
型材断面
  6
CONTINUOUS
 10
113.61169
 20
12.399033
 11
116.011652
 21
12.399033
  0
LINE
  8
型材断面
  6
CONTINUOUS
 10
116.011652
 20
12.399033
 11
116.67832
 21
6.899033
  0
LINE
  8
型材断面
  6
CONTINUOUS
 10
119.011652
 20
6.899033
 11
116.67832
 21
6.899033
  0
LINE
  8
型材断面
  6
CONTINUOUS
 62
    47
 10
111.511652
 20
57.732397
 11
113.41169
 21
57.732397
  0
LINE
  8
型材断面
  6
CONTINUOUS
 10
113.61169
 20
57.732397
 11
116.011652
 21
57.732397
  0
LINE
  8
型材断面
  6
CONTINUOUS
 10
116.011652
 20
57.732397
 11
116.67832
 21
63.232397
  0
LINE
  8
型材断面
  6
CONTINUOUS
 10
119.011652
 20
63.232397
 11
116.67832
 21
63.232397
  0
LINE
  8
型材断面
  6
CONTINUOUS
 10
113.41169
 20
12.399033
 11
113.41169
 21
57.732397
  0
LINE
  8
型材断面
  6
CONTINUOUS
 10
113.61169
 20
12.399033
 11
113.61169
 21
57.732397
  0
LINE
  8
型材断面
  6
CONTINUOUS
 10
116.011652
 20
12.399033
 11
116.011652
 21
57.732397
  0
ARC
  8
型材断面
  6
DASHDOT
 10
113.511693
 20
57.932395
 40
46.297318
 50
221.284665
 51
266.284665
  0
LINE
  8
型材断面
  6
CONTINUOUS
 10
110.56177
 20
57.015688
 11
110.068355
 21
57.015688
  0
LINE
  8
型材断面
  6
CONTINUOUS
 10
110.56177
 20
58.39901
 11
111.228437
 21
58.39901
  0
LINE
  8
型材断面
  6
CONTINUOUS
 10
110.56177
 20
13.115697
 11
110.068355
 21
13.115697
  0
LINE
  8
型材断面
  6
CONTINUOUS
 10
110.068355
 20
57.015688
 11
110.068355
 21
13.115697
  0
LINE
  8
型材断面
  6
CONTINUOUS
 10
110.56177
 20
58.39901
 11
110.56177
 21
11.732378
  0
LINE
  8
型材断面
  6
CONTINUOUS
 10
110.56177
 20
11.732378
 11
111.228437
 21
11.732378
  0
LINE
  8
型材断面
  6
CONTINUOUS
 10
111.228437
 20
58.39901
 11
111.228437
 21
11.732378
  0
INSERT
  2
*GRP_0010
  8
型材断面
  6
DASHDOT
 10
0.0
 20
0.0
  0
LINE
  8
型材断面
  6
CONTINUOUS
 62
    47
 10
-96.33179
 20
-82.751428
 11
-96.33179
 21
-84.651468
  0
LINE
  8
型材断面
  6
CONTINUOUS
 10
-96.33179
 20
-84.851468
 11
-96.33179
 21
-87.251428
  0
LINE
  8
型材断面
  6
CONTINUOUS
 10
-96.33179
 20
-87.251428
 11
-101.83179
 21
-87.918098
  0
LINE
  8
型材断面
  6
CONTINUOUS
 10
-101.83179
 20
-90.251428
 11
-101.83179
 21
-87.918098
  0
LINE
  8
型材断面
  6
CONTINUOUS
 62
    47
 10
22.334902
 20
-82.751428
 11
22.334902
 21
-84.651468
  0
LINE
  8
型材断面
  6
CONTINUOUS
 10
22.334902
 20
-84.851468
 11
22.334902
 21
-87.251428
  0
LINE
  8
型材断面
  6
CONTINUOUS
 10
22.334902
 20
-87.251428
 11
27.834902
 21
-87.918098
  0
LINE
  8
型材断面
  6
CONTINUOUS
 10
27.834902
 20
-90.251428
 11
27.834902
 21
-87.918098
  0
LINE
  8
型材断面
  6
CONTINUOUS
 10
-101.83179
 20
-90.251428
 11
27.834902
 21
-90.251428
  0
LINE
  8
型材断面
  6
CONTINUOUS
 10
-101.83179
 20
-87.918098
 11
27.834902
 21
-87.918098
  0
LINE
  8
型材断面
  6
CONTINUOUS
 10
22.334902
 20
-84.651468
 11
-96.33179
 21
-84.651468
  0
LINE
  8
型材断面
  6
CONTINUOUS
 10
22.334902
 20
-84.851468
 11
-96.33179
 21
-84.851468
  0
LINE
  8
型材断面
  6
CONTINUOUS
 10
22.334902
 20
-87.251428
 11
-96.33179
 21
-87.251428
  0
LINE
  8
型材断面
  6
CONTINUOUS
 10
-36.998442
 20
-87.251428
 11
-36.998442
 21
-90.251428
  0
LINE
  8
型材断面
  6
CONTINUOUS
 10
-95.615085
 20
-81.801545
 11
-95.615085
 21
-81.30813
  0
LINE
  8
型材断面
  6
CONTINUOUS
 10
-96.998408
 20
-81.801545
 11
-96.998408
 21
-82.468213
  0
LINE
  8
型材断面
  6
CONTINUOUS
 10
20.83489
 20
-81.30813
 11
21.568238
 21
-81.30813
  0
LINE
  8
型材断面
  6
CONTINUOUS
 10
21.618238
 20
-81.801545
 11
21.618238
 21
-81.30813
  0
LINE
  8
型材断面
  6
CONTINUOUS
 10
23.00156
 20
-81.801545
 11
23.00156
 21
-82.468213
  0
LINE
  8
型材断面
  6
CONTINUOUS
 10
-95.615085
 20
-81.30813
 11
21.618238
 21
-81.30813
  0
LINE
  8
型材断面
  6
CONTINUOUS
 10
-96.998408
 20
-81.801545
 11
23.00156
 21
-81.801545
  0
LINE
  8
型材断面
  6
CONTINUOUS
 10
-96.998408
 20
-82.468213
 11
23.00156
 21
-82.468213
  0
LINE
  8
型材断面
  6
CONTINUOUS
 10
-36.998445
 20
63.232395
 11
-36.998445
 21
58.399033
  0
LINE
  8
型材断面
  6
CONTINUOUS
 10
-36.998445
 20
6.899035
 11
-36.998445
 21
11.732397
  0
LINE
  8
ガラス
  6
CONTINUOUS
 10
119.623543
 20
-37.352753
 11
75.07021
 21
-37.352753
  0
LINE
  8
ガラス
  6
CONTINUOUS
 10
119.623543
 20
-37.352753
 11
119.623543
 21
-80.686085
  0
LINE
  8
ガラス
  6
CONTINUOUS
 10
75.07021
 20
-37.352753
 11
75.07021
 21
-80.686085
  0
LINE
  8
ガラス
  6
CONTINUOUS
 10
119.623543
 20
-80.686085
 11
75.07021
 21
-80.686085
  0
LINE
  8
ガラス
  6
CONTINUOUS
 10
-73.86904
 20
37.696675
 11
-79.13097
 21
32.434748
  0
LINE
  8
ガラス
  6
CONTINUOUS
 10
-75.18139
 20
33.747095
 11
-77.81862
 21
36.384338
  0
LINE
  8
ガラス
  6
CONTINUOUS
 10
-76.88748
 20
33.807995
 11
-74.854447
 21
35.841028
  0
LINE
  8
ガラス
  6
CONTINUOUS
 10
-76.112537
 20
36.323435
 11
-78.14556
 21
34.290405
  0
LINE
  8
ガラス
  6
CONTINUOUS
 10
-34.367483
 20
37.696675
 11
-39.629413
 21
32.434748
  0
LINE
  8
ガラス
  6
CONTINUOUS
 10
-35.679832
 20
33.747095
 11
-38.317062
 21
36.384338
  0
LINE
  8
ガラス
  6
CONTINUOUS
 10
-37.385923
 20
33.807995
 11
-35.35289
 21
35.841028
  0
LINE
  8
ガラス
  6
CONTINUOUS
 10
-36.61098
 20
36.323435
 11
-38.644002
 21
34.290405
  0
LINE
  8
ガラス
  6
CONTINUOUS
 10
4.95596
 20
37.696675
 11
-0.30597
 21
32.434748
  0
LINE
  8
ガラス
  6
CONTINUOUS
 10
3.64361
 20
33.747095
 11
1.00638
 21
36.384338
  0
LINE
  8
ガラス
  6
CONTINUOUS
 10
1.93752
 20
33.807995
 11
3.970552
 21
35.841028
  0
LINE
  8
ガラス
  6
CONTINUOUS
 10
2.712463
 20
36.323435
 11
0.67944
 21
34.290405
  0
TEXT
  7
TextStyle03
  8
文字
  6
CONTINUOUS
 10
78.1
 20
125.25
  1
シリーズ：ＳＴＦＦＨＬ
 40
5.0
 72
     5
 11
139.35
 21
125.25
  0
TEXT
  7
TextStyle03
  8
文字
  6
CONTINUOUS
 10
78.1
 20
119.625
  1
　　　　　（片側開閉）1300×3500タイプ
 40
5.0
 72
     5
 11
184.35
 21
119.625
  0
TEXT
  7
TextStyle03
  8
文字
  6
CONTINUOUS
 10
78.1
 20
114.0
  1
図面名　：外観姿図
 40
5.0
 72
     5
 11
128.1
 21
114.0
  0
TEXT
  7
TextStyle03
  8
文字
  6
CONTINUOUS
 10
78.1
 20
108.375
  1
　　　　　　
 40
5.0
 72
     5
 11
111.225
 21
108.375
  0
TEXT
  7
TextStyle03
  8
文字
  6
CONTINUOUS
 10
-133.4
 20
98.85
  1
は排水穴位置を示す
 40
3.0
 72
     5
 11
-103.4
 21
98.85
  0
TEXT
  7
TextStyle03
  8
文字
  6
CONTINUOUS
 10
-133.4
 20
93.325
  1
はケーシング位置を示す
 40
3.0
 72
     5
 11
-96.65
 21
93.325
  0
TEXT
  7
TextStyle03
  8
文字
  6
CONTINUOUS
 10
-133.4
 20
89.95
  1
２ヶ所中1ヶ所に設定
 40
3.0
 72
     5
 11
-101.7125
 21
89.95
  0
TEXT
  7
TextStyle03
  8
文字
  6
CONTINUOUS
 10
-132.925
 20
23.975
  1
アンカーピッチ
 40
3.0
 50
90.0
 72
     5
 11
-132.925
 21
47.225
  0
TEXT
  7
TextStyle03
  8
文字
  6
CONTINUOUS
 10
-137.125
 20
83.975
  1
アンカー数量　１４ヶ所
 40
3.0
 72
     5
 11
-100.375
 21
83.975
  0
TEXT
  7
TextStyle03
  8
文字
  6
CONTINUOUS
 10
30.1
 20
-98.45
  1
※は物件対応寸法
 40
3.0
 72
     5
 11
56.725
 21
-98.45
  0
TEXT
  7
TextStyle03
  8
文字
  6
CONTINUOUS
 10
100.8
 20
-73.675
  1
網入り6.8t
 40
3.0
 72
     5
 11
117.4875
 21
-73.675
  0
TEXT
  7
TextStyle03
  8
文字
  6
CONTINUOUS
 10
107.475
 20
-78.35
  1
×３枚
 40
3.0
 72
     5
 11
117.225
 21
-78.35
  0
TEXT
  7
TextStyle03
  8
文字
  6
CONTINUOUS
 10
84.75
 20
13.95
  1
45°
 40
3.0
 50
90.0
 72
     5
 11
84.75
 21
20.325
  0
TEXT
  7
TextStyle03
  8
文字
  6
CONTINUOUS
 10
-84.175
 20
100.8
  1
アンカーピッチ
 40
3.0
 72
     5
 11
-60.925
 21
100.8
  0
INSERT
  2
*DIM_0002
  8
寸法
  6
CONTINUOUS
 10
0.0
 20
0.0
  0
INSERT
  2
*DIM_0007
  8
寸法
  6
CONTINUOUS
 10
0.0
 20
0.0
  0
INSERT
  2
*DIM_0008
  8
寸法
  6
CONTINUOUS
 10
0.0
 20
0.0
  0
INSERT
  2
*DIM_0009
  8
寸法
  6
CONTINUOUS
 10
0.0
 20
0.0
  0
INSERT
  2
*DIM_0015
  8
寸法
  6
CONTINUOUS
 10
0.0
 20
0.0
  0
INSERT
  2
*DIM_0016
  8
寸法
  6
CONTINUOUS
 10
0.0
 20
0.0
  0
INSERT
  2
*DIM_0017
  8
寸法
  6
CONTINUOUS
 10
0.0
 20
0.0
  0
INSERT
  2
*DIM_0018
  8
寸法
  6
CONTINUOUS
 10
0.0
 20
0.0
  0
INSERT
  2
*DIM_0019
  8
寸法
  6
CONTINUOUS
 10
0.0
 20
0.0
  0
INSERT
  2
*DIM_0020
  8
寸法
  6
CONTINUOUS
 10
0.0
 20
0.0
  0
INSERT
  2
*DIM_0023
  8
寸法
  6
CONTINUOUS
 10
0.0
 20
0.0
  0
INSERT
  2
*DIM_0024
  8
寸法
  6
CONTINUOUS
 10
0.0
 20
0.0
  0
INSERT
  2
*DIM_0025
  8
寸法
  6
CONTINUOUS
 10
0.0
 20
0.0
  0
INSERT
  2
*DIM_0026
  8
寸法
  6
CONTINUOUS
 10
0.0
 20
0.0
  0
INSERT
  2
*DIM_0027
  8
寸法
  6
CONTINUOUS
 10
0.0
 20
0.0
  0
INSERT
  2
*DIM_0028
  8
寸法
  6
CONTINUOUS
 10
0.0
 20
0.0
  0
INSERT
  2
*DIM_0029
  8
寸法
  6
CONTINUOUS
 10
0.0
 20
0.0
  0
INSERT
  2
*DIM_0030
  8
寸法
  6
CONTINUOUS
 10
0.0
 20
0.0
  0
INSERT
  2
*GRP_0011
  8
別途部材
  6
DOT
 10
0.0
 20
0.0
  0
INSERT
  2
*GRP_0012
  8
別途部材
  6
DOT
 10
0.0
 20
0.0
  0
INSERT
  2
*GRP_0013
  8
別途部材
  6
CONTINUOUS
 10
0.0
 20
0.0
  0
INSERT
  2
*GRP_0021
  8
別途部材
  6
DOT
 10
0.0
 20
0.0
  0
INSERT
  2
*GRP_0022
  8
別途部材
  6
DOT
 10
0.0
 20
0.0
  0
ENDSEC
  0
EOF
