  0
SECTION
  2
HEADER
  9
$EXTMIN
 10
-210.0
 20
-148.5
  9
$EXTMAX
 10
210.0
 20
148.5
  9
$PDMODE
 70
    32
  9
$PDSIZE
 40
1.5
  9
$LTSCALE
 40
10.0
  0
ENDSEC
  0
SECTION
  2
TABLES
  0
TABLE
  2
LTYPE
 70
    15
  0
LTYPE
  2
CONTINUOUS
 70
    64
  3
実線
 72
    65
 73
     0
 40
0.0
  0
LTYPE
  2
DASHED
 70
    64
  3
破線A
 72
    65
 73
     2
 40
0.6
 49
0.4
 49
-0.2
  0
LTYPE
  2
DASHEDX2
 70
    64
  3
破線B
 72
    65
 73
     2
 40
1.3
 49
0.9
 49
-0.4
  0
LTYPE
  2
DASHDOT
 70
    64
  3
１点鎖線A
 72
    65
 73
     4
 40
0.5375
 49
0.375
 49
-0.05
 49
0.0625
 49
-0.05
  0
LTYPE
  2
DASHDOTX2
 70
    64
  3
１点鎖線B
 72
    65
 73
     4
 40
1.075
 49
0.75
 49
-0.1
 49
0.125
 49
-0.1
  0
LTYPE
  2
DIVIDE2
 70
    64
  3
２点鎖線A
 72
    65
 73
     6
 40
0.5125
 49
0.3
 49
-0.0375
 49
0.05
 49
-0.0375
 49
0.05
 49
-0.0375
  0
LTYPE
  2
DIVIDE
 70
    64
  3
２点鎖線B
 72
    65
 73
     6
 40
1.05
 49
0.55
 49
-0.1
 49
0.1
 49
-0.1
 49
0.1
 49
-0.1
  0
LTYPE
  2
DOT
 70
    64
  3
点線A
 72
    65
 73
     2
 40
0.1125
 49
0.0625
 49
-0.05
  0
LTYPE
  2
DOTX2
 70
    64
  3
点線B
 72
    65
 73
     2
 40
0.275
 49
0.15
 49
-0.125
  0
LTYPE
  2
CONTINUOUS
 70
    64
  3
実線
 72
    65
 73
     0
 40
0.0
  0
LTYPE
  2
CONTINUOUS
 70
    64
  3
実線
 72
    65
 73
     0
 40
0.0
  0
LTYPE
  2
CONTINUOUS
 70
    64
  3
実線
 72
    65
 73
     0
 40
0.0
  0
LTYPE
  2
CONTINUOUS
 70
    64
  3
実線
 72
    65
 73
     0
 40
0.0
  0
LTYPE
  2
CONTINUOUS
 70
    64
  3
実線
 72
    65
 73
     0
 40
0.0
  0
LTYPE
  2
CONTINUOUS
 70
    64
  3
実線
 72
    65
 73
     0
 40
0.0
  0
ENDTAB
  0
TABLE
  2
LAYER
 70
    34
  0
LAYER
  2
通り芯
 70
     0
 62
    15
  6
CONTINUOUS
  0
LAYER
  2
補助線
 70
     0
 62
    16
  6
DOT
  0
LAYER
  2
躯体
 70
     0
 62
    31
  6
CONTINUOUS
  0
LAYER
  2
型材
 70
     0
 62
    32
  6
CONTINUOUS
  0
LAYER
  2
型材断面
 70
     0
 62
    47
  6
CONTINUOUS
  0
LAYER
  2
ガラス
 70
     0
 62
    48
  6
CONTINUOUS
  0
LAYER
  2
ゴム等
 70
     0
 62
    63
  6
CONTINUOUS
  0
LAYER
  2
ボルト／ビス
 70
     0
 62
    64
  6
CONTINUOUS
  0
LAYER
  2
文字
 70
     0
 62
    79
  6
CONTINUOUS
  0
LAYER
  2
寸法
 70
     0
 62
    80
  6
CONTINUOUS
  0
LAYER
  2
ﾊｯﾁﾝｸﾞ
 70
     0
 62
    95
  6
CONTINUOUS
  0
LAYER
  2
別途部材
 70
     0
 62
    96
  6
CONTINUOUS
  0
LAYER
  2
曲げ物
 70
     0
 62
   111
  6
CONTINUOUS
  0
LAYER
  2
鉄骨等
 70
     0
 62
   112
  6
CONTINUOUS
  0
LAYER
  2
St
 70
     0
 62
   127
  6
CONTINUOUS
  0
LAYER
  2
その他部品等
 70
     0
 62
   128
  6
CONTINUOUS
  0
LAYER
  2
ｶﾞｽｹｯﾄ
 70
     0
 62
   143
  6
CONTINUOUS
  0
LAYER
  2
ｽｹｯﾁ
 70
     0
 62
    14
  6
CONTINUOUS
  0
LAYER
  2
0
 70
     0
 62
    17
  6
CONTINUOUS
  0
LAYER
  2
1
 70
     0
 62
    30
  6
CONTINUOUS
  0
LAYER
  2
4
 70
     0
 62
    33
  6
CONTINUOUS
  0
LAYER
  2
ﾚｲﾔ3
 70
     0
 62
    46
  6
CONTINUOUS
  0
LAYER
  2
外形線
 70
     0
 62
    49
  6
CONTINUOUS
  0
LAYER
  2
部品
 70
     0
 62
    14
  6
CONTINUOUS
  0
LAYER
  2
サッシ芯
 70
     0
 62
    17
  6
DASHDOTX2
  0
LAYER
  2
寸法線
 70
     0
 62
    62
  6
CONTINUOUS
  0
LAYER
  2
姿図外形線
 70
     0
 62
    65
  6
CONTINUOUS
  0
LAYER
  2
姿補助線
 70
     0
 62
    30
  6
CONTINUOUS
  0
LAYER
  2
透視線
 70
     0
 62
    78
  6
DOT
  0
LAYER
  2
用紙
 70
     0
 62
    81
  6
CONTINUOUS
  0
LAYER
  2
実線図枠
 70
     0
 62
    94
  6
CONTINUOUS
  0
LAYER
  2
補助図枠
 70
     0
 62
    97
  6
CONTINUOUS
  0
LAYER
  2
建具記号
 70
     0
 62
   110
  6
CONTINUOUS
  0
LAYER
  2
補助文字
 70
     0
 62
   113
  6
CONTINUOUS
  0
ENDTAB
  0
TABLE
  2
STYLE
 70
    10
  0
STYLE
  2
STANDARD
 70
     0
 40
1.0
 41
1.0
 42
1.0
 50
0.0
 71
     0
  3
TXT
  4
BIGFONT
  0
STYLE
  2
TATE
 70
     4
 40
1.0
 41
1.0
 42
1.0
 50
0.0
 71
     0
  3
TXT
  4
BIGFONT
  0
STYLE
  2
TextStyle03
 70
     0
 40
1.0
 41
1.0
 42
1.0
 50
0.0
 71
     0
  3
MONOTXT
  4
BIGFONT
  0
STYLE
  2
TextStyle04
 70
     0
 40
1.0
 41
1.0
 42
1.0
 50
0.0
 71
     0
  3
MONOTXT
  4
BIGFONT
  0
STYLE
  2
TextStyle05
 70
     0
 40
1.0
 41
1.0
 42
1.0
 50
0.0
 71
     0
  3
MONOTXT
  4
BIGFONT
  0
STYLE
  2
TextStyle06
 70
     0
 40
1.0
 41
1.0
 42
1.0
 50
0.0
 71
     0
  3
MONOTXT
  4
BIGFONT
  0
STYLE
  2
TextStyle07
 70
     0
 40
1.0
 41
1.0
 42
1.0
 50
0.0
 71
     0
  3
MONOTXT
  4
BIGFONT
  0
STYLE
  2
TextStyle08
 70
     0
 40
1.0
 41
1.0
 42
1.0
 50
0.0
 71
     0
  3
MONOTXT
  4
BIGFONT
  0
STYLE
  2
TextStyle09
 70
     0
 40
1.0
 41
1.0
 42
1.0
 50
0.0
 71
     0
  3
MONOTXT
  4
BIGFONT
  0
STYLE
  2
TextStyle10
 70
     0
 40
1.0
 41
1.0
 42
1.0
 50
0.0
 71
     0
  3
MONOTXT
  4
BIGFONT
  0
ENDTAB
  0
ENDSEC
  0
SECTION
  2
BLOCKS
  0
BLOCK
  2
*GRP_0001
 70
    65
 10
0.0
 20
0.0
  0
LINE
  8
型材断面
  6
CONTINUOUS
 10
195.0
 20
133.5
 11
195.0
 21
-133.5
  0
LINE
  8
型材断面
  6
CONTINUOUS
 10
195.0
 20
-133.5
 11
-185.0
 21
-133.5
  0
LINE
  8
型材断面
  6
CONTINUOUS
 10
-185.0
 20
-133.5
 11
-185.0
 21
133.5
  0
LINE
  8
型材断面
  6
CONTINUOUS
 10
195.0
 20
133.5
 11
-185.0
 21
133.5
  0
LINE
  8
型材断面
  6
CONTINUOUS
 10
145.0
 20
-133.5
 11
145.0
 21
-118.5
  0
LINE
  8
型材断面
  6
CONTINUOUS
 10
195.0
 20
-118.5
 11
145.0
 21
-118.5
  0
ENDBLK
  0
BLOCK
  2
*DIM_0002
 70
    65
 10
0.0
 20
0.0
  0
LINE
  8
寸法
  6
BYBLOCK
 62
     0
 10
-76.650292
 20
-13.511205
 11
-76.650292
 21
-13.121378
  0
LINE
  8
寸法
  6
BYBLOCK
 62
     0
 10
40.016375
 20
-13.121378
 11
-76.650292
 21
-13.121378
  0
POINT
  8
寸法
 62
     0
 10
40.016375
 20
-13.121378
  0
POINT
  8
寸法
 62
     0
 10
-76.650292
 20
-13.121378
  0
TEXT
  7
TextStyle03
  8
寸法
  6
CONTINUOUS
 62
     0
 10
-30.01875
 20
-12.75
  1
呼称寸法　3500
 40
3.0
 72
     5
 11
-6.58125
 21
-12.75
  0
ENDBLK
  0
BLOCK
  2
*DIM_0003
 70
    65
 10
0.0
 20
0.0
  0
LINE
  8
寸法
  6
BYBLOCK
 62
     0
 10
38.016375
 20
17.20722
 11
38.016375
 21
14.182178
  0
LINE
  8
寸法
  6
BYBLOCK
 62
     0
 10
40.016375
 20
14.182178
 11
38.016375
 21
14.182178
  0
POINT
  8
寸法
 62
     0
 10
40.016375
 20
14.182178
  0
POINT
  8
寸法
 62
     0
 10
38.016375
 20
14.182178
  0
TEXT
  7
TextStyle03
  8
寸法
  6
CONTINUOUS
 62
     0
 10
36.13125
 20
10.4
  1
60
 40
3.0
 72
     5
 11
39.31875
 21
10.4
  0
ENDBLK
  0
BLOCK
  2
*DIM_0004
 70
    65
 10
0.0
 20
0.0
  0
LINE
  8
寸法
  6
BYBLOCK
 62
     0
 10
-74.65029
 20
17.20722
 11
-74.65029
 21
14.182178
  0
LINE
  8
寸法
  6
BYBLOCK
 62
     0
 10
-76.65029
 20
14.182178
 11
-74.65029
 21
14.182178
  0
POINT
  8
寸法
 62
     0
 10
-76.65029
 20
14.182178
  0
POINT
  8
寸法
 62
     0
 10
-74.65029
 20
14.182178
  0
TEXT
  7
TextStyle03
  8
寸法
  6
CONTINUOUS
 62
     0
 10
-75.94375
 20
10.4
  1
60
 40
3.0
 72
     5
 11
-72.75625
 21
10.4
  0
ENDBLK
  0
BLOCK
  2
*DIM_0005
 70
    65
 10
0.0
 20
0.0
  0
LINE
  8
寸法
  6
BYBLOCK
 62
     0
 10
-79.650292
 20
47.814033
 11
-92.94313
 21
47.814033
  0
LINE
  8
寸法
  6
BYBLOCK
 62
     0
 10
-79.650292
 20
27.814033
 11
-92.94313
 21
27.814033
  0
LINE
  8
寸法
  6
BYBLOCK
 62
     0
 10
-92.94313
 20
47.814033
 11
-92.94313
 21
27.814033
  0
POINT
  8
寸法
 62
     0
 10
-92.94313
 20
47.814033
  0
POINT
  8
寸法
 62
     0
 10
-92.94313
 20
27.814033
  0
TEXT
  7
TextStyle03
  8
寸法
  6
CONTINUOUS
 62
     0
 10
-93.3
 20
35.3625
  1
600
 40
3.0
 50
90.0
 72
     5
 11
-93.3
 21
40.2375
  0
ENDBLK
  0
BLOCK
  2
*DIM_0010
 70
    65
 10
0.0
 20
0.0
  0
LINE
  8
寸法
  6
BYBLOCK
 62
     0
 10
27.099698
 20
-61.87628
 11
55.085173
 21
-61.87628
  0
LINE
  8
寸法
  6
BYBLOCK
 62
     0
 10
55.085173
 20
-70.209613
 11
55.085173
 21
-61.87628
  0
POINT
  8
寸法
 62
     0
 10
55.085173
 20
-61.87628
  0
TEXT
  7
TextStyle03
  8
寸法
  6
CONTINUOUS
 62
     0
 10
54.725
 20
-68.5125
  1
250
 40
3.0
 50
90.0
 72
     5
 11
54.725
 21
-63.6375
  0
ENDBLK
  0
BLOCK
  2
*GRP_0011
 70
    65
 10
0.0
 20
0.0
  0
LINE
  8
別途部材
  6
CONTINUOUS
 62
    96
 10
-78.31697
 20
-70.209613
 11
-78.71697
 21
-71.209613
  0
ARC
  8
別途部材
  6
CONTINUOUS
 10
-61.650307
 20
-79.542948
 40
17.666667
 50
90.0
 51
148.109204
  0
LINE
  8
別途部材
  6
CONTINUOUS
 62
    96
 10
-78.31697
 20
-70.209613
 11
-18.31697
 21
-70.209613
  0
LINE
  8
別途部材
  6
CONTINUOUS
 10
-78.71697
 20
-71.209613
 11
-18.31697
 21
-71.209613
  0
LINE
  8
別途部材
  6
CONTINUOUS
 10
-18.81697
 20
-60.87628
 11
-19.81697
 21
-61.87628
  0
LINE
  8
別途部材
  6
CONTINUOUS
 10
-20.81697
 20
-61.87628
 11
-21.81697
 21
-60.87628
  0
LINE
  8
別途部材
  6
CONTINUOUS
 10
-22.81697
 20
-60.87628
 11
-23.81697
 21
-61.87628
  0
LINE
  8
別途部材
  6
CONTINUOUS
 10
-21.81697
 20
-60.87628
 11
-22.81697
 21
-60.87628
  0
LINE
  8
別途部材
  6
CONTINUOUS
 10
-18.81697
 20
-60.87628
 11
-18.31697
 21
-60.87628
  0
LINE
  8
別途部材
  6
CONTINUOUS
 10
-24.81697
 20
-61.87628
 11
-25.81697
 21
-60.87628
  0
LINE
  8
別途部材
  6
CONTINUOUS
 10
-26.81697
 20
-60.87628
 11
-27.81697
 21
-61.87628
  0
LINE
  8
別途部材
  6
CONTINUOUS
 10
-25.81697
 20
-60.87628
 11
-26.81697
 21
-60.87628
  0
LINE
  8
別途部材
  6
CONTINUOUS
 10
-28.81697
 20
-61.87628
 11
-29.81697
 21
-60.87628
  0
LINE
  8
別途部材
  6
CONTINUOUS
 10
-30.81697
 20
-60.87628
 11
-31.81697
 21
-61.87628
  0
LINE
  8
別途部材
  6
CONTINUOUS
 10
-29.81697
 20
-60.87628
 11
-30.81697
 21
-60.87628
  0
LINE
  8
別途部材
  6
CONTINUOUS
 10
-32.81697
 20
-61.87628
 11
-33.81697
 21
-60.87628
  0
LINE
  8
別途部材
  6
CONTINUOUS
 10
-34.81697
 20
-60.87628
 11
-35.81697
 21
-61.87628
  0
LINE
  8
別途部材
  6
CONTINUOUS
 10
-33.81697
 20
-60.87628
 11
-34.81697
 21
-60.87628
  0
LINE
  8
別途部材
  6
CONTINUOUS
 10
-36.81697
 20
-61.87628
 11
-37.81697
 21
-60.87628
  0
LINE
  8
別途部材
  6
CONTINUOUS
 10
-38.81697
 20
-60.87628
 11
-39.81697
 21
-61.87628
  0
LINE
  8
別途部材
  6
CONTINUOUS
 10
-37.81697
 20
-60.87628
 11
-38.81697
 21
-60.87628
  0
LINE
  8
別途部材
  6
CONTINUOUS
 10
-40.81697
 20
-61.87628
 11
-41.81697
 21
-60.87628
  0
LINE
  8
別途部材
  6
CONTINUOUS
 10
-42.81697
 20
-60.87628
 11
-43.81697
 21
-61.87628
  0
LINE
  8
別途部材
  6
CONTINUOUS
 10
-41.81697
 20
-60.87628
 11
-42.81697
 21
-60.87628
  0
LINE
  8
別途部材
  6
CONTINUOUS
 10
-44.81697
 20
-61.87628
 11
-45.81697
 21
-60.87628
  0
LINE
  8
別途部材
  6
CONTINUOUS
 10
-46.81697
 20
-60.87628
 11
-47.81697
 21
-61.87628
  0
LINE
  8
別途部材
  6
CONTINUOUS
 10
-45.81697
 20
-60.87628
 11
-46.81697
 21
-60.87628
  0
LINE
  8
別途部材
  6
CONTINUOUS
 10
-48.81697
 20
-61.87628
 11
-49.81697
 21
-60.87628
  0
LINE
  8
別途部材
  6
CONTINUOUS
 10
-50.81697
 20
-60.87628
 11
-51.81697
 21
-61.87628
  0
LINE
  8
別途部材
  6
CONTINUOUS
 10
-49.81697
 20
-60.87628
 11
-50.81697
 21
-60.87628
  0
LINE
  8
別途部材
  6
CONTINUOUS
 10
-52.81697
 20
-61.87628
 11
-53.81697
 21
-60.87628
  0
LINE
  8
別途部材
  6
CONTINUOUS
 10
-54.81697
 20
-60.87628
 11
-55.81697
 21
-61.87628
  0
LINE
  8
別途部材
  6
CONTINUOUS
 10
-53.81697
 20
-60.87628
 11
-54.81697
 21
-60.87628
  0
LINE
  8
別途部材
  6
CONTINUOUS
 10
-56.81697
 20
-61.87628
 11
-57.81697
 21
-60.87628
  0
LINE
  8
別途部材
  6
CONTINUOUS
 10
-58.81697
 20
-60.87628
 11
-59.81697
 21
-61.87628
  0
LINE
  8
別途部材
  6
CONTINUOUS
 10
-57.81697
 20
-60.87628
 11
-58.81697
 21
-60.87628
  0
LINE
  8
別途部材
  6
CONTINUOUS
 10
-55.81697
 20
-61.87628
 11
-56.81697
 21
-61.87628
  0
LINE
  8
別途部材
  6
CONTINUOUS
 10
-51.81697
 20
-61.87628
 11
-52.81697
 21
-61.87628
  0
LINE
  8
別途部材
  6
CONTINUOUS
 10
-47.81697
 20
-61.87628
 11
-48.81697
 21
-61.87628
  0
LINE
  8
別途部材
  6
CONTINUOUS
 10
-43.81697
 20
-61.87628
 11
-44.81697
 21
-61.87628
  0
LINE
  8
別途部材
  6
CONTINUOUS
 10
-39.81697
 20
-61.87628
 11
-40.81697
 21
-61.87628
  0
LINE
  8
別途部材
  6
CONTINUOUS
 10
-35.81697
 20
-61.87628
 11
-36.81697
 21
-61.87628
  0
LINE
  8
別途部材
  6
CONTINUOUS
 10
-31.81697
 20
-61.87628
 11
-32.81697
 21
-61.87628
  0
LINE
  8
別途部材
  6
CONTINUOUS
 10
-27.81697
 20
-61.87628
 11
-28.81697
 21
-61.87628
  0
LINE
  8
別途部材
  6
CONTINUOUS
 10
-23.81697
 20
-61.87628
 11
-24.81697
 21
-61.87628
  0
LINE
  8
別途部材
  6
CONTINUOUS
 10
-20.81697
 20
-61.87628
 11
-19.81697
 21
-61.87628
  0
LINE
  8
別途部材
  6
CONTINUOUS
 10
-58.81697
 20
-60.87628
 11
-58.81697
 21
-70.209613
  0
LINE
  8
別途部材
  6
CONTINUOUS
 10
-56.81697
 20
-61.87628
 11
-56.81697
 21
-70.209613
  0
LINE
  8
別途部材
  6
CONTINUOUS
 10
-59.81697
 20
-61.87628
 11
-59.81697
 21
-70.209613
  0
LINE
  8
別途部材
  6
CONTINUOUS
 10
-57.81697
 20
-60.87628
 11
-57.81697
 21
-70.209613
  0
LINE
  8
別途部材
  6
CONTINUOUS
 10
-54.81697
 20
-60.87628
 11
-54.81697
 21
-70.209613
  0
LINE
  8
別途部材
  6
CONTINUOUS
 10
-55.81697
 20
-61.87628
 11
-55.81697
 21
-70.209613
  0
LINE
  8
別途部材
  6
CONTINUOUS
 10
-53.81697
 20
-60.87628
 11
-53.81697
 21
-70.209613
  0
LINE
  8
別途部材
  6
CONTINUOUS
 10
-52.81697
 20
-61.87628
 11
-52.81697
 21
-70.209613
  0
LINE
  8
別途部材
  6
CONTINUOUS
 10
-51.81697
 20
-61.87628
 11
-51.81697
 21
-70.209613
  0
LINE
  8
別途部材
  6
CONTINUOUS
 10
-50.81697
 20
-60.87628
 11
-50.81697
 21
-70.209613
  0
LINE
  8
別途部材
  6
CONTINUOUS
 10
-48.81697
 20
-61.87628
 11
-48.81697
 21
-70.209613
  0
LINE
  8
別途部材
  6
CONTINUOUS
 10
-49.81697
 20
-60.87628
 11
-49.81697
 21
-70.209613
  0
LINE
  8
別途部材
  6
CONTINUOUS
 10
-46.81697
 20
-60.87628
 11
-46.81697
 21
-70.209613
  0
LINE
  8
別途部材
  6
CONTINUOUS
 10
-47.81697
 20
-61.87628
 11
-47.81697
 21
-70.209613
  0
LINE
  8
別途部材
  6
CONTINUOUS
 10
-43.81697
 20
-61.87628
 11
-43.81697
 21
-70.209613
  0
LINE
  8
別途部材
  6
CONTINUOUS
 10
-42.81697
 20
-60.87628
 11
-42.81697
 21
-70.209613
  0
LINE
  8
別途部材
  6
CONTINUOUS
 10
-41.81697
 20
-60.87628
 11
-41.81697
 21
-70.209613
  0
LINE
  8
別途部材
  6
CONTINUOUS
 10
-44.81697
 20
-61.87628
 11
-44.81697
 21
-70.209613
  0
LINE
  8
別途部材
  6
CONTINUOUS
 10
-45.81697
 20
-60.87628
 11
-45.81697
 21
-70.209613
  0
LINE
  8
別途部材
  6
CONTINUOUS
 10
-37.81697
 20
-60.87628
 11
-37.81697
 21
-70.209613
  0
LINE
  8
別途部材
  6
CONTINUOUS
 10
-39.81697
 20
-61.87628
 11
-39.81697
 21
-70.209613
  0
LINE
  8
別途部材
  6
CONTINUOUS
 10
-40.81697
 20
-61.87628
 11
-40.81697
 21
-70.209613
  0
LINE
  8
別途部材
  6
CONTINUOUS
 10
-38.81697
 20
-60.87628
 11
-38.81697
 21
-70.209613
  0
LINE
  8
別途部材
  6
CONTINUOUS
 10
-36.81697
 20
-61.87628
 11
-36.81697
 21
-70.209613
  0
LINE
  8
別途部材
  6
CONTINUOUS
 10
-34.81697
 20
-60.87628
 11
-34.81697
 21
-70.209613
  0
LINE
  8
別途部材
  6
CONTINUOUS
 10
-33.81697
 20
-60.87628
 11
-33.81697
 21
-70.209613
  0
LINE
  8
別途部材
  6
CONTINUOUS
 10
-31.81697
 20
-61.87628
 11
-31.81697
 21
-70.209613
  0
LINE
  8
別途部材
  6
CONTINUOUS
 10
-32.81697
 20
-61.87628
 11
-32.81697
 21
-70.209613
  0
LINE
  8
別途部材
  6
CONTINUOUS
 10
-35.81697
 20
-61.87628
 11
-35.81697
 21
-70.209613
  0
LINE
  8
別途部材
  6
CONTINUOUS
 10
-30.81697
 20
-60.87628
 11
-30.81697
 21
-70.209613
  0
LINE
  8
別途部材
  6
CONTINUOUS
 10
-28.81697
 20
-61.87628
 11
-28.81697
 21
-70.209613
  0
LINE
  8
別途部材
  6
CONTINUOUS
 10
-29.81697
 20
-60.87628
 11
-29.81697
 21
-70.209613
  0
LINE
  8
別途部材
  6
CONTINUOUS
 10
-27.81697
 20
-61.87628
 11
-27.81697
 21
-70.209613
  0
LINE
  8
別途部材
  6
CONTINUOUS
 10
-26.81697
 20
-60.87628
 11
-26.81697
 21
-70.209613
  0
LINE
  8
別途部材
  6
CONTINUOUS
 10
-24.81697
 20
-61.87628
 11
-24.81697
 21
-70.209613
  0
LINE
  8
別途部材
  6
CONTINUOUS
 10
-25.81697
 20
-60.87628
 11
-25.81697
 21
-70.209613
  0
LINE
  8
別途部材
  6
CONTINUOUS
 10
-23.81697
 20
-61.87628
 11
-23.81697
 21
-70.209613
  0
LINE
  8
別途部材
  6
CONTINUOUS
 10
-22.81697
 20
-60.87628
 11
-22.81697
 21
-70.209613
  0
LINE
  8
別途部材
  6
CONTINUOUS
 10
-20.81697
 20
-61.87628
 11
-20.81697
 21
-70.209613
  0
LINE
  8
別途部材
  6
CONTINUOUS
 10
-21.81697
 20
-60.87628
 11
-21.81697
 21
-70.209613
  0
LINE
  8
別途部材
  6
CONTINUOUS
 10
-19.81697
 20
-61.87628
 11
-19.81697
 21
-70.209613
  0
LINE
  8
別途部材
  6
CONTINUOUS
 10
-18.81697
 20
-60.87628
 11
-18.81697
 21
-70.209613
  0
LINE
  8
別途部材
  6
CONTINUOUS
 10
-59.81697
 20
-61.87628
 11
-61.650302
 21
-61.87628
  0
LINE
  8
別途部材
  6
CONTINUOUS
 62
    96
 10
41.68303
 20
-70.209613
 11
42.08303
 21
-71.209613
  0
ARC
  8
別途部材
  6
CONTINUOUS
 10
25.016367
 20
-79.542948
 40
17.666667
 50
31.890796
 51
90.0
  0
LINE
  8
別途部材
  6
CONTINUOUS
 62
    96
 10
41.68303
 20
-70.209613
 11
-18.31697
 21
-70.209613
  0
LINE
  8
別途部材
  6
CONTINUOUS
 10
42.08303
 20
-71.209613
 11
-18.31697
 21
-71.209613
  0
LINE
  8
別途部材
  6
CONTINUOUS
 10
-17.81697
 20
-60.87628
 11
-16.81697
 21
-61.87628
  0
LINE
  8
別途部材
  6
CONTINUOUS
 10
-15.81697
 20
-61.87628
 11
-14.81697
 21
-60.87628
  0
LINE
  8
別途部材
  6
CONTINUOUS
 10
-13.81697
 20
-60.87628
 11
-12.81697
 21
-61.87628
  0
LINE
  8
別途部材
  6
CONTINUOUS
 10
-14.81697
 20
-60.87628
 11
-13.81697
 21
-60.87628
  0
LINE
  8
別途部材
  6
CONTINUOUS
 10
-17.81697
 20
-60.87628
 11
-18.31697
 21
-60.87628
  0
LINE
  8
別途部材
  6
CONTINUOUS
 10
-11.81697
 20
-61.87628
 11
-10.81697
 21
-60.87628
  0
LINE
  8
別途部材
  6
CONTINUOUS
 10
-9.81697
 20
-60.87628
 11
-8.81697
 21
-61.87628
  0
LINE
  8
別途部材
  6
CONTINUOUS
 10
-10.81697
 20
-60.87628
 11
-9.81697
 21
-60.87628
  0
LINE
  8
別途部材
  6
CONTINUOUS
 10
-7.81697
 20
-61.87628
 11
-6.81697
 21
-60.87628
  0
LINE
  8
別途部材
  6
CONTINUOUS
 10
-5.81697
 20
-60.87628
 11
-4.81697
 21
-61.87628
  0
LINE
  8
別途部材
  6
CONTINUOUS
 10
-6.81697
 20
-60.87628
 11
-5.81697
 21
-60.87628
  0
LINE
  8
別途部材
  6
CONTINUOUS
 10
-3.81697
 20
-61.87628
 11
-2.81697
 21
-60.87628
  0
LINE
  8
別途部材
  6
CONTINUOUS
 10
-1.81697
 20
-60.87628
 11
-0.81697
 21
-61.87628
  0
LINE
  8
別途部材
  6
CONTINUOUS
 10
-2.81697
 20
-60.87628
 11
-1.81697
 21
-60.87628
  0
LINE
  8
別途部材
  6
CONTINUOUS
 10
0.18303
 20
-61.87628
 11
1.18303
 21
-60.87628
  0
LINE
  8
別途部材
  6
CONTINUOUS
 10
2.18303
 20
-60.87628
 11
3.18303
 21
-61.87628
  0
LINE
  8
別途部材
  6
CONTINUOUS
 10
1.18303
 20
-60.87628
 11
2.18303
 21
-60.87628
  0
LINE
  8
別途部材
  6
CONTINUOUS
 10
4.18303
 20
-61.87628
 11
5.18303
 21
-60.87628
  0
LINE
  8
別途部材
  6
CONTINUOUS
 10
6.18303
 20
-60.87628
 11
7.18303
 21
-61.87628
  0
LINE
  8
別途部材
  6
CONTINUOUS
 10
5.18303
 20
-60.87628
 11
6.18303
 21
-60.87628
  0
LINE
  8
別途部材
  6
CONTINUOUS
 10
8.18303
 20
-61.87628
 11
9.18303
 21
-60.87628
  0
LINE
  8
別途部材
  6
CONTINUOUS
 10
10.18303
 20
-60.87628
 11
11.18303
 21
-61.87628
  0
LINE
  8
別途部材
  6
CONTINUOUS
 10
9.18303
 20
-60.87628
 11
10.18303
 21
-60.87628
  0
LINE
  8
別途部材
  6
CONTINUOUS
 10
12.18303
 20
-61.87628
 11
13.18303
 21
-60.87628
  0
LINE
  8
別途部材
  6
CONTINUOUS
 10
14.18303
 20
-60.87628
 11
15.18303
 21
-61.87628
  0
LINE
  8
別途部材
  6
CONTINUOUS
 10
13.18303
 20
-60.87628
 11
14.18303
 21
-60.87628
  0
LINE
  8
別途部材
  6
CONTINUOUS
 10
16.18303
 20
-61.87628
 11
17.18303
 21
-60.87628
  0
LINE
  8
別途部材
  6
CONTINUOUS
 10
18.18303
 20
-60.87628
 11
19.18303
 21
-61.87628
  0
LINE
  8
別途部材
  6
CONTINUOUS
 10
17.18303
 20
-60.87628
 11
18.18303
 21
-60.87628
  0
LINE
  8
別途部材
  6
CONTINUOUS
 10
20.18303
 20
-61.87628
 11
21.18303
 21
-60.87628
  0
LINE
  8
別途部材
  6
CONTINUOUS
 10
22.18303
 20
-60.87628
 11
23.18303
 21
-61.87628
  0
LINE
  8
別途部材
  6
CONTINUOUS
 10
21.18303
 20
-60.87628
 11
22.18303
 21
-60.87628
  0
LINE
  8
別途部材
  6
CONTINUOUS
 10
19.18303
 20
-61.87628
 11
20.18303
 21
-61.87628
  0
LINE
  8
別途部材
  6
CONTINUOUS
 10
15.18303
 20
-61.87628
 11
16.18303
 21
-61.87628
  0
LINE
  8
別途部材
  6
CONTINUOUS
 10
11.18303
 20
-61.87628
 11
12.18303
 21
-61.87628
  0
LINE
  8
別途部材
  6
CONTINUOUS
 10
7.18303
 20
-61.87628
 11
8.18303
 21
-61.87628
  0
LINE
  8
別途部材
  6
CONTINUOUS
 10
3.18303
 20
-61.87628
 11
4.18303
 21
-61.87628
  0
LINE
  8
別途部材
  6
CONTINUOUS
 10
-0.81697
 20
-61.87628
 11
0.18303
 21
-61.87628
  0
LINE
  8
別途部材
  6
CONTINUOUS
 10
-4.81697
 20
-61.87628
 11
-3.81697
 21
-61.87628
  0
LINE
  8
別途部材
  6
CONTINUOUS
 10
-8.81697
 20
-61.87628
 11
-7.81697
 21
-61.87628
  0
LINE
  8
別途部材
  6
CONTINUOUS
 10
-12.81697
 20
-61.87628
 11
-11.81697
 21
-61.87628
  0
LINE
  8
別途部材
  6
CONTINUOUS
 10
-15.81697
 20
-61.87628
 11
-16.81697
 21
-61.87628
  0
LINE
  8
別途部材
  6
CONTINUOUS
 10
22.18303
 20
-60.87628
 11
22.18303
 21
-70.209613
  0
LINE
  8
別途部材
  6
CONTINUOUS
 10
20.18303
 20
-61.87628
 11
20.18303
 21
-70.209613
  0
LINE
  8
別途部材
  6
CONTINUOUS
 10
23.18303
 20
-61.87628
 11
23.18303
 21
-70.209613
  0
LINE
  8
別途部材
  6
CONTINUOUS
 10
21.18303
 20
-60.87628
 11
21.18303
 21
-70.209613
  0
LINE
  8
別途部材
  6
CONTINUOUS
 10
18.18303
 20
-60.87628
 11
18.18303
 21
-70.209613
  0
LINE
  8
別途部材
  6
CONTINUOUS
 10
19.18303
 20
-61.87628
 11
19.18303
 21
-70.209613
  0
LINE
  8
別途部材
  6
CONTINUOUS
 10
17.18303
 20
-60.87628
 11
17.18303
 21
-70.209613
  0
LINE
  8
別途部材
  6
CONTINUOUS
 10
16.18303
 20
-61.87628
 11
16.18303
 21
-70.209613
  0
LINE
  8
別途部材
  6
CONTINUOUS
 10
15.18303
 20
-61.87628
 11
15.18303
 21
-70.209613
  0
LINE
  8
別途部材
  6
CONTINUOUS
 10
14.18303
 20
-60.87628
 11
14.18303
 21
-70.209613
  0
LINE
  8
別途部材
  6
CONTINUOUS
 10
12.18303
 20
-61.87628
 11
12.18303
 21
-70.209613
  0
LINE
  8
別途部材
  6
CONTINUOUS
 10
13.18303
 20
-60.87628
 11
13.18303
 21
-70.209613
  0
LINE
  8
別途部材
  6
CONTINUOUS
 10
10.18303
 20
-60.87628
 11
10.18303
 21
-70.209613
  0
LINE
  8
別途部材
  6
CONTINUOUS
 10
11.18303
 20
-61.87628
 11
11.18303
 21
-70.209613
  0
LINE
  8
別途部材
  6
CONTINUOUS
 10
7.18303
 20
-61.87628
 11
7.18303
 21
-70.209613
  0
LINE
  8
別途部材
  6
CONTINUOUS
 10
6.18303
 20
-60.87628
 11
6.18303
 21
-70.209613
  0
LINE
  8
別途部材
  6
CONTINUOUS
 10
5.18303
 20
-60.87628
 11
5.18303
 21
-70.209613
  0
LINE
  8
別途部材
  6
CONTINUOUS
 10
8.18303
 20
-61.87628
 11
8.18303
 21
-70.209613
  0
LINE
  8
別途部材
  6
CONTINUOUS
 10
9.18303
 20
-60.87628
 11
9.18303
 21
-70.209613
  0
LINE
  8
別途部材
  6
CONTINUOUS
 10
1.18303
 20
-60.87628
 11
1.18303
 21
-70.209613
  0
LINE
  8
別途部材
  6
CONTINUOUS
 10
3.18303
 20
-61.87628
 11
3.18303
 21
-70.209613
  0
LINE
  8
別途部材
  6
CONTINUOUS
 10
4.18303
 20
-61.87628
 11
4.18303
 21
-70.209613
  0
LINE
  8
別途部材
  6
CONTINUOUS
 10
2.18303
 20
-60.87628
 11
2.18303
 21
-70.209613
  0
LINE
  8
別途部材
  6
CONTINUOUS
 10
0.18303
 20
-61.87628
 11
0.18303
 21
-70.209613
  0
LINE
  8
別途部材
  6
CONTINUOUS
 10
-1.81697
 20
-60.87628
 11
-1.81697
 21
-70.209613
  0
LINE
  8
別途部材
  6
CONTINUOUS
 10
-2.81697
 20
-60.87628
 11
-2.81697
 21
-70.209613
  0
LINE
  8
別途部材
  6
CONTINUOUS
 10
-4.81697
 20
-61.87628
 11
-4.81697
 21
-70.209613
  0
LINE
  8
別途部材
  6
CONTINUOUS
 10
-3.81697
 20
-61.87628
 11
-3.81697
 21
-70.209613
  0
LINE
  8
別途部材
  6
CONTINUOUS
 10
-0.81697
 20
-61.87628
 11
-0.81697
 21
-70.209613
  0
LINE
  8
別途部材
  6
CONTINUOUS
 10
-5.81697
 20
-60.87628
 11
-5.81697
 21
-70.209613
  0
LINE
  8
別途部材
  6
CONTINUOUS
 10
-7.81697
 20
-61.87628
 11
-7.81697
 21
-70.209613
  0
LINE
  8
別途部材
  6
CONTINUOUS
 10
-6.81697
 20
-60.87628
 11
-6.81697
 21
-70.209613
  0
LINE
  8
別途部材
  6
CONTINUOUS
 10
-8.81697
 20
-61.87628
 11
-8.81697
 21
-70.209613
  0
LINE
  8
別途部材
  6
CONTINUOUS
 10
-9.81697
 20
-60.87628
 11
-9.81697
 21
-70.209613
  0
LINE
  8
別途部材
  6
CONTINUOUS
 10
-11.81697
 20
-61.87628
 11
-11.81697
 21
-70.209613
  0
LINE
  8
別途部材
  6
CONTINUOUS
 10
-10.81697
 20
-60.87628
 11
-10.81697
 21
-70.209613
  0
LINE
  8
別途部材
  6
CONTINUOUS
 10
-12.81697
 20
-61.87628
 11
-12.81697
 21
-70.209613
  0
LINE
  8
別途部材
  6
CONTINUOUS
 10
-13.81697
 20
-60.87628
 11
-13.81697
 21
-70.209613
  0
LINE
  8
別途部材
  6
CONTINUOUS
 10
-15.81697
 20
-61.87628
 11
-15.81697
 21
-70.209613
  0
LINE
  8
別途部材
  6
CONTINUOUS
 10
-14.81697
 20
-60.87628
 11
-14.81697
 21
-70.209613
  0
LINE
  8
別途部材
  6
CONTINUOUS
 10
-16.81697
 20
-61.87628
 11
-16.81697
 21
-70.209613
  0
LINE
  8
別途部材
  6
CONTINUOUS
 10
-17.81697
 20
-60.87628
 11
-17.81697
 21
-70.209613
  0
LINE
  8
別途部材
  6
CONTINUOUS
 10
23.18303
 20
-61.87628
 11
25.016362
 21
-61.87628
  0
ENDBLK
  0
BLOCK
  2
*GRP_0012
 70
    65
 10
0.0
 20
0.0
  0
LINE
  8
ボルト／ビス
  6
CONTINUOUS
 10
-77.31696
 20
-70.209608
 11
-77.31696
 21
-69.74294
  0
LINE
  8
ボルト／ビス
  6
CONTINUOUS
 10
-76.950292
 20
-70.209608
 11
-76.950292
 21
-70.14294
  0
LINE
  8
ボルト／ビス
  6
CONTINUOUS
 10
-76.950292
 20
-70.14294
 11
-77.683627
 21
-70.14294
  0
LINE
  8
ボルト／ビス
  6
CONTINUOUS
 10
-77.683627
 20
-70.14294
 11
-77.683627
 21
-70.209608
  0
LINE
  8
ボルト／ビス
  6
CONTINUOUS
 10
-76.950292
 20
-70.209608
 11
-77.683627
 21
-70.209608
  0
LINE
  8
ボルト／ビス
  6
CONTINUOUS
 10
-77.01696
 20
-70.109608
 11
-77.01696
 21
-70.14294
  0
LINE
  8
ボルト／ビス
  6
CONTINUOUS
 10
-77.01696
 20
-70.109608
 11
-77.61696
 21
-70.109608
  0
LINE
  8
ボルト／ビス
  6
CONTINUOUS
 10
-77.61696
 20
-70.109608
 11
-77.61696
 21
-70.14294
  0
LINE
  8
ボルト／ビス
  6
CONTINUOUS
 62
    64
 10
-77.156585
 20
-69.909608
 11
-77.12451
 21
-69.921282
  0
ARC
  8
ボルト／ビス
  6
CONTINUOUS
 62
    64
 10
-77.172622
 20
-70.014588
 40
0.104978
 50
90.0
 51
117.278033
  0
ARC
  8
ボルト／ビス
  6
CONTINUOUS
 62
    64
 10
-77.316959
 20
-70.312012
 40
0.402402
 50
76.165015
 51
103.834998
  0
LINE
  8
ボルト／ビス
  6
CONTINUOUS
 62
    64
 10
-77.477335
 20
-69.909608
 11
-77.50941
 21
-69.921282
  0
ARC
  8
ボルト／ビス
  6
CONTINUOUS
 62
    64
 10
-77.461297
 20
-70.014588
 40
0.104978
 50
62.721967
 51
90.0
  0
LINE
  8
ボルト／ビス
  6
CONTINUOUS
 62
    64
 10
-77.156585
 20
-69.909608
 11
-77.477335
 21
-69.909608
  0
LINE
  8
ボルト／ビス
  6
CONTINUOUS
 62
    64
 10
-77.50941
 20
-69.921282
 11
-77.50941
 21
-70.04294
  0
LINE
  8
ボルト／ビス
  6
CONTINUOUS
 62
    64
 10
-77.413185
 20
-69.921282
 11
-77.413185
 21
-70.04294
  0
LINE
  8
ボルト／ビス
  6
CONTINUOUS
 62
    64
 10
-77.12451
 20
-69.921282
 11
-77.12451
 21
-70.04294
  0
LINE
  8
ボルト／ビス
  6
CONTINUOUS
 62
    64
 10
-77.220735
 20
-69.921282
 11
-77.220735
 21
-70.04294
  0
LINE
  8
ボルト／ビス
  6
CONTINUOUS
 10
-77.12451
 20
-70.04294
 11
-77.50941
 21
-70.04294
  0
LINE
  8
ボルト／ビス
  6
CONTINUOUS
 10
-77.11696
 20
-70.04294
 11
-77.11696
 21
-70.109608
  0
LINE
  8
ボルト／ビス
  6
CONTINUOUS
 10
-77.11696
 20
-70.04294
 11
-77.51696
 21
-70.04294
  0
LINE
  8
ボルト／ビス
  6
CONTINUOUS
 10
-77.51696
 20
-70.04294
 11
-77.51696
 21
-70.109608
  0
ENDBLK
  0
BLOCK
  2
*GRP_0013
 70
    65
 10
0.0
 20
0.0
  0
LINE
  8
ボルト／ビス
  6
CONTINUOUS
 10
40.683043
 20
-70.209613
 11
40.683043
 21
-69.742945
  0
LINE
  8
ボルト／ビス
  6
CONTINUOUS
 10
41.04971
 20
-70.209613
 11
41.04971
 21
-70.142945
  0
LINE
  8
ボルト／ビス
  6
CONTINUOUS
 10
41.04971
 20
-70.142945
 11
40.316375
 21
-70.142945
  0
LINE
  8
ボルト／ビス
  6
CONTINUOUS
 10
40.316375
 20
-70.142945
 11
40.316375
 21
-70.209613
  0
LINE
  8
ボルト／ビス
  6
CONTINUOUS
 10
41.04971
 20
-70.209613
 11
40.316375
 21
-70.209613
  0
LINE
  8
ボルト／ビス
  6
CONTINUOUS
 10
40.983043
 20
-70.109612
 11
40.983043
 21
-70.142945
  0
LINE
  8
ボルト／ビス
  6
CONTINUOUS
 10
40.983043
 20
-70.109612
 11
40.383043
 21
-70.109612
  0
LINE
  8
ボルト／ビス
  6
CONTINUOUS
 10
40.383043
 20
-70.109612
 11
40.383043
 21
-70.142945
  0
LINE
  8
ボルト／ビス
  6
CONTINUOUS
 62
    64
 10
40.843418
 20
-69.909613
 11
40.875492
 21
-69.921288
  0
ARC
  8
ボルト／ビス
  6
CONTINUOUS
 62
    64
 10
40.827382
 20
-70.014593
 40
0.104978
 50
90.0
 51
117.278033
  0
ARC
  8
ボルト／ビス
  6
CONTINUOUS
 62
    64
 10
40.683044
 20
-70.312017
 40
0.402402
 50
76.165015
 51
103.834998
  0
LINE
  8
ボルト／ビス
  6
CONTINUOUS
 62
    64
 10
40.522667
 20
-69.909613
 11
40.490592
 21
-69.921288
  0
ARC
  8
ボルト／ビス
  6
CONTINUOUS
 62
    64
 10
40.538707
 20
-70.014593
 40
0.104978
 50
62.721967
 51
90.0
  0
LINE
  8
ボルト／ビス
  6
CONTINUOUS
 62
    64
 10
40.843418
 20
-69.909613
 11
40.522667
 21
-69.909613
  0
LINE
  8
ボルト／ビス
  6
CONTINUOUS
 62
    64
 10
40.490592
 20
-69.921288
 11
40.490592
 21
-70.042945
  0
LINE
  8
ボルト／ビス
  6
CONTINUOUS
 62
    64
 10
40.586817
 20
-69.921288
 11
40.586817
 21
-70.042945
  0
LINE
  8
ボルト／ビス
  6
CONTINUOUS
 62
    64
 10
40.875492
 20
-69.921288
 11
40.875492
 21
-70.042945
  0
LINE
  8
ボルト／ビス
  6
CONTINUOUS
 62
    64
 10
40.779268
 20
-69.921288
 11
40.779268
 21
-70.042945
  0
LINE
  8
ボルト／ビス
  6
CONTINUOUS
 10
40.875492
 20
-70.042945
 11
40.490592
 21
-70.042945
  0
LINE
  8
ボルト／ビス
  6
CONTINUOUS
 10
40.883043
 20
-70.042945
 11
40.883043
 21
-70.109612
  0
LINE
  8
ボルト／ビス
  6
CONTINUOUS
 10
40.883043
 20
-70.042945
 11
40.483043
 21
-70.042945
  0
LINE
  8
ボルト／ビス
  6
CONTINUOUS
 10
40.483043
 20
-70.042945
 11
40.483043
 21
-70.109612
  0
ENDBLK
  0
BLOCK
  2
*DIM_0014
 70
    65
 10
0.0
 20
0.0
  0
LINE
  8
寸法
  6
BYBLOCK
 62
     0
 10
-59.983625
 20
14.184373
 11
-59.983625
 21
9.001128
  0
LINE
  8
寸法
  6
BYBLOCK
 62
     0
 10
23.34971
 20
14.184373
 11
23.34971
 21
9.001128
  0
LINE
  8
寸法
  6
BYBLOCK
 62
     0
 10
-59.983625
 20
9.001128
 11
23.34971
 21
9.001128
  0
POINT
  8
寸法
 62
     0
 10
-59.983625
 20
9.001128
  0
POINT
  8
寸法
 62
     0
 10
23.34971
 20
9.001128
  0
TEXT
  7
TextStyle03
  8
寸法
  6
CONTINUOUS
 62
     0
 10
-21.60625
 20
9.4
  1
2500
 40
3.0
 72
     5
 11
-15.04375
 21
9.4
  0
ENDBLK
  0
BLOCK
  2
*DIM_0015
 70
    65
 10
0.0
 20
0.0
  0
LINE
  8
寸法
  6
CONTINUOUS
 10
46.516375
 20
-75.376282
 11
46.516375
 21
-13.121378
  0
LINE
  8
寸法
  6
CONTINUOUS
 10
40.016375
 20
-13.121378
 11
46.516375
 21
-13.121378
  0
POINT
  8
寸法
 10
40.016375
 20
-13.121378
  0
POINT
  8
寸法
 10
46.516375
 20
-13.121378
  0
TEXT
  7
TextStyle03
  8
寸法
  6
CONTINUOUS
 10
41.75
 20
-12.75
  1
※
 40
3.0
 72
     5
 11
44.75
 21
-12.75
  0
ENDBLK
  0
BLOCK
  2
*DIM_0016
 70
    65
 10
0.0
 20
0.0
  0
LINE
  8
寸法
  6
CONTINUOUS
 10
-83.150317
 20
-75.376282
 11
-83.150317
 21
-13.121378
  0
LINE
  8
寸法
  6
CONTINUOUS
 10
-76.650292
 20
-13.121378
 11
-83.150317
 21
-13.121378
  0
POINT
  8
寸法
 10
-76.650292
 20
-13.121378
  0
POINT
  8
寸法
 10
-83.150317
 20
-13.121378
  0
TEXT
  7
TextStyle03
  8
寸法
  6
CONTINUOUS
 10
-81.425
 20
-12.75
  1
※
 40
3.0
 72
     5
 11
-78.425
 21
-12.75
  0
ENDBLK
  0
BLOCK
  2
*DIM_0017
 70
    65
 10
0.0
 20
0.0
  0
LINE
  8
寸法
  6
CONTINUOUS
 10
42.68303
 20
-70.209613
 11
55.085173
 21
-70.209613
  0
LINE
  8
寸法
  6
CONTINUOUS
 10
42.016375
 20
-75.709613
 11
55.085173
 21
-75.709613
  0
LINE
  8
寸法
  6
CONTINUOUS
 10
55.085173
 20
-70.209613
 11
55.085173
 21
-75.709613
  0
POINT
  8
寸法
 10
55.085173
 20
-70.209613
  0
POINT
  8
寸法
 10
55.085173
 20
-75.709613
  0
TEXT
  7
TextStyle03
  8
寸法
  6
CONTINUOUS
 10
54.7
 20
-75.4125
  1
165
 40
3.0
 50
90.0
 72
     5
 11
54.7
 21
-70.5375
  0
ENDBLK
  0
BLOCK
  2
*DIM_0018
 70
    65
 10
0.0
 20
0.0
  0
LINE
  8
寸法
  6
CONTINUOUS
 10
47.516375
 20
-78.709613
 11
55.085173
 21
-78.709613
  0
LINE
  8
寸法
  6
CONTINUOUS
 10
55.085173
 20
-75.709613
 11
55.085173
 21
-78.709613
  0
POINT
  8
寸法
 10
55.085173
 20
-78.709613
  0
TEXT
  7
TextStyle03
  8
寸法
  6
CONTINUOUS
 10
54.7
 20
-78.725
  1
※
 40
3.0
 50
90.0
 72
     5
 11
54.7
 21
-75.725
  0
ENDBLK
  0
BLOCK
  2
*GRP_0019
 70
    65
 10
0.0
 20
0.0
  0
LINE
  8
型材断面
  6
DOT
 62
    47
 10
130.637515
 20
55.286867
 11
131.981045
 21
53.943338
  0
LINE
  8
型材断面
  6
DOT
 62
    47
 10
108.010078
 20
32.659427
 11
109.353608
 21
31.315898
  0
LINE
  8
型材断面
  6
DOT
 10
109.353608
 20
31.315898
 11
131.981045
 21
53.943338
  0
LINE
  8
別途部材
  6
DOT
 62
    96
 10
130.401802
 20
56.465367
 11
131.391753
 21
56.041105
  0
INSERT
  2
*GRP_0029
  8
別途部材
  6
DOT
 10
0.0
 20
0.0
  0
LINE
  8
別途部材
  6
DOT
 62
    96
 10
106.831575
 20
32.89514
 11
107.25584
 21
31.905192
  0
INSERT
  2
*GRP_0030
  8
別途部材
  6
DOT
 10
0.0
 20
0.0
  0
LINE
  8
別途部材
  6
DOT
 10
107.25584
 20
31.905192
 11
131.391753
 21
56.041105
  0
LINE
  8
別途部材
  6
DOT
 62
    96
 10
106.831575
 20
32.89514
 11
130.401802
 21
56.465367
  0
ARC
  8
別途部材
  6
DOT
 10
125.21635
 20
38.080592
 40
17.666667
 50
76.890792
 51
193.109208
  0
ENDBLK
  0
BLOCK
  2
*DIM_0020
 70
    65
 10
0.0
 20
0.0
  0
LINE
  8
寸法
  6
CONTINUOUS
 10
88.712418
 20
22.814033
 11
88.712418
 21
52.814033
  0
POINT
  8
寸法
 10
88.712418
 20
22.814033
 50
-90.0
  0
POINT
  8
寸法
 10
88.712418
 20
52.814033
 50
-90.0
  0
TEXT
  7
TextStyle03
  8
寸法
  6
CONTINUOUS
 10
88.375
 20
26.95
  1
呼称寸法　900
 40
3.0
 50
90.0
 72
     5
 11
88.375
 21
48.7
  0
ENDBLK
  0
BLOCK
  2
*DIM_0021
 70
    65
 10
0.0
 20
0.0
  0
LINE
  8
寸法
  6
CONTINUOUS
 10
134.359807
 20
16.314018
 11
88.712418
 21
16.314018
  0
LINE
  8
寸法
  6
CONTINUOUS
 10
88.712418
 20
22.814033
 11
88.712418
 21
16.314018
  0
POINT
  8
寸法
 10
88.712418
 20
22.814033
  0
POINT
  8
寸法
 10
88.712418
 20
16.314018
  0
TEXT
  7
TextStyle03
  8
寸法
  6
CONTINUOUS
 10
88.35
 20
18.1
  1
※
 40
3.0
 50
90.0
 72
     5
 11
88.35
 21
21.1
  0
ENDBLK
  0
BLOCK
  2
*DIM_0022
 70
    65
 10
0.0
 20
0.0
  0
LINE
  8
寸法
  6
CONTINUOUS
 10
134.359807
 20
59.314048
 11
88.712418
 21
59.314048
  0
LINE
  8
寸法
  6
CONTINUOUS
 10
88.712418
 20
52.814033
 11
88.712418
 21
59.314048
  0
POINT
  8
寸法
 10
88.712418
 20
52.814033
  0
POINT
  8
寸法
 10
88.712418
 20
59.314048
  0
TEXT
  7
TextStyle03
  8
寸法
  6
CONTINUOUS
 10
88.35
 20
54.6
  1
※
 40
3.0
 50
90.0
 72
     5
 11
88.35
 21
57.6
  0
ENDBLK
  0
BLOCK
  2
*DIM_0023
 70
    65
 10
0.0
 20
0.0
  0
LINE
  8
寸法
  6
CONTINUOUS
 10
120.859805
 20
38.814033
 11
120.859805
 21
75.913455
  0
LINE
  8
寸法
  6
CONTINUOUS
 10
129.193138
 20
55.480703
 11
129.193138
 21
75.913455
  0
LINE
  8
寸法
  6
CONTINUOUS
 10
120.859805
 20
75.913455
 11
129.193138
 21
75.913455
  0
POINT
  8
寸法
 10
120.859805
 20
75.913455
  0
POINT
  8
寸法
 10
129.193138
 20
75.913455
  0
TEXT
  7
TextStyle03
  8
寸法
  6
CONTINUOUS
 10
122.6125
 20
76.325
  1
250
 40
3.0
 72
     5
 11
127.4875
 21
76.325
  0
ENDBLK
  0
BLOCK
  2
*DIM_0024
 70
    65
 10
0.0
 20
0.0
  0
LINE
  8
寸法
  6
CONTINUOUS
 10
134.693138
 20
54.814048
 11
134.693138
 21
75.913455
  0
LINE
  8
寸法
  6
CONTINUOUS
 10
129.193138
 20
75.913455
 11
134.693138
 21
75.913455
  0
POINT
  8
寸法
 10
134.693138
 20
75.913455
  0
TEXT
  7
TextStyle03
  8
寸法
  6
CONTINUOUS
 10
129.5125
 20
76.325
  1
165
 40
3.0
 72
     5
 11
134.3875
 21
76.325
  0
ENDBLK
  0
BLOCK
  2
*DIM_0025
 70
    65
 10
0.0
 20
0.0
  0
LINE
  8
寸法
  6
CONTINUOUS
 10
137.693138
 20
60.314048
 11
137.693138
 21
75.913455
  0
LINE
  8
寸法
  6
CONTINUOUS
 10
134.693138
 20
75.913455
 11
137.693138
 21
75.913455
  0
POINT
  8
寸法
 10
137.693138
 20
75.913455
  0
TEXT
  7
TextStyle03
  8
寸法
  6
CONTINUOUS
 10
134.7
 20
76.325
  1
※
 40
3.0
 72
     5
 11
137.7
 21
76.325
  0
ENDBLK
  0
BLOCK
  2
*GRP_0026
 70
    65
 10
0.0
 20
0.0
  0
LINE
  8
ボルト／ビス
  6
CONTINUOUS
 10
129.19314
 20
53.480703
 11
128.726473
 21
53.480703
  0
LINE
  8
ボルト／ビス
  6
CONTINUOUS
 10
129.19314
 20
53.84737
 11
129.126473
 21
53.84737
  0
LINE
  8
ボルト／ビス
  6
CONTINUOUS
 10
129.126473
 20
53.84737
 11
129.126473
 21
53.114035
  0
LINE
  8
ボルト／ビス
  6
CONTINUOUS
 10
129.126473
 20
53.114035
 11
129.19314
 21
53.114035
  0
LINE
  8
ボルト／ビス
  6
CONTINUOUS
 10
129.19314
 20
53.84737
 11
129.19314
 21
53.114035
  0
LINE
  8
ボルト／ビス
  6
CONTINUOUS
 10
129.09314
 20
53.780703
 11
129.126473
 21
53.780703
  0
LINE
  8
ボルト／ビス
  6
CONTINUOUS
 10
129.09314
 20
53.780703
 11
129.09314
 21
53.180703
  0
LINE
  8
ボルト／ビス
  6
CONTINUOUS
 10
129.09314
 20
53.180703
 11
129.126473
 21
53.180703
  0
LINE
  8
ボルト／ビス
  6
CONTINUOUS
 62
    64
 10
128.89314
 20
53.641078
 11
128.904815
 21
53.673152
  0
ARC
  8
ボルト／ビス
  6
CONTINUOUS
 62
    64
 10
128.998118
 20
53.625044
 40
0.104978
 50
180.0
 51
207.278033
  0
ARC
  8
ボルト／ビス
  6
CONTINUOUS
 62
    64
 10
129.295542
 20
53.480707
 40
0.402402
 50
166.165015
 51
193.834998
  0
LINE
  8
ボルト／ビス
  6
CONTINUOUS
 62
    64
 10
128.89314
 20
53.320327
 11
128.904815
 21
53.288253
  0
ARC
  8
ボルト／ビス
  6
CONTINUOUS
 62
    64
 10
128.998118
 20
53.336369
 40
0.104978
 50
152.721967
 51
180.0
  0
LINE
  8
ボルト／ビス
  6
CONTINUOUS
 62
    64
 10
128.89314
 20
53.641078
 11
128.89314
 21
53.320327
  0
LINE
  8
ボルト／ビス
  6
CONTINUOUS
 62
    64
 10
128.904815
 20
53.288253
 11
129.026473
 21
53.288253
  0
LINE
  8
ボルト／ビス
  6
CONTINUOUS
 62
    64
 10
128.904815
 20
53.384477
 11
129.026473
 21
53.384477
  0
LINE
  8
ボルト／ビス
  6
CONTINUOUS
 62
    64
 10
128.904815
 20
53.673152
 11
129.026473
 21
53.673152
  0
LINE
  8
ボルト／ビス
  6
CONTINUOUS
 62
    64
 10
128.904815
 20
53.576928
 11
129.026473
 21
53.576928
  0
LINE
  8
ボルト／ビス
  6
CONTINUOUS
 10
129.026473
 20
53.673152
 11
129.026473
 21
53.288253
  0
LINE
  8
ボルト／ビス
  6
CONTINUOUS
 10
129.026473
 20
53.680703
 11
129.09314
 21
53.680703
  0
LINE
  8
ボルト／ビス
  6
CONTINUOUS
 10
129.026473
 20
53.680703
 11
129.026473
 21
53.280703
  0
LINE
  8
ボルト／ビス
  6
CONTINUOUS
 10
129.026473
 20
53.280703
 11
129.09314
 21
53.280703
  0
ENDBLK
  0
BLOCK
  2
*GRP_0027
 70
    65
 10
0.0
 20
0.0
  0
LINE
  8
ボルト／ビス
  6
CONTINUOUS
 10
129.19314
 20
22.147365
 11
128.726473
 21
22.147365
  0
LINE
  8
ボルト／ビス
  6
CONTINUOUS
 10
129.19314
 20
21.780697
 11
129.126473
 21
21.780697
  0
LINE
  8
ボルト／ビス
  6
CONTINUOUS
 10
129.126473
 20
21.780697
 11
129.126473
 21
22.514033
  0
LINE
  8
ボルト／ビス
  6
CONTINUOUS
 10
129.126473
 20
22.514033
 11
129.19314
 21
22.514033
  0
LINE
  8
ボルト／ビス
  6
CONTINUOUS
 10
129.19314
 20
21.780697
 11
129.19314
 21
22.514033
  0
LINE
  8
ボルト／ビス
  6
CONTINUOUS
 10
129.09314
 20
21.847365
 11
129.126473
 21
21.847365
  0
LINE
  8
ボルト／ビス
  6
CONTINUOUS
 10
129.09314
 20
21.847365
 11
129.09314
 21
22.447365
  0
LINE
  8
ボルト／ビス
  6
CONTINUOUS
 10
129.09314
 20
22.447365
 11
129.126473
 21
22.447365
  0
LINE
  8
ボルト／ビス
  6
CONTINUOUS
 62
    64
 10
128.89314
 20
21.98699
 11
128.904815
 21
21.954915
  0
ARC
  8
ボルト／ビス
  6
CONTINUOUS
 62
    64
 10
128.998118
 20
22.00303
 40
0.104978
 50
152.721967
 51
180.0
  0
ARC
  8
ボルト／ビス
  6
CONTINUOUS
 62
    64
 10
129.295542
 20
22.147368
 40
0.402402
 50
166.165002
 51
193.834985
  0
LINE
  8
ボルト／ビス
  6
CONTINUOUS
 62
    64
 10
128.89314
 20
22.30774
 11
128.904815
 21
22.339815
  0
ARC
  8
ボルト／ビス
  6
CONTINUOUS
 62
    64
 10
128.998118
 20
22.291705
 40
0.104978
 50
180.0
 51
207.278033
  0
LINE
  8
ボルト／ビス
  6
CONTINUOUS
 62
    64
 10
128.89314
 20
21.98699
 11
128.89314
 21
22.30774
  0
LINE
  8
ボルト／ビス
  6
CONTINUOUS
 62
    64
 10
128.904815
 20
22.339815
 11
129.026473
 21
22.339815
  0
LINE
  8
ボルト／ビス
  6
CONTINUOUS
 62
    64
 10
128.904815
 20
22.24359
 11
129.026473
 21
22.24359
  0
LINE
  8
ボルト／ビス
  6
CONTINUOUS
 62
    64
 10
128.904815
 20
21.954915
 11
129.026473
 21
21.954915
  0
LINE
  8
ボルト／ビス
  6
CONTINUOUS
 62
    64
 10
128.904815
 20
22.05114
 11
129.026473
 21
22.05114
  0
LINE
  8
ボルト／ビス
  6
CONTINUOUS
 10
129.026473
 20
21.954915
 11
129.026473
 21
22.339815
  0
LINE
  8
ボルト／ビス
  6
CONTINUOUS
 10
129.026473
 20
21.947365
 11
129.09314
 21
21.947365
  0
LINE
  8
ボルト／ビス
  6
CONTINUOUS
 10
129.026473
 20
21.947365
 11
129.026473
 21
22.347365
  0
LINE
  8
ボルト／ビス
  6
CONTINUOUS
 10
129.026473
 20
22.347365
 11
129.09314
 21
22.347365
  0
ENDBLK
  0
BLOCK
  2
*GRP_0028
 70
    65
 10
0.0
 20
0.0
  0
INSERT
  2
*GRP_0031
  8
補助線
  6
CONTINUOUS
 10
0.0
 20
0.0
  0
CIRCLE
  8
別途部材
  6
CONTINUOUS
 10
132.193177
 20
54.014048
 40
0.2
  0
CIRCLE
  8
別途部材
  6
CONTINUOUS
 10
132.193177
 20
54.014048
 40
0.1
  0
LINE
  8
別途部材
  6
CONTINUOUS
 10
130.793177
 20
53.914048
 11
130.793177
 21
53.814048
  0
LINE
  8
別途部材
  6
CONTINUOUS
 10
132.193177
 20
53.814048
 11
130.793177
 21
53.814048
  0
LINE
  8
別途部材
  6
CONTINUOUS
 10
130.793177
 20
53.914048
 11
132.019973
 21
53.914048
  0
LINE
  8
別途部材
  6
CONTINUOUS
 10
133.593177
 20
53.914048
 11
133.593177
 21
53.814048
  0
LINE
  8
別途部材
  6
CONTINUOUS
 10
132.193177
 20
53.814048
 11
133.593177
 21
53.814048
  0
LINE
  8
別途部材
  6
CONTINUOUS
 10
133.593177
 20
53.914048
 11
132.366382
 21
53.914048
  0
LINE
  8
別途部材
  6
CONTINUOUS
 10
131.059843
 20
53.914048
 11
131.059843
 21
53.814048
  0
LINE
  8
別途部材
  6
CONTINUOUS
 10
131.326507
 20
53.914048
 11
131.326507
 21
53.814048
  0
LINE
  8
別途部材
  6
CONTINUOUS
 10
131.593177
 20
53.914048
 11
131.593177
 21
53.814048
  0
LINE
  8
別途部材
  6
CONTINUOUS
 10
133.326507
 20
53.914048
 11
133.326507
 21
53.814048
  0
LINE
  8
別途部材
  6
CONTINUOUS
 10
133.059843
 20
53.914048
 11
133.059843
 21
53.814048
  0
LINE
  8
別途部材
  6
CONTINUOUS
 10
132.793177
 20
53.914048
 11
132.793177
 21
53.814048
  0
ENDBLK
  0
BLOCK
  2
*GRP_0029
 70
    65
 10
0.0
 20
0.0
  0
LINE
  8
ボルト／ビス
  6
DOT
 10
129.694698
 20
55.758262
 11
129.364715
 21
56.088245
  0
LINE
  8
ボルト／ビス
  6
DOT
 10
129.953973
 20
56.017535
 11
129.90683
 21
56.064677
  0
LINE
  8
ボルト／ビス
  6
DOT
 10
129.90683
 20
56.064677
 11
129.388285
 21
55.54613
  0
LINE
  8
ボルト／ビス
  6
DOT
 10
129.388285
 20
55.54613
 11
129.435427
 21
55.498987
  0
LINE
  8
ボルト／ビス
  6
DOT
 10
129.953973
 20
56.017535
 11
129.435427
 21
55.498987
  0
LINE
  8
ボルト／ビス
  6
DOT
 10
129.83612
 20
56.041102
 11
129.859687
 21
56.017535
  0
LINE
  8
ボルト／ビス
  6
DOT
 10
129.83612
 20
56.041102
 11
129.411855
 21
55.61684
  0
LINE
  8
ボルト／ビス
  6
DOT
 10
129.411855
 20
55.61684
 11
129.435425
 21
55.59327
  0
LINE
  8
ボルト／ビス
  6
DOT
 62
    64
 10
129.595968
 20
56.083795
 11
129.626905
 21
56.09822
  0
ARC
  8
ボルト／ビス
  6
DOT
 62
    64
 10
129.658861
 20
55.998228
 40
0.104978
 50
135.0
 51
162.278033
  0
ARC
  8
ボルト／ビス
  6
DOT
 62
    64
 10
129.767109
 20
55.685855
 40
0.402402
 50
121.165015
 51
148.834998
  0
LINE
  8
ボルト／ビス
  6
DOT
 62
    64
 10
129.369165
 20
55.856992
 11
129.35474
 21
55.826055
  0
ARC
  8
ボルト／ビス
  6
DOT
 62
    64
 10
129.454736
 20
55.794103
 40
0.104978
 50
107.721967
 51
135.0
  0
LINE
  8
ボルト／ビス
  6
DOT
 62
    64
 10
129.595968
 20
56.083795
 11
129.369165
 21
55.856992
  0
LINE
  8
ボルト／ビス
  6
DOT
 62
    64
 10
129.35474
 20
55.826055
 11
129.440762
 21
55.74003
  0
LINE
  8
ボルト／ビス
  6
DOT
 62
    64
 10
129.42278
 20
55.894097
 11
129.508805
 21
55.808072
  0
LINE
  8
ボルト／ビス
  6
DOT
 62
    64
 10
129.626905
 20
56.09822
 11
129.712927
 21
56.012197
  0
LINE
  8
ボルト／ビス
  6
DOT
 62
    64
 10
129.558863
 20
56.030177
 11
129.644888
 21
55.944155
  0
LINE
  8
ボルト／ビス
  6
DOT
 10
129.712927
 20
56.012197
 11
129.440762
 21
55.74003
  0
LINE
  8
ボルト／ビス
  6
DOT
 10
129.718268
 20
56.017535
 11
129.76541
 21
55.970392
  0
LINE
  8
ボルト／ビス
  6
DOT
 10
129.718268
 20
56.017535
 11
129.435425
 21
55.734692
  0
LINE
  8
ボルト／ビス
  6
DOT
 10
129.435425
 20
55.734692
 11
129.482568
 21
55.68755
  0
ENDBLK
  0
BLOCK
  2
*GRP_0030
 70
    65
 10
0.0
 20
0.0
  0
LINE
  8
ボルト／ビス
  6
DOT
 10
107.538682
 20
33.602247
 11
107.2087
 21
33.93223
  0
LINE
  8
ボルト／ビス
  6
DOT
 10
107.27941
 20
33.342972
 11
107.232267
 21
33.390115
  0
LINE
  8
ボルト／ビス
  6
DOT
 10
107.232267
 20
33.390115
 11
107.750815
 21
33.90866
  0
LINE
  8
ボルト／ビス
  6
DOT
 10
107.750815
 20
33.90866
 11
107.797957
 21
33.861518
  0
LINE
  8
ボルト／ビス
  6
DOT
 10
107.27941
 20
33.342972
 11
107.797957
 21
33.861518
  0
LINE
  8
ボルト／ビス
  6
DOT
 10
107.255842
 20
33.460825
 11
107.27941
 21
33.437255
  0
LINE
  8
ボルト／ビス
  6
DOT
 10
107.255842
 20
33.460825
 11
107.680105
 21
33.885088
  0
LINE
  8
ボルト／ビス
  6
DOT
 10
107.680105
 20
33.885088
 11
107.703673
 21
33.86152
  0
LINE
  8
ボルト／ビス
  6
DOT
 62
    64
 10
107.21315
 20
33.700978
 11
107.198725
 21
33.67004
  0
ARC
  8
ボルト／ビス
  6
DOT
 62
    64
 10
107.29872
 20
33.638087
 40
0.104978
 50
107.721967
 51
135.0
  0
ARC
  8
ボルト／ビス
  6
DOT
 62
    64
 10
107.611093
 20
33.529839
 40
0.402402
 50
121.165002
 51
148.834985
  0
LINE
  8
ボルト／ビス
  6
DOT
 62
    64
 10
107.439953
 20
33.92778
 11
107.47089
 21
33.942205
  0
ARC
  8
ボルト／ビス
  6
DOT
 62
    64
 10
107.502844
 20
33.842211
 40
0.104978
 50
135.0
 51
162.278033
  0
LINE
  8
ボルト／ビス
  6
DOT
 62
    64
 10
107.21315
 20
33.700978
 11
107.439953
 21
33.92778
  0
LINE
  8
ボルト／ビス
  6
DOT
 62
    64
 10
107.47089
 20
33.942205
 11
107.556913
 21
33.856183
  0
LINE
  8
ボルト／ビス
  6
DOT
 62
    64
 10
107.402847
 20
33.874163
 11
107.488873
 21
33.78814
  0
LINE
  8
ボルト／ビス
  6
DOT
 62
    64
 10
107.198725
 20
33.67004
 11
107.284748
 21
33.584017
  0
LINE
  8
ボルト／ビス
  6
DOT
 62
    64
 10
107.266765
 20
33.738083
 11
107.35279
 21
33.652058
  0
LINE
  8
ボルト／ビス
  6
DOT
 10
107.284748
 20
33.584017
 11
107.556913
 21
33.856183
  0
LINE
  8
ボルト／ビス
  6
DOT
 10
107.27941
 20
33.578678
 11
107.326553
 21
33.531535
  0
LINE
  8
ボルト／ビス
  6
DOT
 10
107.27941
 20
33.578678
 11
107.562253
 21
33.86152
  0
LINE
  8
ボルト／ビス
  6
DOT
 10
107.562253
 20
33.86152
 11
107.609395
 21
33.814378
  0
ENDBLK
  0
BLOCK
  2
*GRP_0031
 70
    65
 10
0.0
 20
0.0
  0
LINE
  8
補助線
  6
BYBLOCK
 62
     0
 10
132.193177
 20
53.84738
 11
132.193177
 21
54.180712
  0
LINE
  8
補助線
  6
BYBLOCK
 62
     0
 10
132.026507
 20
54.014048
 11
132.359843
 21
54.014048
  0
ENDBLK
  0
BLOCK
  2
*DIM_0032
 70
    65
 10
0.0
 20
0.0
  0
LINE
  8
寸法
  6
CONTINUOUS
 10
132.79062
 20
-36.352753
 11
132.79062
 21
-26.998225
  0
LINE
  8
寸法
  6
CONTINUOUS
 10
88.237287
 20
-36.352753
 11
88.237287
 21
-26.998225
  0
LINE
  8
寸法
  6
CONTINUOUS
 10
132.79062
 20
-26.998225
 11
88.237287
 21
-26.998225
  0
POINT
  8
寸法
 10
132.79062
 20
-26.998225
  0
POINT
  8
寸法
 10
88.237287
 20
-26.998225
  0
TEXT
  7
TextStyle03
  8
寸法
  6
CONTINUOUS
 10
105.55625
 20
-26.625
  1
1336.6
 40
3.0
 72
     5
 11
115.49375
 21
-26.625
  0
ENDBLK
  0
BLOCK
  2
*DIM_0033
 70
    65
 10
0.0
 20
0.0
  0
LINE
  8
寸法
  6
CONTINUOUS
 10
133.79062
 20
-37.352753
 11
142.766328
 21
-37.352753
  0
LINE
  8
寸法
  6
CONTINUOUS
 10
133.79062
 20
-67.352753
 11
142.766328
 21
-67.352753
  0
LINE
  8
寸法
  6
CONTINUOUS
 10
142.766328
 20
-37.352753
 11
142.766328
 21
-67.352753
  0
POINT
  8
寸法
 10
142.766328
 20
-37.352753
  0
POINT
  8
寸法
 10
142.766328
 20
-67.352753
  0
TEXT
  7
TextStyle03
  8
寸法
  6
CONTINUOUS
 10
142.375
 20
-54.8125
  1
900
 40
3.0
 50
90.0
 72
     5
 11
142.375
 21
-49.9375
  0
ENDBLK
  0
BLOCK
  2
*DIM_0034
 70
    65
 10
0.0
 20
0.0
  0
LINE
  8
寸法
  6
BYBLOCK
 62
     0
 10
-71.65029
 20
62.183577
 11
-71.65029
 21
91.29165
  0
LINE
  8
寸法
  6
BYBLOCK
 62
     0
 10
-44.983625
 20
62.183577
 11
-44.983625
 21
91.29165
  0
LINE
  8
寸法
  6
BYBLOCK
 62
     0
 10
-71.65029
 20
91.29165
 11
-44.983625
 21
91.29165
  0
POINT
  8
寸法
 62
     0
 10
-71.65029
 20
91.29165
  0
POINT
  8
寸法
 62
     0
 10
-44.983625
 20
91.29165
  0
TEXT
  7
TextStyle03
  8
寸法
  6
CONTINUOUS
 62
     0
 10
-60.7625
 20
91.625
  1
800
 40
3.0
 72
     5
 11
-55.8875
 21
91.625
  0
ENDBLK
  0
BLOCK
  2
*DIM_0035
 70
    65
 10
0.0
 20
0.0
  0
LINE
  8
寸法
  6
BYBLOCK
 62
     0
 10
-18.316957
 20
62.183577
 11
-18.316957
 21
91.29165
  0
LINE
  8
寸法
  6
BYBLOCK
 62
     0
 10
-44.983625
 20
91.29165
 11
-18.316957
 21
91.29165
  0
POINT
  8
寸法
 62
     0
 10
-18.316957
 20
91.29165
  0
TEXT
  7
TextStyle03
  8
寸法
  6
CONTINUOUS
 62
     0
 10
-34.1125
 20
91.625
  1
800
 40
3.0
 72
     5
 11
-29.2375
 21
91.625
  0
ENDBLK
  0
BLOCK
  2
*DIM_0036
 70
    65
 10
0.0
 20
0.0
  0
LINE
  8
寸法
  6
BYBLOCK
 62
     0
 10
8.34971
 20
62.183577
 11
8.34971
 21
91.29165
  0
LINE
  8
寸法
  6
BYBLOCK
 62
     0
 10
-18.316957
 20
91.29165
 11
8.34971
 21
91.29165
  0
POINT
  8
寸法
 62
     0
 10
8.34971
 20
91.29165
  0
TEXT
  7
TextStyle03
  8
寸法
  6
CONTINUOUS
 62
     0
 10
-7.4375
 20
91.625
  1
800
 40
3.0
 72
     5
 11
-2.5625
 21
91.625
  0
ENDBLK
  0
BLOCK
  2
*DIM_0037
 70
    65
 10
0.0
 20
0.0
  0
LINE
  8
寸法
  6
BYBLOCK
 62
     0
 10
35.016375
 20
62.183577
 11
35.016375
 21
91.29165
  0
LINE
  8
寸法
  6
BYBLOCK
 62
     0
 10
8.34971
 20
91.29165
 11
35.016375
 21
91.29165
  0
POINT
  8
寸法
 62
     0
 10
35.016375
 20
91.29165
  0
TEXT
  7
TextStyle03
  8
寸法
  6
CONTINUOUS
 62
     0
 10
19.2375
 20
91.625
  1
800
 40
3.0
 72
     5
 11
24.1125
 21
91.625
  0
ENDBLK
  0
ENDSEC
  0
SECTION
  2
ENTITIES
  0
POLYLINE
  8
通り芯
  6
CONTINUOUS
 66
     1
 70
     1
  0
VERTEX
  8
通り芯
 10
-210.0
 20
-148.5
  0
VERTEX
  8
通り芯
 10
210.0
 20
-148.5
  0
VERTEX
  8
通り芯
 10
210.0
 20
148.5
  0
VERTEX
  8
通り芯
 10
-210.0
 20
148.5
  0
SEQEND
  0
INSERT
  2
*GRP_0001
  8
型材断面
  6
CONTINUOUS
 10
0.0
 20
0.0
  0
LINE
  8
型材断面
  6
DASHDOT
 10
40.016375
 20
-77.836442
 11
40.016375
 21
52.814033
  0
LINE
  8
型材断面
  6
DASHDOT
 10
-18.316957
 20
-77.836442
 11
-18.316957
 21
52.814033
  0
LINE
  8
型材断面
  6
DASHDOT
 10
-76.650292
 20
-77.836442
 11
-76.650292
 21
52.814033
  0
LINE
  8
型材断面
  6
DASHDOT
 10
137.693138
 20
22.814033
 11
-76.650292
 21
22.814033
  0
LINE
  8
型材断面
  6
DASHDOT
 10
137.693138
 20
37.814033
 11
-76.650292
 21
37.814033
  0
LINE
  8
型材断面
  6
DASHDOT
 10
137.693138
 20
52.814033
 11
-76.650292
 21
52.814033
  0
LINE
  8
型材断面
  6
CONTINUOUS
 10
-59.983625
 20
55.444162
 11
-61.479255
 21
58.03467
  0
LINE
  8
型材断面
  6
CONTINUOUS
 10
-59.983625
 20
55.444162
 11
-58.487995
 21
58.03467
  0
LINE
  8
型材断面
  6
CONTINUOUS
 10
-58.487995
 20
58.03467
 11
-61.479255
 21
58.03467
  0
LINE
  8
型材断面
  6
CONTINUOUS
 10
-79.280422
 20
37.814033
 11
-81.87093
 21
39.309663
  0
LINE
  8
型材断面
  6
CONTINUOUS
 10
-79.280422
 20
37.814033
 11
-81.87093
 21
36.318403
  0
LINE
  8
型材断面
  6
CONTINUOUS
 10
-81.87093
 20
36.318403
 11
-81.87093
 21
39.309663
  0
LINE
  8
型材断面
  6
CONTINUOUS
 10
-59.983625
 20
20.183902
 11
-61.479255
 21
17.593395
  0
LINE
  8
型材断面
  6
CONTINUOUS
 10
-59.983625
 20
20.183902
 11
-58.487995
 21
17.593395
  0
LINE
  8
型材断面
  6
CONTINUOUS
 10
-58.487995
 20
17.593395
 11
-61.479255
 21
17.593395
  0
LINE
  8
型材断面
  6
CONTINUOUS
 10
-130.528815
 20
90.791505
 11
-129.93276
 21
88.200998
  0
LINE
  8
型材断面
  6
CONTINUOUS
 10
-130.528815
 20
90.791505
 11
-131.124873
 21
88.200998
  0
LINE
  8
型材断面
  6
CONTINUOUS
 10
-131.124873
 20
88.200998
 11
-129.93276
 21
88.200998
  0
LINE
  8
型材断面
  6
CONTINUOUS
 10
-136.551403
 20
84.922105
 11
-90.309625
 21
84.922105
  0
LINE
  8
型材断面
  6
CONTINUOUS
 10
-130.528815
 20
97.32138
 11
-132.024445
 21
94.730873
  0
LINE
  8
型材断面
  6
CONTINUOUS
 10
-130.528815
 20
97.32138
 11
-129.033185
 21
94.730873
  0
LINE
  8
型材断面
  6
CONTINUOUS
 10
-129.033185
 20
94.730873
 11
-132.024445
 21
94.730873
  0
LINE
  8
型材断面
  6
CONTINUOUS
 10
-136.551403
 20
93.792277
 11
-90.309625
 21
93.792277
  0
LINE
  8
型材断面
  6
CONTINUOUS
 10
-136.551403
 20
79.134073
 11
-90.309625
 21
79.134073
  0
LINE
  8
型材断面
  6
CONTINUOUS
 10
23.34971
 20
55.444162
 11
24.84534
 21
58.03467
  0
LINE
  8
型材断面
  6
CONTINUOUS
 10
23.34971
 20
55.444162
 11
21.85408
 21
58.03467
  0
LINE
  8
型材断面
  6
CONTINUOUS
 10
21.85408
 20
58.03467
 11
24.84534
 21
58.03467
  0
LINE
  8
型材断面
  6
CONTINUOUS
 10
42.646508
 20
37.814033
 11
45.237015
 21
39.309663
  0
LINE
  8
型材断面
  6
CONTINUOUS
 10
42.646508
 20
37.814033
 11
45.237015
 21
36.318403
  0
LINE
  8
型材断面
  6
CONTINUOUS
 10
45.237015
 20
36.318403
 11
45.237015
 21
39.309663
  0
LINE
  8
型材断面
  6
CONTINUOUS
 10
23.34971
 20
20.183902
 11
24.84534
 21
17.593395
  0
LINE
  8
型材断面
  6
CONTINUOUS
 10
23.34971
 20
20.183902
 11
21.85408
 21
17.593395
  0
LINE
  8
型材断面
  6
CONTINUOUS
 10
21.85408
 20
17.593395
 11
24.84534
 21
17.593395
  0
LINE
  8
型材断面
  6
CONTINUOUS
 10
38.016375
 20
20.20722
 11
37.420318
 21
17.616715
  0
LINE
  8
型材断面
  6
CONTINUOUS
 10
38.016375
 20
20.20722
 11
38.612433
 21
17.616715
  0
LINE
  8
型材断面
  6
CONTINUOUS
 10
38.612433
 20
17.616715
 11
37.420318
 21
17.616715
  0
LINE
  8
型材断面
  6
CONTINUOUS
 10
-74.65029
 20
20.20722
 11
-74.054233
 21
17.616715
  0
LINE
  8
型材断面
  6
CONTINUOUS
 10
-74.65029
 20
20.20722
 11
-75.246347
 21
17.616715
  0
LINE
  8
型材断面
  6
CONTINUOUS
 10
-75.246347
 20
17.616715
 11
-74.054233
 21
17.616715
  0
LINE
  8
型材断面
  6
CONTINUOUS
 10
-83.150305
 20
16.314018
 11
-78.71696
 21
20.747363
  0
LINE
  8
型材断面
  6
CONTINUOUS
 10
42.083043
 20
20.747363
 11
46.516388
 21
16.314018
  0
LINE
  8
型材断面
  6
CONTINUOUS
 10
46.516388
 20
16.314018
 11
-83.150305
 21
16.314018
  0
LINE
  8
型材断面
  6
CONTINUOUS
 10
-78.71696
 20
54.880703
 11
-83.150305
 21
59.314048
  0
LINE
  8
型材断面
  6
CONTINUOUS
 10
-83.150305
 20
16.314018
 11
-83.150305
 21
59.314048
  0
LINE
  8
型材断面
  6
CONTINUOUS
 10
42.083043
 20
54.880703
 11
46.516388
 21
59.314048
  0
LINE
  8
型材断面
  6
CONTINUOUS
 10
46.516388
 20
59.314048
 11
46.516388
 21
16.314018
  0
LINE
  8
型材断面
  6
CONTINUOUS
 10
46.516388
 20
59.314048
 11
-83.150305
 21
59.314048
  0
POLYLINE
  8
型材断面
  6
DASHDOT
 66
     1
  0
VERTEX
  8
型材断面
 10
-76.65029
 20
22.814033
  0
VERTEX
  8
型材断面
 10
-18.316957
 20
52.814033
  0
VERTEX
  8
型材断面
 10
40.016373
 20
22.814033
  0
SEQEND
  0
LINE
  8
型材断面
  6
DOT
 10
2.544153
 20
52.814033
 11
2.544153
 21
22.814033
  0
LINE
  8
型材断面
  6
DASHDOT
 10
1.377485
 20
52.814033
 11
1.377485
 21
22.814033
  0
LINE
  8
型材断面
  6
DOT
 10
0.210817
 20
52.814033
 11
0.210817
 21
22.814033
  0
LINE
  8
型材断面
  6
DOT
 10
-39.17807
 20
52.814033
 11
-39.17807
 21
22.814033
  0
LINE
  8
型材断面
  6
DASHDOT
 10
-38.011402
 20
52.814033
 11
-38.011402
 21
22.814033
  0
LINE
  8
型材断面
  6
DOT
 10
-36.844735
 20
52.814033
 11
-36.844735
 21
22.814033
  0
LINE
  8
型材断面
  6
CONTINUOUS
 10
-18.31696
 20
59.314048
 11
-18.31696
 21
54.880703
  0
LINE
  8
型材断面
  6
CONTINUOUS
 10
-18.316957
 20
16.314018
 11
-18.316957
 21
20.747363
  0
LINE
  8
型材断面
  6
CONTINUOUS
 62
    47
 10
-77.650317
 20
-71.209613
 11
-77.650317
 21
-73.109652
  0
LINE
  8
型材断面
  6
CONTINUOUS
 10
-77.650317
 20
-73.309652
 11
-77.650317
 21
-75.709613
  0
LINE
  8
型材断面
  6
CONTINUOUS
 10
-77.650317
 20
-75.709613
 11
-83.150317
 21
-76.376282
  0
LINE
  8
型材断面
  6
CONTINUOUS
 10
-83.150317
 20
-78.709613
 11
-83.150317
 21
-76.376282
  0
LINE
  8
型材断面
  6
CONTINUOUS
 62
    47
 10
41.016375
 20
-71.209613
 11
41.016375
 21
-73.109652
  0
LINE
  8
型材断面
  6
CONTINUOUS
 10
41.016375
 20
-73.309652
 11
41.016375
 21
-75.709613
  0
LINE
  8
型材断面
  6
CONTINUOUS
 10
41.016375
 20
-75.709613
 11
46.516375
 21
-76.376282
  0
LINE
  8
型材断面
  6
CONTINUOUS
 10
46.516375
 20
-78.709613
 11
46.516375
 21
-76.376282
  0
LINE
  8
型材断面
  6
CONTINUOUS
 10
-83.150317
 20
-78.709613
 11
46.516375
 21
-78.709613
  0
LINE
  8
型材断面
  6
CONTINUOUS
 10
-83.150317
 20
-76.376282
 11
46.516375
 21
-76.376282
  0
LINE
  8
型材断面
  6
CONTINUOUS
 10
41.016375
 20
-73.109652
 11
-77.650317
 21
-73.109652
  0
LINE
  8
型材断面
  6
CONTINUOUS
 10
41.016375
 20
-73.309652
 11
-77.650317
 21
-73.309652
  0
LINE
  8
型材断面
  6
CONTINUOUS
 10
41.016375
 20
-75.709613
 11
-77.650317
 21
-75.709613
  0
LINE
  8
型材断面
  6
CONTINUOUS
 62
    47
 10
130.193138
 20
53.814048
 11
132.093177
 21
53.814048
  0
LINE
  8
型材断面
  6
CONTINUOUS
 10
132.293177
 20
53.814048
 11
134.693138
 21
53.814048
  0
LINE
  8
型材断面
  6
CONTINUOUS
 10
134.693138
 20
53.814048
 11
135.359807
 21
59.314048
  0
LINE
  8
型材断面
  6
CONTINUOUS
 10
137.693138
 20
59.314048
 11
135.359807
 21
59.314048
  0
LINE
  8
型材断面
  6
CONTINUOUS
 62
    47
 10
130.193138
 20
21.814018
 11
132.093177
 21
21.814018
  0
LINE
  8
型材断面
  6
CONTINUOUS
 10
132.293177
 20
21.814018
 11
134.693138
 21
21.814018
  0
LINE
  8
型材断面
  6
CONTINUOUS
 10
134.693138
 20
21.814018
 11
135.359807
 21
16.314018
  0
LINE
  8
型材断面
  6
CONTINUOUS
 10
137.693138
 20
16.314018
 11
135.359807
 21
16.314018
  0
LINE
  8
型材断面
  6
CONTINUOUS
 10
137.693138
 20
59.314048
 11
137.693138
 21
16.314018
  0
LINE
  8
型材断面
  6
CONTINUOUS
 10
135.359807
 20
59.314048
 11
135.359807
 21
16.314018
  0
LINE
  8
型材断面
  6
CONTINUOUS
 10
132.093177
 20
21.814018
 11
132.093177
 21
53.814048
  0
LINE
  8
型材断面
  6
CONTINUOUS
 10
132.293177
 20
21.814018
 11
132.293177
 21
53.814048
  0
LINE
  8
型材断面
  6
CONTINUOUS
 10
134.693138
 20
21.814018
 11
134.693138
 21
53.814048
  0
INSERT
  2
*GRP_0019
  8
型材断面
  6
DASHDOT
 10
0.0
 20
0.0
  0
ARC
  8
型材断面
  6
DASHDOT
 10
132.193175
 20
54.014049
 40
33.003318
 50
219.78455
 51
264.78455
  0
LINE
  8
ガラス
  6
CONTINUOUS
 10
132.79062
 20
-37.352753
 11
88.237287
 21
-37.352753
  0
LINE
  8
ガラス
  6
CONTINUOUS
 10
132.79062
 20
-37.352753
 11
132.79062
 21
-67.352753
  0
LINE
  8
ガラス
  6
CONTINUOUS
 10
88.237287
 20
-37.352753
 11
88.237287
 21
-67.352753
  0
LINE
  8
ガラス
  6
CONTINUOUS
 10
132.79062
 20
-67.352753
 11
88.237287
 21
-67.352753
  0
TEXT
  7
TextStyle03
  8
文字
  6
CONTINUOUS
 10
-127.75
 20
94.925
  1
は排水穴位置を示す
 40
3.0
 72
     5
 11
-97.75
 21
94.925
  0
TEXT
  7
TextStyle03
  8
文字
  6
CONTINUOUS
 10
-127.75
 20
89.4
  1
はケーシング位置を示す
 40
3.0
 72
     5
 11
-91.0
 21
89.4
  0
TEXT
  7
TextStyle03
  8
文字
  6
CONTINUOUS
 10
-127.75
 20
86.025
  1
２ヶ所中1ヶ所に設定
 40
3.0
 72
     5
 11
-96.0625
 21
86.025
  0
TEXT
  7
TextStyle03
  8
文字
  6
CONTINUOUS
 10
-97.625
 20
16.275
  1
アンカーピッチ
 40
3.0
 50
90.0
 72
     5
 11
-97.625
 21
39.525
  0
TEXT
  7
TextStyle03
  8
文字
  6
CONTINUOUS
 10
-131.475
 20
80.05
  1
アンカー数量　１４ヶ所
 40
3.0
 72
     5
 11
-94.725
 21
80.05
  0
TEXT
  7
TextStyle03
  8
文字
  6
CONTINUOUS
 10
78.1
 20
125.25
  1
シリーズ：ＳＴＤＨＬ
 40
5.0
 72
     5
 11
133.725
 21
125.25
  0
TEXT
  7
TextStyle03
  8
文字
  6
CONTINUOUS
 10
78.1
 20
119.625
  1
　　　　　（片側開閉）900×3500タイプ
 40
5.0
 72
     5
 11
181.5375
 21
119.625
  0
TEXT
  7
TextStyle03
  8
文字
  6
CONTINUOUS
 10
78.1
 20
114.0
  1
図面名　：外観姿図
 40
5.0
 72
     5
 11
128.1
 21
114.0
  0
TEXT
  7
TextStyle03
  8
文字
  6
CONTINUOUS
 10
78.1
 20
108.375
  1
　　　　　　
 40
5.0
 72
     5
 11
111.225
 21
108.375
  0
TEXT
  7
TextStyle03
  8
文字
  6
CONTINUOUS
 10
77.425
 20
103.975
  1
ＮＳコード：ＮＳＨＳＬ
 40
5.0
 72
     5
 11
138.675
 21
103.975
  0
TEXT
  7
TextStyle03
  8
文字
  6
CONTINUOUS
 10
43.375
 20
-89.0
  1
※は物件対応寸法
 40
3.0
 72
     5
 11
70.0
 21
-89.0
  0
TEXT
  7
TextStyle03
  8
文字
  6
CONTINUOUS
 10
116.8
 20
17.8
  1
45°
 40
3.0
 50
90.0
 72
     5
 11
116.8
 21
24.175
  0
TEXT
  7
TextStyle03
  8
文字
  6
CONTINUOUS
 10
113.95
 20
-60.35
  1
網入り6.8t
 40
3.0
 72
     5
 11
130.6375
 21
-60.35
  0
TEXT
  7
TextStyle03
  8
文字
  6
CONTINUOUS
 10
120.625
 20
-65.025
  1
×３枚
 40
3.0
 72
     5
 11
130.375
 21
-65.025
  0
TEXT
  7
TextStyle03
  8
文字
  6
CONTINUOUS
 10
-65.5
 20
96.1
  1
アンカーピッチ
 40
3.0
 72
     5
 11
-42.25
 21
96.1
  0
INSERT
  2
*DIM_0002
  8
寸法
  6
CONTINUOUS
 10
0.0
 20
0.0
  0
INSERT
  2
*DIM_0003
  8
寸法
  6
CONTINUOUS
 10
0.0
 20
0.0
  0
INSERT
  2
*DIM_0004
  8
寸法
  6
CONTINUOUS
 10
0.0
 20
0.0
  0
INSERT
  2
*DIM_0005
  8
寸法
  6
CONTINUOUS
 10
0.0
 20
0.0
  0
INSERT
  2
*DIM_0010
  8
寸法
  6
CONTINUOUS
 10
0.0
 20
0.0
  0
INSERT
  2
*DIM_0014
  8
寸法
  6
CONTINUOUS
 10
0.0
 20
0.0
  0
INSERT
  2
*DIM_0015
  8
寸法
  6
CONTINUOUS
 10
0.0
 20
0.0
  0
INSERT
  2
*DIM_0016
  8
寸法
  6
CONTINUOUS
 10
0.0
 20
0.0
  0
INSERT
  2
*DIM_0017
  8
寸法
  6
CONTINUOUS
 10
0.0
 20
0.0
  0
INSERT
  2
*DIM_0018
  8
寸法
  6
CONTINUOUS
 10
0.0
 20
0.0
  0
INSERT
  2
*DIM_0020
  8
寸法
  6
CONTINUOUS
 10
0.0
 20
0.0
  0
INSERT
  2
*DIM_0021
  8
寸法
  6
CONTINUOUS
 10
0.0
 20
0.0
  0
INSERT
  2
*DIM_0022
  8
寸法
  6
CONTINUOUS
 10
0.0
 20
0.0
  0
INSERT
  2
*DIM_0023
  8
寸法
  6
CONTINUOUS
 10
0.0
 20
0.0
  0
INSERT
  2
*DIM_0024
  8
寸法
  6
CONTINUOUS
 10
0.0
 20
0.0
  0
INSERT
  2
*DIM_0025
  8
寸法
  6
CONTINUOUS
 10
0.0
 20
0.0
  0
INSERT
  2
*DIM_0032
  8
寸法
  6
CONTINUOUS
 10
0.0
 20
0.0
  0
INSERT
  2
*DIM_0033
  8
寸法
  6
CONTINUOUS
 10
0.0
 20
0.0
  0
INSERT
  2
*DIM_0034
  8
寸法
  6
CONTINUOUS
 10
0.0
 20
0.0
  0
INSERT
  2
*DIM_0035
  8
寸法
  6
CONTINUOUS
 10
0.0
 20
0.0
  0
INSERT
  2
*DIM_0036
  8
寸法
  6
CONTINUOUS
 10
0.0
 20
0.0
  0
INSERT
  2
*DIM_0037
  8
寸法
  6
CONTINUOUS
 10
0.0
 20
0.0
  0
INSERT
  2
*GRP_0011
  8
別途部材
  6
CONTINUOUS
 10
0.0
 20
0.0
  0
INSERT
  2
*GRP_0012
  8
別途部材
  6
DOT
 10
0.0
 20
0.0
  0
INSERT
  2
*GRP_0013
  8
別途部材
  6
DOT
 10
0.0
 20
0.0
  0
LINE
  8
別途部材
  6
CONTINUOUS
 10
-78.71696
 20
20.747363
 11
-76.65029
 21
22.814033
  0
LINE
  8
別途部材
  6
CONTINUOUS
 10
-76.65029
 20
22.814033
 11
-72.742695
 21
26.721628
  0
LINE
  8
別途部材
  6
CONTINUOUS
 10
40.016373
 20
22.814033
 11
42.083043
 21
20.747363
  0
LINE
  8
別途部材
  6
CONTINUOUS
 10
40.016373
 20
22.814033
 11
36.108777
 21
26.721628
  0
LINE
  8
別途部材
  6
CONTINUOUS
 10
40.016373
 20
22.814033
 11
-76.65029
 21
22.814033
  0
LINE
  8
別途部材
  6
CONTINUOUS
 10
41.683043
 20
21.147363
 11
-78.31696
 21
21.147363
  0
LINE
  8
別途部材
  6
CONTINUOUS
 10
42.083043
 20
20.747363
 11
-78.71696
 21
20.747363
  0
LINE
  8
別途部材
  6
CONTINUOUS
 10
-78.71696
 20
54.880703
 11
-76.65029
 21
52.814033
  0
LINE
  8
別途部材
  6
CONTINUOUS
 10
-76.65029
 20
52.814033
 11
-76.65029
 21
22.814033
  0
LINE
  8
別途部材
  6
CONTINUOUS
 10
-78.31696
 20
54.480703
 11
-78.31696
 21
21.147363
  0
LINE
  8
別途部材
  6
CONTINUOUS
 10
-78.71696
 20
54.880703
 11
-78.71696
 21
20.747363
  0
LINE
  8
別途部材
  6
CONTINUOUS
 10
-76.65029
 20
52.814033
 11
-72.742695
 21
48.906437
  0
LINE
  8
別途部材
  6
CONTINUOUS
 10
40.016373
 20
52.814033
 11
42.083043
 21
54.880703
  0
LINE
  8
別途部材
  6
CONTINUOUS
 10
40.016373
 20
52.814033
 11
40.016373
 21
22.814033
  0
LINE
  8
別途部材
  6
CONTINUOUS
 10
41.683043
 20
54.480703
 11
41.683043
 21
21.147363
  0
LINE
  8
別途部材
  6
CONTINUOUS
 10
42.083043
 20
54.880703
 11
42.083043
 21
20.747363
  0
LINE
  8
別途部材
  6
CONTINUOUS
 10
40.016373
 20
52.814033
 11
36.108777
 21
48.906437
  0
LINE
  8
別途部材
  6
CONTINUOUS
 10
-76.65029
 20
52.814033
 11
40.016373
 21
52.814033
  0
LINE
  8
別途部材
  6
CONTINUOUS
 10
-78.31696
 20
54.480703
 11
41.683043
 21
54.480703
  0
LINE
  8
別途部材
  6
CONTINUOUS
 10
-78.71696
 20
54.880703
 11
42.083043
 21
54.880703
  0
LINE
  8
別途部材
  6
CONTINUOUS
 62
    96
 10
129.193138
 20
54.480703
 11
130.193138
 21
54.880703
  0
INSERT
  2
*GRP_0026
  8
別途部材
  6
DOT
 10
0.0
 20
0.0
  0
LINE
  8
別途部材
  6
CONTINUOUS
 62
    96
 10
129.193138
 20
21.147365
 11
130.193138
 21
20.747365
  0
INSERT
  2
*GRP_0027
  8
別途部材
  6
DOT
 10
0.0
 20
0.0
  0
LINE
  8
別途部材
  6
CONTINUOUS
 10
130.193138
 20
20.747365
 11
130.193138
 21
54.880703
  0
LINE
  8
別途部材
  6
CONTINUOUS
 62
    96
 10
129.193138
 20
21.147365
 11
129.193138
 21
54.480703
  0
ARC
  8
別途部材
  6
CONTINUOUS
 10
138.52647
 20
37.814034
 40
17.666667
 50
121.890792
 51
238.109208
  0
INSERT
  2
*GRP_0028
  8
別途部材
  6
CONTINUOUS
 10
0.0
 20
0.0
  0
ENDSEC
  0
EOF
