  0
SECTION
  2
HEADER
  9
$EXTMIN
 10
-210.0
 20
-148.5
  9
$EXTMAX
 10
210.0
 20
148.5
  9
$PDMODE
 70
    32
  9
$PDSIZE
 40
1.5
  9
$LTSCALE
 40
10.0
  0
ENDSEC
  0
SECTION
  2
TABLES
  0
TABLE
  2
LTYPE
 70
    15
  0
LTYPE
  2
CONTINUOUS
 70
    64
  3
実線
 72
    65
 73
     0
 40
0.0
  0
LTYPE
  2
DASHED
 70
    64
  3
破線A
 72
    65
 73
     2
 40
0.6
 49
0.4
 49
-0.2
  0
LTYPE
  2
DASHEDX2
 70
    64
  3
破線B
 72
    65
 73
     2
 40
1.3
 49
0.9
 49
-0.4
  0
LTYPE
  2
DASHDOT
 70
    64
  3
１点鎖線A
 72
    65
 73
     4
 40
0.5375
 49
0.375
 49
-0.05
 49
0.0625
 49
-0.05
  0
LTYPE
  2
DASHDOTX2
 70
    64
  3
１点鎖線B
 72
    65
 73
     4
 40
1.075
 49
0.75
 49
-0.1
 49
0.125
 49
-0.1
  0
LTYPE
  2
DIVIDE2
 70
    64
  3
２点鎖線A
 72
    65
 73
     6
 40
0.5125
 49
0.3
 49
-0.0375
 49
0.05
 49
-0.0375
 49
0.05
 49
-0.0375
  0
LTYPE
  2
DIVIDE
 70
    64
  3
２点鎖線B
 72
    65
 73
     6
 40
1.05
 49
0.55
 49
-0.1
 49
0.1
 49
-0.1
 49
0.1
 49
-0.1
  0
LTYPE
  2
DOT
 70
    64
  3
点線A
 72
    65
 73
     2
 40
0.1125
 49
0.0625
 49
-0.05
  0
LTYPE
  2
DOTX2
 70
    64
  3
点線B
 72
    65
 73
     2
 40
0.275
 49
0.15
 49
-0.125
  0
LTYPE
  2
CONTINUOUS
 70
    64
  3
実線
 72
    65
 73
     0
 40
0.0
  0
LTYPE
  2
CONTINUOUS
 70
    64
  3
実線
 72
    65
 73
     0
 40
0.0
  0
LTYPE
  2
CONTINUOUS
 70
    64
  3
実線
 72
    65
 73
     0
 40
0.0
  0
LTYPE
  2
CONTINUOUS
 70
    64
  3
実線
 72
    65
 73
     0
 40
0.0
  0
LTYPE
  2
CONTINUOUS
 70
    64
  3
実線
 72
    65
 73
     0
 40
0.0
  0
LTYPE
  2
CONTINUOUS
 70
    64
  3
実線
 72
    65
 73
     0
 40
0.0
  0
ENDTAB
  0
TABLE
  2
LAYER
 70
    34
  0
LAYER
  2
通り芯
 70
     0
 62
    15
  6
CONTINUOUS
  0
LAYER
  2
補助線
 70
     0
 62
    16
  6
DOT
  0
LAYER
  2
躯体
 70
     0
 62
    31
  6
CONTINUOUS
  0
LAYER
  2
型材
 70
     0
 62
    32
  6
CONTINUOUS
  0
LAYER
  2
型材断面
 70
     0
 62
    47
  6
CONTINUOUS
  0
LAYER
  2
ガラス
 70
     0
 62
    48
  6
CONTINUOUS
  0
LAYER
  2
ゴム等
 70
     0
 62
    63
  6
CONTINUOUS
  0
LAYER
  2
ボルト／ビス
 70
     0
 62
    64
  6
CONTINUOUS
  0
LAYER
  2
文字
 70
     0
 62
    79
  6
CONTINUOUS
  0
LAYER
  2
寸法
 70
     0
 62
    80
  6
CONTINUOUS
  0
LAYER
  2
ﾊｯﾁﾝｸﾞ
 70
     0
 62
    95
  6
CONTINUOUS
  0
LAYER
  2
別途部材
 70
     0
 62
    96
  6
CONTINUOUS
  0
LAYER
  2
曲げ物
 70
     0
 62
   111
  6
CONTINUOUS
  0
LAYER
  2
鉄骨等
 70
     0
 62
   112
  6
CONTINUOUS
  0
LAYER
  2
St
 70
     0
 62
   127
  6
CONTINUOUS
  0
LAYER
  2
その他部品等
 70
     0
 62
   128
  6
CONTINUOUS
  0
LAYER
  2
ｶﾞｽｹｯﾄ
 70
     0
 62
   143
  6
CONTINUOUS
  0
LAYER
  2
ｽｹｯﾁ
 70
     0
 62
    14
  6
CONTINUOUS
  0
LAYER
  2
0
 70
     0
 62
    17
  6
CONTINUOUS
  0
LAYER
  2
1
 70
     0
 62
    30
  6
CONTINUOUS
  0
LAYER
  2
4
 70
     0
 62
    33
  6
CONTINUOUS
  0
LAYER
  2
ﾚｲﾔ3
 70
     0
 62
    46
  6
CONTINUOUS
  0
LAYER
  2
外形線
 70
     0
 62
    49
  6
CONTINUOUS
  0
LAYER
  2
部品
 70
     0
 62
    14
  6
CONTINUOUS
  0
LAYER
  2
サッシ芯
 70
     0
 62
    17
  6
DASHDOTX2
  0
LAYER
  2
寸法線
 70
     0
 62
    62
  6
CONTINUOUS
  0
LAYER
  2
姿図外形線
 70
     0
 62
    65
  6
CONTINUOUS
  0
LAYER
  2
姿補助線
 70
     0
 62
    30
  6
CONTINUOUS
  0
LAYER
  2
透視線
 70
     0
 62
    78
  6
DOT
  0
LAYER
  2
用紙
 70
     0
 62
    81
  6
CONTINUOUS
  0
LAYER
  2
実線図枠
 70
     0
 62
    94
  6
CONTINUOUS
  0
LAYER
  2
補助図枠
 70
     0
 62
    97
  6
CONTINUOUS
  0
LAYER
  2
建具記号
 70
     0
 62
   110
  6
CONTINUOUS
  0
LAYER
  2
補助文字
 70
     0
 62
   113
  6
CONTINUOUS
  0
ENDTAB
  0
TABLE
  2
STYLE
 70
    10
  0
STYLE
  2
STANDARD
 70
     0
 40
1.0
 41
1.0
 42
1.0
 50
0.0
 71
     0
  3
TXT
  4
BIGFONT
  0
STYLE
  2
TATE
 70
     4
 40
1.0
 41
1.0
 42
1.0
 50
0.0
 71
     0
  3
TXT
  4
BIGFONT
  0
STYLE
  2
TextStyle03
 70
     0
 40
1.0
 41
1.0
 42
1.0
 50
0.0
 71
     0
  3
MONOTXT
  4
BIGFONT
  0
STYLE
  2
TextStyle04
 70
     0
 40
1.0
 41
1.0
 42
1.0
 50
0.0
 71
     0
  3
MONOTXT
  4
BIGFONT
  0
STYLE
  2
TextStyle05
 70
     0
 40
1.0
 41
1.0
 42
1.0
 50
0.0
 71
     0
  3
MONOTXT
  4
BIGFONT
  0
STYLE
  2
TextStyle06
 70
     0
 40
1.0
 41
1.0
 42
1.0
 50
0.0
 71
     0
  3
MONOTXT
  4
BIGFONT
  0
STYLE
  2
TextStyle07
 70
     0
 40
1.0
 41
1.0
 42
1.0
 50
0.0
 71
     0
  3
MONOTXT
  4
BIGFONT
  0
STYLE
  2
TextStyle08
 70
     0
 40
1.0
 41
1.0
 42
1.0
 50
0.0
 71
     0
  3
MONOTXT
  4
BIGFONT
  0
STYLE
  2
TextStyle09
 70
     0
 40
1.0
 41
1.0
 42
1.0
 50
0.0
 71
     0
  3
MONOTXT
  4
BIGFONT
  0
STYLE
  2
TextStyle10
 70
     0
 40
1.0
 41
1.0
 42
1.0
 50
0.0
 71
     0
  3
MONOTXT
  4
BIGFONT
  0
ENDTAB
  0
ENDSEC
  0
SECTION
  2
BLOCKS
  0
BLOCK
  2
*GRP_0001
 70
    65
 10
0.0
 20
0.0
  0
LINE
  8
型材断面
  6
CONTINUOUS
 10
195.0
 20
133.5
 11
195.0
 21
-133.5
  0
LINE
  8
型材断面
  6
CONTINUOUS
 10
195.0
 20
-133.5
 11
-185.0
 21
-133.5
  0
LINE
  8
型材断面
  6
CONTINUOUS
 10
-185.0
 20
-133.5
 11
-185.0
 21
133.5
  0
LINE
  8
型材断面
  6
CONTINUOUS
 10
195.0
 20
133.5
 11
-185.0
 21
133.5
  0
LINE
  8
型材断面
  6
CONTINUOUS
 10
145.0
 20
-133.5
 11
145.0
 21
-118.5
  0
LINE
  8
型材断面
  6
CONTINUOUS
 10
195.0
 20
-118.5
 11
145.0
 21
-118.5
  0
ENDBLK
  0
BLOCK
  2
*DIM_0002
 70
    65
 10
0.0
 20
0.0
  0
LINE
  8
寸法
  6
BYBLOCK
 62
     0
 10
-78.596933
 20
-13.511205
 11
-78.596933
 21
-13.121378
  0
LINE
  8
寸法
  6
BYBLOCK
 62
     0
 10
21.403067
 20
-13.121378
 11
-78.596933
 21
-13.121378
  0
POINT
  8
寸法
 62
     0
 10
21.403067
 20
-13.121378
  0
POINT
  8
寸法
 62
     0
 10
-78.596933
 20
-13.121378
  0
TEXT
  7
TextStyle03
  8
寸法
  6
CONTINUOUS
 62
     0
 10
-40.31875
 20
-12.75
  1
呼称寸法　3000
 40
3.0
 72
     5
 11
-16.88125
 21
-12.75
  0
ENDBLK
  0
BLOCK
  2
*DIM_0003
 70
    65
 10
0.0
 20
0.0
  0
LINE
  8
寸法
  6
BYBLOCK
 62
     0
 10
19.403067
 20
17.20722
 11
19.403067
 21
14.182178
  0
LINE
  8
寸法
  6
BYBLOCK
 62
     0
 10
21.403067
 20
14.182178
 11
19.403067
 21
14.182178
  0
POINT
  8
寸法
 62
     0
 10
21.403067
 20
14.182178
  0
POINT
  8
寸法
 62
     0
 10
19.403067
 20
14.182178
  0
TEXT
  7
TextStyle03
  8
寸法
  6
CONTINUOUS
 62
     0
 10
17.53125
 20
10.4
  1
60
 40
3.0
 72
     5
 11
20.71875
 21
10.4
  0
ENDBLK
  0
BLOCK
  2
*DIM_0004
 70
    65
 10
0.0
 20
0.0
  0
LINE
  8
寸法
  6
BYBLOCK
 62
     0
 10
-76.596933
 20
17.20722
 11
-76.596933
 21
14.182178
  0
LINE
  8
寸法
  6
BYBLOCK
 62
     0
 10
-78.596933
 20
14.182178
 11
-76.596933
 21
14.182178
  0
POINT
  8
寸法
 62
     0
 10
-78.596933
 20
14.182178
  0
POINT
  8
寸法
 62
     0
 10
-76.596933
 20
14.182178
  0
TEXT
  7
TextStyle03
  8
寸法
  6
CONTINUOUS
 62
     0
 10
-77.89375
 20
10.4
  1
60
 40
3.0
 72
     5
 11
-74.70625
 21
10.4
  0
ENDBLK
  0
BLOCK
  2
*DIM_0005
 70
    65
 10
0.0
 20
0.0
  0
LINE
  8
寸法
  6
BYBLOCK
 62
     0
 10
-81.596933
 20
47.814033
 11
-94.88977
 21
47.814033
  0
LINE
  8
寸法
  6
BYBLOCK
 62
     0
 10
-81.596933
 20
27.814033
 11
-94.88977
 21
27.814033
  0
LINE
  8
寸法
  6
BYBLOCK
 62
     0
 10
-94.88977
 20
47.814033
 11
-94.88977
 21
27.814033
  0
POINT
  8
寸法
 62
     0
 10
-94.88977
 20
47.814033
  0
POINT
  8
寸法
 62
     0
 10
-94.88977
 20
27.814033
  0
TEXT
  7
TextStyle03
  8
寸法
  6
CONTINUOUS
 62
     0
 10
-95.225
 20
35.3625
  1
600
 40
3.0
 50
90.0
 72
     5
 11
-95.225
 21
40.2375
  0
ENDBLK
  0
BLOCK
  2
*DIM_0006
 70
    65
 10
0.0
 20
0.0
  0
LINE
  8
寸法
  6
BYBLOCK
 62
     0
 10
-68.596933
 20
55.814033
 11
-68.596933
 21
84.922105
  0
LINE
  8
寸法
  6
BYBLOCK
 62
     0
 10
-41.930265
 20
55.814033
 11
-41.930265
 21
84.922105
  0
LINE
  8
寸法
  6
BYBLOCK
 62
     0
 10
-68.596933
 20
84.922105
 11
-41.930265
 21
84.922105
  0
POINT
  8
寸法
 62
     0
 10
-68.596933
 20
84.922105
  0
POINT
  8
寸法
 62
     0
 10
-41.930265
 20
84.922105
  0
TEXT
  7
TextStyle03
  8
寸法
  6
CONTINUOUS
 62
     0
 10
-57.7375
 20
85.275
  1
800
 40
3.0
 72
     5
 11
-52.8625
 21
85.275
  0
ENDBLK
  0
BLOCK
  2
*DIM_0007
 70
    65
 10
0.0
 20
0.0
  0
LINE
  8
寸法
  6
BYBLOCK
 62
     0
 10
-15.2636
 20
55.814033
 11
-15.2636
 21
84.922105
  0
LINE
  8
寸法
  6
BYBLOCK
 62
     0
 10
-41.930265
 20
84.922105
 11
-15.2636
 21
84.922105
  0
POINT
  8
寸法
 62
     0
 10
-15.2636
 20
84.922105
  0
TEXT
  7
TextStyle03
  8
寸法
  6
CONTINUOUS
 62
     0
 10
-31.0625
 20
85.275
  1
800
 40
3.0
 72
     5
 11
-26.1875
 21
85.275
  0
ENDBLK
  0
BLOCK
  2
*DIM_0008
 70
    65
 10
0.0
 20
0.0
  0
LINE
  8
寸法
  6
BYBLOCK
 62
     0
 10
11.403067
 20
55.814033
 11
11.403067
 21
84.922105
  0
LINE
  8
寸法
  6
BYBLOCK
 62
     0
 10
-15.2636
 20
84.922105
 11
11.403067
 21
84.922105
  0
POINT
  8
寸法
 62
     0
 10
11.403067
 20
84.922105
  0
TEXT
  7
TextStyle03
  8
寸法
  6
CONTINUOUS
 62
     0
 10
-4.3875
 20
85.275
  1
800
 40
3.0
 72
     5
 11
0.4875
 21
85.275
  0
ENDBLK
  0
BLOCK
  2
*DIM_0009
 70
    65
 10
0.0
 20
0.0
  0
LINE
  8
寸法
  6
BYBLOCK
 62
     0
 10
9.173927
 20
-61.87628
 11
36.471865
 21
-61.87628
  0
LINE
  8
寸法
  6
BYBLOCK
 62
     0
 10
36.471865
 20
-70.209613
 11
36.471865
 21
-61.87628
  0
POINT
  8
寸法
 62
     0
 10
36.471865
 20
-61.87628
  0
TEXT
  7
TextStyle03
  8
寸法
  6
CONTINUOUS
 62
     0
 10
36.1
 20
-68.5125
  1
250
 40
3.0
 50
90.0
 72
     5
 11
36.1
 21
-63.6375
  0
ENDBLK
  0
BLOCK
  2
*GRP_0010
 70
    65
 10
0.0
 20
0.0
  0
LINE
  8
別途部材
  6
CONTINUOUS
 62
    96
 10
-80.263598
 20
-70.209613
 11
-80.663598
 21
-71.209613
  0
ARC
  8
別途部材
  6
CONTINUOUS
 10
-63.596932
 20
-79.542947
 40
17.666667
 50
90.0
 51
148.109204
  0
LINE
  8
別途部材
  6
CONTINUOUS
 62
    96
 10
-80.263598
 20
-70.209613
 11
-28.596933
 21
-70.209613
  0
LINE
  8
別途部材
  6
CONTINUOUS
 10
-80.663598
 20
-71.209613
 11
-28.596933
 21
-71.209613
  0
LINE
  8
別途部材
  6
CONTINUOUS
 10
-29.096933
 20
-60.87628
 11
-30.096933
 21
-61.87628
  0
LINE
  8
別途部材
  6
CONTINUOUS
 10
-31.096933
 20
-61.87628
 11
-32.096933
 21
-60.87628
  0
LINE
  8
別途部材
  6
CONTINUOUS
 10
-33.096933
 20
-60.87628
 11
-34.096933
 21
-61.87628
  0
LINE
  8
別途部材
  6
CONTINUOUS
 10
-32.096933
 20
-60.87628
 11
-33.096933
 21
-60.87628
  0
LINE
  8
別途部材
  6
CONTINUOUS
 10
-29.096933
 20
-60.87628
 11
-28.596933
 21
-60.87628
  0
LINE
  8
別途部材
  6
CONTINUOUS
 10
-35.096933
 20
-61.87628
 11
-36.096933
 21
-60.87628
  0
LINE
  8
別途部材
  6
CONTINUOUS
 10
-37.096933
 20
-60.87628
 11
-38.096933
 21
-61.87628
  0
LINE
  8
別途部材
  6
CONTINUOUS
 10
-36.096933
 20
-60.87628
 11
-37.096933
 21
-60.87628
  0
LINE
  8
別途部材
  6
CONTINUOUS
 10
-39.096933
 20
-61.87628
 11
-40.096933
 21
-60.87628
  0
LINE
  8
別途部材
  6
CONTINUOUS
 10
-41.096933
 20
-60.87628
 11
-42.096933
 21
-61.87628
  0
LINE
  8
別途部材
  6
CONTINUOUS
 10
-40.096933
 20
-60.87628
 11
-41.096933
 21
-60.87628
  0
LINE
  8
別途部材
  6
CONTINUOUS
 10
-43.096933
 20
-61.87628
 11
-44.096933
 21
-60.87628
  0
LINE
  8
別途部材
  6
CONTINUOUS
 10
-45.096933
 20
-60.87628
 11
-46.096933
 21
-61.87628
  0
LINE
  8
別途部材
  6
CONTINUOUS
 10
-44.096933
 20
-60.87628
 11
-45.096933
 21
-60.87628
  0
LINE
  8
別途部材
  6
CONTINUOUS
 10
-47.096933
 20
-61.87628
 11
-48.096933
 21
-60.87628
  0
LINE
  8
別途部材
  6
CONTINUOUS
 10
-49.096933
 20
-60.87628
 11
-50.096933
 21
-61.87628
  0
LINE
  8
別途部材
  6
CONTINUOUS
 10
-48.096933
 20
-60.87628
 11
-49.096933
 21
-60.87628
  0
LINE
  8
別途部材
  6
CONTINUOUS
 10
-51.096933
 20
-61.87628
 11
-52.096933
 21
-60.87628
  0
LINE
  8
別途部材
  6
CONTINUOUS
 10
-53.096933
 20
-60.87628
 11
-54.096933
 21
-61.87628
  0
LINE
  8
別途部材
  6
CONTINUOUS
 10
-52.096933
 20
-60.87628
 11
-53.096933
 21
-60.87628
  0
LINE
  8
別途部材
  6
CONTINUOUS
 10
-55.096933
 20
-61.87628
 11
-56.096933
 21
-60.87628
  0
LINE
  8
別途部材
  6
CONTINUOUS
 10
-57.096933
 20
-60.87628
 11
-58.096933
 21
-61.87628
  0
LINE
  8
別途部材
  6
CONTINUOUS
 10
-56.096933
 20
-60.87628
 11
-57.096933
 21
-60.87628
  0
LINE
  8
別途部材
  6
CONTINUOUS
 10
-59.096933
 20
-61.87628
 11
-60.096933
 21
-60.87628
  0
LINE
  8
別途部材
  6
CONTINUOUS
 10
-61.096933
 20
-60.87628
 11
-62.096933
 21
-61.87628
  0
LINE
  8
別途部材
  6
CONTINUOUS
 10
-60.096933
 20
-60.87628
 11
-61.096933
 21
-60.87628
  0
LINE
  8
別途部材
  6
CONTINUOUS
 10
-58.096933
 20
-61.87628
 11
-59.096933
 21
-61.87628
  0
LINE
  8
別途部材
  6
CONTINUOUS
 10
-54.096933
 20
-61.87628
 11
-55.096933
 21
-61.87628
  0
LINE
  8
別途部材
  6
CONTINUOUS
 10
-50.096933
 20
-61.87628
 11
-51.096933
 21
-61.87628
  0
LINE
  8
別途部材
  6
CONTINUOUS
 10
-46.096933
 20
-61.87628
 11
-47.096933
 21
-61.87628
  0
LINE
  8
別途部材
  6
CONTINUOUS
 10
-42.096933
 20
-61.87628
 11
-43.096933
 21
-61.87628
  0
LINE
  8
別途部材
  6
CONTINUOUS
 10
-38.096933
 20
-61.87628
 11
-39.096933
 21
-61.87628
  0
LINE
  8
別途部材
  6
CONTINUOUS
 10
-34.096933
 20
-61.87628
 11
-35.096933
 21
-61.87628
  0
LINE
  8
別途部材
  6
CONTINUOUS
 10
-31.096933
 20
-61.87628
 11
-30.096933
 21
-61.87628
  0
LINE
  8
別途部材
  6
CONTINUOUS
 10
-62.096933
 20
-61.87628
 11
-62.096933
 21
-70.209613
  0
LINE
  8
別途部材
  6
CONTINUOUS
 10
-61.096933
 20
-60.87628
 11
-61.096933
 21
-70.209613
  0
LINE
  8
別途部材
  6
CONTINUOUS
 10
-59.096933
 20
-61.87628
 11
-59.096933
 21
-70.209613
  0
LINE
  8
別途部材
  6
CONTINUOUS
 10
-60.096933
 20
-60.87628
 11
-60.096933
 21
-70.209613
  0
LINE
  8
別途部材
  6
CONTINUOUS
 10
-57.096933
 20
-60.87628
 11
-57.096933
 21
-70.209613
  0
LINE
  8
別途部材
  6
CONTINUOUS
 10
-58.096933
 20
-61.87628
 11
-58.096933
 21
-70.209613
  0
LINE
  8
別途部材
  6
CONTINUOUS
 10
-54.096933
 20
-61.87628
 11
-54.096933
 21
-70.209613
  0
LINE
  8
別途部材
  6
CONTINUOUS
 10
-53.096933
 20
-60.87628
 11
-53.096933
 21
-70.209613
  0
LINE
  8
別途部材
  6
CONTINUOUS
 10
-52.096933
 20
-60.87628
 11
-52.096933
 21
-70.209613
  0
LINE
  8
別途部材
  6
CONTINUOUS
 10
-55.096933
 20
-61.87628
 11
-55.096933
 21
-70.209613
  0
LINE
  8
別途部材
  6
CONTINUOUS
 10
-56.096933
 20
-60.87628
 11
-56.096933
 21
-70.209613
  0
LINE
  8
別途部材
  6
CONTINUOUS
 10
-48.096933
 20
-60.87628
 11
-48.096933
 21
-70.209613
  0
LINE
  8
別途部材
  6
CONTINUOUS
 10
-50.096933
 20
-61.87628
 11
-50.096933
 21
-70.209613
  0
LINE
  8
別途部材
  6
CONTINUOUS
 10
-51.096933
 20
-61.87628
 11
-51.096933
 21
-70.209613
  0
LINE
  8
別途部材
  6
CONTINUOUS
 10
-49.096933
 20
-60.87628
 11
-49.096933
 21
-70.209613
  0
LINE
  8
別途部材
  6
CONTINUOUS
 10
-47.096933
 20
-61.87628
 11
-47.096933
 21
-70.209613
  0
LINE
  8
別途部材
  6
CONTINUOUS
 10
-45.096933
 20
-60.87628
 11
-45.096933
 21
-70.209613
  0
LINE
  8
別途部材
  6
CONTINUOUS
 10
-44.096933
 20
-60.87628
 11
-44.096933
 21
-70.209613
  0
LINE
  8
別途部材
  6
CONTINUOUS
 10
-42.096933
 20
-61.87628
 11
-42.096933
 21
-70.209613
  0
LINE
  8
別途部材
  6
CONTINUOUS
 10
-43.096933
 20
-61.87628
 11
-43.096933
 21
-70.209613
  0
LINE
  8
別途部材
  6
CONTINUOUS
 10
-46.096933
 20
-61.87628
 11
-46.096933
 21
-70.209613
  0
LINE
  8
別途部材
  6
CONTINUOUS
 10
-41.096933
 20
-60.87628
 11
-41.096933
 21
-70.209613
  0
LINE
  8
別途部材
  6
CONTINUOUS
 10
-39.096933
 20
-61.87628
 11
-39.096933
 21
-70.209613
  0
LINE
  8
別途部材
  6
CONTINUOUS
 10
-40.096933
 20
-60.87628
 11
-40.096933
 21
-70.209613
  0
LINE
  8
別途部材
  6
CONTINUOUS
 10
-38.096933
 20
-61.87628
 11
-38.096933
 21
-70.209613
  0
LINE
  8
別途部材
  6
CONTINUOUS
 10
-37.096933
 20
-60.87628
 11
-37.096933
 21
-70.209613
  0
LINE
  8
別途部材
  6
CONTINUOUS
 10
-35.096933
 20
-61.87628
 11
-35.096933
 21
-70.209613
  0
LINE
  8
別途部材
  6
CONTINUOUS
 10
-36.096933
 20
-60.87628
 11
-36.096933
 21
-70.209613
  0
LINE
  8
別途部材
  6
CONTINUOUS
 10
-34.096933
 20
-61.87628
 11
-34.096933
 21
-70.209613
  0
LINE
  8
別途部材
  6
CONTINUOUS
 10
-33.096933
 20
-60.87628
 11
-33.096933
 21
-70.209613
  0
LINE
  8
別途部材
  6
CONTINUOUS
 10
-31.096933
 20
-61.87628
 11
-31.096933
 21
-70.209613
  0
LINE
  8
別途部材
  6
CONTINUOUS
 10
-32.096933
 20
-60.87628
 11
-32.096933
 21
-70.209613
  0
LINE
  8
別途部材
  6
CONTINUOUS
 10
-30.096933
 20
-61.87628
 11
-30.096933
 21
-70.209613
  0
LINE
  8
別途部材
  6
CONTINUOUS
 10
-29.096933
 20
-60.87628
 11
-29.096933
 21
-70.209613
  0
LINE
  8
別途部材
  6
CONTINUOUS
 10
-62.096933
 20
-61.87628
 11
-63.596933
 21
-61.87628
  0
LINE
  8
別途部材
  6
CONTINUOUS
 62
    96
 10
23.069735
 20
-70.209613
 11
23.469735
 21
-71.209613
  0
ARC
  8
別途部材
  6
CONTINUOUS
 10
6.403068
 20
-79.542947
 40
17.666667
 50
31.890796
 51
90.0
  0
LINE
  8
別途部材
  6
CONTINUOUS
 62
    96
 10
23.069735
 20
-70.209613
 11
-28.596933
 21
-70.209613
  0
LINE
  8
別途部材
  6
CONTINUOUS
 10
23.469735
 20
-71.209613
 11
-28.596933
 21
-71.209613
  0
LINE
  8
別途部材
  6
CONTINUOUS
 10
-28.096933
 20
-60.87628
 11
-27.096933
 21
-61.87628
  0
LINE
  8
別途部材
  6
CONTINUOUS
 10
-26.096933
 20
-61.87628
 11
-25.096933
 21
-60.87628
  0
LINE
  8
別途部材
  6
CONTINUOUS
 10
-24.096933
 20
-60.87628
 11
-23.096933
 21
-61.87628
  0
LINE
  8
別途部材
  6
CONTINUOUS
 10
-25.096933
 20
-60.87628
 11
-24.096933
 21
-60.87628
  0
LINE
  8
別途部材
  6
CONTINUOUS
 10
-28.096933
 20
-60.87628
 11
-28.596933
 21
-60.87628
  0
LINE
  8
別途部材
  6
CONTINUOUS
 10
-22.096933
 20
-61.87628
 11
-21.096933
 21
-60.87628
  0
LINE
  8
別途部材
  6
CONTINUOUS
 10
-20.096933
 20
-60.87628
 11
-19.096933
 21
-61.87628
  0
LINE
  8
別途部材
  6
CONTINUOUS
 10
-21.096933
 20
-60.87628
 11
-20.096933
 21
-60.87628
  0
LINE
  8
別途部材
  6
CONTINUOUS
 10
-18.096933
 20
-61.87628
 11
-17.096933
 21
-60.87628
  0
LINE
  8
別途部材
  6
CONTINUOUS
 10
-16.096933
 20
-60.87628
 11
-15.096933
 21
-61.87628
  0
LINE
  8
別途部材
  6
CONTINUOUS
 10
-17.096933
 20
-60.87628
 11
-16.096933
 21
-60.87628
  0
LINE
  8
別途部材
  6
CONTINUOUS
 10
-14.096933
 20
-61.87628
 11
-13.096933
 21
-60.87628
  0
LINE
  8
別途部材
  6
CONTINUOUS
 10
-12.096933
 20
-60.87628
 11
-11.096933
 21
-61.87628
  0
LINE
  8
別途部材
  6
CONTINUOUS
 10
-13.096933
 20
-60.87628
 11
-12.096933
 21
-60.87628
  0
LINE
  8
別途部材
  6
CONTINUOUS
 10
-10.096933
 20
-61.87628
 11
-9.096933
 21
-60.87628
  0
LINE
  8
別途部材
  6
CONTINUOUS
 10
-8.096933
 20
-60.87628
 11
-7.096933
 21
-61.87628
  0
LINE
  8
別途部材
  6
CONTINUOUS
 10
-9.096933
 20
-60.87628
 11
-8.096933
 21
-60.87628
  0
LINE
  8
別途部材
  6
CONTINUOUS
 10
-6.096933
 20
-61.87628
 11
-5.096933
 21
-60.87628
  0
LINE
  8
別途部材
  6
CONTINUOUS
 10
-4.096933
 20
-60.87628
 11
-3.096933
 21
-61.87628
  0
LINE
  8
別途部材
  6
CONTINUOUS
 10
-5.096933
 20
-60.87628
 11
-4.096933
 21
-60.87628
  0
LINE
  8
別途部材
  6
CONTINUOUS
 10
-2.096933
 20
-61.87628
 11
-1.096933
 21
-60.87628
  0
LINE
  8
別途部材
  6
CONTINUOUS
 10
-0.096933
 20
-60.87628
 11
0.903067
 21
-61.87628
  0
LINE
  8
別途部材
  6
CONTINUOUS
 10
-1.096933
 20
-60.87628
 11
-0.096933
 21
-60.87628
  0
LINE
  8
別途部材
  6
CONTINUOUS
 10
1.903067
 20
-61.87628
 11
2.903067
 21
-60.87628
  0
LINE
  8
別途部材
  6
CONTINUOUS
 10
3.903067
 20
-60.87628
 11
4.903067
 21
-61.87628
  0
LINE
  8
別途部材
  6
CONTINUOUS
 10
2.903067
 20
-60.87628
 11
3.903067
 21
-60.87628
  0
LINE
  8
別途部材
  6
CONTINUOUS
 10
0.903067
 20
-61.87628
 11
1.903067
 21
-61.87628
  0
LINE
  8
別途部材
  6
CONTINUOUS
 10
-3.096933
 20
-61.87628
 11
-2.096933
 21
-61.87628
  0
LINE
  8
別途部材
  6
CONTINUOUS
 10
-7.096933
 20
-61.87628
 11
-6.096933
 21
-61.87628
  0
LINE
  8
別途部材
  6
CONTINUOUS
 10
-11.096933
 20
-61.87628
 11
-10.096933
 21
-61.87628
  0
LINE
  8
別途部材
  6
CONTINUOUS
 10
-15.096933
 20
-61.87628
 11
-14.096933
 21
-61.87628
  0
LINE
  8
別途部材
  6
CONTINUOUS
 10
-19.096933
 20
-61.87628
 11
-18.096933
 21
-61.87628
  0
LINE
  8
別途部材
  6
CONTINUOUS
 10
-23.096933
 20
-61.87628
 11
-22.096933
 21
-61.87628
  0
LINE
  8
別途部材
  6
CONTINUOUS
 10
-26.096933
 20
-61.87628
 11
-27.096933
 21
-61.87628
  0
LINE
  8
別途部材
  6
CONTINUOUS
 10
4.903067
 20
-61.87628
 11
4.903067
 21
-70.209613
  0
LINE
  8
別途部材
  6
CONTINUOUS
 10
3.903067
 20
-60.87628
 11
3.903067
 21
-70.209613
  0
LINE
  8
別途部材
  6
CONTINUOUS
 10
1.903067
 20
-61.87628
 11
1.903067
 21
-70.209613
  0
LINE
  8
別途部材
  6
CONTINUOUS
 10
2.903067
 20
-60.87628
 11
2.903067
 21
-70.209613
  0
LINE
  8
別途部材
  6
CONTINUOUS
 10
-0.096933
 20
-60.87628
 11
-0.096933
 21
-70.209613
  0
LINE
  8
別途部材
  6
CONTINUOUS
 10
0.903067
 20
-61.87628
 11
0.903067
 21
-70.209613
  0
LINE
  8
別途部材
  6
CONTINUOUS
 10
-3.096933
 20
-61.87628
 11
-3.096933
 21
-70.209613
  0
LINE
  8
別途部材
  6
CONTINUOUS
 10
-4.096933
 20
-60.87628
 11
-4.096933
 21
-70.209613
  0
LINE
  8
別途部材
  6
CONTINUOUS
 10
-5.096933
 20
-60.87628
 11
-5.096933
 21
-70.209613
  0
LINE
  8
別途部材
  6
CONTINUOUS
 10
-2.096933
 20
-61.87628
 11
-2.096933
 21
-70.209613
  0
LINE
  8
別途部材
  6
CONTINUOUS
 10
-1.096933
 20
-60.87628
 11
-1.096933
 21
-70.209613
  0
LINE
  8
別途部材
  6
CONTINUOUS
 10
-9.096933
 20
-60.87628
 11
-9.096933
 21
-70.209613
  0
LINE
  8
別途部材
  6
CONTINUOUS
 10
-7.096933
 20
-61.87628
 11
-7.096933
 21
-70.209613
  0
LINE
  8
別途部材
  6
CONTINUOUS
 10
-6.096933
 20
-61.87628
 11
-6.096933
 21
-70.209613
  0
LINE
  8
別途部材
  6
CONTINUOUS
 10
-8.096933
 20
-60.87628
 11
-8.096933
 21
-70.209613
  0
LINE
  8
別途部材
  6
CONTINUOUS
 10
-10.096933
 20
-61.87628
 11
-10.096933
 21
-70.209613
  0
LINE
  8
別途部材
  6
CONTINUOUS
 10
-12.096933
 20
-60.87628
 11
-12.096933
 21
-70.209613
  0
LINE
  8
別途部材
  6
CONTINUOUS
 10
-13.096933
 20
-60.87628
 11
-13.096933
 21
-70.209613
  0
LINE
  8
別途部材
  6
CONTINUOUS
 10
-15.096933
 20
-61.87628
 11
-15.096933
 21
-70.209613
  0
LINE
  8
別途部材
  6
CONTINUOUS
 10
-14.096933
 20
-61.87628
 11
-14.096933
 21
-70.209613
  0
LINE
  8
別途部材
  6
CONTINUOUS
 10
-11.096933
 20
-61.87628
 11
-11.096933
 21
-70.209613
  0
LINE
  8
別途部材
  6
CONTINUOUS
 10
-16.096933
 20
-60.87628
 11
-16.096933
 21
-70.209613
  0
LINE
  8
別途部材
  6
CONTINUOUS
 10
-18.096933
 20
-61.87628
 11
-18.096933
 21
-70.209613
  0
LINE
  8
別途部材
  6
CONTINUOUS
 10
-17.096933
 20
-60.87628
 11
-17.096933
 21
-70.209613
  0
LINE
  8
別途部材
  6
CONTINUOUS
 10
-19.096933
 20
-61.87628
 11
-19.096933
 21
-70.209613
  0
LINE
  8
別途部材
  6
CONTINUOUS
 10
-20.096933
 20
-60.87628
 11
-20.096933
 21
-70.209613
  0
LINE
  8
別途部材
  6
CONTINUOUS
 10
-22.096933
 20
-61.87628
 11
-22.096933
 21
-70.209613
  0
LINE
  8
別途部材
  6
CONTINUOUS
 10
-21.096933
 20
-60.87628
 11
-21.096933
 21
-70.209613
  0
LINE
  8
別途部材
  6
CONTINUOUS
 10
-23.096933
 20
-61.87628
 11
-23.096933
 21
-70.209613
  0
LINE
  8
別途部材
  6
CONTINUOUS
 10
-24.096933
 20
-60.87628
 11
-24.096933
 21
-70.209613
  0
LINE
  8
別途部材
  6
CONTINUOUS
 10
-26.096933
 20
-61.87628
 11
-26.096933
 21
-70.209613
  0
LINE
  8
別途部材
  6
CONTINUOUS
 10
-25.096933
 20
-60.87628
 11
-25.096933
 21
-70.209613
  0
LINE
  8
別途部材
  6
CONTINUOUS
 10
-27.096933
 20
-61.87628
 11
-27.096933
 21
-70.209613
  0
LINE
  8
別途部材
  6
CONTINUOUS
 10
-28.096933
 20
-60.87628
 11
-28.096933
 21
-70.209613
  0
LINE
  8
別途部材
  6
CONTINUOUS
 10
4.903067
 20
-61.87628
 11
6.403067
 21
-61.87628
  0
ENDBLK
  0
BLOCK
  2
*GRP_0011
 70
    65
 10
0.0
 20
0.0
  0
LINE
  8
ボルト／ビス
  6
CONTINUOUS
 10
-79.2636
 20
-70.209608
 11
-79.2636
 21
-69.74294
  0
LINE
  8
ボルト／ビス
  6
CONTINUOUS
 10
-78.896933
 20
-70.209608
 11
-78.896933
 21
-70.14294
  0
LINE
  8
ボルト／ビス
  6
CONTINUOUS
 10
-78.896933
 20
-70.14294
 11
-79.630267
 21
-70.14294
  0
LINE
  8
ボルト／ビス
  6
CONTINUOUS
 10
-79.630267
 20
-70.14294
 11
-79.630267
 21
-70.209608
  0
LINE
  8
ボルト／ビス
  6
CONTINUOUS
 10
-78.896933
 20
-70.209608
 11
-79.630267
 21
-70.209608
  0
LINE
  8
ボルト／ビス
  6
CONTINUOUS
 10
-78.9636
 20
-70.109608
 11
-78.9636
 21
-70.14294
  0
LINE
  8
ボルト／ビス
  6
CONTINUOUS
 10
-78.9636
 20
-70.109608
 11
-79.5636
 21
-70.109608
  0
LINE
  8
ボルト／ビス
  6
CONTINUOUS
 10
-79.5636
 20
-70.109608
 11
-79.5636
 21
-70.14294
  0
LINE
  8
ボルト／ビス
  6
CONTINUOUS
 62
    64
 10
-79.103225
 20
-69.909608
 11
-79.07115
 21
-69.921282
  0
ARC
  8
ボルト／ビス
  6
CONTINUOUS
 62
    64
 10
-79.119263
 20
-70.014587
 40
0.104978
 50
90.0
 51
117.278033
  0
ARC
  8
ボルト／ビス
  6
CONTINUOUS
 62
    64
 10
-79.2636
 20
-70.312011
 40
0.402402
 50
76.165015
 51
103.834998
  0
LINE
  8
ボルト／ビス
  6
CONTINUOUS
 62
    64
 10
-79.423975
 20
-69.909608
 11
-79.45605
 21
-69.921282
  0
ARC
  8
ボルト／ビス
  6
CONTINUOUS
 62
    64
 10
-79.407938
 20
-70.014587
 40
0.104978
 50
62.721967
 51
90.0
  0
LINE
  8
ボルト／ビス
  6
CONTINUOUS
 62
    64
 10
-79.103225
 20
-69.909608
 11
-79.423975
 21
-69.909608
  0
LINE
  8
ボルト／ビス
  6
CONTINUOUS
 62
    64
 10
-79.45605
 20
-69.921282
 11
-79.45605
 21
-70.04294
  0
LINE
  8
ボルト／ビス
  6
CONTINUOUS
 62
    64
 10
-79.359825
 20
-69.921282
 11
-79.359825
 21
-70.04294
  0
LINE
  8
ボルト／ビス
  6
CONTINUOUS
 62
    64
 10
-79.07115
 20
-69.921282
 11
-79.07115
 21
-70.04294
  0
LINE
  8
ボルト／ビス
  6
CONTINUOUS
 62
    64
 10
-79.167375
 20
-69.921282
 11
-79.167375
 21
-70.04294
  0
LINE
  8
ボルト／ビス
  6
CONTINUOUS
 10
-79.07115
 20
-70.04294
 11
-79.45605
 21
-70.04294
  0
LINE
  8
ボルト／ビス
  6
CONTINUOUS
 10
-79.0636
 20
-70.04294
 11
-79.0636
 21
-70.109608
  0
LINE
  8
ボルト／ビス
  6
CONTINUOUS
 10
-79.0636
 20
-70.04294
 11
-79.4636
 21
-70.04294
  0
LINE
  8
ボルト／ビス
  6
CONTINUOUS
 10
-79.4636
 20
-70.04294
 11
-79.4636
 21
-70.109608
  0
ENDBLK
  0
BLOCK
  2
*GRP_0012
 70
    65
 10
0.0
 20
0.0
  0
LINE
  8
ボルト／ビス
  6
CONTINUOUS
 10
22.069735
 20
-70.209613
 11
22.069735
 21
-69.742945
  0
LINE
  8
ボルト／ビス
  6
CONTINUOUS
 10
22.436403
 20
-70.209613
 11
22.436403
 21
-70.142945
  0
LINE
  8
ボルト／ビス
  6
CONTINUOUS
 10
22.436403
 20
-70.142945
 11
21.703067
 21
-70.142945
  0
LINE
  8
ボルト／ビス
  6
CONTINUOUS
 10
21.703067
 20
-70.142945
 11
21.703067
 21
-70.209613
  0
LINE
  8
ボルト／ビス
  6
CONTINUOUS
 10
22.436403
 20
-70.209613
 11
21.703067
 21
-70.209613
  0
LINE
  8
ボルト／ビス
  6
CONTINUOUS
 10
22.369735
 20
-70.109612
 11
22.369735
 21
-70.142945
  0
LINE
  8
ボルト／ビス
  6
CONTINUOUS
 10
22.369735
 20
-70.109612
 11
21.769735
 21
-70.109612
  0
LINE
  8
ボルト／ビス
  6
CONTINUOUS
 10
21.769735
 20
-70.109612
 11
21.769735
 21
-70.142945
  0
LINE
  8
ボルト／ビス
  6
CONTINUOUS
 62
    64
 10
22.23011
 20
-69.909613
 11
22.262185
 21
-69.921288
  0
ARC
  8
ボルト／ビス
  6
CONTINUOUS
 62
    64
 10
22.214072
 20
-70.014592
 40
0.104978
 50
90.0
 51
117.278033
  0
ARC
  8
ボルト／ビス
  6
CONTINUOUS
 62
    64
 10
22.069735
 20
-70.312016
 40
0.402402
 50
76.165015
 51
103.834998
  0
LINE
  8
ボルト／ビス
  6
CONTINUOUS
 62
    64
 10
21.90936
 20
-69.909613
 11
21.877285
 21
-69.921288
  0
ARC
  8
ボルト／ビス
  6
CONTINUOUS
 62
    64
 10
21.925397
 20
-70.014592
 40
0.104978
 50
62.721967
 51
90.0
  0
LINE
  8
ボルト／ビス
  6
CONTINUOUS
 62
    64
 10
22.23011
 20
-69.909613
 11
21.90936
 21
-69.909613
  0
LINE
  8
ボルト／ビス
  6
CONTINUOUS
 62
    64
 10
21.877285
 20
-69.921288
 11
21.877285
 21
-70.042945
  0
LINE
  8
ボルト／ビス
  6
CONTINUOUS
 62
    64
 10
21.97351
 20
-69.921288
 11
21.97351
 21
-70.042945
  0
LINE
  8
ボルト／ビス
  6
CONTINUOUS
 62
    64
 10
22.262185
 20
-69.921288
 11
22.262185
 21
-70.042945
  0
LINE
  8
ボルト／ビス
  6
CONTINUOUS
 62
    64
 10
22.16596
 20
-69.921288
 11
22.16596
 21
-70.042945
  0
LINE
  8
ボルト／ビス
  6
CONTINUOUS
 10
22.262185
 20
-70.042945
 11
21.877285
 21
-70.042945
  0
LINE
  8
ボルト／ビス
  6
CONTINUOUS
 10
22.269735
 20
-70.042945
 11
22.269735
 21
-70.109612
  0
LINE
  8
ボルト／ビス
  6
CONTINUOUS
 10
22.269735
 20
-70.042945
 11
21.869735
 21
-70.042945
  0
LINE
  8
ボルト／ビス
  6
CONTINUOUS
 10
21.869735
 20
-70.042945
 11
21.869735
 21
-70.109612
  0
ENDBLK
  0
BLOCK
  2
*DIM_0013
 70
    65
 10
0.0
 20
0.0
  0
LINE
  8
寸法
  6
BYBLOCK
 62
     0
 10
-61.930265
 20
14.282402
 11
-61.930265
 21
9.20179
  0
LINE
  8
寸法
  6
BYBLOCK
 62
     0
 10
4.7364
 20
14.282402
 11
4.7364
 21
9.20179
  0
LINE
  8
寸法
  6
BYBLOCK
 62
     0
 10
-61.930265
 20
9.20179
 11
4.7364
 21
9.20179
  0
POINT
  8
寸法
 62
     0
 10
-61.930265
 20
9.20179
  0
POINT
  8
寸法
 62
     0
 10
4.7364
 20
9.20179
  0
TEXT
  7
TextStyle03
  8
寸法
  6
CONTINUOUS
 62
     0
 10
-31.88125
 20
9.575
  1
2000
 40
3.0
 72
     5
 11
-25.31875
 21
9.575
  0
ENDBLK
  0
BLOCK
  2
*DIM_0014
 70
    65
 10
0.0
 20
0.0
  0
LINE
  8
寸法
  6
CONTINUOUS
 10
27.90308
 20
-75.376282
 11
27.90308
 21
-13.121378
  0
LINE
  8
寸法
  6
CONTINUOUS
 10
21.403067
 20
-13.121378
 11
27.90308
 21
-13.121378
  0
POINT
  8
寸法
 10
21.403067
 20
-13.121378
  0
POINT
  8
寸法
 10
27.90308
 20
-13.121378
  0
TEXT
  7
TextStyle03
  8
寸法
  6
CONTINUOUS
 10
23.15
 20
-12.75
  1
※
 40
3.0
 72
     5
 11
26.15
 21
-12.75
  0
ENDBLK
  0
BLOCK
  2
*DIM_0015
 70
    65
 10
0.0
 20
0.0
  0
LINE
  8
寸法
  6
CONTINUOUS
 10
-85.096947
 20
-75.376282
 11
-85.096947
 21
-13.511205
  0
LINE
  8
寸法
  6
CONTINUOUS
 10
-78.596933
 20
-13.511205
 11
-85.096947
 21
-13.511205
  0
POINT
  8
寸法
 10
-78.596933
 20
-13.511205
  0
POINT
  8
寸法
 10
-85.096947
 20
-13.511205
  0
TEXT
  7
TextStyle03
  8
寸法
  6
CONTINUOUS
 10
-83.35
 20
-13.15
  1
※
 40
3.0
 72
     5
 11
-80.35
 21
-13.15
  0
ENDBLK
  0
BLOCK
  2
*DIM_0016
 70
    65
 10
0.0
 20
0.0
  0
LINE
  8
寸法
  6
CONTINUOUS
 10
24.069735
 20
-70.209613
 11
36.471865
 21
-70.209613
  0
LINE
  8
寸法
  6
CONTINUOUS
 10
23.40308
 20
-75.709613
 11
36.471865
 21
-75.709613
  0
LINE
  8
寸法
  6
CONTINUOUS
 10
36.471865
 20
-70.209613
 11
36.471865
 21
-75.709613
  0
POINT
  8
寸法
 10
36.471865
 20
-70.209613
  0
POINT
  8
寸法
 10
36.471865
 20
-75.709613
  0
TEXT
  7
TextStyle03
  8
寸法
  6
CONTINUOUS
 10
36.075
 20
-75.4125
  1
165
 40
3.0
 50
90.0
 72
     5
 11
36.075
 21
-70.5375
  0
ENDBLK
  0
BLOCK
  2
*DIM_0017
 70
    65
 10
0.0
 20
0.0
  0
LINE
  8
寸法
  6
CONTINUOUS
 10
28.90308
 20
-78.709613
 11
36.471865
 21
-78.709613
  0
LINE
  8
寸法
  6
CONTINUOUS
 10
36.471865
 20
-75.709613
 11
36.471865
 21
-78.709613
  0
POINT
  8
寸法
 10
36.471865
 20
-78.709613
  0
TEXT
  7
TextStyle03
  8
寸法
  6
CONTINUOUS
 10
36.075
 20
-78.725
  1
※
 40
3.0
 50
90.0
 72
     5
 11
36.075
 21
-75.725
  0
ENDBLK
  0
BLOCK
  2
*GRP_0018
 70
    65
 10
0.0
 20
0.0
  0
LINE
  8
型材断面
  6
DOT
 62
    47
 10
108.934645
 20
55.44323
 11
110.278175
 21
54.0997
  0
LINE
  8
型材断面
  6
DOT
 62
    47
 10
86.307208
 20
32.81579
 11
87.650737
 21
31.47226
  0
LINE
  8
型材断面
  6
DOT
 10
87.650737
 20
31.47226
 11
110.278175
 21
54.0997
  0
LINE
  8
別途部材
  6
DOT
 62
    96
 10
108.698933
 20
56.62173
 11
109.688883
 21
56.197467
  0
INSERT
  2
*GRP_0028
  8
別途部材
  6
DOT
 10
0.0
 20
0.0
  0
LINE
  8
別途部材
  6
DOT
 62
    96
 10
85.128705
 20
33.051503
 11
85.55297
 21
32.061555
  0
INSERT
  2
*GRP_0029
  8
別途部材
  6
DOT
 10
0.0
 20
0.0
  0
LINE
  8
別途部材
  6
DOT
 10
85.55297
 20
32.061555
 11
109.688883
 21
56.197467
  0
LINE
  8
別途部材
  6
DOT
 62
    96
 10
85.128705
 20
33.051503
 11
108.698933
 21
56.62173
  0
ARC
  8
別途部材
  6
DOT
 10
103.51348
 20
38.236955
 40
17.666667
 50
76.890792
 51
193.109208
  0
ENDBLK
  0
BLOCK
  2
*DIM_0019
 70
    65
 10
0.0
 20
0.0
  0
LINE
  8
寸法
  6
CONTINUOUS
 10
67.009548
 20
22.970395
 11
67.009548
 21
52.970395
  0
POINT
  8
寸法
 10
67.009548
 20
22.970395
 50
-90.0
  0
POINT
  8
寸法
 10
67.009548
 20
52.970395
 50
-90.0
  0
TEXT
  7
TextStyle03
  8
寸法
  6
CONTINUOUS
 10
66.65
 20
27.1
  1
呼称寸法　900
 40
3.0
 50
90.0
 72
     5
 11
66.65
 21
48.85
  0
ENDBLK
  0
BLOCK
  2
*DIM_0020
 70
    65
 10
0.0
 20
0.0
  0
LINE
  8
寸法
  6
CONTINUOUS
 10
112.656937
 20
16.47038
 11
67.009548
 21
16.47038
  0
LINE
  8
寸法
  6
CONTINUOUS
 10
67.009548
 20
22.970395
 11
67.009548
 21
16.47038
  0
POINT
  8
寸法
 10
67.009548
 20
22.970395
  0
POINT
  8
寸法
 10
67.009548
 20
16.47038
  0
TEXT
  7
TextStyle03
  8
寸法
  6
CONTINUOUS
 10
66.625
 20
18.25
  1
※
 40
3.0
 50
90.0
 72
     5
 11
66.625
 21
21.25
  0
ENDBLK
  0
BLOCK
  2
*DIM_0021
 70
    65
 10
0.0
 20
0.0
  0
LINE
  8
寸法
  6
CONTINUOUS
 10
112.656937
 20
59.47041
 11
67.009548
 21
59.47041
  0
LINE
  8
寸法
  6
CONTINUOUS
 10
67.009548
 20
52.970395
 11
67.009548
 21
59.47041
  0
POINT
  8
寸法
 10
67.009548
 20
52.970395
  0
POINT
  8
寸法
 10
67.009548
 20
59.47041
  0
TEXT
  7
TextStyle03
  8
寸法
  6
CONTINUOUS
 10
66.625
 20
54.75
  1
※
 40
3.0
 50
90.0
 72
     5
 11
66.625
 21
57.75
  0
ENDBLK
  0
BLOCK
  2
*DIM_0022
 70
    65
 10
0.0
 20
0.0
  0
LINE
  8
寸法
  6
CONTINUOUS
 10
99.156935
 20
38.970395
 11
99.156935
 21
76.069817
  0
LINE
  8
寸法
  6
CONTINUOUS
 10
107.490267
 20
55.637065
 11
107.490267
 21
76.069817
  0
LINE
  8
寸法
  6
CONTINUOUS
 10
99.156935
 20
76.069817
 11
107.490267
 21
76.069817
  0
POINT
  8
寸法
 10
99.156935
 20
76.069817
  0
POINT
  8
寸法
 10
107.490267
 20
76.069817
  0
TEXT
  7
TextStyle03
  8
寸法
  6
CONTINUOUS
 10
100.8875
 20
76.475
  1
250
 40
3.0
 72
     5
 11
105.7625
 21
76.475
  0
ENDBLK
  0
BLOCK
  2
*DIM_0023
 70
    65
 10
0.0
 20
0.0
  0
LINE
  8
寸法
  6
CONTINUOUS
 10
112.990267
 20
54.97041
 11
112.990267
 21
76.069817
  0
LINE
  8
寸法
  6
CONTINUOUS
 10
107.490267
 20
76.069817
 11
112.990267
 21
76.069817
  0
POINT
  8
寸法
 10
112.990267
 20
76.069817
  0
TEXT
  7
TextStyle03
  8
寸法
  6
CONTINUOUS
 10
107.7875
 20
76.475
  1
165
 40
3.0
 72
     5
 11
112.6625
 21
76.475
  0
ENDBLK
  0
BLOCK
  2
*DIM_0024
 70
    65
 10
0.0
 20
0.0
  0
LINE
  8
寸法
  6
CONTINUOUS
 10
115.990267
 20
60.47041
 11
115.990267
 21
76.069817
  0
LINE
  8
寸法
  6
CONTINUOUS
 10
112.990267
 20
76.069817
 11
115.990267
 21
76.069817
  0
POINT
  8
寸法
 10
115.990267
 20
76.069817
  0
TEXT
  7
TextStyle03
  8
寸法
  6
CONTINUOUS
 10
112.975
 20
76.475
  1
※
 40
3.0
 72
     5
 11
115.975
 21
76.475
  0
ENDBLK
  0
BLOCK
  2
*GRP_0025
 70
    65
 10
0.0
 20
0.0
  0
LINE
  8
ボルト／ビス
  6
CONTINUOUS
 10
107.49027
 20
53.637065
 11
107.023603
 21
53.637065
  0
LINE
  8
ボルト／ビス
  6
CONTINUOUS
 10
107.49027
 20
54.003732
 11
107.423603
 21
54.003732
  0
LINE
  8
ボルト／ビス
  6
CONTINUOUS
 10
107.423603
 20
54.003732
 11
107.423603
 21
53.270398
  0
LINE
  8
ボルト／ビス
  6
CONTINUOUS
 10
107.423603
 20
53.270398
 11
107.49027
 21
53.270398
  0
LINE
  8
ボルト／ビス
  6
CONTINUOUS
 10
107.49027
 20
54.003732
 11
107.49027
 21
53.270398
  0
LINE
  8
ボルト／ビス
  6
CONTINUOUS
 10
107.39027
 20
53.937065
 11
107.423603
 21
53.937065
  0
LINE
  8
ボルト／ビス
  6
CONTINUOUS
 10
107.39027
 20
53.937065
 11
107.39027
 21
53.337065
  0
LINE
  8
ボルト／ビス
  6
CONTINUOUS
 10
107.39027
 20
53.337065
 11
107.423603
 21
53.337065
  0
LINE
  8
ボルト／ビス
  6
CONTINUOUS
 62
    64
 10
107.19027
 20
53.79744
 11
107.201945
 21
53.829515
  0
ARC
  8
ボルト／ビス
  6
CONTINUOUS
 62
    64
 10
107.295248
 20
53.781407
 40
0.104978
 50
180.0
 51
207.278033
  0
ARC
  8
ボルト／ビス
  6
CONTINUOUS
 62
    64
 10
107.592672
 20
53.637069
 40
0.402402
 50
166.165015
 51
193.834998
  0
LINE
  8
ボルト／ビス
  6
CONTINUOUS
 62
    64
 10
107.19027
 20
53.47669
 11
107.201945
 21
53.444615
  0
ARC
  8
ボルト／ビス
  6
CONTINUOUS
 62
    64
 10
107.295248
 20
53.492732
 40
0.104978
 50
152.721967
 51
180.0
  0
LINE
  8
ボルト／ビス
  6
CONTINUOUS
 62
    64
 10
107.19027
 20
53.79744
 11
107.19027
 21
53.47669
  0
LINE
  8
ボルト／ビス
  6
CONTINUOUS
 62
    64
 10
107.201945
 20
53.444615
 11
107.323603
 21
53.444615
  0
LINE
  8
ボルト／ビス
  6
CONTINUOUS
 62
    64
 10
107.201945
 20
53.54084
 11
107.323603
 21
53.54084
  0
LINE
  8
ボルト／ビス
  6
CONTINUOUS
 62
    64
 10
107.201945
 20
53.829515
 11
107.323603
 21
53.829515
  0
LINE
  8
ボルト／ビス
  6
CONTINUOUS
 62
    64
 10
107.201945
 20
53.73329
 11
107.323603
 21
53.73329
  0
LINE
  8
ボルト／ビス
  6
CONTINUOUS
 10
107.323603
 20
53.829515
 11
107.323603
 21
53.444615
  0
LINE
  8
ボルト／ビス
  6
CONTINUOUS
 10
107.323603
 20
53.837065
 11
107.39027
 21
53.837065
  0
LINE
  8
ボルト／ビス
  6
CONTINUOUS
 10
107.323603
 20
53.837065
 11
107.323603
 21
53.437065
  0
LINE
  8
ボルト／ビス
  6
CONTINUOUS
 10
107.323603
 20
53.437065
 11
107.39027
 21
53.437065
  0
ENDBLK
  0
BLOCK
  2
*GRP_0026
 70
    65
 10
0.0
 20
0.0
  0
LINE
  8
ボルト／ビス
  6
CONTINUOUS
 10
107.49027
 20
22.303728
 11
107.023603
 21
22.303728
  0
LINE
  8
ボルト／ビス
  6
CONTINUOUS
 10
107.49027
 20
21.93706
 11
107.423603
 21
21.93706
  0
LINE
  8
ボルト／ビス
  6
CONTINUOUS
 10
107.423603
 20
21.93706
 11
107.423603
 21
22.670395
  0
LINE
  8
ボルト／ビス
  6
CONTINUOUS
 10
107.423603
 20
22.670395
 11
107.49027
 21
22.670395
  0
LINE
  8
ボルト／ビス
  6
CONTINUOUS
 10
107.49027
 20
21.93706
 11
107.49027
 21
22.670395
  0
LINE
  8
ボルト／ビス
  6
CONTINUOUS
 10
107.39027
 20
22.003728
 11
107.423603
 21
22.003728
  0
LINE
  8
ボルト／ビス
  6
CONTINUOUS
 10
107.39027
 20
22.003728
 11
107.39027
 21
22.603728
  0
LINE
  8
ボルト／ビス
  6
CONTINUOUS
 10
107.39027
 20
22.603728
 11
107.423603
 21
22.603728
  0
LINE
  8
ボルト／ビス
  6
CONTINUOUS
 62
    64
 10
107.19027
 20
22.143353
 11
107.201945
 21
22.111277
  0
ARC
  8
ボルト／ビス
  6
CONTINUOUS
 62
    64
 10
107.295248
 20
22.159393
 40
0.104978
 50
152.721967
 51
180.0
  0
ARC
  8
ボルト／ビス
  6
CONTINUOUS
 62
    64
 10
107.592672
 20
22.30373
 40
0.402402
 50
166.165002
 51
193.834985
  0
LINE
  8
ボルト／ビス
  6
CONTINUOUS
 62
    64
 10
107.19027
 20
22.464103
 11
107.201945
 21
22.496177
  0
ARC
  8
ボルト／ビス
  6
CONTINUOUS
 62
    64
 10
107.295248
 20
22.448068
 40
0.104978
 50
180.0
 51
207.278033
  0
LINE
  8
ボルト／ビス
  6
CONTINUOUS
 62
    64
 10
107.19027
 20
22.143353
 11
107.19027
 21
22.464103
  0
LINE
  8
ボルト／ビス
  6
CONTINUOUS
 62
    64
 10
107.201945
 20
22.496177
 11
107.323603
 21
22.496177
  0
LINE
  8
ボルト／ビス
  6
CONTINUOUS
 62
    64
 10
107.201945
 20
22.399952
 11
107.323603
 21
22.399952
  0
LINE
  8
ボルト／ビス
  6
CONTINUOUS
 62
    64
 10
107.201945
 20
22.111277
 11
107.323603
 21
22.111277
  0
LINE
  8
ボルト／ビス
  6
CONTINUOUS
 62
    64
 10
107.201945
 20
22.207503
 11
107.323603
 21
22.207503
  0
LINE
  8
ボルト／ビス
  6
CONTINUOUS
 10
107.323603
 20
22.111277
 11
107.323603
 21
22.496177
  0
LINE
  8
ボルト／ビス
  6
CONTINUOUS
 10
107.323603
 20
22.103728
 11
107.39027
 21
22.103728
  0
LINE
  8
ボルト／ビス
  6
CONTINUOUS
 10
107.323603
 20
22.103728
 11
107.323603
 21
22.503728
  0
LINE
  8
ボルト／ビス
  6
CONTINUOUS
 10
107.323603
 20
22.503728
 11
107.39027
 21
22.503728
  0
ENDBLK
  0
BLOCK
  2
*GRP_0027
 70
    65
 10
0.0
 20
0.0
  0
INSERT
  2
*GRP_0030
  8
補助線
  6
CONTINUOUS
 10
0.0
 20
0.0
  0
CIRCLE
  8
別途部材
  6
CONTINUOUS
 10
110.490308
 20
54.17041
 40
0.2
  0
CIRCLE
  8
別途部材
  6
CONTINUOUS
 10
110.490308
 20
54.17041
 40
0.1
  0
LINE
  8
別途部材
  6
CONTINUOUS
 10
109.090308
 20
54.07041
 11
109.090308
 21
53.97041
  0
LINE
  8
別途部材
  6
CONTINUOUS
 10
110.490308
 20
53.97041
 11
109.090308
 21
53.97041
  0
LINE
  8
別途部材
  6
CONTINUOUS
 10
109.090308
 20
54.07041
 11
110.317102
 21
54.07041
  0
LINE
  8
別途部材
  6
CONTINUOUS
 10
111.890308
 20
54.07041
 11
111.890308
 21
53.97041
  0
LINE
  8
別途部材
  6
CONTINUOUS
 10
110.490308
 20
53.97041
 11
111.890308
 21
53.97041
  0
LINE
  8
別途部材
  6
CONTINUOUS
 10
111.890308
 20
54.07041
 11
110.663513
 21
54.07041
  0
LINE
  8
別途部材
  6
CONTINUOUS
 10
109.356972
 20
54.07041
 11
109.356972
 21
53.97041
  0
LINE
  8
別途部材
  6
CONTINUOUS
 10
109.623638
 20
54.07041
 11
109.623638
 21
53.97041
  0
LINE
  8
別途部材
  6
CONTINUOUS
 10
109.890308
 20
54.07041
 11
109.890308
 21
53.97041
  0
LINE
  8
別途部材
  6
CONTINUOUS
 10
111.623638
 20
54.07041
 11
111.623638
 21
53.97041
  0
LINE
  8
別途部材
  6
CONTINUOUS
 10
111.356972
 20
54.07041
 11
111.356972
 21
53.97041
  0
LINE
  8
別途部材
  6
CONTINUOUS
 10
111.090308
 20
54.07041
 11
111.090308
 21
53.97041
  0
ENDBLK
  0
BLOCK
  2
*GRP_0028
 70
    65
 10
0.0
 20
0.0
  0
LINE
  8
ボルト／ビス
  6
DOT
 10
107.991828
 20
55.914625
 11
107.661845
 21
56.244607
  0
LINE
  8
ボルト／ビス
  6
DOT
 10
108.251102
 20
56.173898
 11
108.20396
 21
56.22104
  0
LINE
  8
ボルト／ビス
  6
DOT
 10
108.20396
 20
56.22104
 11
107.685415
 21
55.702492
  0
LINE
  8
ボルト／ビス
  6
DOT
 10
107.685415
 20
55.702492
 11
107.732558
 21
55.65535
  0
LINE
  8
ボルト／ビス
  6
DOT
 10
108.251102
 20
56.173898
 11
107.732558
 21
55.65535
  0
LINE
  8
ボルト／ビス
  6
DOT
 10
108.13325
 20
56.197465
 11
108.156818
 21
56.173898
  0
LINE
  8
ボルト／ビス
  6
DOT
 10
108.13325
 20
56.197465
 11
107.708985
 21
55.773202
  0
LINE
  8
ボルト／ビス
  6
DOT
 10
107.708985
 20
55.773202
 11
107.732555
 21
55.749633
  0
LINE
  8
ボルト／ビス
  6
DOT
 62
    64
 10
107.893097
 20
56.240157
 11
107.924035
 21
56.254582
  0
ARC
  8
ボルト／ビス
  6
DOT
 62
    64
 10
107.955991
 20
56.15459
 40
0.104978
 50
135.0
 51
162.278033
  0
ARC
  8
ボルト／ビス
  6
DOT
 62
    64
 10
108.064239
 20
55.842218
 40
0.402402
 50
121.165015
 51
148.834998
  0
LINE
  8
ボルト／ビス
  6
DOT
 62
    64
 10
107.666295
 20
56.013355
 11
107.65187
 21
55.982417
  0
ARC
  8
ボルト／ビス
  6
DOT
 62
    64
 10
107.751866
 20
55.950466
 40
0.104978
 50
107.721967
 51
135.0
  0
LINE
  8
ボルト／ビス
  6
DOT
 62
    64
 10
107.893097
 20
56.240157
 11
107.666295
 21
56.013355
  0
LINE
  8
ボルト／ビス
  6
DOT
 62
    64
 10
107.65187
 20
55.982417
 11
107.737893
 21
55.896393
  0
LINE
  8
ボルト／ビス
  6
DOT
 62
    64
 10
107.71991
 20
56.05046
 11
107.805935
 21
55.964435
  0
LINE
  8
ボルト／ビス
  6
DOT
 62
    64
 10
107.924035
 20
56.254582
 11
108.010058
 21
56.16856
  0
LINE
  8
ボルト／ビス
  6
DOT
 62
    64
 10
107.855992
 20
56.18654
 11
107.942017
 21
56.100518
  0
LINE
  8
ボルト／ビス
  6
DOT
 10
108.010058
 20
56.16856
 11
107.737893
 21
55.896393
  0
LINE
  8
ボルト／ビス
  6
DOT
 10
108.015397
 20
56.173898
 11
108.06254
 21
56.126755
  0
LINE
  8
ボルト／ビス
  6
DOT
 10
108.015397
 20
56.173898
 11
107.732555
 21
55.891055
  0
LINE
  8
ボルト／ビス
  6
DOT
 10
107.732555
 20
55.891055
 11
107.779697
 21
55.843913
  0
ENDBLK
  0
BLOCK
  2
*GRP_0029
 70
    65
 10
0.0
 20
0.0
  0
LINE
  8
ボルト／ビス
  6
DOT
 10
85.835813
 20
33.75861
 11
85.50583
 21
34.088593
  0
LINE
  8
ボルト／ビス
  6
DOT
 10
85.57654
 20
33.499335
 11
85.529398
 21
33.546478
  0
LINE
  8
ボルト／ビス
  6
DOT
 10
85.529398
 20
33.546478
 11
86.047945
 21
34.065022
  0
LINE
  8
ボルト／ビス
  6
DOT
 10
86.047945
 20
34.065022
 11
86.095088
 21
34.01788
  0
LINE
  8
ボルト／ビス
  6
DOT
 10
85.57654
 20
33.499335
 11
86.095088
 21
34.01788
  0
LINE
  8
ボルト／ビス
  6
DOT
 10
85.552973
 20
33.617188
 11
85.57654
 21
33.593618
  0
LINE
  8
ボルト／ビス
  6
DOT
 10
85.552973
 20
33.617188
 11
85.977235
 21
34.04145
  0
LINE
  8
ボルト／ビス
  6
DOT
 10
85.977235
 20
34.04145
 11
86.000802
 21
34.017883
  0
LINE
  8
ボルト／ビス
  6
DOT
 62
    64
 10
85.51028
 20
33.85734
 11
85.495855
 21
33.826403
  0
ARC
  8
ボルト／ビス
  6
DOT
 62
    64
 10
85.59585
 20
33.79445
 40
0.104978
 50
107.721967
 51
135.0
  0
ARC
  8
ボルト／ビス
  6
DOT
 62
    64
 10
85.908223
 20
33.686201
 40
0.402402
 50
121.165002
 51
148.834985
  0
LINE
  8
ボルト／ビス
  6
DOT
 62
    64
 10
85.737083
 20
34.084143
 11
85.76802
 21
34.098567
  0
ARC
  8
ボルト／ビス
  6
DOT
 62
    64
 10
85.799974
 20
33.998574
 40
0.104978
 50
135.0
 51
162.278033
  0
LINE
  8
ボルト／ビス
  6
DOT
 62
    64
 10
85.51028
 20
33.85734
 11
85.737083
 21
34.084143
  0
LINE
  8
ボルト／ビス
  6
DOT
 62
    64
 10
85.76802
 20
34.098567
 11
85.854042
 21
34.012545
  0
LINE
  8
ボルト／ビス
  6
DOT
 62
    64
 10
85.699978
 20
34.030525
 11
85.786002
 21
33.944503
  0
LINE
  8
ボルト／ビス
  6
DOT
 62
    64
 10
85.495855
 20
33.826403
 11
85.581877
 21
33.74038
  0
LINE
  8
ボルト／ビス
  6
DOT
 62
    64
 10
85.563895
 20
33.894445
 11
85.64992
 21
33.80842
  0
LINE
  8
ボルト／ビス
  6
DOT
 10
85.581877
 20
33.74038
 11
85.854042
 21
34.012545
  0
LINE
  8
ボルト／ビス
  6
DOT
 10
85.57654
 20
33.73504
 11
85.623683
 21
33.687897
  0
LINE
  8
ボルト／ビス
  6
DOT
 10
85.57654
 20
33.73504
 11
85.859382
 21
34.017883
  0
LINE
  8
ボルト／ビス
  6
DOT
 10
85.859382
 20
34.017883
 11
85.906525
 21
33.97074
  0
ENDBLK
  0
BLOCK
  2
*GRP_0030
 70
    65
 10
0.0
 20
0.0
  0
LINE
  8
補助線
  6
BYBLOCK
 62
     0
 10
110.490308
 20
54.003743
 11
110.490308
 21
54.337075
  0
LINE
  8
補助線
  6
BYBLOCK
 62
     0
 10
110.323638
 20
54.17041
 11
110.656972
 21
54.17041
  0
ENDBLK
  0
BLOCK
  2
*DIM_0031
 70
    65
 10
0.0
 20
0.0
  0
LINE
  8
寸法
  6
CONTINUOUS
 10
76.01517
 20
-32.806172
 11
76.01517
 21
-23.451645
  0
LINE
  8
寸法
  6
CONTINUOUS
 10
108.348503
 20
-32.806172
 11
108.348503
 21
-23.451645
  0
LINE
  8
寸法
  6
CONTINUOUS
 10
76.01517
 20
-23.451645
 11
108.348503
 21
-23.451645
  0
POINT
  8
寸法
 10
76.01517
 20
-23.451645
  0
POINT
  8
寸法
 10
108.348503
 20
-23.451645
  0
TEXT
  7
TextStyle03
  8
寸法
  6
CONTINUOUS
 10
89.7375
 20
-23.1
  1
970
 40
3.0
 72
     5
 11
94.6125
 21
-23.1
  0
ENDBLK
  0
BLOCK
  2
*DIM_0032
 70
    65
 10
0.0
 20
0.0
  0
LINE
  8
寸法
  6
CONTINUOUS
 10
109.348503
 20
-33.806172
 11
118.32421
 21
-33.806172
  0
LINE
  8
寸法
  6
CONTINUOUS
 10
109.348503
 20
-63.806172
 11
118.32421
 21
-63.806172
  0
LINE
  8
寸法
  6
CONTINUOUS
 10
118.32421
 20
-33.806172
 11
118.32421
 21
-63.806172
  0
POINT
  8
寸法
 10
118.32421
 20
-33.806172
  0
POINT
  8
寸法
 10
118.32421
 20
-63.806172
  0
TEXT
  7
TextStyle03
  8
寸法
  6
CONTINUOUS
 10
117.925
 20
-51.2625
  1
900
 40
3.0
 50
90.0
 72
     5
 11
117.925
 21
-46.3875
  0
ENDBLK
  0
ENDSEC
  0
SECTION
  2
ENTITIES
  0
POLYLINE
  8
通り芯
  6
CONTINUOUS
 66
     1
 70
     1
  0
VERTEX
  8
通り芯
 10
-210.0
 20
-148.5
  0
VERTEX
  8
通り芯
 10
210.0
 20
-148.5
  0
VERTEX
  8
通り芯
 10
210.0
 20
148.5
  0
VERTEX
  8
通り芯
 10
-210.0
 20
148.5
  0
SEQEND
  0
INSERT
  2
*GRP_0001
  8
型材断面
  6
CONTINUOUS
 10
0.0
 20
0.0
  0
LINE
  8
型材断面
  6
DASHDOT
 10
21.403067
 20
-77.836442
 11
21.403067
 21
52.814033
  0
LINE
  8
型材断面
  6
DASHDOT
 10
-28.596933
 20
-77.836442
 11
-28.596933
 21
52.814033
  0
LINE
  8
型材断面
  6
DASHDOT
 10
-78.596933
 20
-77.836442
 11
-78.596933
 21
52.814033
  0
LINE
  8
型材断面
  6
DASHDOT
 10
119.07983
 20
52.814033
 11
-78.596933
 21
52.814033
  0
LINE
  8
型材断面
  6
DASHDOT
 10
119.07983
 20
37.814033
 11
-78.596933
 21
37.814033
  0
LINE
  8
型材断面
  6
DASHDOT
 10
119.07983
 20
22.814033
 11
-78.596933
 21
22.814033
  0
LINE
  8
型材断面
  6
CONTINUOUS
 10
-61.930265
 20
55.444162
 11
-63.425895
 21
58.03467
  0
LINE
  8
型材断面
  6
CONTINUOUS
 10
-61.930265
 20
55.444162
 11
-60.434635
 21
58.03467
  0
LINE
  8
型材断面
  6
CONTINUOUS
 10
-60.434635
 20
58.03467
 11
-63.425895
 21
58.03467
  0
LINE
  8
型材断面
  6
CONTINUOUS
 10
-81.227063
 20
37.814033
 11
-83.81757
 21
39.309663
  0
LINE
  8
型材断面
  6
CONTINUOUS
 10
-81.227063
 20
37.814033
 11
-83.81757
 21
36.318403
  0
LINE
  8
型材断面
  6
CONTINUOUS
 10
-83.81757
 20
36.318403
 11
-83.81757
 21
39.309663
  0
LINE
  8
型材断面
  6
CONTINUOUS
 10
-61.930265
 20
20.183902
 11
-63.425895
 21
17.593395
  0
LINE
  8
型材断面
  6
CONTINUOUS
 10
-61.930265
 20
20.183902
 11
-60.434635
 21
17.593395
  0
LINE
  8
型材断面
  6
CONTINUOUS
 10
-60.434635
 20
17.593395
 11
-63.425895
 21
17.593395
  0
LINE
  8
型材断面
  6
CONTINUOUS
 10
-132.475455
 20
90.791505
 11
-131.8794
 21
88.200998
  0
LINE
  8
型材断面
  6
CONTINUOUS
 10
-132.475455
 20
90.791505
 11
-133.071512
 21
88.200998
  0
LINE
  8
型材断面
  6
CONTINUOUS
 10
-133.071512
 20
88.200998
 11
-131.8794
 21
88.200998
  0
LINE
  8
型材断面
  6
CONTINUOUS
 10
-138.498042
 20
84.922105
 11
-92.256265
 21
84.922105
  0
LINE
  8
型材断面
  6
CONTINUOUS
 10
-132.475455
 20
97.32138
 11
-133.971085
 21
94.730873
  0
LINE
  8
型材断面
  6
CONTINUOUS
 10
-132.475455
 20
97.32138
 11
-130.979825
 21
94.730873
  0
LINE
  8
型材断面
  6
CONTINUOUS
 10
-130.979825
 20
94.730873
 11
-133.971085
 21
94.730873
  0
LINE
  8
型材断面
  6
CONTINUOUS
 10
-138.498042
 20
93.792277
 11
-92.256265
 21
93.792277
  0
LINE
  8
型材断面
  6
CONTINUOUS
 10
-138.498042
 20
79.134073
 11
-92.256265
 21
79.134073
  0
LINE
  8
型材断面
  6
CONTINUOUS
 10
4.7364
 20
55.444162
 11
6.23203
 21
58.03467
  0
LINE
  8
型材断面
  6
CONTINUOUS
 10
4.7364
 20
55.444162
 11
3.24077
 21
58.03467
  0
LINE
  8
型材断面
  6
CONTINUOUS
 10
3.24077
 20
58.03467
 11
6.23203
 21
58.03467
  0
LINE
  8
型材断面
  6
CONTINUOUS
 10
4.7364
 20
20.183902
 11
6.23203
 21
17.593395
  0
LINE
  8
型材断面
  6
CONTINUOUS
 10
4.7364
 20
20.183902
 11
3.24077
 21
17.593395
  0
LINE
  8
型材断面
  6
CONTINUOUS
 10
3.24077
 20
17.593395
 11
6.23203
 21
17.593395
  0
LINE
  8
型材断面
  6
CONTINUOUS
 10
19.403067
 20
20.20722
 11
18.80701
 21
17.616715
  0
LINE
  8
型材断面
  6
CONTINUOUS
 10
19.403067
 20
20.20722
 11
19.999125
 21
17.616715
  0
LINE
  8
型材断面
  6
CONTINUOUS
 10
19.999125
 20
17.616715
 11
18.80701
 21
17.616715
  0
LINE
  8
型材断面
  6
CONTINUOUS
 10
-76.596933
 20
20.20722
 11
-76.000875
 21
17.616715
  0
LINE
  8
型材断面
  6
CONTINUOUS
 10
-76.596933
 20
20.20722
 11
-77.19299
 21
17.616715
  0
LINE
  8
型材断面
  6
CONTINUOUS
 10
-77.19299
 20
17.616715
 11
-76.000875
 21
17.616715
  0
LINE
  8
型材断面
  6
CONTINUOUS
 10
-85.096947
 20
16.314018
 11
-80.663602
 21
20.747363
  0
LINE
  8
型材断面
  6
CONTINUOUS
 10
23.469735
 20
20.747363
 11
27.90308
 21
16.314018
  0
LINE
  8
型材断面
  6
CONTINUOUS
 10
27.90308
 20
16.314018
 11
-85.096947
 21
16.314018
  0
LINE
  8
型材断面
  6
CONTINUOUS
 10
-80.663602
 20
54.880703
 11
-85.096947
 21
59.314048
  0
LINE
  8
型材断面
  6
CONTINUOUS
 10
-85.096947
 20
16.314018
 11
-85.096947
 21
59.314048
  0
LINE
  8
型材断面
  6
CONTINUOUS
 10
23.469735
 20
54.880703
 11
27.90308
 21
59.314048
  0
LINE
  8
型材断面
  6
CONTINUOUS
 10
27.90308
 20
59.314048
 11
27.90308
 21
16.314018
  0
LINE
  8
型材断面
  6
CONTINUOUS
 10
27.90308
 20
59.314048
 11
-85.096947
 21
59.314048
  0
POLYLINE
  8
型材断面
  6
DASHDOT
 66
     1
  0
VERTEX
  8
型材断面
 10
-78.596933
 20
22.814033
  0
VERTEX
  8
型材断面
 10
-28.596933
 20
52.814033
  0
VERTEX
  8
型材断面
 10
21.403065
 20
22.814033
  0
SEQEND
  0
LINE
  8
型材断面
  6
DASHDOT
 10
-11.680267
 20
52.814033
 11
-11.680267
 21
22.814033
  0
LINE
  8
型材断面
  6
DASHDOT
 10
-45.513602
 20
52.814033
 11
-45.513602
 21
22.814033
  0
LINE
  8
型材断面
  6
DOT
 10
-44.346935
 20
52.814033
 11
-44.346935
 21
22.814033
  0
LINE
  8
型材断面
  6
DOT
 10
-46.68027
 20
52.814033
 11
-46.68027
 21
22.814033
  0
LINE
  8
型材断面
  6
DOT
 10
-12.84693
 20
52.814033
 11
-12.84693
 21
22.814033
  0
LINE
  8
型材断面
  6
DOT
 10
-10.513595
 20
52.814033
 11
-10.513595
 21
22.814033
  0
LINE
  8
型材断面
  6
CONTINUOUS
 62
    47
 10
-79.596947
 20
-71.209613
 11
-79.596947
 21
-73.109652
  0
LINE
  8
型材断面
  6
CONTINUOUS
 10
-79.596947
 20
-73.309652
 11
-79.596947
 21
-75.709613
  0
LINE
  8
型材断面
  6
CONTINUOUS
 10
-79.596947
 20
-75.709613
 11
-85.096947
 21
-76.376282
  0
LINE
  8
型材断面
  6
CONTINUOUS
 10
-85.096947
 20
-78.709613
 11
-85.096947
 21
-76.376282
  0
LINE
  8
型材断面
  6
CONTINUOUS
 62
    47
 10
22.40308
 20
-71.209613
 11
22.40308
 21
-73.109652
  0
LINE
  8
型材断面
  6
CONTINUOUS
 10
22.40308
 20
-73.309652
 11
22.40308
 21
-75.709613
  0
LINE
  8
型材断面
  6
CONTINUOUS
 10
22.40308
 20
-75.709613
 11
27.90308
 21
-76.376282
  0
LINE
  8
型材断面
  6
CONTINUOUS
 10
27.90308
 20
-78.709613
 11
27.90308
 21
-76.376282
  0
LINE
  8
型材断面
  6
CONTINUOUS
 10
-85.096947
 20
-78.709613
 11
27.90308
 21
-78.709613
  0
LINE
  8
型材断面
  6
CONTINUOUS
 10
-85.096947
 20
-76.376282
 11
27.90308
 21
-76.376282
  0
LINE
  8
型材断面
  6
CONTINUOUS
 10
22.40308
 20
-73.109652
 11
-79.596947
 21
-73.109652
  0
LINE
  8
型材断面
  6
CONTINUOUS
 10
22.40308
 20
-73.309652
 11
-79.596947
 21
-73.309652
  0
LINE
  8
型材断面
  6
CONTINUOUS
 10
22.40308
 20
-75.709613
 11
-79.596947
 21
-75.709613
  0
LINE
  8
型材断面
  6
CONTINUOUS
 62
    47
 10
108.490267
 20
53.97041
 11
110.390308
 21
53.97041
  0
LINE
  8
型材断面
  6
CONTINUOUS
 10
110.590308
 20
53.97041
 11
112.990267
 21
53.97041
  0
LINE
  8
型材断面
  6
CONTINUOUS
 10
112.990267
 20
53.97041
 11
113.656937
 21
59.47041
  0
LINE
  8
型材断面
  6
CONTINUOUS
 10
115.990267
 20
59.47041
 11
113.656937
 21
59.47041
  0
LINE
  8
型材断面
  6
CONTINUOUS
 62
    47
 10
108.490267
 20
21.97038
 11
110.390308
 21
21.97038
  0
LINE
  8
型材断面
  6
CONTINUOUS
 10
110.590308
 20
21.97038
 11
112.990267
 21
21.97038
  0
LINE
  8
型材断面
  6
CONTINUOUS
 10
112.990267
 20
21.97038
 11
113.656937
 21
16.47038
  0
LINE
  8
型材断面
  6
CONTINUOUS
 10
115.990267
 20
16.47038
 11
113.656937
 21
16.47038
  0
LINE
  8
型材断面
  6
CONTINUOUS
 10
115.990267
 20
59.47041
 11
115.990267
 21
16.47038
  0
LINE
  8
型材断面
  6
CONTINUOUS
 10
113.656937
 20
59.47041
 11
113.656937
 21
16.47038
  0
LINE
  8
型材断面
  6
CONTINUOUS
 10
110.390308
 20
21.97038
 11
110.390308
 21
53.97041
  0
LINE
  8
型材断面
  6
CONTINUOUS
 10
110.590308
 20
21.97038
 11
110.590308
 21
53.97041
  0
LINE
  8
型材断面
  6
CONTINUOUS
 10
112.990267
 20
21.97038
 11
112.990267
 21
53.97041
  0
INSERT
  2
*GRP_0018
  8
型材断面
  6
DASHDOT
 10
0.0
 20
0.0
  0
ARC
  8
型材断面
  6
DASHDOT
 10
110.490305
 20
54.170411
 40
33.003318
 50
219.78455
 51
264.78455
  0
LINE
  8
ガラス
  6
CONTINUOUS
 10
108.348503
 20
-33.806172
 11
76.01517
 21
-33.806172
  0
LINE
  8
ガラス
  6
CONTINUOUS
 10
108.348503
 20
-33.806172
 11
108.348503
 21
-63.806172
  0
LINE
  8
ガラス
  6
CONTINUOUS
 10
76.01517
 20
-33.806172
 11
76.01517
 21
-63.806172
  0
LINE
  8
ガラス
  6
CONTINUOUS
 10
108.348503
 20
-63.806172
 11
76.01517
 21
-63.806172
  0
TEXT
  7
TextStyle03
  8
文字
  6
CONTINUOUS
 10
-129.675
 20
94.925
  1
は排水穴位置を示す
 40
3.0
 72
     5
 11
-99.675
 21
94.925
  0
TEXT
  7
TextStyle03
  8
文字
  6
CONTINUOUS
 10
-129.675
 20
89.4
  1
はケーシング位置を示す
 40
3.0
 72
     5
 11
-92.925
 21
89.4
  0
TEXT
  7
TextStyle03
  8
文字
  6
CONTINUOUS
 10
-129.675
 20
86.025
  1
２ヶ所中1ヶ所に設定
 40
3.0
 72
     5
 11
-97.9875
 21
86.025
  0
TEXT
  7
TextStyle03
  8
文字
  6
CONTINUOUS
 10
-99.55
 20
16.275
  1
アンカーピッチ
 40
3.0
 50
90.0
 72
     5
 11
-99.55
 21
39.525
  0
TEXT
  7
TextStyle03
  8
文字
  6
CONTINUOUS
 10
-68.65
 20
90.2
  1
アンカーピッチ
 40
3.0
 72
     5
 11
-45.4
 21
90.2
  0
TEXT
  7
TextStyle03
  8
文字
  6
CONTINUOUS
 10
-133.4
 20
80.05
  1
アンカー数量　１２ヶ所
 40
3.0
 72
     5
 11
-96.65
 21
80.05
  0
TEXT
  7
TextStyle03
  8
文字
  6
CONTINUOUS
 10
78.1
 20
125.25
  1
シリーズ：ＳＴＤＨＬ
 40
5.0
 72
     5
 11
133.725
 21
125.25
  0
TEXT
  7
TextStyle03
  8
文字
  6
CONTINUOUS
 10
78.1
 20
119.625
  1
　　　　　（片側開閉）900×3000タイプ
 40
5.0
 72
     5
 11
181.5375
 21
119.625
  0
TEXT
  7
TextStyle03
  8
文字
  6
CONTINUOUS
 10
78.1
 20
114.0
  1
図面名　：外観姿図
 40
5.0
 72
     5
 11
128.1
 21
114.0
  0
TEXT
  7
TextStyle03
  8
文字
  6
CONTINUOUS
 10
78.1
 20
108.375
  1
　　　　　　
 40
5.0
 72
     5
 11
111.225
 21
108.375
  0
TEXT
  7
TextStyle03
  8
文字
  6
CONTINUOUS
 10
77.425
 20
103.975
  1
ＮＳコード：ＮＳＨＳＬ
 40
5.0
 72
     5
 11
138.675
 21
103.975
  0
TEXT
  7
TextStyle03
  8
文字
  6
CONTINUOUS
 10
24.725
 20
-88.975
  1
※は物件対応寸法
 40
3.0
 72
     5
 11
51.35
 21
-88.975
  0
TEXT
  7
TextStyle03
  8
文字
  6
CONTINUOUS
 10
95.075
 20
17.95
  1
45°
 40
3.0
 50
90.0
 72
     5
 11
95.075
 21
24.325
  0
TEXT
  7
TextStyle03
  8
文字
  6
CONTINUOUS
 10
89.5
 20
-56.825
  1
網入り6.8t
 40
3.0
 72
     5
 11
106.1875
 21
-56.825
  0
TEXT
  7
TextStyle03
  8
文字
  6
CONTINUOUS
 10
96.175
 20
-61.5
  1
×３枚
 40
3.0
 72
     5
 11
105.925
 21
-61.5
  0
INSERT
  2
*DIM_0002
  8
寸法
  6
CONTINUOUS
 10
0.0
 20
0.0
  0
INSERT
  2
*DIM_0003
  8
寸法
  6
CONTINUOUS
 10
0.0
 20
0.0
  0
INSERT
  2
*DIM_0004
  8
寸法
  6
CONTINUOUS
 10
0.0
 20
0.0
  0
INSERT
  2
*DIM_0005
  8
寸法
  6
CONTINUOUS
 10
0.0
 20
0.0
  0
INSERT
  2
*DIM_0006
  8
寸法
  6
CONTINUOUS
 10
0.0
 20
0.0
  0
INSERT
  2
*DIM_0007
  8
寸法
  6
CONTINUOUS
 10
0.0
 20
0.0
  0
INSERT
  2
*DIM_0008
  8
寸法
  6
CONTINUOUS
 10
0.0
 20
0.0
  0
INSERT
  2
*DIM_0009
  8
寸法
  6
CONTINUOUS
 10
0.0
 20
0.0
  0
INSERT
  2
*DIM_0013
  8
寸法
  6
CONTINUOUS
 10
0.0
 20
0.0
  0
INSERT
  2
*DIM_0014
  8
寸法
  6
CONTINUOUS
 10
0.0
 20
0.0
  0
INSERT
  2
*DIM_0015
  8
寸法
  6
CONTINUOUS
 10
0.0
 20
0.0
  0
INSERT
  2
*DIM_0016
  8
寸法
  6
CONTINUOUS
 10
0.0
 20
0.0
  0
INSERT
  2
*DIM_0017
  8
寸法
  6
CONTINUOUS
 10
0.0
 20
0.0
  0
INSERT
  2
*DIM_0019
  8
寸法
  6
CONTINUOUS
 10
0.0
 20
0.0
  0
INSERT
  2
*DIM_0020
  8
寸法
  6
CONTINUOUS
 10
0.0
 20
0.0
  0
INSERT
  2
*DIM_0021
  8
寸法
  6
CONTINUOUS
 10
0.0
 20
0.0
  0
INSERT
  2
*DIM_0022
  8
寸法
  6
CONTINUOUS
 10
0.0
 20
0.0
  0
INSERT
  2
*DIM_0023
  8
寸法
  6
CONTINUOUS
 10
0.0
 20
0.0
  0
INSERT
  2
*DIM_0024
  8
寸法
  6
CONTINUOUS
 10
0.0
 20
0.0
  0
INSERT
  2
*DIM_0031
  8
寸法
  6
CONTINUOUS
 10
0.0
 20
0.0
  0
INSERT
  2
*DIM_0032
  8
寸法
  6
CONTINUOUS
 10
0.0
 20
0.0
  0
INSERT
  2
*GRP_0010
  8
別途部材
  6
CONTINUOUS
 10
0.0
 20
0.0
  0
INSERT
  2
*GRP_0011
  8
別途部材
  6
DOT
 10
0.0
 20
0.0
  0
INSERT
  2
*GRP_0012
  8
別途部材
  6
DOT
 10
0.0
 20
0.0
  0
LINE
  8
別途部材
  6
CONTINUOUS
 10
-80.663602
 20
20.747363
 11
-78.596933
 21
22.814033
  0
LINE
  8
別途部材
  6
CONTINUOUS
 10
-78.596933
 20
22.814033
 11
-74.689337
 21
26.721628
  0
LINE
  8
別途部材
  6
CONTINUOUS
 10
21.403065
 20
22.814033
 11
23.469735
 21
20.747363
  0
LINE
  8
別途部材
  6
CONTINUOUS
 10
21.403065
 20
22.814033
 11
17.49547
 21
26.721628
  0
LINE
  8
別途部材
  6
CONTINUOUS
 10
21.403065
 20
22.814033
 11
-78.596933
 21
22.814033
  0
LINE
  8
別途部材
  6
CONTINUOUS
 10
23.069735
 20
21.147363
 11
-80.263602
 21
21.147363
  0
LINE
  8
別途部材
  6
CONTINUOUS
 10
23.469735
 20
20.747363
 11
-80.663602
 21
20.747363
  0
LINE
  8
別途部材
  6
CONTINUOUS
 10
-80.663602
 20
54.880703
 11
-78.596933
 21
52.814033
  0
LINE
  8
別途部材
  6
CONTINUOUS
 10
-78.596933
 20
52.814033
 11
-78.596933
 21
22.814033
  0
LINE
  8
別途部材
  6
CONTINUOUS
 10
-80.263602
 20
54.480703
 11
-80.263602
 21
21.147363
  0
LINE
  8
別途部材
  6
CONTINUOUS
 10
-80.663602
 20
54.880703
 11
-80.663602
 21
20.747363
  0
LINE
  8
別途部材
  6
CONTINUOUS
 10
-78.596933
 20
52.814033
 11
-74.689337
 21
48.906437
  0
LINE
  8
別途部材
  6
CONTINUOUS
 10
21.403065
 20
52.814033
 11
23.469735
 21
54.880703
  0
LINE
  8
別途部材
  6
CONTINUOUS
 10
21.403065
 20
52.814033
 11
21.403065
 21
22.814033
  0
LINE
  8
別途部材
  6
CONTINUOUS
 10
23.069735
 20
54.480703
 11
23.069735
 21
21.147363
  0
LINE
  8
別途部材
  6
CONTINUOUS
 10
23.469735
 20
54.880703
 11
23.469735
 21
20.747363
  0
LINE
  8
別途部材
  6
CONTINUOUS
 10
21.403065
 20
52.814033
 11
17.49547
 21
48.906437
  0
LINE
  8
別途部材
  6
CONTINUOUS
 10
-78.596933
 20
52.814033
 11
21.403065
 21
52.814033
  0
LINE
  8
別途部材
  6
CONTINUOUS
 10
-80.263602
 20
54.480703
 11
23.069735
 21
54.480703
  0
LINE
  8
別途部材
  6
CONTINUOUS
 10
-80.663602
 20
54.880703
 11
23.469735
 21
54.880703
  0
LINE
  8
別途部材
  6
CONTINUOUS
 62
    96
 10
107.490267
 20
54.637065
 11
108.490267
 21
55.037065
  0
INSERT
  2
*GRP_0025
  8
別途部材
  6
DOT
 10
0.0
 20
0.0
  0
LINE
  8
別途部材
  6
CONTINUOUS
 62
    96
 10
107.490267
 20
21.303728
 11
108.490267
 21
20.903728
  0
INSERT
  2
*GRP_0026
  8
別途部材
  6
DOT
 10
0.0
 20
0.0
  0
LINE
  8
別途部材
  6
CONTINUOUS
 10
108.490267
 20
20.903728
 11
108.490267
 21
55.037065
  0
LINE
  8
別途部材
  6
CONTINUOUS
 62
    96
 10
107.490267
 20
21.303728
 11
107.490267
 21
54.637065
  0
ARC
  8
別途部材
  6
CONTINUOUS
 10
116.8236
 20
37.970396
 40
17.666667
 50
121.890792
 51
238.109208
  0
INSERT
  2
*GRP_0027
  8
別途部材
  6
CONTINUOUS
 10
0.0
 20
0.0
  0
ENDSEC
  0
EOF
