  0
SECTION
  2
HEADER
  9
$EXTMIN
 10
-210.0
 20
-148.5
  9
$EXTMAX
 10
210.0
 20
148.5
  9
$PDMODE
 70
    32
  9
$PDSIZE
 40
1.5
  9
$LTSCALE
 40
10.0
  0
ENDSEC
  0
SECTION
  2
TABLES
  0
TABLE
  2
LTYPE
 70
    15
  0
LTYPE
  2
CONTINUOUS
 70
    64
  3
実線
 72
    65
 73
     0
 40
0.0
  0
LTYPE
  2
DASHED
 70
    64
  3
破線A
 72
    65
 73
     2
 40
0.6
 49
0.4
 49
-0.2
  0
LTYPE
  2
DASHEDX2
 70
    64
  3
破線B
 72
    65
 73
     2
 40
1.3
 49
0.9
 49
-0.4
  0
LTYPE
  2
DASHDOT
 70
    64
  3
１点鎖線A
 72
    65
 73
     4
 40
0.5375
 49
0.375
 49
-0.05
 49
0.0625
 49
-0.05
  0
LTYPE
  2
DASHDOTX2
 70
    64
  3
１点鎖線B
 72
    65
 73
     4
 40
1.075
 49
0.75
 49
-0.1
 49
0.125
 49
-0.1
  0
LTYPE
  2
DIVIDE2
 70
    64
  3
２点鎖線A
 72
    65
 73
     6
 40
0.5125
 49
0.3
 49
-0.0375
 49
0.05
 49
-0.0375
 49
0.05
 49
-0.0375
  0
LTYPE
  2
DIVIDE
 70
    64
  3
２点鎖線B
 72
    65
 73
     6
 40
1.05
 49
0.55
 49
-0.1
 49
0.1
 49
-0.1
 49
0.1
 49
-0.1
  0
LTYPE
  2
DOT
 70
    64
  3
点線A
 72
    65
 73
     2
 40
0.1125
 49
0.0625
 49
-0.05
  0
LTYPE
  2
DOTX2
 70
    64
  3
点線B
 72
    65
 73
     2
 40
0.275
 49
0.15
 49
-0.125
  0
LTYPE
  2
CONTINUOUS
 70
    64
  3
実線
 72
    65
 73
     0
 40
0.0
  0
LTYPE
  2
CONTINUOUS
 70
    64
  3
実線
 72
    65
 73
     0
 40
0.0
  0
LTYPE
  2
CONTINUOUS
 70
    64
  3
実線
 72
    65
 73
     0
 40
0.0
  0
LTYPE
  2
CONTINUOUS
 70
    64
  3
実線
 72
    65
 73
     0
 40
0.0
  0
LTYPE
  2
CONTINUOUS
 70
    64
  3
実線
 72
    65
 73
     0
 40
0.0
  0
LTYPE
  2
CONTINUOUS
 70
    64
  3
実線
 72
    65
 73
     0
 40
0.0
  0
ENDTAB
  0
TABLE
  2
LAYER
 70
    34
  0
LAYER
  2
通り芯
 70
     0
 62
    15
  6
CONTINUOUS
  0
LAYER
  2
補助線
 70
     0
 62
    16
  6
DOT
  0
LAYER
  2
躯体
 70
     0
 62
    31
  6
CONTINUOUS
  0
LAYER
  2
型材
 70
     0
 62
    32
  6
CONTINUOUS
  0
LAYER
  2
型材断面
 70
     0
 62
    47
  6
CONTINUOUS
  0
LAYER
  2
ガラス
 70
     0
 62
    48
  6
CONTINUOUS
  0
LAYER
  2
ゴム等
 70
     0
 62
    63
  6
CONTINUOUS
  0
LAYER
  2
ボルト／ビス
 70
     0
 62
    64
  6
CONTINUOUS
  0
LAYER
  2
文字
 70
     0
 62
    79
  6
CONTINUOUS
  0
LAYER
  2
寸法
 70
     0
 62
    80
  6
CONTINUOUS
  0
LAYER
  2
ﾊｯﾁﾝｸﾞ
 70
     0
 62
    95
  6
CONTINUOUS
  0
LAYER
  2
別途部材
 70
     0
 62
    96
  6
CONTINUOUS
  0
LAYER
  2
曲げ物
 70
     0
 62
   111
  6
CONTINUOUS
  0
LAYER
  2
鉄骨等
 70
     0
 62
   112
  6
CONTINUOUS
  0
LAYER
  2
St
 70
     0
 62
   127
  6
CONTINUOUS
  0
LAYER
  2
その他部品等
 70
     0
 62
   128
  6
CONTINUOUS
  0
LAYER
  2
ｶﾞｽｹｯﾄ
 70
     0
 62
   143
  6
CONTINUOUS
  0
LAYER
  2
ｽｹｯﾁ
 70
     0
 62
    14
  6
CONTINUOUS
  0
LAYER
  2
0
 70
     0
 62
    17
  6
CONTINUOUS
  0
LAYER
  2
1
 70
     0
 62
    30
  6
CONTINUOUS
  0
LAYER
  2
4
 70
     0
 62
    33
  6
CONTINUOUS
  0
LAYER
  2
ﾚｲﾔ3
 70
     0
 62
    46
  6
CONTINUOUS
  0
LAYER
  2
外形線
 70
     0
 62
    49
  6
CONTINUOUS
  0
LAYER
  2
部品
 70
     0
 62
    14
  6
CONTINUOUS
  0
LAYER
  2
サッシ芯
 70
     0
 62
    17
  6
DASHDOTX2
  0
LAYER
  2
寸法線
 70
     0
 62
    62
  6
CONTINUOUS
  0
LAYER
  2
姿図外形線
 70
     0
 62
    65
  6
CONTINUOUS
  0
LAYER
  2
姿補助線
 70
     0
 62
    30
  6
CONTINUOUS
  0
LAYER
  2
透視線
 70
     0
 62
    78
  6
DOT
  0
LAYER
  2
用紙
 70
     0
 62
    81
  6
CONTINUOUS
  0
LAYER
  2
実線図枠
 70
     0
 62
    94
  6
CONTINUOUS
  0
LAYER
  2
補助図枠
 70
     0
 62
    97
  6
CONTINUOUS
  0
LAYER
  2
建具記号
 70
     0
 62
   110
  6
CONTINUOUS
  0
LAYER
  2
補助文字
 70
     0
 62
   113
  6
CONTINUOUS
  0
ENDTAB
  0
TABLE
  2
STYLE
 70
    10
  0
STYLE
  2
STANDARD
 70
     0
 40
1.0
 41
1.0
 42
1.0
 50
0.0
 71
     0
  3
TXT
  4
BIGFONT
  0
STYLE
  2
TATE
 70
     4
 40
1.0
 41
1.0
 42
1.0
 50
0.0
 71
     0
  3
TXT
  4
BIGFONT
  0
STYLE
  2
TextStyle03
 70
     0
 40
1.0
 41
1.0
 42
1.0
 50
0.0
 71
     0
  3
MONOTXT
  4
BIGFONT
  0
STYLE
  2
TextStyle04
 70
     0
 40
1.0
 41
1.0
 42
1.0
 50
0.0
 71
     0
  3
MONOTXT
  4
BIGFONT
  0
STYLE
  2
TextStyle05
 70
     0
 40
1.0
 41
1.0
 42
1.0
 50
0.0
 71
     0
  3
MONOTXT
  4
BIGFONT
  0
STYLE
  2
TextStyle06
 70
     0
 40
1.0
 41
1.0
 42
1.0
 50
0.0
 71
     0
  3
MONOTXT
  4
BIGFONT
  0
STYLE
  2
TextStyle07
 70
     0
 40
1.0
 41
1.0
 42
1.0
 50
0.0
 71
     0
  3
MONOTXT
  4
BIGFONT
  0
STYLE
  2
TextStyle08
 70
     0
 40
1.0
 41
1.0
 42
1.0
 50
0.0
 71
     0
  3
MONOTXT
  4
BIGFONT
  0
STYLE
  2
TextStyle09
 70
     0
 40
1.0
 41
1.0
 42
1.0
 50
0.0
 71
     0
  3
MONOTXT
  4
BIGFONT
  0
STYLE
  2
TextStyle10
 70
     0
 40
1.0
 41
1.0
 42
1.0
 50
0.0
 71
     0
  3
MONOTXT
  4
BIGFONT
  0
ENDTAB
  0
ENDSEC
  0
SECTION
  2
BLOCKS
  0
BLOCK
  2
*GRP_0001
 70
    65
 10
0.0
 20
0.0
  0
LINE
  8
型材断面
  6
CONTINUOUS
 10
195.0
 20
133.5
 11
195.0
 21
-133.5
  0
LINE
  8
型材断面
  6
CONTINUOUS
 10
195.0
 20
-133.5
 11
-185.0
 21
-133.5
  0
LINE
  8
型材断面
  6
CONTINUOUS
 10
-185.0
 20
-133.5
 11
-185.0
 21
133.5
  0
LINE
  8
型材断面
  6
CONTINUOUS
 10
195.0
 20
133.5
 11
-185.0
 21
133.5
  0
LINE
  8
型材断面
  6
CONTINUOUS
 10
145.0
 20
-133.5
 11
145.0
 21
-118.5
  0
LINE
  8
型材断面
  6
CONTINUOUS
 10
195.0
 20
-118.5
 11
145.0
 21
-118.5
  0
ENDBLK
  0
BLOCK
  2
*DIM_0002
 70
    65
 10
0.0
 20
0.0
  0
LINE
  8
寸法
  6
BYBLOCK
 62
     0
 10
21.33489
 20
-22.536362
 11
-78.66511
 21
-22.536362
  0
POINT
  8
寸法
 62
     0
 10
21.33489
 20
-22.536362
  0
POINT
  8
寸法
 62
     0
 10
-78.66511
 20
-22.536362
  0
TEXT
  7
TextStyle03
  8
寸法
  6
CONTINUOUS
 62
     0
 10
-40.39375
 20
-22.175
  1
呼称寸法　3000
 40
3.0
 72
     5
 11
-16.95625
 21
-22.175
  0
ENDBLK
  0
BLOCK
  2
*DIM_0003
 70
    65
 10
0.0
 20
0.0
  0
LINE
  8
寸法
  6
BYBLOCK
 62
     0
 10
-81.66511
 20
23.399048
 11
-110.610275
 21
23.399048
  0
LINE
  8
寸法
  6
BYBLOCK
 62
     0
 10
-81.66511
 20
46.732382
 11
-110.610275
 21
46.732382
  0
LINE
  8
寸法
  6
BYBLOCK
 62
     0
 10
-110.610275
 20
23.399048
 11
-110.610275
 21
46.732382
  0
POINT
  8
寸法
 62
     0
 10
-110.610275
 20
23.399048
  0
POINT
  8
寸法
 62
     0
 10
-110.610275
 20
46.732382
  0
TEXT
  7
TextStyle03
  8
寸法
  6
CONTINUOUS
 62
     0
 10
-111.075
 20
32.6125
  1
700
 40
3.0
 50
90.0
 72
     5
 11
-111.075
 21
37.4875
  0
ENDBLK
  0
BLOCK
  2
*DIM_0004
 70
    65
 10
0.0
 20
0.0
  0
LINE
  8
寸法
  6
BYBLOCK
 62
     0
 10
-68.66511
 20
59.73238
 11
-68.66511
 21
88.840452
  0
LINE
  8
寸法
  6
BYBLOCK
 62
     0
 10
-41.998442
 20
59.73238
 11
-41.998442
 21
88.840452
  0
LINE
  8
寸法
  6
BYBLOCK
 62
     0
 10
-68.66511
 20
88.840452
 11
-41.998442
 21
88.840452
  0
POINT
  8
寸法
 62
     0
 10
-68.66511
 20
88.840452
  0
POINT
  8
寸法
 62
     0
 10
-41.998442
 20
88.840452
  0
TEXT
  7
TextStyle03
  8
寸法
  6
CONTINUOUS
 62
     0
 10
-57.7875
 20
89.2
  1
800
 40
3.0
 72
     5
 11
-52.9125
 21
89.2
  0
ENDBLK
  0
BLOCK
  2
*DIM_0005
 70
    65
 10
0.0
 20
0.0
  0
LINE
  8
寸法
  6
BYBLOCK
 62
     0
 10
-15.331778
 20
59.73238
 11
-15.331778
 21
88.840452
  0
LINE
  8
寸法
  6
BYBLOCK
 62
     0
 10
-41.998442
 20
88.840452
 11
-15.331778
 21
88.840452
  0
POINT
  8
寸法
 62
     0
 10
-15.331778
 20
88.840452
  0
TEXT
  7
TextStyle03
  8
寸法
  6
CONTINUOUS
 62
     0
 10
-31.1125
 20
89.2
  1
800
 40
3.0
 72
     5
 11
-26.2375
 21
89.2
  0
ENDBLK
  0
BLOCK
  2
*DIM_0006
 70
    65
 10
0.0
 20
0.0
  0
LINE
  8
寸法
  6
BYBLOCK
 62
     0
 10
11.33489
 20
59.73238
 11
11.33489
 21
88.840452
  0
LINE
  8
寸法
  6
BYBLOCK
 62
     0
 10
-15.331778
 20
88.840452
 11
11.33489
 21
88.840452
  0
POINT
  8
寸法
 62
     0
 10
11.33489
 20
88.840452
  0
TEXT
  7
TextStyle03
  8
寸法
  6
CONTINUOUS
 62
     0
 10
-4.4375
 20
89.2
  1
800
 40
3.0
 72
     5
 11
0.4375
 21
89.2
  0
ENDBLK
  0
BLOCK
  2
*GRP_0007
 70
    65
 10
0.0
 20
0.0
  0
LINE
  8
別途部材
  6
CONTINUOUS
 62
    96
 10
-80.331775
 20
-79.6246
 11
-80.731775
 21
-80.6246
  0
LINE
  8
別途部材
  6
CONTINUOUS
 10
-80.731775
 20
-80.6246
 11
-28.66511
 21
-80.6246
  0
LINE
  8
別途部材
  6
CONTINUOUS
 62
    96
 10
-80.331775
 20
-79.6246
 11
-28.66511
 21
-79.6246
  0
LINE
  8
別途部材
  6
CONTINUOUS
 10
-29.16511
 20
-66.957932
 11
-30.16511
 21
-67.957932
  0
LINE
  8
別途部材
  6
CONTINUOUS
 10
-31.16511
 20
-67.957932
 11
-32.16511
 21
-66.957932
  0
LINE
  8
別途部材
  6
CONTINUOUS
 10
-33.16511
 20
-66.957932
 11
-34.16511
 21
-67.957932
  0
LINE
  8
別途部材
  6
CONTINUOUS
 10
-32.16511
 20
-66.957932
 11
-33.16511
 21
-66.957932
  0
LINE
  8
別途部材
  6
CONTINUOUS
 10
-29.16511
 20
-66.957932
 11
-28.66511
 21
-66.957932
  0
LINE
  8
別途部材
  6
CONTINUOUS
 10
-35.16511
 20
-67.957932
 11
-36.16511
 21
-66.957932
  0
LINE
  8
別途部材
  6
CONTINUOUS
 10
-37.16511
 20
-66.957932
 11
-38.16511
 21
-67.957932
  0
LINE
  8
別途部材
  6
CONTINUOUS
 10
-36.16511
 20
-66.957932
 11
-37.16511
 21
-66.957932
  0
LINE
  8
別途部材
  6
CONTINUOUS
 10
-39.16511
 20
-67.957932
 11
-40.16511
 21
-66.957932
  0
LINE
  8
別途部材
  6
CONTINUOUS
 10
-41.16511
 20
-66.957932
 11
-42.16511
 21
-67.957932
  0
LINE
  8
別途部材
  6
CONTINUOUS
 10
-40.16511
 20
-66.957932
 11
-41.16511
 21
-66.957932
  0
LINE
  8
別途部材
  6
CONTINUOUS
 10
-43.16511
 20
-67.957932
 11
-44.16511
 21
-66.957932
  0
LINE
  8
別途部材
  6
CONTINUOUS
 10
-45.16511
 20
-66.957932
 11
-46.16511
 21
-67.957932
  0
LINE
  8
別途部材
  6
CONTINUOUS
 10
-44.16511
 20
-66.957932
 11
-45.16511
 21
-66.957932
  0
LINE
  8
別途部材
  6
CONTINUOUS
 10
-47.16511
 20
-67.957932
 11
-48.16511
 21
-66.957932
  0
LINE
  8
別途部材
  6
CONTINUOUS
 10
-49.16511
 20
-66.957932
 11
-50.16511
 21
-67.957932
  0
LINE
  8
別途部材
  6
CONTINUOUS
 10
-48.16511
 20
-66.957932
 11
-49.16511
 21
-66.957932
  0
LINE
  8
別途部材
  6
CONTINUOUS
 10
-51.16511
 20
-67.957932
 11
-52.16511
 21
-66.957932
  0
LINE
  8
別途部材
  6
CONTINUOUS
 10
-53.16511
 20
-66.957932
 11
-54.16511
 21
-67.957932
  0
LINE
  8
別途部材
  6
CONTINUOUS
 10
-52.16511
 20
-66.957932
 11
-53.16511
 21
-66.957932
  0
LINE
  8
別途部材
  6
CONTINUOUS
 10
-55.16511
 20
-67.957932
 11
-56.16511
 21
-66.957932
  0
LINE
  8
別途部材
  6
CONTINUOUS
 10
-57.16511
 20
-66.957932
 11
-58.16511
 21
-67.957932
  0
LINE
  8
別途部材
  6
CONTINUOUS
 10
-56.16511
 20
-66.957932
 11
-57.16511
 21
-66.957932
  0
LINE
  8
別途部材
  6
CONTINUOUS
 10
-54.16511
 20
-67.957932
 11
-55.16511
 21
-67.957932
  0
LINE
  8
別途部材
  6
CONTINUOUS
 10
-50.16511
 20
-67.957932
 11
-51.16511
 21
-67.957932
  0
LINE
  8
別途部材
  6
CONTINUOUS
 10
-46.16511
 20
-67.957932
 11
-47.16511
 21
-67.957932
  0
LINE
  8
別途部材
  6
CONTINUOUS
 10
-42.16511
 20
-67.957932
 11
-43.16511
 21
-67.957932
  0
LINE
  8
別途部材
  6
CONTINUOUS
 10
-38.16511
 20
-67.957932
 11
-39.16511
 21
-67.957932
  0
LINE
  8
別途部材
  6
CONTINUOUS
 10
-34.16511
 20
-67.957932
 11
-35.16511
 21
-67.957932
  0
LINE
  8
別途部材
  6
CONTINUOUS
 10
-31.16511
 20
-67.957932
 11
-30.16511
 21
-67.957932
  0
LINE
  8
別途部材
  6
CONTINUOUS
 10
-51.16511
 20
-67.957932
 11
-51.16511
 21
-79.6246
  0
LINE
  8
別途部材
  6
CONTINUOUS
 10
-45.16511
 20
-66.957932
 11
-45.16511
 21
-79.6246
  0
LINE
  8
別途部材
  6
CONTINUOUS
 10
-44.16511
 20
-66.957932
 11
-44.16511
 21
-79.6246
  0
LINE
  8
別途部材
  6
CONTINUOUS
 10
-34.16511
 20
-67.957932
 11
-34.16511
 21
-79.6246
  0
LINE
  8
別途部材
  6
CONTINUOUS
 10
-29.16511
 20
-66.957932
 11
-29.16511
 21
-79.6246
  0
LINE
  8
別途部材
  6
CONTINUOUS
 10
-30.16511
 20
-67.957932
 11
-30.16511
 21
-79.6246
  0
LINE
  8
別途部材
  6
CONTINUOUS
 10
-32.16511
 20
-66.957932
 11
-32.16511
 21
-79.6246
  0
LINE
  8
別途部材
  6
CONTINUOUS
 10
-33.16511
 20
-66.957932
 11
-33.16511
 21
-79.6246
  0
LINE
  8
別途部材
  6
CONTINUOUS
 10
-35.16511
 20
-67.957932
 11
-35.16511
 21
-79.6246
  0
LINE
  8
別途部材
  6
CONTINUOUS
 10
-46.16511
 20
-67.957932
 11
-46.16511
 21
-79.6246
  0
LINE
  8
別途部材
  6
CONTINUOUS
 10
-47.16511
 20
-67.957932
 11
-47.16511
 21
-79.6246
  0
LINE
  8
別途部材
  6
CONTINUOUS
 10
-52.16511
 20
-66.957932
 11
-52.16511
 21
-79.6246
  0
LINE
  8
別途部材
  6
CONTINUOUS
 10
-54.16511
 20
-67.957932
 11
-54.16511
 21
-79.6246
  0
LINE
  8
別途部材
  6
CONTINUOUS
 10
-57.16511
 20
-66.957932
 11
-57.16511
 21
-79.6246
  0
LINE
  8
別途部材
  6
CONTINUOUS
 10
-53.16511
 20
-66.957932
 11
-53.16511
 21
-79.6246
  0
LINE
  8
別途部材
  6
CONTINUOUS
 10
-55.16511
 20
-67.957932
 11
-55.16511
 21
-79.6246
  0
LINE
  8
別途部材
  6
CONTINUOUS
 10
-58.16511
 20
-67.957932
 11
-58.16511
 21
-79.6246
  0
LINE
  8
別途部材
  6
CONTINUOUS
 10
-49.16511
 20
-66.957932
 11
-49.16511
 21
-79.6246
  0
LINE
  8
別途部材
  6
CONTINUOUS
 10
-48.16511
 20
-66.957932
 11
-48.16511
 21
-79.6246
  0
LINE
  8
別途部材
  6
CONTINUOUS
 10
-50.16511
 20
-67.957932
 11
-50.16511
 21
-79.6246
  0
LINE
  8
別途部材
  6
CONTINUOUS
 10
-56.16511
 20
-66.957932
 11
-56.16511
 21
-79.6246
  0
LINE
  8
別途部材
  6
CONTINUOUS
 10
-42.16511
 20
-67.957932
 11
-42.16511
 21
-79.6246
  0
LINE
  8
別途部材
  6
CONTINUOUS
 10
-43.16511
 20
-67.957932
 11
-43.16511
 21
-79.6246
  0
LINE
  8
別途部材
  6
CONTINUOUS
 10
-41.16511
 20
-66.957932
 11
-41.16511
 21
-79.6246
  0
LINE
  8
別途部材
  6
CONTINUOUS
 10
-39.16511
 20
-67.957932
 11
-39.16511
 21
-79.6246
  0
LINE
  8
別途部材
  6
CONTINUOUS
 10
-40.16511
 20
-66.957932
 11
-40.16511
 21
-79.6246
  0
LINE
  8
別途部材
  6
CONTINUOUS
 10
-38.16511
 20
-67.957932
 11
-38.16511
 21
-79.6246
  0
LINE
  8
別途部材
  6
CONTINUOUS
 10
-36.16511
 20
-66.957932
 11
-36.16511
 21
-79.6246
  0
LINE
  8
別途部材
  6
CONTINUOUS
 10
-37.16511
 20
-66.957932
 11
-37.16511
 21
-79.6246
  0
LINE
  8
別途部材
  6
CONTINUOUS
 10
-31.16511
 20
-67.957932
 11
-31.16511
 21
-79.6246
  0
ARC
  8
別途部材
  6
CONTINUOUS
 10
-56.998441
 20
-93.910314
 40
25.952382
 50
92.576553
 51
146.601512
  0
LINE
  8
別途部材
  6
CONTINUOUS
 62
    96
 10
23.001557
 20
-79.6246
 11
23.401557
 21
-80.6246
  0
LINE
  8
別途部材
  6
CONTINUOUS
 10
23.401557
 20
-80.6246
 11
-28.66511
 21
-80.6246
  0
LINE
  8
別途部材
  6
CONTINUOUS
 62
    96
 10
23.001557
 20
-79.6246
 11
-28.66511
 21
-79.6246
  0
LINE
  8
別途部材
  6
CONTINUOUS
 10
-28.16511
 20
-66.957932
 11
-27.16511
 21
-67.957932
  0
LINE
  8
別途部材
  6
CONTINUOUS
 10
-26.16511
 20
-67.957932
 11
-25.16511
 21
-66.957932
  0
LINE
  8
別途部材
  6
CONTINUOUS
 10
-24.16511
 20
-66.957932
 11
-23.16511
 21
-67.957932
  0
LINE
  8
別途部材
  6
CONTINUOUS
 10
-25.16511
 20
-66.957932
 11
-24.16511
 21
-66.957932
  0
LINE
  8
別途部材
  6
CONTINUOUS
 10
-28.16511
 20
-66.957932
 11
-28.66511
 21
-66.957932
  0
LINE
  8
別途部材
  6
CONTINUOUS
 10
-22.16511
 20
-67.957932
 11
-21.16511
 21
-66.957932
  0
LINE
  8
別途部材
  6
CONTINUOUS
 10
-20.16511
 20
-66.957932
 11
-19.16511
 21
-67.957932
  0
LINE
  8
別途部材
  6
CONTINUOUS
 10
-21.16511
 20
-66.957932
 11
-20.16511
 21
-66.957932
  0
LINE
  8
別途部材
  6
CONTINUOUS
 10
-18.16511
 20
-67.957932
 11
-17.16511
 21
-66.957932
  0
LINE
  8
別途部材
  6
CONTINUOUS
 10
-16.16511
 20
-66.957932
 11
-15.16511
 21
-67.957932
  0
LINE
  8
別途部材
  6
CONTINUOUS
 10
-17.16511
 20
-66.957932
 11
-16.16511
 21
-66.957932
  0
LINE
  8
別途部材
  6
CONTINUOUS
 10
-14.16511
 20
-67.957932
 11
-13.16511
 21
-66.957932
  0
LINE
  8
別途部材
  6
CONTINUOUS
 10
-12.16511
 20
-66.957932
 11
-11.16511
 21
-67.957932
  0
LINE
  8
別途部材
  6
CONTINUOUS
 10
-13.16511
 20
-66.957932
 11
-12.16511
 21
-66.957932
  0
LINE
  8
別途部材
  6
CONTINUOUS
 10
-10.16511
 20
-67.957932
 11
-9.16511
 21
-66.957932
  0
LINE
  8
別途部材
  6
CONTINUOUS
 10
-8.16511
 20
-66.957932
 11
-7.16511
 21
-67.957932
  0
LINE
  8
別途部材
  6
CONTINUOUS
 10
-9.16511
 20
-66.957932
 11
-8.16511
 21
-66.957932
  0
LINE
  8
別途部材
  6
CONTINUOUS
 10
-6.16511
 20
-67.957932
 11
-5.16511
 21
-66.957932
  0
LINE
  8
別途部材
  6
CONTINUOUS
 10
-4.16511
 20
-66.957932
 11
-3.16511
 21
-67.957932
  0
LINE
  8
別途部材
  6
CONTINUOUS
 10
-5.16511
 20
-66.957932
 11
-4.16511
 21
-66.957932
  0
LINE
  8
別途部材
  6
CONTINUOUS
 10
-2.16511
 20
-67.957932
 11
-1.16511
 21
-66.957932
  0
LINE
  8
別途部材
  6
CONTINUOUS
 10
-0.16511
 20
-66.957932
 11
0.83489
 21
-67.957932
  0
LINE
  8
別途部材
  6
CONTINUOUS
 10
-1.16511
 20
-66.957932
 11
-0.16511
 21
-66.957932
  0
LINE
  8
別途部材
  6
CONTINUOUS
 10
-3.16511
 20
-67.957932
 11
-2.16511
 21
-67.957932
  0
LINE
  8
別途部材
  6
CONTINUOUS
 10
-7.16511
 20
-67.957932
 11
-6.16511
 21
-67.957932
  0
LINE
  8
別途部材
  6
CONTINUOUS
 10
-11.16511
 20
-67.957932
 11
-10.16511
 21
-67.957932
  0
LINE
  8
別途部材
  6
CONTINUOUS
 10
-15.16511
 20
-67.957932
 11
-14.16511
 21
-67.957932
  0
LINE
  8
別途部材
  6
CONTINUOUS
 10
-19.16511
 20
-67.957932
 11
-18.16511
 21
-67.957932
  0
LINE
  8
別途部材
  6
CONTINUOUS
 10
-23.16511
 20
-67.957932
 11
-22.16511
 21
-67.957932
  0
LINE
  8
別途部材
  6
CONTINUOUS
 10
-26.16511
 20
-67.957932
 11
-27.16511
 21
-67.957932
  0
LINE
  8
別途部材
  6
CONTINUOUS
 10
-6.16511
 20
-67.957932
 11
-6.16511
 21
-79.6246
  0
LINE
  8
別途部材
  6
CONTINUOUS
 10
-12.16511
 20
-66.957932
 11
-12.16511
 21
-79.6246
  0
LINE
  8
別途部材
  6
CONTINUOUS
 10
-13.16511
 20
-66.957932
 11
-13.16511
 21
-79.6246
  0
LINE
  8
別途部材
  6
CONTINUOUS
 10
-23.16511
 20
-67.957932
 11
-23.16511
 21
-79.6246
  0
LINE
  8
別途部材
  6
CONTINUOUS
 10
-28.16511
 20
-66.957932
 11
-28.16511
 21
-79.6246
  0
LINE
  8
別途部材
  6
CONTINUOUS
 10
-27.16511
 20
-67.957932
 11
-27.16511
 21
-79.6246
  0
LINE
  8
別途部材
  6
CONTINUOUS
 10
-25.16511
 20
-66.957932
 11
-25.16511
 21
-79.6246
  0
LINE
  8
別途部材
  6
CONTINUOUS
 10
-24.16511
 20
-66.957932
 11
-24.16511
 21
-79.6246
  0
LINE
  8
別途部材
  6
CONTINUOUS
 10
-22.16511
 20
-67.957932
 11
-22.16511
 21
-79.6246
  0
LINE
  8
別途部材
  6
CONTINUOUS
 10
-11.16511
 20
-67.957932
 11
-11.16511
 21
-79.6246
  0
LINE
  8
別途部材
  6
CONTINUOUS
 10
-10.16511
 20
-67.957932
 11
-10.16511
 21
-79.6246
  0
LINE
  8
別途部材
  6
CONTINUOUS
 10
-5.16511
 20
-66.957932
 11
-5.16511
 21
-79.6246
  0
LINE
  8
別途部材
  6
CONTINUOUS
 10
-3.16511
 20
-67.957932
 11
-3.16511
 21
-79.6246
  0
LINE
  8
別途部材
  6
CONTINUOUS
 10
-0.16511
 20
-66.957932
 11
-0.16511
 21
-79.6246
  0
LINE
  8
別途部材
  6
CONTINUOUS
 10
-4.16511
 20
-66.957932
 11
-4.16511
 21
-79.6246
  0
LINE
  8
別途部材
  6
CONTINUOUS
 10
-2.16511
 20
-67.957932
 11
-2.16511
 21
-79.6246
  0
LINE
  8
別途部材
  6
CONTINUOUS
 10
0.83489
 20
-67.957932
 11
0.83489
 21
-79.6246
  0
LINE
  8
別途部材
  6
CONTINUOUS
 10
-8.16511
 20
-66.957932
 11
-8.16511
 21
-79.6246
  0
LINE
  8
別途部材
  6
CONTINUOUS
 10
-9.16511
 20
-66.957932
 11
-9.16511
 21
-79.6246
  0
LINE
  8
別途部材
  6
CONTINUOUS
 10
-7.16511
 20
-67.957932
 11
-7.16511
 21
-79.6246
  0
LINE
  8
別途部材
  6
CONTINUOUS
 10
-1.16511
 20
-66.957932
 11
-1.16511
 21
-79.6246
  0
LINE
  8
別途部材
  6
CONTINUOUS
 10
-15.16511
 20
-67.957932
 11
-15.16511
 21
-79.6246
  0
LINE
  8
別途部材
  6
CONTINUOUS
 10
-14.16511
 20
-67.957932
 11
-14.16511
 21
-79.6246
  0
LINE
  8
別途部材
  6
CONTINUOUS
 10
-16.16511
 20
-66.957932
 11
-16.16511
 21
-79.6246
  0
LINE
  8
別途部材
  6
CONTINUOUS
 10
-18.16511
 20
-67.957932
 11
-18.16511
 21
-79.6246
  0
LINE
  8
別途部材
  6
CONTINUOUS
 10
-17.16511
 20
-66.957932
 11
-17.16511
 21
-79.6246
  0
LINE
  8
別途部材
  6
CONTINUOUS
 10
-19.16511
 20
-67.957932
 11
-19.16511
 21
-79.6246
  0
LINE
  8
別途部材
  6
CONTINUOUS
 10
-21.16511
 20
-66.957932
 11
-21.16511
 21
-79.6246
  0
LINE
  8
別途部材
  6
CONTINUOUS
 10
-20.16511
 20
-66.957932
 11
-20.16511
 21
-79.6246
  0
LINE
  8
別途部材
  6
CONTINUOUS
 10
-26.16511
 20
-67.957932
 11
-26.16511
 21
-79.6246
  0
ARC
  8
別途部材
  6
CONTINUOUS
 10
-0.331777
 20
-93.910314
 40
25.952382
 50
33.398488
 51
87.423447
  0
ENDBLK
  0
BLOCK
  2
*GRP_0008
 70
    65
 10
0.0
 20
0.0
  0
LINE
  8
ボルト／ビス
  6
CONTINUOUS
 10
-79.331778
 20
-79.624595
 11
-79.331778
 21
-79.157928
  0
LINE
  8
ボルト／ビス
  6
CONTINUOUS
 10
-78.96511
 20
-79.624595
 11
-78.96511
 21
-79.557928
  0
LINE
  8
ボルト／ビス
  6
CONTINUOUS
 10
-78.96511
 20
-79.557928
 11
-79.698445
 21
-79.557928
  0
LINE
  8
ボルト／ビス
  6
CONTINUOUS
 10
-79.698445
 20
-79.557928
 11
-79.698445
 21
-79.624595
  0
LINE
  8
ボルト／ビス
  6
CONTINUOUS
 10
-78.96511
 20
-79.624595
 11
-79.698445
 21
-79.624595
  0
LINE
  8
ボルト／ビス
  6
CONTINUOUS
 10
-79.031778
 20
-79.524595
 11
-79.031778
 21
-79.557928
  0
LINE
  8
ボルト／ビス
  6
CONTINUOUS
 10
-79.031778
 20
-79.524595
 11
-79.631778
 21
-79.524595
  0
LINE
  8
ボルト／ビス
  6
CONTINUOUS
 10
-79.631778
 20
-79.524595
 11
-79.631778
 21
-79.557928
  0
LINE
  8
ボルト／ビス
  6
CONTINUOUS
 62
    64
 10
-79.171403
 20
-79.324595
 11
-79.139328
 21
-79.33627
  0
ARC
  8
ボルト／ビス
  6
CONTINUOUS
 62
    64
 10
-79.187439
 20
-79.429575
 40
0.104978
 50
90.0
 51
117.278033
  0
ARC
  8
ボルト／ビス
  6
CONTINUOUS
 62
    64
 10
-79.331777
 20
-79.726999
 40
0.402402
 50
76.165015
 51
103.834998
  0
LINE
  8
ボルト／ビス
  6
CONTINUOUS
 62
    64
 10
-79.492152
 20
-79.324595
 11
-79.524227
 21
-79.33627
  0
ARC
  8
ボルト／ビス
  6
CONTINUOUS
 62
    64
 10
-79.476114
 20
-79.429575
 40
0.104978
 50
62.721967
 51
90.0
  0
LINE
  8
ボルト／ビス
  6
CONTINUOUS
 62
    64
 10
-79.171403
 20
-79.324595
 11
-79.492152
 21
-79.324595
  0
LINE
  8
ボルト／ビス
  6
CONTINUOUS
 62
    64
 10
-79.524227
 20
-79.33627
 11
-79.524227
 21
-79.457928
  0
LINE
  8
ボルト／ビス
  6
CONTINUOUS
 62
    64
 10
-79.428003
 20
-79.33627
 11
-79.428003
 21
-79.457928
  0
LINE
  8
ボルト／ビス
  6
CONTINUOUS
 62
    64
 10
-79.139328
 20
-79.33627
 11
-79.139328
 21
-79.457928
  0
LINE
  8
ボルト／ビス
  6
CONTINUOUS
 62
    64
 10
-79.235552
 20
-79.33627
 11
-79.235552
 21
-79.457928
  0
LINE
  8
ボルト／ビス
  6
CONTINUOUS
 10
-79.139328
 20
-79.457928
 11
-79.524227
 21
-79.457928
  0
LINE
  8
ボルト／ビス
  6
CONTINUOUS
 10
-79.131778
 20
-79.457928
 11
-79.131778
 21
-79.524595
  0
LINE
  8
ボルト／ビス
  6
CONTINUOUS
 10
-79.131778
 20
-79.457928
 11
-79.531778
 21
-79.457928
  0
LINE
  8
ボルト／ビス
  6
CONTINUOUS
 10
-79.531778
 20
-79.457928
 11
-79.531778
 21
-79.524595
  0
ENDBLK
  0
BLOCK
  2
*GRP_0009
 70
    65
 10
0.0
 20
0.0
  0
LINE
  8
ボルト／ビス
  6
CONTINUOUS
 10
22.001557
 20
-79.6246
 11
22.001557
 21
-79.157932
  0
LINE
  8
ボルト／ビス
  6
CONTINUOUS
 10
22.368225
 20
-79.6246
 11
22.368225
 21
-79.557932
  0
LINE
  8
ボルト／ビス
  6
CONTINUOUS
 10
22.368225
 20
-79.557932
 11
21.63489
 21
-79.557932
  0
LINE
  8
ボルト／ビス
  6
CONTINUOUS
 10
21.63489
 20
-79.557932
 11
21.63489
 21
-79.6246
  0
LINE
  8
ボルト／ビス
  6
CONTINUOUS
 10
22.368225
 20
-79.6246
 11
21.63489
 21
-79.6246
  0
LINE
  8
ボルト／ビス
  6
CONTINUOUS
 10
22.301557
 20
-79.5246
 11
22.301557
 21
-79.557932
  0
LINE
  8
ボルト／ビス
  6
CONTINUOUS
 10
22.301557
 20
-79.5246
 11
21.701557
 21
-79.5246
  0
LINE
  8
ボルト／ビス
  6
CONTINUOUS
 10
21.701557
 20
-79.5246
 11
21.701557
 21
-79.557932
  0
LINE
  8
ボルト／ビス
  6
CONTINUOUS
 62
    64
 10
22.161932
 20
-79.3246
 11
22.194008
 21
-79.336275
  0
ARC
  8
ボルト／ビス
  6
CONTINUOUS
 62
    64
 10
22.145896
 20
-79.42958
 40
0.104978
 50
90.0
 51
117.278033
  0
ARC
  8
ボルト／ビス
  6
CONTINUOUS
 62
    64
 10
22.001558
 20
-79.727004
 40
0.402402
 50
76.165015
 51
103.834998
  0
LINE
  8
ボルト／ビス
  6
CONTINUOUS
 62
    64
 10
21.841182
 20
-79.3246
 11
21.809108
 21
-79.336275
  0
ARC
  8
ボルト／ビス
  6
CONTINUOUS
 62
    64
 10
21.857221
 20
-79.42958
 40
0.104978
 50
62.721967
 51
90.0
  0
LINE
  8
ボルト／ビス
  6
CONTINUOUS
 62
    64
 10
22.161932
 20
-79.3246
 11
21.841182
 21
-79.3246
  0
LINE
  8
ボルト／ビス
  6
CONTINUOUS
 62
    64
 10
21.809108
 20
-79.336275
 11
21.809108
 21
-79.457932
  0
LINE
  8
ボルト／ビス
  6
CONTINUOUS
 62
    64
 10
21.905333
 20
-79.336275
 11
21.905333
 21
-79.457932
  0
LINE
  8
ボルト／ビス
  6
CONTINUOUS
 62
    64
 10
22.194008
 20
-79.336275
 11
22.194008
 21
-79.457932
  0
LINE
  8
ボルト／ビス
  6
CONTINUOUS
 62
    64
 10
22.097782
 20
-79.336275
 11
22.097782
 21
-79.457932
  0
LINE
  8
ボルト／ビス
  6
CONTINUOUS
 10
22.194008
 20
-79.457932
 11
21.809108
 21
-79.457932
  0
LINE
  8
ボルト／ビス
  6
CONTINUOUS
 10
22.201557
 20
-79.457932
 11
22.201557
 21
-79.5246
  0
LINE
  8
ボルト／ビス
  6
CONTINUOUS
 10
22.201557
 20
-79.457932
 11
21.801557
 21
-79.457932
  0
LINE
  8
ボルト／ビス
  6
CONTINUOUS
 10
21.801557
 20
-79.457932
 11
21.801557
 21
-79.5246
  0
ENDBLK
  0
BLOCK
  2
*DIM_0010
 70
    65
 10
0.0
 20
0.0
  0
LINE
  8
寸法
  6
BYBLOCK
 62
     0
 10
-61.998442
 20
3.102882
 11
-61.998442
 21
-1.46801
  0
LINE
  8
寸法
  6
BYBLOCK
 62
     0
 10
4.668223
 20
3.102882
 11
4.668223
 21
-1.46801
  0
LINE
  8
寸法
  6
BYBLOCK
 62
     0
 10
-61.998442
 20
-1.46801
 11
4.668223
 21
-1.46801
  0
POINT
  8
寸法
 62
     0
 10
-61.998442
 20
-1.46801
  0
POINT
  8
寸法
 62
     0
 10
4.668223
 20
-1.46801
  0
TEXT
  7
TextStyle03
  8
寸法
  6
CONTINUOUS
 62
     0
 10
-31.95625
 20
-1.1
  1
2000
 40
3.0
 72
     5
 11
-25.39375
 21
-1.1
  0
ENDBLK
  0
BLOCK
  2
*DIM_0011
 70
    65
 10
0.0
 20
0.0
  0
LINE
  8
寸法
  6
CONTINUOUS
 10
28.834905
 20
-88.1246
 11
40.41726
 21
-88.1246
  0
LINE
  8
寸法
  6
CONTINUOUS
 10
28.834905
 20
-85.79127
 11
40.41726
 21
-85.79127
  0
LINE
  8
寸法
  6
CONTINUOUS
 10
40.41726
 20
-88.1246
 11
40.41726
 21
-85.79127
  0
POINT
  8
寸法
 10
40.41726
 20
-88.1246
  0
POINT
  8
寸法
 10
40.41726
 20
-85.79127
  0
TEXT
  7
TextStyle03
  8
寸法
  6
CONTINUOUS
 10
40.025
 20
-88.475
  1
※
 40
3.0
 50
90.0
 72
     5
 11
40.025
 21
-85.475
  0
ENDBLK
  0
BLOCK
  2
*DIM_0012
 70
    65
 10
0.0
 20
0.0
  0
LINE
  8
寸法
  6
CONTINUOUS
 10
24.001557
 20
-79.6246
 11
40.41726
 21
-79.6246
  0
LINE
  8
寸法
  6
CONTINUOUS
 10
40.41726
 20
-85.79127
 11
40.41726
 21
-79.6246
  0
POINT
  8
寸法
 10
40.41726
 20
-79.6246
  0
TEXT
  7
TextStyle03
  8
寸法
  6
CONTINUOUS
 10
40.025
 20
-85.1625
  1
185
 40
3.0
 50
90.0
 72
     5
 11
40.025
 21
-80.2875
  0
ENDBLK
  0
BLOCK
  2
*DIM_0013
 70
    65
 10
0.0
 20
0.0
  0
LINE
  8
寸法
  6
CONTINUOUS
 10
1.83489
 20
-67.957932
 11
40.41726
 21
-67.957932
  0
LINE
  8
寸法
  6
CONTINUOUS
 10
40.41726
 20
-79.6246
 11
40.41726
 21
-67.957932
  0
POINT
  8
寸法
 10
40.41726
 20
-67.957932
  0
TEXT
  7
TextStyle03
  8
寸法
  6
CONTINUOUS
 10
40.025
 20
-76.2375
  1
350
 40
3.0
 50
90.0
 72
     5
 11
40.025
 21
-71.3625
  0
ENDBLK
  0
BLOCK
  2
*DIM_0014
 70
    65
 10
0.0
 20
0.0
  0
LINE
  8
寸法
  6
CONTINUOUS
 10
27.834905
 20
-84.79127
 11
27.834905
 21
-22.536362
  0
LINE
  8
寸法
  6
CONTINUOUS
 10
21.33489
 20
-22.536362
 11
27.834905
 21
-22.536362
  0
POINT
  8
寸法
 10
21.33489
 20
-22.536362
  0
POINT
  8
寸法
 10
27.834905
 20
-22.536362
  0
TEXT
  7
TextStyle03
  8
寸法
  6
CONTINUOUS
 10
23.075
 20
-22.175
  1
※
 40
3.0
 72
     5
 11
26.075
 21
-22.175
  0
ENDBLK
  0
BLOCK
  2
*DIM_0015
 70
    65
 10
0.0
 20
0.0
  0
LINE
  8
寸法
  6
CONTINUOUS
 10
-85.165122
 20
-84.79127
 11
-85.165122
 21
-22.536362
  0
LINE
  8
寸法
  6
CONTINUOUS
 10
-78.66511
 20
-22.536362
 11
-85.165122
 21
-22.536362
  0
POINT
  8
寸法
 10
-78.66511
 20
-22.536362
  0
POINT
  8
寸法
 10
-85.165122
 20
-22.536362
  0
TEXT
  7
TextStyle03
  8
寸法
  6
CONTINUOUS
 10
-83.425
 20
-22.175
  1
※
 40
3.0
 72
     5
 11
-80.425
 21
-22.175
  0
ENDBLK
  0
BLOCK
  2
*GRP_0016
 70
    65
 10
0.0
 20
0.0
  0
LINE
  8
型材断面
  6
DOT
 62
    47
 10
79.900503
 20
27.149685
 11
81.244032
 21
25.806155
  0
LINE
  8
型材断面
  6
DOT
 62
    47
 10
111.95603
 20
59.205215
 11
113.29956
 21
57.861685
  0
LINE
  8
型材断面
  6
DOT
 10
81.244032
 20
25.806155
 11
113.29956
 21
57.861685
  0
LINE
  8
別途部材
  6
DOT
 62
    96
 10
78.722
 20
27.385398
 11
79.146265
 21
26.395448
  0
ARC
  8
別途部材
  6
DOT
 10
105.322684
 20
33.78303
 40
25.952381
 50
78.39849
 51
191.60151
  0
INSERT
  2
*GRP_0026
  8
別途部材
  6
DOT
 10
0.0
 20
0.0
  0
LINE
  8
別途部材
  6
DOT
 62
    96
 10
111.720318
 20
60.383715
 11
112.710268
 21
59.959453
  0
INSERT
  2
*GRP_0027
  8
別途部材
  6
DOT
 10
0.0
 20
0.0
  0
LINE
  8
別途部材
  6
DOT
 10
79.146265
 20
26.395448
 11
112.710268
 21
59.959453
  0
LINE
  8
別途部材
  6
DOT
 62
    96
 10
78.722
 20
27.385398
 11
111.720318
 21
60.383715
  0
ENDBLK
  0
BLOCK
  2
*DIM_0017
 70
    65
 10
0.0
 20
0.0
  0
LINE
  8
寸法
  6
CONTINUOUS
 10
69.2359
 20
13.399048
 11
68.45978
 21
13.399048
  0
LINE
  8
寸法
  6
CONTINUOUS
 10
69.2359
 20
56.732382
 11
68.45978
 21
56.732382
  0
LINE
  8
寸法
  6
CONTINUOUS
 10
68.45978
 20
13.399048
 11
68.45978
 21
56.732382
  0
POINT
  8
寸法
 10
68.45978
 20
13.399048
 50
-90.0
  0
POINT
  8
寸法
 10
68.45978
 20
56.732382
 50
-90.0
  0
TEXT
  7
TextStyle03
  8
寸法
  6
CONTINUOUS
 10
68.175
 20
23.30625
  1
呼称寸法　1300
 40
3.0
 50
90.0
 72
     5
 11
68.175
 21
46.74375
  0
ENDBLK
  0
BLOCK
  2
*DIM_0018
 70
    65
 10
0.0
 20
0.0
  0
LINE
  8
寸法
  6
CONTINUOUS
 10
115.678322
 20
63.232395
 11
68.45978
 21
63.232395
  0
LINE
  8
寸法
  6
CONTINUOUS
 10
68.45978
 20
56.732382
 11
68.45978
 21
63.232395
  0
POINT
  8
寸法
 10
68.45978
 20
56.732382
  0
POINT
  8
寸法
 10
68.45978
 20
63.232395
  0
TEXT
  7
TextStyle03
  8
寸法
  6
CONTINUOUS
 10
68.1
 20
58.475
  1
※
 40
3.0
 50
90.0
 72
     5
 11
68.1
 21
61.475
  0
ENDBLK
  0
BLOCK
  2
*DIM_0019
 70
    65
 10
0.0
 20
0.0
  0
LINE
  8
寸法
  6
CONTINUOUS
 10
115.678322
 20
6.89903
 11
68.45978
 21
6.89903
  0
LINE
  8
寸法
  6
CONTINUOUS
 10
68.45978
 20
13.399048
 11
68.45978
 21
6.89903
  0
POINT
  8
寸法
 10
68.45978
 20
13.399048
  0
POINT
  8
寸法
 10
68.45978
 20
6.89903
  0
TEXT
  7
TextStyle03
  8
寸法
  6
CONTINUOUS
 10
68.1
 20
8.65
  1
※
 40
3.0
 50
90.0
 72
     5
 11
68.1
 21
11.65
  0
ENDBLK
  0
BLOCK
  2
*DIM_0020
 70
    65
 10
0.0
 20
0.0
  0
LINE
  8
寸法
  6
CONTINUOUS
 10
119.011652
 20
64.232395
 11
119.011652
 21
77.450315
  0
LINE
  8
寸法
  6
CONTINUOUS
 10
116.678322
 20
64.232395
 11
116.678322
 21
77.450315
  0
LINE
  8
寸法
  6
CONTINUOUS
 10
119.011652
 20
77.450315
 11
116.678322
 21
77.450315
  0
POINT
  8
寸法
 10
119.011652
 20
77.450315
  0
POINT
  8
寸法
 10
116.678322
 20
77.450315
  0
TEXT
  7
TextStyle03
  8
寸法
  6
CONTINUOUS
 10
116.35
 20
77.825
  1
※
 40
3.0
 72
     5
 11
119.35
 21
77.825
  0
ENDBLK
  0
BLOCK
  2
*DIM_0021
 70
    65
 10
0.0
 20
0.0
  0
LINE
  8
寸法
  6
CONTINUOUS
 10
110.511652
 20
59.39905
 11
110.511652
 21
77.450315
  0
LINE
  8
寸法
  6
CONTINUOUS
 10
116.678322
 20
77.450315
 11
110.511652
 21
77.450315
  0
POINT
  8
寸法
 10
110.511652
 20
77.450315
  0
TEXT
  7
TextStyle03
  8
寸法
  6
CONTINUOUS
 10
111.1625
 20
77.825
  1
185
 40
3.0
 72
     5
 11
116.0375
 21
77.825
  0
ENDBLK
  0
BLOCK
  2
*DIM_0022
 70
    65
 10
0.0
 20
0.0
  0
LINE
  8
寸法
  6
CONTINUOUS
 10
98.844988
 20
36.065712
 11
98.844988
 21
77.450315
  0
LINE
  8
寸法
  6
CONTINUOUS
 10
110.511652
 20
77.450315
 11
98.844988
 21
77.450315
  0
POINT
  8
寸法
 10
98.844988
 20
77.450315
  0
TEXT
  7
TextStyle03
  8
寸法
  6
CONTINUOUS
 10
102.2375
 20
77.825
  1
350
 40
3.0
 72
     5
 11
107.1125
 21
77.825
  0
ENDBLK
  0
BLOCK
  2
*GRP_0023
 70
    65
 10
0.0
 20
0.0
  0
LINE
  8
ボルト／ビス
  6
CONTINUOUS
 10
110.511655
 20
12.73238
 11
110.044988
 21
12.73238
  0
LINE
  8
ボルト／ビス
  6
CONTINUOUS
 10
110.511655
 20
12.36571
 11
110.444988
 21
12.36571
  0
LINE
  8
ボルト／ビス
  6
CONTINUOUS
 10
110.444988
 20
12.36571
 11
110.444988
 21
13.099045
  0
LINE
  8
ボルト／ビス
  6
CONTINUOUS
 10
110.444988
 20
13.099045
 11
110.511655
 21
13.099045
  0
LINE
  8
ボルト／ビス
  6
CONTINUOUS
 10
110.511655
 20
12.36571
 11
110.511655
 21
13.099045
  0
LINE
  8
ボルト／ビス
  6
CONTINUOUS
 10
110.411655
 20
12.43238
 11
110.444988
 21
12.43238
  0
LINE
  8
ボルト／ビス
  6
CONTINUOUS
 10
110.411655
 20
12.43238
 11
110.411655
 21
13.03238
  0
LINE
  8
ボルト／ビス
  6
CONTINUOUS
 10
110.411655
 20
13.03238
 11
110.444988
 21
13.03238
  0
LINE
  8
ボルト／ビス
  6
CONTINUOUS
 62
    64
 10
110.211655
 20
12.572005
 11
110.22333
 21
12.53993
  0
ARC
  8
ボルト／ビス
  6
CONTINUOUS
 62
    64
 10
110.316633
 20
12.588041
 40
0.104978
 50
152.721967
 51
180.0
  0
ARC
  8
ボルト／ビス
  6
CONTINUOUS
 62
    64
 10
110.614057
 20
12.732379
 40
0.402402
 50
166.165002
 51
193.834985
  0
LINE
  8
ボルト／ビス
  6
CONTINUOUS
 62
    64
 10
110.211655
 20
12.892755
 11
110.22333
 21
12.92483
  0
ARC
  8
ボルト／ビス
  6
CONTINUOUS
 62
    64
 10
110.316633
 20
12.876716
 40
0.104978
 50
180.0
 51
207.278033
  0
LINE
  8
ボルト／ビス
  6
CONTINUOUS
 62
    64
 10
110.211655
 20
12.572005
 11
110.211655
 21
12.892755
  0
LINE
  8
ボルト／ビス
  6
CONTINUOUS
 62
    64
 10
110.22333
 20
12.92483
 11
110.344988
 21
12.92483
  0
LINE
  8
ボルト／ビス
  6
CONTINUOUS
 62
    64
 10
110.22333
 20
12.828605
 11
110.344988
 21
12.828605
  0
LINE
  8
ボルト／ビス
  6
CONTINUOUS
 62
    64
 10
110.22333
 20
12.53993
 11
110.344988
 21
12.53993
  0
LINE
  8
ボルト／ビス
  6
CONTINUOUS
 62
    64
 10
110.22333
 20
12.636155
 11
110.344988
 21
12.636155
  0
LINE
  8
ボルト／ビス
  6
CONTINUOUS
 10
110.344988
 20
12.53993
 11
110.344988
 21
12.92483
  0
LINE
  8
ボルト／ビス
  6
CONTINUOUS
 10
110.344988
 20
12.53238
 11
110.411655
 21
12.53238
  0
LINE
  8
ボルト／ビス
  6
CONTINUOUS
 10
110.344988
 20
12.53238
 11
110.344988
 21
12.93238
  0
LINE
  8
ボルト／ビス
  6
CONTINUOUS
 10
110.344988
 20
12.93238
 11
110.411655
 21
12.93238
  0
ENDBLK
  0
BLOCK
  2
*GRP_0024
 70
    65
 10
0.0
 20
0.0
  0
LINE
  8
ボルト／ビス
  6
CONTINUOUS
 10
110.511655
 20
57.39905
 11
110.044988
 21
57.39905
  0
LINE
  8
ボルト／ビス
  6
CONTINUOUS
 10
110.511655
 20
57.765718
 11
110.444988
 21
57.765718
  0
LINE
  8
ボルト／ビス
  6
CONTINUOUS
 10
110.444988
 20
57.765718
 11
110.444988
 21
57.032382
  0
LINE
  8
ボルト／ビス
  6
CONTINUOUS
 10
110.444988
 20
57.032382
 11
110.511655
 21
57.032382
  0
LINE
  8
ボルト／ビス
  6
CONTINUOUS
 10
110.511655
 20
57.765718
 11
110.511655
 21
57.032382
  0
LINE
  8
ボルト／ビス
  6
CONTINUOUS
 10
110.411655
 20
57.69905
 11
110.444988
 21
57.69905
  0
LINE
  8
ボルト／ビス
  6
CONTINUOUS
 10
110.411655
 20
57.69905
 11
110.411655
 21
57.09905
  0
LINE
  8
ボルト／ビス
  6
CONTINUOUS
 10
110.411655
 20
57.09905
 11
110.444988
 21
57.09905
  0
LINE
  8
ボルト／ビス
  6
CONTINUOUS
 62
    64
 10
110.211655
 20
57.559425
 11
110.22333
 21
57.5915
  0
ARC
  8
ボルト／ビス
  6
CONTINUOUS
 62
    64
 10
110.316633
 20
57.543388
 40
0.104978
 50
180.0
 51
207.278033
  0
ARC
  8
ボルト／ビス
  6
CONTINUOUS
 62
    64
 10
110.614057
 20
57.399051
 40
0.402402
 50
166.165015
 51
193.834998
  0
LINE
  8
ボルト／ビス
  6
CONTINUOUS
 62
    64
 10
110.211655
 20
57.238675
 11
110.22333
 21
57.2066
  0
ARC
  8
ボルト／ビス
  6
CONTINUOUS
 62
    64
 10
110.316633
 20
57.254713
 40
0.104978
 50
152.721967
 51
180.0
  0
LINE
  8
ボルト／ビス
  6
CONTINUOUS
 62
    64
 10
110.211655
 20
57.559425
 11
110.211655
 21
57.238675
  0
LINE
  8
ボルト／ビス
  6
CONTINUOUS
 62
    64
 10
110.22333
 20
57.2066
 11
110.344988
 21
57.2066
  0
LINE
  8
ボルト／ビス
  6
CONTINUOUS
 62
    64
 10
110.22333
 20
57.302825
 11
110.344988
 21
57.302825
  0
LINE
  8
ボルト／ビス
  6
CONTINUOUS
 62
    64
 10
110.22333
 20
57.5915
 11
110.344988
 21
57.5915
  0
LINE
  8
ボルト／ビス
  6
CONTINUOUS
 62
    64
 10
110.22333
 20
57.495275
 11
110.344988
 21
57.495275
  0
LINE
  8
ボルト／ビス
  6
CONTINUOUS
 10
110.344988
 20
57.5915
 11
110.344988
 21
57.2066
  0
LINE
  8
ボルト／ビス
  6
CONTINUOUS
 10
110.344988
 20
57.59905
 11
110.411655
 21
57.59905
  0
LINE
  8
ボルト／ビス
  6
CONTINUOUS
 10
110.344988
 20
57.59905
 11
110.344988
 21
57.19905
  0
LINE
  8
ボルト／ビス
  6
CONTINUOUS
 10
110.344988
 20
57.19905
 11
110.411655
 21
57.19905
  0
ENDBLK
  0
BLOCK
  2
*GRP_0025
 70
    65
 10
0.0
 20
0.0
  0
INSERT
  2
*GRP_0028
  8
補助線
  6
CONTINUOUS
 10
0.0
 20
0.0
  0
CIRCLE
  8
別途部材
  6
CONTINUOUS
 10
113.511693
 20
57.932395
 40
0.2
  0
CIRCLE
  8
別途部材
  6
CONTINUOUS
 10
113.511693
 20
57.932395
 40
0.1
  0
LINE
  8
別途部材
  6
CONTINUOUS
 10
112.111693
 20
57.832395
 11
112.111693
 21
57.732395
  0
LINE
  8
別途部材
  6
CONTINUOUS
 10
113.511693
 20
57.732395
 11
112.111693
 21
57.732395
  0
LINE
  8
別途部材
  6
CONTINUOUS
 10
112.111693
 20
57.832395
 11
113.338487
 21
57.832395
  0
LINE
  8
別途部材
  6
CONTINUOUS
 10
114.911693
 20
57.832395
 11
114.911693
 21
57.732395
  0
LINE
  8
別途部材
  6
CONTINUOUS
 10
113.511693
 20
57.732395
 11
114.911693
 21
57.732395
  0
LINE
  8
別途部材
  6
CONTINUOUS
 10
114.911693
 20
57.832395
 11
113.684898
 21
57.832395
  0
LINE
  8
別途部材
  6
CONTINUOUS
 10
112.378357
 20
57.832395
 11
112.378357
 21
57.732395
  0
LINE
  8
別途部材
  6
CONTINUOUS
 10
112.645023
 20
57.832395
 11
112.645023
 21
57.732395
  0
LINE
  8
別途部材
  6
CONTINUOUS
 10
112.911693
 20
57.832395
 11
112.911693
 21
57.732395
  0
LINE
  8
別途部材
  6
CONTINUOUS
 10
114.645023
 20
57.832395
 11
114.645023
 21
57.732395
  0
LINE
  8
別途部材
  6
CONTINUOUS
 10
114.378357
 20
57.832395
 11
114.378357
 21
57.732395
  0
LINE
  8
別途部材
  6
CONTINUOUS
 10
114.111693
 20
57.832395
 11
114.111693
 21
57.732395
  0
ENDBLK
  0
BLOCK
  2
*GRP_0026
 70
    65
 10
0.0
 20
0.0
  0
LINE
  8
ボルト／ビス
  6
DOT
 10
79.429107
 20
28.092503
 11
79.099122
 21
28.422487
  0
LINE
  8
ボルト／ビス
  6
DOT
 10
79.169835
 20
27.83323
 11
79.122693
 21
27.88037
  0
LINE
  8
ボルト／ビス
  6
DOT
 10
79.122693
 20
27.88037
 11
79.641237
 21
28.398918
  0
LINE
  8
ボルト／ビス
  6
DOT
 10
79.641237
 20
28.398918
 11
79.68838
 21
28.351775
  0
LINE
  8
ボルト／ビス
  6
DOT
 10
79.169835
 20
27.83323
 11
79.68838
 21
28.351775
  0
LINE
  8
ボルト／ビス
  6
DOT
 10
79.146265
 20
27.951082
 11
79.169835
 21
27.927513
  0
LINE
  8
ボルト／ビス
  6
DOT
 10
79.146265
 20
27.951082
 11
79.57053
 21
28.375345
  0
LINE
  8
ボルト／ビス
  6
DOT
 10
79.57053
 20
28.375345
 11
79.594097
 21
28.351778
  0
LINE
  8
ボルト／ビス
  6
DOT
 62
    64
 10
79.103572
 20
28.191232
 11
79.089148
 21
28.160297
  0
ARC
  8
ボルト／ビス
  6
DOT
 62
    64
 10
79.189145
 20
28.128341
 40
0.104978
 50
107.721967
 51
135.0
  0
ARC
  8
ボルト／ビス
  6
DOT
 62
    64
 10
79.501517
 20
28.020093
 40
0.402402
 50
121.165002
 51
148.834985
  0
LINE
  8
ボルト／ビス
  6
DOT
 62
    64
 10
79.330378
 20
28.418037
 11
79.361315
 21
28.432462
  0
ARC
  8
ボルト／ビス
  6
DOT
 62
    64
 10
79.393269
 20
28.332465
 40
0.104978
 50
135.0
 51
162.278033
  0
LINE
  8
ボルト／ビス
  6
DOT
 62
    64
 10
79.103572
 20
28.191232
 11
79.330378
 21
28.418037
  0
LINE
  8
ボルト／ビス
  6
DOT
 62
    64
 10
79.361315
 20
28.432462
 11
79.447337
 21
28.346437
  0
LINE
  8
ボルト／ビス
  6
DOT
 62
    64
 10
79.293273
 20
28.36442
 11
79.379298
 21
28.278398
  0
LINE
  8
ボルト／ビス
  6
DOT
 62
    64
 10
79.089148
 20
28.160297
 11
79.175173
 21
28.074273
  0
LINE
  8
ボルト／ビス
  6
DOT
 62
    64
 10
79.15719
 20
28.22834
 11
79.243215
 21
28.142315
  0
LINE
  8
ボルト／ビス
  6
DOT
 10
79.175173
 20
28.074273
 11
79.447337
 21
28.346437
  0
LINE
  8
ボルト／ビス
  6
DOT
 10
79.169835
 20
28.068935
 11
79.216978
 21
28.021793
  0
LINE
  8
ボルト／ビス
  6
DOT
 10
79.169835
 20
28.068935
 11
79.452678
 21
28.351778
  0
LINE
  8
ボルト／ビス
  6
DOT
 10
79.452678
 20
28.351778
 11
79.499818
 21
28.304635
  0
ENDBLK
  0
BLOCK
  2
*GRP_0027
 70
    65
 10
0.0
 20
0.0
  0
LINE
  8
ボルト／ビス
  6
DOT
 10
111.013213
 20
59.67661
 11
110.68323
 21
60.006593
  0
LINE
  8
ボルト／ビス
  6
DOT
 10
111.272487
 20
59.935882
 11
111.225345
 21
59.983025
  0
LINE
  8
ボルト／ビス
  6
DOT
 10
111.225345
 20
59.983025
 11
110.7068
 21
59.464478
  0
LINE
  8
ボルト／ビス
  6
DOT
 10
110.7068
 20
59.464478
 11
110.753943
 21
59.417335
  0
LINE
  8
ボルト／ビス
  6
DOT
 10
111.272487
 20
59.935882
 11
110.753943
 21
59.417335
  0
LINE
  8
ボルト／ビス
  6
DOT
 10
111.154635
 20
59.95945
 11
111.178203
 21
59.935882
  0
LINE
  8
ボルト／ビス
  6
DOT
 10
111.154635
 20
59.95945
 11
110.73037
 21
59.535188
  0
LINE
  8
ボルト／ビス
  6
DOT
 10
110.73037
 20
59.535188
 11
110.75394
 21
59.511617
  0
LINE
  8
ボルト／ビス
  6
DOT
 62
    64
 10
110.914482
 20
60.002143
 11
110.94542
 21
60.016568
  0
ARC
  8
ボルト／ビス
  6
DOT
 62
    64
 10
110.977376
 20
59.916572
 40
0.104978
 50
135.0
 51
162.278033
  0
ARC
  8
ボルト／ビス
  6
DOT
 62
    64
 10
111.085624
 20
59.6042
 40
0.402402
 50
121.165015
 51
148.834998
  0
LINE
  8
ボルト／ビス
  6
DOT
 62
    64
 10
110.68768
 20
59.77534
 11
110.673255
 21
59.744403
  0
ARC
  8
ボルト／ビス
  6
DOT
 62
    64
 10
110.773252
 20
59.712448
 40
0.104978
 50
107.721967
 51
135.0
  0
LINE
  8
ボルト／ビス
  6
DOT
 62
    64
 10
110.914482
 20
60.002143
 11
110.68768
 21
59.77534
  0
LINE
  8
ボルト／ビス
  6
DOT
 62
    64
 10
110.673255
 20
59.744403
 11
110.759277
 21
59.658377
  0
LINE
  8
ボルト／ビス
  6
DOT
 62
    64
 10
110.741295
 20
59.812445
 11
110.82732
 21
59.72642
  0
LINE
  8
ボルト／ビス
  6
DOT
 62
    64
 10
110.94542
 20
60.016568
 11
111.031443
 21
59.930545
  0
LINE
  8
ボルト／ビス
  6
DOT
 62
    64
 10
110.877377
 20
59.948525
 11
110.963402
 21
59.862502
  0
LINE
  8
ボルト／ビス
  6
DOT
 10
111.031443
 20
59.930545
 11
110.759277
 21
59.658377
  0
LINE
  8
ボルト／ビス
  6
DOT
 10
111.036782
 20
59.935882
 11
111.083925
 21
59.88874
  0
LINE
  8
ボルト／ビス
  6
DOT
 10
111.036782
 20
59.935882
 11
110.75394
 21
59.65304
  0
LINE
  8
ボルト／ビス
  6
DOT
 10
110.75394
 20
59.65304
 11
110.801082
 21
59.605897
  0
ENDBLK
  0
BLOCK
  2
*GRP_0028
 70
    65
 10
0.0
 20
0.0
  0
LINE
  8
補助線
  6
BYBLOCK
 62
     0
 10
113.511693
 20
57.765727
 11
113.511693
 21
58.09906
  0
LINE
  8
補助線
  6
BYBLOCK
 62
     0
 10
113.345023
 20
57.932395
 11
113.678357
 21
57.932395
  0
ENDBLK
  0
BLOCK
  2
*DIM_0029
 70
    65
 10
0.0
 20
0.0
  0
LINE
  8
寸法
  6
CONTINUOUS
 10
88.2387
 20
-42.657643
 11
88.2387
 21
-33.303115
  0
LINE
  8
寸法
  6
CONTINUOUS
 10
120.572033
 20
-42.657643
 11
120.572033
 21
-33.303115
  0
LINE
  8
寸法
  6
CONTINUOUS
 10
88.2387
 20
-33.303115
 11
120.572033
 21
-33.303115
  0
POINT
  8
寸法
 10
88.2387
 20
-33.303115
  0
POINT
  8
寸法
 10
120.572033
 20
-33.303115
  0
TEXT
  7
TextStyle03
  8
寸法
  6
CONTINUOUS
 10
101.9375
 20
-32.95
  1
970
 40
3.0
 72
     5
 11
106.8125
 21
-32.95
  0
ENDBLK
  0
BLOCK
  2
*DIM_0030
 70
    65
 10
0.0
 20
0.0
  0
LINE
  8
寸法
  6
CONTINUOUS
 10
121.572033
 20
-43.657643
 11
130.54774
 21
-43.657643
  0
LINE
  8
寸法
  6
CONTINUOUS
 10
121.572033
 20
-86.990975
 11
130.54774
 21
-86.990975
  0
LINE
  8
寸法
  6
CONTINUOUS
 10
130.54774
 20
-43.657643
 11
130.54774
 21
-86.990975
  0
POINT
  8
寸法
 10
130.54774
 20
-43.657643
  0
POINT
  8
寸法
 10
130.54774
 20
-86.990975
  0
TEXT
  7
TextStyle03
  8
寸法
  6
CONTINUOUS
 10
130.15
 20
-68.60625
  1
1300
 40
3.0
 50
90.0
 72
     5
 11
130.15
 21
-62.04375
  0
ENDBLK
  0
ENDSEC
  0
SECTION
  2
ENTITIES
  0
POLYLINE
  8
通り芯
  6
CONTINUOUS
 66
     1
 70
     1
  0
VERTEX
  8
通り芯
 10
-210.0
 20
-148.5
  0
VERTEX
  8
通り芯
 10
210.0
 20
-148.5
  0
VERTEX
  8
通り芯
 10
210.0
 20
148.5
  0
VERTEX
  8
通り芯
 10
-210.0
 20
148.5
  0
SEQEND
  0
INSERT
  2
*GRP_0001
  8
型材断面
  6
CONTINUOUS
 10
0.0
 20
0.0
  0
LINE
  8
型材断面
  6
DASHDOT
 10
21.33489
 20
-87.251428
 11
21.33489
 21
56.73238
  0
LINE
  8
型材断面
  6
DASHDOT
 10
-28.66511
 20
-87.251428
 11
-28.66511
 21
56.73238
  0
LINE
  8
型材断面
  6
DASHDOT
 10
-78.66511
 20
-87.251428
 11
-78.66511
 21
56.73238
  0
LINE
  8
型材断面
  6
DASHDOT
 10
119.011652
 20
13.399048
 11
-78.66511
 21
13.399048
  0
LINE
  8
型材断面
  6
DASHDOT
 10
119.011652
 20
35.065715
 11
-78.66511
 21
35.065715
  0
LINE
  8
型材断面
  6
DASHDOT
 10
119.011652
 20
56.73238
 11
-78.66511
 21
56.73238
  0
LINE
  8
型材断面
  6
CONTINUOUS
 10
-81.29524
 20
35.065715
 11
-83.885747
 21
36.561345
  0
LINE
  8
型材断面
  6
CONTINUOUS
 10
-81.29524
 20
35.065715
 11
-83.885747
 21
33.570085
  0
LINE
  8
型材断面
  6
CONTINUOUS
 10
-83.885747
 20
33.570085
 11
-83.885747
 21
36.561345
  0
LINE
  8
型材断面
  6
CONTINUOUS
 10
-61.998442
 20
59.36251
 11
-63.494073
 21
61.953017
  0
LINE
  8
型材断面
  6
CONTINUOUS
 10
-61.998442
 20
59.36251
 11
-60.502812
 21
61.953017
  0
LINE
  8
型材断面
  6
CONTINUOUS
 10
-60.502812
 20
61.953017
 11
-63.494073
 21
61.953017
  0
LINE
  8
型材断面
  6
CONTINUOUS
 10
-119.517317
 20
94.709852
 11
-118.921263
 21
92.119345
  0
LINE
  8
型材断面
  6
CONTINUOUS
 10
-119.517317
 20
94.709852
 11
-120.113375
 21
92.119345
  0
LINE
  8
型材断面
  6
CONTINUOUS
 10
-120.113375
 20
92.119345
 11
-118.921263
 21
92.119345
  0
LINE
  8
型材断面
  6
CONTINUOUS
 10
-125.539905
 20
88.840452
 11
-79.298128
 21
88.840452
  0
LINE
  8
型材断面
  6
CONTINUOUS
 10
-119.517317
 20
101.239727
 11
-121.012947
 21
98.64922
  0
LINE
  8
型材断面
  6
CONTINUOUS
 10
-119.517317
 20
101.239727
 11
-118.021688
 21
98.64922
  0
LINE
  8
型材断面
  6
CONTINUOUS
 10
-118.021688
 20
98.64922
 11
-121.012947
 21
98.64922
  0
LINE
  8
型材断面
  6
CONTINUOUS
 10
-125.539905
 20
97.710625
 11
-79.298128
 21
97.710625
  0
LINE
  8
型材断面
  6
CONTINUOUS
 10
-125.539905
 20
83.05242
 11
-79.298128
 21
83.05242
  0
LINE
  8
型材断面
  6
CONTINUOUS
 10
-61.998442
 20
10.76892
 11
-63.494073
 21
8.178413
  0
LINE
  8
型材断面
  6
CONTINUOUS
 10
-61.998442
 20
10.76892
 11
-60.502812
 21
8.178413
  0
LINE
  8
型材断面
  6
CONTINUOUS
 10
-60.502812
 20
8.178413
 11
-63.494073
 21
8.178413
  0
LINE
  8
型材断面
  6
CONTINUOUS
 10
23.96502
 20
35.065715
 11
26.555528
 21
36.561345
  0
LINE
  8
型材断面
  6
CONTINUOUS
 10
23.96502
 20
35.065715
 11
26.555528
 21
33.570085
  0
LINE
  8
型材断面
  6
CONTINUOUS
 10
26.555528
 20
33.570085
 11
26.555528
 21
36.561345
  0
LINE
  8
型材断面
  6
CONTINUOUS
 10
4.668223
 20
59.36251
 11
6.163853
 21
61.953017
  0
LINE
  8
型材断面
  6
CONTINUOUS
 10
4.668223
 20
59.36251
 11
3.172593
 21
61.953017
  0
LINE
  8
型材断面
  6
CONTINUOUS
 10
3.172593
 20
61.953017
 11
6.163853
 21
61.953017
  0
LINE
  8
型材断面
  6
CONTINUOUS
 10
4.668223
 20
10.76892
 11
6.163853
 21
8.178413
  0
LINE
  8
型材断面
  6
CONTINUOUS
 10
4.668223
 20
10.76892
 11
3.172593
 21
8.178413
  0
LINE
  8
型材断面
  6
CONTINUOUS
 10
3.172593
 20
8.178413
 11
6.163853
 21
8.178413
  0
LINE
  8
型材断面
  6
CONTINUOUS
 10
-85.165125
 20
6.899033
 11
-80.73178
 21
11.332378
  0
LINE
  8
型材断面
  6
CONTINUOUS
 10
23.401557
 20
11.332378
 11
27.834902
 21
6.899033
  0
LINE
  8
型材断面
  6
CONTINUOUS
 10
27.834902
 20
6.899033
 11
-85.165125
 21
6.899033
  0
LINE
  8
型材断面
  6
CONTINUOUS
 10
-80.73178
 20
58.79905
 11
-85.165125
 21
63.232395
  0
LINE
  8
型材断面
  6
CONTINUOUS
 10
-85.165125
 20
6.899033
 11
-85.165125
 21
63.232395
  0
LINE
  8
型材断面
  6
CONTINUOUS
 10
23.401557
 20
58.79905
 11
27.834902
 21
63.232395
  0
LINE
  8
型材断面
  6
CONTINUOUS
 10
27.834902
 20
63.232395
 11
27.834902
 21
6.899033
  0
LINE
  8
型材断面
  6
CONTINUOUS
 10
27.834902
 20
63.232395
 11
-85.165125
 21
63.232395
  0
POLYLINE
  8
型材断面
  6
DASHDOT
 66
     1
  0
VERTEX
  8
型材断面
 10
-78.66511
 20
13.399048
  0
VERTEX
  8
型材断面
 10
-28.66511
 20
56.73238
  0
VERTEX
  8
型材断面
 10
21.334887
 20
13.399048
  0
SEQEND
  0
LINE
  8
型材断面
  6
DASHDOT
 10
-11.748445
 20
56.73238
 11
-11.748445
 21
13.399048
  0
LINE
  8
型材断面
  6
DASHDOT
 10
-45.58178
 20
56.73238
 11
-45.58178
 21
13.399048
  0
LINE
  8
型材断面
  6
DOT
 10
-44.415113
 20
56.73238
 11
-44.415113
 21
13.399048
  0
LINE
  8
型材断面
  6
DOT
 10
-46.748448
 20
56.73238
 11
-46.748448
 21
13.399048
  0
LINE
  8
型材断面
  6
DOT
 10
-12.915107
 20
56.73238
 11
-12.915107
 21
13.399048
  0
LINE
  8
型材断面
  6
DOT
 10
-10.581772
 20
56.73238
 11
-10.581772
 21
13.399048
  0
LINE
  8
型材断面
  6
CONTINUOUS
 62
    47
 10
-79.665122
 20
-80.6246
 11
-79.665122
 21
-82.52464
  0
LINE
  8
型材断面
  6
CONTINUOUS
 10
-79.665122
 20
-82.72464
 11
-79.665122
 21
-85.1246
  0
LINE
  8
型材断面
  6
CONTINUOUS
 10
-79.665122
 20
-85.1246
 11
-85.165122
 21
-85.79127
  0
LINE
  8
型材断面
  6
CONTINUOUS
 10
-85.165122
 20
-88.1246
 11
-85.165122
 21
-85.79127
  0
LINE
  8
型材断面
  6
CONTINUOUS
 62
    47
 10
22.334905
 20
-80.6246
 11
22.334905
 21
-82.52464
  0
LINE
  8
型材断面
  6
CONTINUOUS
 10
22.334905
 20
-82.72464
 11
22.334905
 21
-85.1246
  0
LINE
  8
型材断面
  6
CONTINUOUS
 10
22.334905
 20
-85.1246
 11
27.834905
 21
-85.79127
  0
LINE
  8
型材断面
  6
CONTINUOUS
 10
27.834905
 20
-88.1246
 11
27.834905
 21
-85.79127
  0
LINE
  8
型材断面
  6
CONTINUOUS
 10
-85.165122
 20
-88.1246
 11
27.834905
 21
-88.1246
  0
LINE
  8
型材断面
  6
CONTINUOUS
 10
-85.165122
 20
-85.79127
 11
27.834905
 21
-85.79127
  0
LINE
  8
型材断面
  6
CONTINUOUS
 10
22.334905
 20
-82.52464
 11
-79.665122
 21
-82.52464
  0
LINE
  8
型材断面
  6
CONTINUOUS
 10
22.334905
 20
-82.72464
 11
-79.665122
 21
-82.72464
  0
LINE
  8
型材断面
  6
CONTINUOUS
 10
22.334905
 20
-85.1246
 11
-79.665122
 21
-85.1246
  0
LINE
  8
型材断面
  6
CONTINUOUS
 10
119.011652
 20
63.232395
 11
119.011652
 21
6.89903
  0
LINE
  8
型材断面
  6
CONTINUOUS
 10
116.678322
 20
63.232395
 11
116.678322
 21
6.89903
  0
LINE
  8
型材断面
  6
CONTINUOUS
 62
    47
 10
111.511652
 20
12.39903
 11
113.411693
 21
12.39903
  0
LINE
  8
型材断面
  6
CONTINUOUS
 10
113.611693
 20
12.39903
 11
116.011652
 21
12.39903
  0
LINE
  8
型材断面
  6
CONTINUOUS
 10
116.011652
 20
12.39903
 11
116.678322
 21
6.89903
  0
LINE
  8
型材断面
  6
CONTINUOUS
 10
119.011652
 20
6.89903
 11
116.678322
 21
6.89903
  0
LINE
  8
型材断面
  6
CONTINUOUS
 62
    47
 10
111.511652
 20
57.732395
 11
113.411693
 21
57.732395
  0
LINE
  8
型材断面
  6
CONTINUOUS
 10
113.611693
 20
57.732395
 11
116.011652
 21
57.732395
  0
LINE
  8
型材断面
  6
CONTINUOUS
 10
116.011652
 20
57.732395
 11
116.678322
 21
63.232395
  0
LINE
  8
型材断面
  6
CONTINUOUS
 10
119.011652
 20
63.232395
 11
116.678322
 21
63.232395
  0
LINE
  8
型材断面
  6
CONTINUOUS
 10
113.411693
 20
12.39903
 11
113.411693
 21
57.732395
  0
LINE
  8
型材断面
  6
CONTINUOUS
 10
113.611693
 20
12.39903
 11
113.611693
 21
57.732395
  0
LINE
  8
型材断面
  6
CONTINUOUS
 10
116.011652
 20
12.39903
 11
116.011652
 21
57.732395
  0
INSERT
  2
*GRP_0016
  8
型材断面
  6
DASHDOT
 10
0.0
 20
0.0
  0
ARC
  8
型材断面
  6
DASHDOT
 10
113.511691
 20
57.932394
 40
46.297318
 50
221.284665
 51
266.284665
  0
LINE
  8
ガラス
  6
CONTINUOUS
 10
120.572033
 20
-43.657643
 11
88.2387
 21
-43.657643
  0
LINE
  8
ガラス
  6
CONTINUOUS
 10
120.572033
 20
-43.657643
 11
120.572033
 21
-86.990975
  0
LINE
  8
ガラス
  6
CONTINUOUS
 10
88.2387
 20
-43.657643
 11
88.2387
 21
-86.990975
  0
LINE
  8
ガラス
  6
CONTINUOUS
 10
120.572033
 20
-86.990975
 11
88.2387
 21
-86.990975
  0
TEXT
  7
TextStyle03
  8
文字
  6
CONTINUOUS
 10
-116.75
 20
98.85
  1
は排水穴位置を示す
 40
3.0
 72
     5
 11
-86.75
 21
98.85
  0
TEXT
  7
TextStyle03
  8
文字
  6
CONTINUOUS
 10
-120.475
 20
83.975
  1
アンカー数量　１２ヶ所
 40
3.0
 72
     5
 11
-83.725
 21
83.975
  0
TEXT
  7
TextStyle03
  8
文字
  6
CONTINUOUS
 10
-116.75
 20
93.325
  1
はケーシング位置を示す
 40
3.0
 72
     5
 11
-80.0
 21
93.325
  0
TEXT
  7
TextStyle03
  8
文字
  6
CONTINUOUS
 10
-116.75
 20
89.95
  1
２ヶ所中1ヶ所に設定
 40
3.0
 72
     5
 11
-85.0625
 21
89.95
  0
TEXT
  7
TextStyle03
  8
文字
  6
CONTINUOUS
 10
-116.275
 20
23.975
  1
アンカーピッチ
 40
3.0
 50
90.0
 72
     5
 11
-116.275
 21
47.225
  0
TEXT
  7
TextStyle03
  8
文字
  6
CONTINUOUS
 10
-68.7
 20
94.125
  1
アンカーピッチ
 40
3.0
 72
     5
 11
-45.45
 21
94.125
  0
TEXT
  7
TextStyle03
  8
文字
  6
CONTINUOUS
 10
78.1
 20
125.25
  1
シリーズ：ＳＴＤＨＬ
 40
5.0
 72
     5
 11
133.725
 21
125.25
  0
TEXT
  7
TextStyle03
  8
文字
  6
CONTINUOUS
 10
78.1
 20
119.625
  1
　　　　　（片側開閉）1300×3000タイプ
 40
5.0
 72
     5
 11
184.35
 21
119.625
  0
TEXT
  7
TextStyle03
  8
文字
  6
CONTINUOUS
 10
78.1
 20
114.0
  1
図面名　：外観姿図
 40
5.0
 72
     5
 11
128.1
 21
114.0
  0
TEXT
  7
TextStyle03
  8
文字
  6
CONTINUOUS
 10
78.1
 20
108.375
  1
　　　　　　
 40
5.0
 72
     5
 11
111.225
 21
108.375
  0
TEXT
  7
TextStyle03
  8
文字
  6
CONTINUOUS
 10
77.425
 20
103.975
  1
ＮＳコード：ＮＳＨＳＬ
 40
5.0
 72
     5
 11
138.675
 21
103.975
  0
TEXT
  7
TextStyle03
  8
文字
  6
CONTINUOUS
 10
28.675
 20
-98.425
  1
※は物件対応寸法
 40
3.0
 72
     5
 11
55.3
 21
-98.425
  0
TEXT
  7
TextStyle03
  8
文字
  6
CONTINUOUS
 10
93.675
 20
7.85
  1
45°
 40
3.0
 50
90.0
 72
     5
 11
93.675
 21
14.225
  0
TEXT
  7
TextStyle03
  8
文字
  6
CONTINUOUS
 10
101.7
 20
-80.0
  1
網入り6.8t
 40
3.0
 72
     5
 11
118.3875
 21
-80.0
  0
TEXT
  7
TextStyle03
  8
文字
  6
CONTINUOUS
 10
108.375
 20
-84.675
  1
×３枚
 40
3.0
 72
     5
 11
118.125
 21
-84.675
  0
INSERT
  2
*DIM_0002
  8
寸法
  6
CONTINUOUS
 10
0.0
 20
0.0
  0
INSERT
  2
*DIM_0003
  8
寸法
  6
CONTINUOUS
 10
0.0
 20
0.0
  0
INSERT
  2
*DIM_0004
  8
寸法
  6
CONTINUOUS
 10
0.0
 20
0.0
  0
INSERT
  2
*DIM_0005
  8
寸法
  6
CONTINUOUS
 10
0.0
 20
0.0
  0
INSERT
  2
*DIM_0006
  8
寸法
  6
CONTINUOUS
 10
0.0
 20
0.0
  0
INSERT
  2
*DIM_0010
  8
寸法
  6
CONTINUOUS
 10
0.0
 20
0.0
  0
INSERT
  2
*DIM_0011
  8
寸法
  6
CONTINUOUS
 10
0.0
 20
0.0
  0
INSERT
  2
*DIM_0012
  8
寸法
  6
CONTINUOUS
 10
0.0
 20
0.0
  0
INSERT
  2
*DIM_0013
  8
寸法
  6
CONTINUOUS
 10
0.0
 20
0.0
  0
INSERT
  2
*DIM_0014
  8
寸法
  6
CONTINUOUS
 10
0.0
 20
0.0
  0
INSERT
  2
*DIM_0015
  8
寸法
  6
CONTINUOUS
 10
0.0
 20
0.0
  0
INSERT
  2
*DIM_0017
  8
寸法
  6
CONTINUOUS
 10
0.0
 20
0.0
  0
INSERT
  2
*DIM_0018
  8
寸法
  6
CONTINUOUS
 10
0.0
 20
0.0
  0
INSERT
  2
*DIM_0019
  8
寸法
  6
CONTINUOUS
 10
0.0
 20
0.0
  0
INSERT
  2
*DIM_0020
  8
寸法
  6
CONTINUOUS
 10
0.0
 20
0.0
  0
INSERT
  2
*DIM_0021
  8
寸法
  6
CONTINUOUS
 10
0.0
 20
0.0
  0
INSERT
  2
*DIM_0022
  8
寸法
  6
CONTINUOUS
 10
0.0
 20
0.0
  0
INSERT
  2
*DIM_0029
  8
寸法
  6
CONTINUOUS
 10
0.0
 20
0.0
  0
INSERT
  2
*DIM_0030
  8
寸法
  6
CONTINUOUS
 10
0.0
 20
0.0
  0
INSERT
  2
*GRP_0007
  8
別途部材
  6
CONTINUOUS
 10
0.0
 20
0.0
  0
INSERT
  2
*GRP_0008
  8
別途部材
  6
DOT
 10
0.0
 20
0.0
  0
INSERT
  2
*GRP_0009
  8
別途部材
  6
DOT
 10
0.0
 20
0.0
  0
LINE
  8
別途部材
  6
CONTINUOUS
 10
-80.73178
 20
11.332378
 11
-78.66511
 21
13.399048
  0
LINE
  8
別途部材
  6
CONTINUOUS
 10
-78.66511
 20
13.399048
 11
-74.757515
 21
17.306643
  0
LINE
  8
別途部材
  6
CONTINUOUS
 10
21.334887
 20
13.399048
 11
23.401557
 21
11.332378
  0
LINE
  8
別途部材
  6
CONTINUOUS
 10
21.334887
 20
13.399048
 11
17.427292
 21
17.306643
  0
LINE
  8
別途部材
  6
CONTINUOUS
 10
21.334887
 20
13.399048
 11
-78.66511
 21
13.399048
  0
LINE
  8
別途部材
  6
CONTINUOUS
 10
23.001557
 20
11.732378
 11
-80.33178
 21
11.732378
  0
LINE
  8
別途部材
  6
CONTINUOUS
 10
23.401557
 20
11.332378
 11
-80.73178
 21
11.332378
  0
LINE
  8
別途部材
  6
CONTINUOUS
 10
-80.73178
 20
58.79905
 11
-78.66511
 21
56.73238
  0
LINE
  8
別途部材
  6
CONTINUOUS
 10
-78.66511
 20
56.73238
 11
-78.66511
 21
13.399048
  0
LINE
  8
別途部材
  6
CONTINUOUS
 10
-80.33178
 20
58.39905
 11
-80.33178
 21
11.732378
  0
LINE
  8
別途部材
  6
CONTINUOUS
 10
-80.73178
 20
58.79905
 11
-80.73178
 21
11.332378
  0
LINE
  8
別途部材
  6
CONTINUOUS
 10
-78.66511
 20
56.73238
 11
-74.757515
 21
52.824785
  0
LINE
  8
別途部材
  6
CONTINUOUS
 10
21.334887
 20
56.73238
 11
23.401557
 21
58.79905
  0
LINE
  8
別途部材
  6
CONTINUOUS
 10
21.334887
 20
56.73238
 11
21.334887
 21
13.399048
  0
LINE
  8
別途部材
  6
CONTINUOUS
 10
23.001557
 20
58.39905
 11
23.001557
 21
11.732378
  0
LINE
  8
別途部材
  6
CONTINUOUS
 10
23.401557
 20
58.79905
 11
23.401557
 21
11.332378
  0
LINE
  8
別途部材
  6
CONTINUOUS
 10
21.334887
 20
56.73238
 11
17.427292
 21
52.824785
  0
LINE
  8
別途部材
  6
CONTINUOUS
 10
-78.66511
 20
56.73238
 11
21.334887
 21
56.73238
  0
LINE
  8
別途部材
  6
CONTINUOUS
 10
-80.33178
 20
58.39905
 11
23.001557
 21
58.39905
  0
LINE
  8
別途部材
  6
CONTINUOUS
 10
-80.73178
 20
58.79905
 11
23.401557
 21
58.79905
  0
LINE
  8
別途部材
  6
CONTINUOUS
 62
    96
 10
110.511652
 20
11.73238
 11
111.511652
 21
11.33238
  0
ARC
  8
別途部材
  6
CONTINUOUS
 10
124.797368
 20
35.065713
 40
25.952381
 50
123.39849
 51
236.60151
  0
INSERT
  2
*GRP_0023
  8
別途部材
  6
DOT
 10
0.0
 20
0.0
  0
LINE
  8
別途部材
  6
CONTINUOUS
 62
    96
 10
110.511652
 20
58.39905
 11
111.511652
 21
58.79905
  0
INSERT
  2
*GRP_0024
  8
別途部材
  6
DOT
 10
0.0
 20
0.0
  0
LINE
  8
別途部材
  6
CONTINUOUS
 10
111.511652
 20
11.33238
 11
111.511652
 21
58.79905
  0
LINE
  8
別途部材
  6
CONTINUOUS
 62
    96
 10
110.511652
 20
11.73238
 11
110.511652
 21
58.39905
  0
INSERT
  2
*GRP_0025
  8
別途部材
  6
CONTINUOUS
 10
0.0
 20
0.0
  0
ENDSEC
  0
EOF
