  0
SECTION
  2
HEADER
  9
$EXTMIN
 10
-210.0
 20
-148.5
  9
$EXTMAX
 10
210.0
 20
148.5
  9
$PDMODE
 70
    32
  9
$PDSIZE
 40
0.3
  9
$LTSCALE
 40
10.0
  0
ENDSEC
  0
SECTION
  2
TABLES
  0
TABLE
  2
LTYPE
 70
    15
  0
LTYPE
  2
CONTINUOUS
 70
    64
  3
実線
 72
    65
 73
     0
 40
0.0
  0
LTYPE
  2
DASHED
 70
    64
  3
破線A
 72
    65
 73
     2
 40
0.6
 49
0.4
 49
-0.2
  0
LTYPE
  2
DASHEDX2
 70
    64
  3
破線B
 72
    65
 73
     2
 40
1.3
 49
0.9
 49
-0.4
  0
LTYPE
  2
DASHDOT
 70
    64
  3
１点鎖線A
 72
    65
 73
     4
 40
0.5375
 49
0.375
 49
-0.05
 49
0.0625
 49
-0.05
  0
LTYPE
  2
DASHDOTX2
 70
    64
  3
１点鎖線B
 72
    65
 73
     4
 40
1.075
 49
0.75
 49
-0.1
 49
0.125
 49
-0.1
  0
LTYPE
  2
DIVIDE2
 70
    64
  3
２点鎖線A
 72
    65
 73
     6
 40
0.5125
 49
0.3
 49
-0.0375
 49
0.05
 49
-0.0375
 49
0.05
 49
-0.0375
  0
LTYPE
  2
DIVIDE
 70
    64
  3
２点鎖線B
 72
    65
 73
     6
 40
1.05
 49
0.55
 49
-0.1
 49
0.1
 49
-0.1
 49
0.1
 49
-0.1
  0
LTYPE
  2
DOT
 70
    64
  3
点線A
 72
    65
 73
     2
 40
0.1125
 49
0.0625
 49
-0.05
  0
LTYPE
  2
DOTX2
 70
    64
  3
点線B
 72
    65
 73
     2
 40
0.275
 49
0.15
 49
-0.125
  0
LTYPE
  2
CONTINUOUS
 70
    64
  3
実線
 72
    65
 73
     0
 40
0.0
  0
LTYPE
  2
CONTINUOUS
 70
    64
  3
実線
 72
    65
 73
     0
 40
0.0
  0
LTYPE
  2
CONTINUOUS
 70
    64
  3
実線
 72
    65
 73
     0
 40
0.0
  0
LTYPE
  2
CONTINUOUS
 70
    64
  3
実線
 72
    65
 73
     0
 40
0.0
  0
LTYPE
  2
CONTINUOUS
 70
    64
  3
実線
 72
    65
 73
     0
 40
0.0
  0
LTYPE
  2
CONTINUOUS
 70
    64
  3
実線
 72
    65
 73
     0
 40
0.0
  0
ENDTAB
  0
TABLE
  2
LAYER
 70
    34
  0
LAYER
  2
通り芯
 70
     0
 62
    15
  6
CONTINUOUS
  0
LAYER
  2
補助線
 70
     0
 62
    16
  6
DOT
  0
LAYER
  2
躯体
 70
     0
 62
    31
  6
CONTINUOUS
  0
LAYER
  2
型材
 70
     0
 62
    32
  6
CONTINUOUS
  0
LAYER
  2
型材断面
 70
     0
 62
    47
  6
CONTINUOUS
  0
LAYER
  2
ガラス
 70
     0
 62
    48
  6
CONTINUOUS
  0
LAYER
  2
ゴム等
 70
     0
 62
    63
  6
CONTINUOUS
  0
LAYER
  2
ボルト／ビス
 70
     0
 62
    64
  6
CONTINUOUS
  0
LAYER
  2
文字
 70
     0
 62
    79
  6
CONTINUOUS
  0
LAYER
  2
寸法
 70
     0
 62
    80
  6
CONTINUOUS
  0
LAYER
  2
ﾊｯﾁﾝｸﾞ
 70
     0
 62
    95
  6
CONTINUOUS
  0
LAYER
  2
別途部材
 70
     0
 62
    96
  6
CONTINUOUS
  0
LAYER
  2
曲げ物
 70
     0
 62
   111
  6
CONTINUOUS
  0
LAYER
  2
鉄骨等
 70
     0
 62
   112
  6
CONTINUOUS
  0
LAYER
  2
St
 70
     0
 62
   127
  6
CONTINUOUS
  0
LAYER
  2
その他部品等
 70
     0
 62
   128
  6
CONTINUOUS
  0
LAYER
  2
ｶﾞｽｹｯﾄ
 70
     0
 62
   143
  6
CONTINUOUS
  0
LAYER
  2
ｽｹｯﾁ
 70
     0
 62
    14
  6
CONTINUOUS
  0
LAYER
  2
0
 70
     0
 62
    17
  6
CONTINUOUS
  0
LAYER
  2
1
 70
     0
 62
    30
  6
CONTINUOUS
  0
LAYER
  2
4
 70
     0
 62
    33
  6
CONTINUOUS
  0
LAYER
  2
ﾚｲﾔ3
 70
     0
 62
    46
  6
CONTINUOUS
  0
LAYER
  2
外形線
 70
     0
 62
    49
  6
CONTINUOUS
  0
LAYER
  2
部品
 70
     0
 62
    14
  6
CONTINUOUS
  0
LAYER
  2
サッシ芯
 70
     0
 62
    17
  6
DASHDOTX2
  0
LAYER
  2
寸法線
 70
     0
 62
    62
  6
CONTINUOUS
  0
LAYER
  2
姿図外形線
 70
     0
 62
    65
  6
CONTINUOUS
  0
LAYER
  2
姿補助線
 70
     0
 62
    30
  6
CONTINUOUS
  0
LAYER
  2
透視線
 70
     0
 62
    78
  6
DOT
  0
LAYER
  2
用紙
 70
     0
 62
    81
  6
CONTINUOUS
  0
LAYER
  2
実線図枠
 70
     0
 62
    94
  6
CONTINUOUS
  0
LAYER
  2
補助図枠
 70
     0
 62
    97
  6
CONTINUOUS
  0
LAYER
  2
建具記号
 70
     0
 62
   110
  6
CONTINUOUS
  0
LAYER
  2
補助文字
 70
     0
 62
   113
  6
CONTINUOUS
  0
ENDTAB
  0
TABLE
  2
STYLE
 70
    10
  0
STYLE
  2
STANDARD
 70
     0
 40
1.0
 41
1.0
 42
1.0
 50
0.0
 71
     0
  3
TXT
  4
BIGFONT
  0
STYLE
  2
TATE
 70
     4
 40
1.0
 41
1.0
 42
1.0
 50
0.0
 71
     0
  3
TXT
  4
BIGFONT
  0
STYLE
  2
TextStyle03
 70
     0
 40
1.0
 41
1.0
 42
1.0
 50
0.0
 71
     0
  3
MONOTXT
  4
BIGFONT
  0
STYLE
  2
TextStyle04
 70
     0
 40
1.0
 41
1.0
 42
1.0
 50
0.0
 71
     0
  3
MONOTXT
  4
BIGFONT
  0
STYLE
  2
TextStyle05
 70
     0
 40
1.0
 41
1.0
 42
1.0
 50
0.0
 71
     0
  3
MONOTXT
  4
BIGFONT
  0
STYLE
  2
TextStyle06
 70
     0
 40
1.0
 41
1.0
 42
1.0
 50
0.0
 71
     0
  3
MONOTXT
  4
BIGFONT
  0
STYLE
  2
TextStyle07
 70
     0
 40
1.0
 41
1.0
 42
1.0
 50
0.0
 71
     0
  3
MONOTXT
  4
BIGFONT
  0
STYLE
  2
TextStyle08
 70
     0
 40
1.0
 41
1.0
 42
1.0
 50
0.0
 71
     0
  3
MONOTXT
  4
BIGFONT
  0
STYLE
  2
TextStyle09
 70
     0
 40
1.0
 41
1.0
 42
1.0
 50
0.0
 71
     0
  3
MONOTXT
  4
BIGFONT
  0
STYLE
  2
TextStyle10
 70
     0
 40
1.0
 41
1.0
 42
1.0
 50
0.0
 71
     0
  3
MONOTXT
  4
BIGFONT
  0
ENDTAB
  0
ENDSEC
  0
SECTION
  2
BLOCKS
  0
BLOCK
  2
*GRP_0001
 70
    65
 10
0.0
 20
0.0
  0
LINE
  8
型材断面
  6
CONTINUOUS
 10
195.0
 20
133.5
 11
195.0
 21
-133.5
  0
LINE
  8
型材断面
  6
CONTINUOUS
 10
195.0
 20
-133.5
 11
-185.0
 21
-133.5
  0
LINE
  8
型材断面
  6
CONTINUOUS
 10
-185.0
 20
-133.5
 11
-185.0
 21
133.5
  0
LINE
  8
型材断面
  6
CONTINUOUS
 10
195.0
 20
133.5
 11
-185.0
 21
133.5
  0
LINE
  8
型材断面
  6
CONTINUOUS
 10
145.0
 20
-133.5
 11
145.0
 21
-118.5
  0
LINE
  8
型材断面
  6
CONTINUOUS
 10
195.0
 20
-118.5
 11
145.0
 21
-118.5
  0
ENDBLK
  0
BLOCK
  2
*GRP_0002
 70
    65
 10
0.0
 20
0.0
  0
LINE
  8
型材断面
  6
DOT
 10
-78.120085
 20
-70.519863
 11
-79.620085
 21
-70.519863
  0
LINE
  8
型材断面
  6
DOT
 10
-78.120085
 20
-62.51986
 11
-79.620085
 21
-62.51986
  0
LINE
  8
型材断面
  6
DOT
 10
-78.495085
 20
-70.519863
 11
-78.495085
 21
-62.51986
  0
LINE
  8
型材断面
  6
DOT
 10
-78.870085
 20
-70.519863
 11
-78.870085
 21
-62.51986
  0
LINE
  8
型材断面
  6
DOT
 10
-79.245085
 20
-70.519863
 11
-79.245085
 21
-62.51986
  0
LINE
  8
型材断面
  6
CONTINUOUS
 10
-43.620085
 20
-0.02098
 11
-43.620085
 21
6.479023
  0
LINE
  8
型材断面
  6
CONTINUOUS
 10
-43.620085
 20
6.479023
 11
-42.120085
 21
6.479023
  0
LINE
  8
型材断面
  6
CONTINUOUS
 10
-78.120085
 20
-1.52098
 11
-78.120085
 21
-70.519863
  0
LINE
  8
型材断面
  6
CONTINUOUS
 10
-78.120085
 20
-70.519863
 11
-23.120088
 21
-70.519863
  0
LINE
  8
型材断面
  6
CONTINUOUS
 10
-21.620088
 20
-62.019858
 11
-23.120088
 21
-62.019858
  0
LINE
  8
型材断面
  6
CONTINUOUS
 10
-23.120088
 20
-62.019858
 11
-23.120088
 21
-70.519863
  0
LINE
  8
型材断面
  6
CONTINUOUS
 10
-42.120085
 20
6.479023
 11
-42.120085
 21
-0.02098
  0
LINE
  8
型材断面
  6
CONTINUOUS
 10
-43.620085
 20
-1.52098
 11
-78.120085
 21
-1.52098
  0
ARC
  8
型材断面
  6
CONTINUOUS
 10
-43.620079
 20
-0.020984
 40
1.5
 50
270.0
 51
360.0
  0
LINE
  8
型材断面
  6
CONTINUOUS
 10
-78.120085
 20
-0.02098
 11
-43.620085
 21
-0.02098
  0
ARC
  8
型材断面
  6
CONTINUOUS
 10
-78.120081
 20
-1.520984
 40
1.5
 50
90.0
 51
180.0
  0
LINE
  8
型材断面
  6
CONTINUOUS
 10
-79.620085
 20
-1.52098
 11
-79.620085
 21
-70.519863
  0
ARC
  8
型材断面
  6
CONTINUOUS
 10
-78.120081
 20
-70.519867
 40
1.5
 50
180.0
 51
270.0
  0
LINE
  8
型材断面
  6
CONTINUOUS
 10
-78.120085
 20
-72.019863
 11
-23.120088
 21
-72.019863
  0
LINE
  8
型材断面
  6
CONTINUOUS
 10
-21.620088
 20
-62.019858
 11
-21.620088
 21
-70.519863
  0
ARC
  8
型材断面
  6
CONTINUOUS
 10
-23.120081
 20
-70.519867
 40
1.5
 50
-90.0
 51
0.0
  0
ENDBLK
  0
BLOCK
  2
*GRP_0003
 70
    65
 10
0.0
 20
0.0
  0
LINE
  8
ゴム等
  6
CONTINUOUS
 10
-34.619687
 20
72.479045
 11
-36.119687
 21
72.479045
  0
LINE
  8
ゴム等
  6
CONTINUOUS
 10
-36.119687
 20
66.978995
 11
-36.119687
 21
72.479045
  0
LINE
  8
ゴム等
  6
CONTINUOUS
 10
-44.619662
 20
65.97902
 11
-37.119662
 21
65.97902
  0
LINE
  8
ゴム等
  6
CONTINUOUS
 10
-36.119687
 20
66.978995
 11
-37.119662
 21
65.97902
  0
LINE
  8
ゴム等
  6
CONTINUOUS
 10
-34.619687
 20
72.479045
 11
-34.619687
 21
73.979045
  0
LINE
  8
ゴム等
  6
CONTINUOUS
 10
-34.619687
 20
73.979045
 11
-44.619662
 21
73.979045
  0
LINE
  8
ゴム等
  6
CONTINUOUS
 10
-44.619662
 20
65.97902
 11
-44.619662
 21
73.979045
  0
LINE
  8
ゴム等
  6
CONTINUOUS
 10
-35.599938
 20
73.979045
 11
-34.619687
 21
72.998795
  0
LINE
  8
ゴム等
  6
CONTINUOUS
 10
-37.014138
 20
73.979045
 11
-35.514138
 21
72.479045
  0
LINE
  8
ゴム等
  6
CONTINUOUS
 10
-38.428337
 20
73.979045
 11
-36.119687
 21
71.67032
  0
LINE
  8
ゴム等
  6
CONTINUOUS
 10
-39.842537
 20
73.979045
 11
-36.119687
 21
70.25612
  0
LINE
  8
ゴム等
  6
CONTINUOUS
 10
-41.256737
 20
73.979045
 11
-36.119687
 21
68.84192
  0
LINE
  8
ゴム等
  6
CONTINUOUS
 10
-42.671012
 20
73.979045
 11
-36.119687
 21
67.42772
  0
LINE
  8
ゴム等
  6
CONTINUOUS
 10
-44.085213
 20
73.979045
 11
-36.602463
 21
66.49622
  0
LINE
  8
ゴム等
  6
CONTINUOUS
 10
-44.619662
 20
73.099295
 11
-37.499463
 21
65.97902
  0
LINE
  8
ゴム等
  6
CONTINUOUS
 10
-44.619662
 20
71.685095
 11
-38.913663
 21
65.97902
  0
LINE
  8
ゴム等
  6
CONTINUOUS
 10
-44.619662
 20
70.27082
 11
-40.327862
 21
65.97902
  0
LINE
  8
ゴム等
  6
CONTINUOUS
 10
-44.619662
 20
68.85662
 11
-41.742062
 21
65.97902
  0
LINE
  8
ゴム等
  6
CONTINUOUS
 10
-44.619662
 20
67.44242
 11
-43.156262
 21
65.97902
  0
ENDBLK
  0
BLOCK
  2
*GRP_0004
 70
    65
 10
0.0
 20
0.0
  0
LINE
  8
ゴム等
  6
CONTINUOUS
 62
    63
 10
-59.62009
 20
86.976568
 11
-59.62009
 21
89.976568
  0
LINE
  8
ゴム等
  6
CONTINUOUS
 62
    63
 10
-79.620093
 20
86.976568
 11
-79.620093
 21
89.976568
  0
LINE
  8
ゴム等
  6
CONTINUOUS
 62
    63
 10
-59.62009
 20
86.976568
 11
-79.620093
 21
86.976568
  0
LINE
  8
ゴム等
  6
CONTINUOUS
 62
    63
 10
-78.856293
 20
86.976568
 11
-79.620093
 21
87.740367
  0
LINE
  8
ゴム等
  6
CONTINUOUS
 62
    63
 10
-77.442093
 20
86.976568
 11
-79.620093
 21
89.154567
  0
LINE
  8
ゴム等
  6
CONTINUOUS
 62
    63
 10
-76.02787
 20
86.976568
 11
-79.02787
 21
89.976568
  0
LINE
  8
ゴム等
  6
CONTINUOUS
 62
    63
 10
-74.61367
 20
86.976568
 11
-77.61367
 21
89.976568
  0
LINE
  8
ゴム等
  6
CONTINUOUS
 62
    63
 10
-73.19944
 20
86.976568
 11
-76.19944
 21
89.976568
  0
LINE
  8
ゴム等
  6
CONTINUOUS
 62
    63
 10
-71.78524
 20
86.976568
 11
-74.78524
 21
89.976568
  0
LINE
  8
ゴム等
  6
CONTINUOUS
 62
    63
 10
-70.371018
 20
86.976568
 11
-73.371018
 21
89.976568
  0
LINE
  8
ゴム等
  6
CONTINUOUS
 62
    63
 10
-68.956795
 20
86.976568
 11
-71.956795
 21
89.976568
  0
LINE
  8
ゴム等
  6
CONTINUOUS
 62
    63
 10
-67.542595
 20
86.976568
 11
-70.542595
 21
89.976568
  0
LINE
  8
ゴム等
  6
CONTINUOUS
 62
    63
 10
-66.128365
 20
86.976568
 11
-69.128365
 21
89.976568
  0
LINE
  8
ゴム等
  6
CONTINUOUS
 62
    63
 10
-64.714165
 20
86.976568
 11
-67.714165
 21
89.976568
  0
LINE
  8
ゴム等
  6
CONTINUOUS
 62
    63
 10
-63.299943
 20
86.976568
 11
-66.299943
 21
89.976568
  0
LINE
  8
ゴム等
  6
CONTINUOUS
 62
    63
 10
-61.885743
 20
86.976568
 11
-64.885743
 21
89.976568
  0
LINE
  8
ゴム等
  6
CONTINUOUS
 62
    63
 10
-60.47152
 20
86.976568
 11
-63.47152
 21
89.976568
  0
LINE
  8
ゴム等
  6
CONTINUOUS
 62
    63
 10
-59.62009
 20
87.539367
 11
-62.05732
 21
89.976568
  0
LINE
  8
ゴム等
  6
CONTINUOUS
 62
    63
 10
-59.62009
 20
88.953567
 11
-60.64309
 21
89.976568
  0
LINE
  8
ゴム等
  6
CONTINUOUS
 10
-59.62009
 20
89.976568
 11
-79.620093
 21
89.976568
  0
ENDBLK
  0
BLOCK
  2
*GRP_0005
 70
    65
 10
0.0
 20
0.0
  0
LINE
  8
ゴム等
  6
CONTINUOUS
 10
-47.620082
 20
4.979023
 11
-47.620082
 21
5.97902
  0
LINE
  8
ゴム等
  6
CONTINUOUS
 10
-47.620082
 20
5.97902
 11
-43.620085
 21
5.97902
  0
LINE
  8
ゴム等
  6
CONTINUOUS
 10
-43.620085
 20
5.97902
 11
-43.620085
 21
-0.02098
  0
LINE
  8
ゴム等
  6
CONTINUOUS
 10
-43.620085
 20
-0.02098
 11
-56.620082
 21
-0.02098
  0
LINE
  8
ゴム等
  6
CONTINUOUS
 10
-51.620088
 20
5.97902
 11
-55.619988
 21
5.951637
  0
LINE
  8
ゴム等
  6
CONTINUOUS
 10
-55.619988
 20
5.951637
 11
-55.618105
 21
5.67545
  0
ARC
  8
ゴム等
  6
CONTINUOUS
 10
-59.787712
 20
5.58525
 40
0.4
 50
84.469308
 51
267.338712
  0
LINE
  8
ゴム等
  6
CONTINUOUS
 10
-59.749158
 20
5.983393
 11
-56.425367
 21
5.69702
  0
LINE
  8
ゴム等
  6
CONTINUOUS
 10
-55.618105
 20
5.67545
 11
-56.42536
 21
5.69702
  0
LINE
  8
ゴム等
  6
CONTINUOUS
 10
-59.806285
 20
5.185693
 11
-56.620082
 21
4.706157
  0
LINE
  8
ゴム等
  6
CONTINUOUS
 10
-56.620082
 20
-0.02098
 11
-56.620082
 21
4.706157
  0
LINE
  8
ゴム等
  6
CONTINUOUS
 10
-51.620088
 20
5.97902
 11
-51.70843
 21
4.979023
  0
LINE
  8
ゴム等
  6
CONTINUOUS
 10
-47.620082
 20
4.979023
 11
-51.70843
 21
4.979023
  0
LINE
  8
ゴム等
  6
CONTINUOUS
 10
-52.21258
 20
5.974963
 11
-46.216637
 21
-0.02098
  0
LINE
  8
ゴム等
  6
CONTINUOUS
 10
-53.617165
 20
5.965347
 11
-47.630837
 21
-0.02098
  0
LINE
  8
ゴム等
  6
CONTINUOUS
 10
-55.021765
 20
5.955732
 11
-49.045053
 21
-0.02098
  0
LINE
  8
ゴム等
  6
CONTINUOUS
 10
-56.153875
 20
5.673627
 11
-50.459267
 21
-0.02098
  0
LINE
  8
ゴム等
  6
CONTINUOUS
 10
-57.701425
 20
5.806963
 11
-51.873482
 21
-0.02098
  0
LINE
  8
ゴム等
  6
CONTINUOUS
 10
-49.802425
 20
4.979023
 11
-44.802423
 21
-0.02098
  0
LINE
  8
ゴム等
  6
CONTINUOUS
 10
-48.38821
 20
4.979023
 11
-43.620085
 21
0.210897
  0
LINE
  8
ゴム等
  6
CONTINUOUS
 10
-47.620082
 20
5.62511
 11
-43.620085
 21
1.625113
  0
LINE
  8
ゴム等
  6
CONTINUOUS
 10
-46.559778
 20
5.97902
 11
-43.620085
 21
3.039328
  0
LINE
  8
ゴム等
  6
CONTINUOUS
 10
-45.145562
 20
5.97902
 11
-43.620085
 21
4.453543
  0
LINE
  8
ゴム等
  6
CONTINUOUS
 10
-56.116128
 20
-0.02098
 11
-56.620082
 21
0.482975
  0
LINE
  8
ゴム等
  6
CONTINUOUS
 10
-54.701912
 20
-0.02098
 11
-56.620082
 21
1.89719
  0
LINE
  8
ゴム等
  6
CONTINUOUS
 10
-59.248975
 20
5.940298
 11
-58.261938
 21
4.95326
  0
LINE
  8
ゴム等
  6
CONTINUOUS
 10
-56.620082
 20
3.311405
 11
-53.287698
 21
-0.02098
  0
ENDBLK
  0
BLOCK
  2
*GRP_0006
 70
    65
 10
0.0
 20
0.0
  0
POLYLINE
  8
ゴム等
  6
DOT
 66
     1
 70
     1
  0
VERTEX
  8
ゴム等
 10
-78.120085
 20
17.479018
  0
VERTEX
  8
ゴム等
 10
-68.120088
 20
17.479018
  0
VERTEX
  8
ゴム等
 10
-68.120088
 20
7.47902
  0
VERTEX
  8
ゴム等
 10
-78.120085
 20
7.47902
  0
SEQEND
  0
LINE
  8
ゴム等
  6
DOT
 10
-76.50487
 20
7.47902
 11
-78.120085
 21
9.094235
  0
LINE
  8
ゴム等
  6
DOT
 10
-75.090655
 20
7.47902
 11
-78.120085
 21
10.50845
  0
LINE
  8
ゴム等
  6
DOT
 10
-73.67644
 20
7.47902
 11
-78.120085
 21
11.922665
  0
LINE
  8
ゴム等
  6
DOT
 10
-72.262225
 20
7.47902
 11
-78.120085
 21
13.33688
  0
LINE
  8
ゴム等
  6
DOT
 10
-70.84801
 20
7.47902
 11
-78.120085
 21
14.751095
  0
LINE
  8
ゴム等
  6
DOT
 10
-69.433795
 20
7.47902
 11
-78.120085
 21
16.16531
  0
LINE
  8
ゴム等
  6
DOT
 10
-68.120088
 20
7.579528
 11
-78.019578
 21
17.479018
  0
LINE
  8
ゴム等
  6
DOT
 10
-68.120088
 20
8.993743
 11
-76.605362
 21
17.479018
  0
LINE
  8
ゴム等
  6
DOT
 10
-68.120088
 20
16.064803
 11
-69.534303
 21
17.479018
  0
LINE
  8
ゴム等
  6
DOT
 10
-68.120088
 20
14.650588
 11
-70.948517
 21
17.479018
  0
LINE
  8
ゴム等
  6
DOT
 10
-68.120088
 20
13.236372
 11
-72.362733
 21
17.479018
  0
LINE
  8
ゴム等
  6
DOT
 10
-68.120088
 20
11.822157
 11
-73.776948
 21
17.479018
  0
LINE
  8
ゴム等
  6
DOT
 10
-68.120088
 20
10.407942
 11
-75.191162
 21
17.479018
  0
ENDBLK
  0
BLOCK
  2
*GRP_0007
 70
    65
 10
0.0
 20
0.0
  0
POLYLINE
  8
ゴム等
  6
DOT
 66
     1
 70
     1
  0
VERTEX
  8
ゴム等
 10
-78.120085
 20
-60.519865
  0
VERTEX
  8
ゴム等
 10
-68.120088
 20
-60.519865
  0
VERTEX
  8
ゴム等
 10
-68.120088
 20
-70.519863
  0
VERTEX
  8
ゴム等
 10
-78.120085
 20
-70.519863
  0
SEQEND
  0
LINE
  8
ゴム等
  6
DOT
 10
-76.50487
 20
-70.519863
 11
-78.120085
 21
-68.904648
  0
LINE
  8
ゴム等
  6
DOT
 10
-75.090655
 20
-70.519863
 11
-78.120085
 21
-67.490433
  0
LINE
  8
ゴム等
  6
DOT
 10
-73.67644
 20
-70.519863
 11
-78.120085
 21
-66.076217
  0
LINE
  8
ゴム等
  6
DOT
 10
-72.262225
 20
-70.519863
 11
-78.120085
 21
-64.662003
  0
LINE
  8
ゴム等
  6
DOT
 10
-70.84801
 20
-70.519863
 11
-78.120085
 21
-63.247787
  0
LINE
  8
ゴム等
  6
DOT
 10
-69.433795
 20
-70.519863
 11
-78.120085
 21
-61.833572
  0
LINE
  8
ゴム等
  6
DOT
 10
-68.120088
 20
-70.419355
 11
-78.019578
 21
-60.519865
  0
LINE
  8
ゴム等
  6
DOT
 10
-68.120088
 20
-69.00514
 11
-76.605362
 21
-60.519865
  0
LINE
  8
ゴム等
  6
DOT
 10
-68.120088
 20
-61.93408
 11
-69.534303
 21
-60.519865
  0
LINE
  8
ゴム等
  6
DOT
 10
-68.120088
 20
-63.348295
 11
-70.948517
 21
-60.519865
  0
LINE
  8
ゴム等
  6
DOT
 10
-68.120088
 20
-64.76251
 11
-72.362733
 21
-60.519865
  0
LINE
  8
ゴム等
  6
DOT
 10
-68.120088
 20
-66.176725
 11
-73.776948
 21
-60.519865
  0
LINE
  8
ゴム等
  6
DOT
 10
-68.120088
 20
-67.59094
 11
-75.191162
 21
-60.519865
  0
ENDBLK
  0
BLOCK
  2
*GRP_0008
 70
    65
 10
0.0
 20
0.0
  0
ARC
  8
ボルト／ビス
  6
CONTINUOUS
 62
    64
 10
-73.1197
 20
77.976558
 40
1.0
 50
180.0
 51
270.0
  0
LINE
  8
ボルト／ビス
  6
CONTINUOUS
 62
    64
 10
-66.119687
 20
76.976473
 11
-73.1197
 21
76.976473
  0
ARC
  8
ボルト／ビス
  6
CONTINUOUS
 62
    64
 10
-66.1197
 20
77.976558
 40
1.0
 50
270.0
 51
360.0
  0
LINE
  8
ボルト／ビス
  6
CONTINUOUS
 62
    64
 10
-64.619687
 20
87.476473
 11
-64.619687
 21
86.976477
  0
LINE
  8
ボルト／ビス
  6
CONTINUOUS
 62
    64
 10
-74.6197
 20
87.476473
 11
-74.6197
 21
86.976477
  0
LINE
  8
ボルト／ビス
  6
CONTINUOUS
 62
    64
 10
-64.619687
 20
87.476473
 11
-74.6197
 21
87.476473
  0
LINE
  8
ボルト／ビス
  6
CONTINUOUS
 62
    64
 10
-64.619687
 20
86.976477
 11
-74.6197
 21
86.976477
  0
LINE
  8
ボルト／ビス
  6
CONTINUOUS
 62
    64
 10
-65.119712
 20
77.976477
 11
-65.119712
 21
83.976477
  0
LINE
  8
ボルト／ビス
  6
CONTINUOUS
 62
    64
 10
-65.119712
 20
85.476477
 11
-65.119712
 21
86.976477
  0
LINE
  8
ボルト／ビス
  6
CONTINUOUS
 62
    64
 10
-74.119712
 20
86.976477
 11
-74.119712
 21
85.476477
  0
LINE
  8
ボルト／ビス
  6
CONTINUOUS
 62
    64
 10
-74.119712
 20
83.976477
 11
-74.119712
 21
77.976477
  0
LINE
  8
ボルト／ビス
  6
CONTINUOUS
 62
    64
 10
-63.869687
 20
85.476477
 11
-69.619712
 21
85.476477
  0
ARC
  8
ボルト／ビス
  6
CONTINUOUS
 62
    64
 10
-63.8697
 20
84.726558
 40
0.75
 50
0.0
 51
90.0
  0
LINE
  8
ボルト／ビス
  6
CONTINUOUS
 62
    64
 10
-63.119687
 20
84.726477
 11
-63.119687
 21
84.726477
  0
LINE
  8
ボルト／ビス
  6
CONTINUOUS
 62
    64
 10
-63.869687
 20
83.976477
 11
-69.619712
 21
83.976477
  0
ARC
  8
ボルト／ビス
  6
CONTINUOUS
 62
    64
 10
-63.8697
 20
84.726558
 40
0.75
 50
-90.0
 51
0.0
  0
LINE
  8
ボルト／ビス
  6
CONTINUOUS
 62
    64
 10
-76.1197
 20
84.726477
 11
-76.1197
 21
84.726477
  0
LINE
  8
ボルト／ビス
  6
CONTINUOUS
 62
    64
 10
-69.619712
 20
85.476477
 11
-75.119687
 21
85.476477
  0
LINE
  8
ボルト／ビス
  6
CONTINUOUS
 62
    64
 10
-69.619712
 20
83.976477
 11
-75.119687
 21
83.976477
  0
LINE
  8
ボルト／ビス
  6
CONTINUOUS
 62
    64
 10
-75.119687
 20
85.476477
 11
-75.119687
 21
83.976477
  0
ENDBLK
  0
BLOCK
  2
*GRP_0009
 70
    65
 10
0.0
 20
0.0
  0
LINE
  8
ボルト／ビス
  6
CONTINUOUS
 10
-80.6197
 20
92.980077
 11
-80.6197
 21
94.980103
  0
LINE
  8
ボルト／ビス
  6
CONTINUOUS
 10
-80.6197
 20
94.980103
 11
-58.619687
 21
94.980103
  0
LINE
  8
ボルト／ビス
  6
CONTINUOUS
 10
-58.619687
 20
94.980103
 11
-58.619687
 21
92.980077
  0
LINE
  8
ボルト／ビス
  6
CONTINUOUS
 10
-80.6197
 20
92.980077
 11
-58.619687
 21
92.980077
  0
LINE
  8
ボルト／ビス
  6
CONTINUOUS
 10
-78.619712
 20
95.980077
 11
-78.619712
 21
94.980103
  0
LINE
  8
ボルト／ビス
  6
CONTINUOUS
 10
-78.619712
 20
95.980077
 11
-60.619712
 21
95.980077
  0
LINE
  8
ボルト／ビス
  6
CONTINUOUS
 10
-60.619712
 20
95.980077
 11
-60.619712
 21
94.980103
  0
LINE
  8
ボルト／ビス
  6
CONTINUOUS
 62
    64
 10
-74.430962
 20
101.980077
 11
-75.393213
 21
101.629873
  0
ARC
  8
ボルト／ビス
  6
CONTINUOUS
 62
    64
 10
-73.949824
 20
98.830835
 40
3.149352
 50
62.721967
 51
90.0
  0
ARC
  8
ボルト／ビス
  6
CONTINUOUS
 62
    64
 10
-69.619697
 20
89.90812
 40
12.072067
 50
76.165002
 51
103.834985
  0
LINE
  8
ボルト／ビス
  6
CONTINUOUS
 62
    64
 10
-64.808463
 20
101.980077
 11
-63.846213
 21
101.629873
  0
ARC
  8
ボルト／ビス
  6
CONTINUOUS
 62
    64
 10
-65.289569
 20
98.830835
 40
3.149352
 50
90.0
 51
117.278033
  0
LINE
  8
ボルト／ビス
  6
CONTINUOUS
 62
    64
 10
-74.430962
 20
101.980077
 11
-64.808463
 21
101.980077
  0
LINE
  8
ボルト／ビス
  6
CONTINUOUS
 62
    64
 10
-63.846213
 20
101.629873
 11
-63.846213
 21
97.980103
  0
LINE
  8
ボルト／ビス
  6
CONTINUOUS
 62
    64
 10
-66.732963
 20
101.629873
 11
-66.732963
 21
97.980103
  0
LINE
  8
ボルト／ビス
  6
CONTINUOUS
 62
    64
 10
-75.393213
 20
101.629873
 11
-75.393213
 21
97.980103
  0
LINE
  8
ボルト／ビス
  6
CONTINUOUS
 62
    64
 10
-72.506462
 20
101.629873
 11
-72.506462
 21
97.980103
  0
LINE
  8
ボルト／ビス
  6
CONTINUOUS
 10
-75.393213
 20
97.980103
 11
-63.846213
 21
97.980103
  0
LINE
  8
ボルト／ビス
  6
CONTINUOUS
 10
-75.619712
 20
97.980103
 11
-75.619712
 21
95.980077
  0
LINE
  8
ボルト／ビス
  6
CONTINUOUS
 10
-75.619712
 20
97.980103
 11
-63.619712
 21
97.980103
  0
LINE
  8
ボルト／ビス
  6
CONTINUOUS
 10
-63.619712
 20
97.980103
 11
-63.619712
 21
95.980077
  0
LINE
  8
ボルト／ビス
  6
CONTINUOUS
 62
    64
 10
-67.319687
 20
92.980077
 11
-67.319687
 21
72.980127
  0
LINE
  8
ボルト／ビス
  6
CONTINUOUS
 62
    64
 10
-71.9197
 20
92.980077
 11
-71.9197
 21
72.980127
  0
LINE
  8
ボルト／ビス
  6
CONTINUOUS
 62
    64
 10
-71.9197
 20
72.980127
 11
-67.319687
 21
72.980127
  0
LINE
  8
ボルト／ビス
  6
CONTINUOUS
 62
    64
 10
-66.619712
 20
73.980103
 11
-67.319687
 21
72.980127
  0
LINE
  8
ボルト／ビス
  6
CONTINUOUS
 62
    64
 10
-72.619712
 20
73.980103
 11
-71.9197
 21
72.980127
  0
LINE
  8
ボルト／ビス
  6
CONTINUOUS
 62
    64
 10
-72.619712
 20
73.980103
 11
-66.619712
 21
73.980103
  0
LINE
  8
ボルト／ビス
  6
CONTINUOUS
 62
    64
 10
-71.9197
 20
72.980127
 11
-67.319687
 21
72.980127
  0
LINE
  8
ボルト／ビス
  6
CONTINUOUS
 62
    64
 10
-72.619712
 20
92.980077
 11
-72.619712
 21
73.980103
  0
LINE
  8
ボルト／ビス
  6
CONTINUOUS
 62
    64
 10
-66.619712
 20
92.980077
 11
-66.619712
 21
73.980103
  0
ENDBLK
  0
BLOCK
  2
*GRP_0010
 70
    65
 10
0.0
 20
0.0
  0
LINE
  8
ボルト／ビス
  6
CONTINUOUS
 62
    64
 10
-67.620085
 20
-70.219863
 11
-71.62009
 21
-70.219863
  0
LINE
  8
ボルト／ビス
  6
CONTINUOUS
 62
    64
 10
-67.620085
 20
-62.51986
 11
-68.120088
 21
-62.019865
  0
LINE
  8
ボルト／ビス
  6
CONTINUOUS
 62
    64
 10
-71.62009
 20
-62.51986
 11
-71.120088
 21
-62.019865
  0
LINE
  8
ボルト／ビス
  6
CONTINUOUS
 62
    64
 10
-68.120088
 20
-62.019865
 11
-71.120088
 21
-62.019865
  0
LINE
  8
ボルト／ビス
  6
CONTINUOUS
 62
    64
 10
-67.620085
 20
-62.51986
 11
-71.62009
 21
-62.51986
  0
LINE
  8
ボルト／ビス
  6
CONTINUOUS
 62
    64
 10
-71.120088
 20
-70.219863
 11
-71.120088
 21
-62.019865
  0
LINE
  8
ボルト／ビス
  6
CONTINUOUS
 62
    64
 10
-68.120088
 20
-70.219863
 11
-68.120088
 21
-62.019865
  0
LINE
  8
ボルト／ビス
  6
CONTINUOUS
 62
    64
 10
-67.620085
 20
-70.219863
 11
-67.620085
 21
-62.51986
  0
LINE
  8
ボルト／ビス
  6
CONTINUOUS
 62
    64
 10
-71.62009
 20
-70.219863
 11
-71.62009
 21
-62.51986
  0
LINE
  8
ボルト／ビス
  6
DASHDOT
 62
    64
 10
-69.620088
 20
-75.019863
 11
-69.620088
 21
-59.019865
  0
LINE
  8
ボルト／ビス
  6
DOT
 62
    64
 10
-66.620088
 20
-72.019863
 11
-67.620085
 21
-70.219863
  0
LINE
  8
ボルト／ビス
  6
DOT
 62
    64
 10
-66.620088
 20
-72.019863
 11
-72.620088
 21
-72.019863
  0
LINE
  8
ボルト／ビス
  6
DOT
 62
    64
 10
-72.620088
 20
-72.019863
 11
-71.62009
 21
-70.219863
  0
ENDBLK
  0
BLOCK
  2
*GRP_0011
 70
    65
 10
0.0
 20
0.0
  0
LINE
  8
ボルト／ビス
  6
CONTINUOUS
 10
-82.620085
 20
-35.020953
 11
-80.32006
 21
-33.02098
  0
LINE
  8
ボルト／ビス
  6
CONTINUOUS
 10
-82.620085
 20
-27.02098
 11
-80.32006
 21
-29.020953
  0
LINE
  8
ボルト／ビス
  6
CONTINUOUS
 10
-73.12006
 20
-33.02098
 11
-72.620088
 21
-32.520955
  0
LINE
  8
ボルト／ビス
  6
CONTINUOUS
 10
-73.12006
 20
-29.020953
 11
-72.620088
 21
-29.520955
  0
LINE
  8
ボルト／ビス
  6
CONTINUOUS
 10
-72.620088
 20
-32.520955
 11
-72.620088
 21
-29.520955
  0
LINE
  8
ボルト／ビス
  6
CONTINUOUS
 10
-73.12006
 20
-29.020953
 11
-73.12006
 21
-33.02098
  0
LINE
  8
ボルト／ビス
  6
CONTINUOUS
 10
-73.12006
 20
-33.02098
 11
-80.32006
 21
-33.02098
  0
LINE
  8
ボルト／ビス
  6
CONTINUOUS
 10
-72.620088
 20
-32.520955
 11
-80.32006
 21
-32.520955
  0
LINE
  8
ボルト／ビス
  6
CONTINUOUS
 10
-72.620088
 20
-29.520955
 11
-80.32006
 21
-29.520955
  0
LINE
  8
ボルト／ビス
  6
CONTINUOUS
 10
-73.12006
 20
-29.020953
 11
-80.32006
 21
-29.020953
  0
LINE
  8
ボルト／ビス
  6
CONTINUOUS
 10
-82.620085
 20
-35.020953
 11
-82.620085
 21
-27.02098
  0
LINE
  8
ボルト／ビス
  6
CONTINUOUS
 10
-80.32006
 20
-33.02098
 11
-80.32006
 21
-29.020953
  0
LINE
  8
ボルト／ビス
  6
CONTINUOUS
 10
-68.504785
 20
-31.020955
 11
-85.77841
 21
-31.020955
  0
ENDBLK
  0
BLOCK
  2
*GRP_0012
 70
    65
 10
0.0
 20
0.0
  0
LINE
  8
ボルト／ビス
  6
CONTINUOUS
 10
-82.620085
 20
-27.02098
 11
-80.32006
 21
-25.020955
  0
LINE
  8
ボルト／ビス
  6
CONTINUOUS
 10
-82.620085
 20
-19.020955
 11
-80.32006
 21
-21.02098
  0
LINE
  8
ボルト／ビス
  6
CONTINUOUS
 10
-73.12006
 20
-25.020955
 11
-72.620088
 21
-24.520953
  0
LINE
  8
ボルト／ビス
  6
CONTINUOUS
 10
-73.12006
 20
-21.02098
 11
-72.620088
 21
-21.520953
  0
LINE
  8
ボルト／ビス
  6
CONTINUOUS
 10
-72.620088
 20
-24.520953
 11
-72.620088
 21
-21.520953
  0
LINE
  8
ボルト／ビス
  6
CONTINUOUS
 10
-73.12006
 20
-21.02098
 11
-73.12006
 21
-25.020955
  0
LINE
  8
ボルト／ビス
  6
CONTINUOUS
 10
-73.12006
 20
-25.020955
 11
-80.32006
 21
-25.020955
  0
LINE
  8
ボルト／ビス
  6
CONTINUOUS
 10
-72.620088
 20
-24.520953
 11
-80.32006
 21
-24.520953
  0
LINE
  8
ボルト／ビス
  6
CONTINUOUS
 10
-72.620088
 20
-21.520953
 11
-80.32006
 21
-21.520953
  0
LINE
  8
ボルト／ビス
  6
CONTINUOUS
 10
-73.12006
 20
-21.02098
 11
-80.32006
 21
-21.02098
  0
LINE
  8
ボルト／ビス
  6
CONTINUOUS
 10
-82.620085
 20
-27.02098
 11
-82.620085
 21
-19.020955
  0
LINE
  8
ボルト／ビス
  6
CONTINUOUS
 10
-80.32006
 20
-25.020955
 11
-80.32006
 21
-21.02098
  0
LINE
  8
ボルト／ビス
  6
CONTINUOUS
 10
-68.504785
 20
-23.020953
 11
-85.77841
 21
-23.020953
  0
ENDBLK
  0
BLOCK
  2
*GRP_0013
 70
    65
 10
0.0
 20
0.0
  0
LINE
  8
ボルト／ビス
  6
CONTINUOUS
 10
-82.620085
 20
-19.020955
 11
-80.32006
 21
-17.020953
  0
LINE
  8
ボルト／ビス
  6
CONTINUOUS
 10
-82.620085
 20
-11.020953
 11
-80.32006
 21
-13.020955
  0
LINE
  8
ボルト／ビス
  6
CONTINUOUS
 10
-73.12006
 20
-17.020953
 11
-72.620088
 21
-16.52098
  0
LINE
  8
ボルト／ビス
  6
CONTINUOUS
 10
-73.12006
 20
-13.020955
 11
-72.620088
 21
-13.52098
  0
LINE
  8
ボルト／ビス
  6
CONTINUOUS
 10
-72.620088
 20
-16.52098
 11
-72.620088
 21
-13.52098
  0
LINE
  8
ボルト／ビス
  6
CONTINUOUS
 10
-73.12006
 20
-13.020955
 11
-73.12006
 21
-17.020953
  0
LINE
  8
ボルト／ビス
  6
CONTINUOUS
 10
-73.12006
 20
-17.020953
 11
-80.32006
 21
-17.020953
  0
LINE
  8
ボルト／ビス
  6
CONTINUOUS
 10
-72.620088
 20
-16.52098
 11
-80.32006
 21
-16.52098
  0
LINE
  8
ボルト／ビス
  6
CONTINUOUS
 10
-72.620088
 20
-13.52098
 11
-80.32006
 21
-13.52098
  0
LINE
  8
ボルト／ビス
  6
CONTINUOUS
 10
-73.12006
 20
-13.020955
 11
-80.32006
 21
-13.020955
  0
LINE
  8
ボルト／ビス
  6
CONTINUOUS
 10
-82.620085
 20
-19.020955
 11
-82.620085
 21
-11.020953
  0
LINE
  8
ボルト／ビス
  6
CONTINUOUS
 10
-80.32006
 20
-17.020953
 11
-80.32006
 21
-13.020955
  0
LINE
  8
ボルト／ビス
  6
CONTINUOUS
 10
-68.504785
 20
-15.02098
 11
-85.77841
 21
-15.02098
  0
ENDBLK
  0
BLOCK
  2
*GRP_0014
 70
    65
 10
0.0
 20
0.0
  0
LINE
  8
ボルト／ビス
  6
CONTINUOUS
 10
-82.620085
 20
40.979045
 11
-80.32006
 21
38.97902
  0
LINE
  8
ボルト／ビス
  6
CONTINUOUS
 10
-82.620085
 20
32.97902
 11
-80.32006
 21
34.979045
  0
LINE
  8
ボルト／ビス
  6
CONTINUOUS
 10
-73.12006
 20
38.97902
 11
-72.620088
 21
38.479047
  0
LINE
  8
ボルト／ビス
  6
CONTINUOUS
 10
-73.12006
 20
34.979045
 11
-72.620088
 21
35.479047
  0
LINE
  8
ボルト／ビス
  6
CONTINUOUS
 10
-72.620088
 20
38.479047
 11
-72.620088
 21
35.479047
  0
LINE
  8
ボルト／ビス
  6
CONTINUOUS
 10
-73.12006
 20
34.979045
 11
-73.12006
 21
38.97902
  0
LINE
  8
ボルト／ビス
  6
CONTINUOUS
 10
-73.12006
 20
38.97902
 11
-80.32006
 21
38.97902
  0
LINE
  8
ボルト／ビス
  6
CONTINUOUS
 10
-72.620088
 20
38.479047
 11
-80.32006
 21
38.479047
  0
LINE
  8
ボルト／ビス
  6
CONTINUOUS
 10
-72.620088
 20
35.479047
 11
-80.32006
 21
35.479047
  0
LINE
  8
ボルト／ビス
  6
CONTINUOUS
 10
-73.12006
 20
34.979045
 11
-80.32006
 21
34.979045
  0
LINE
  8
ボルト／ビス
  6
CONTINUOUS
 10
-82.620085
 20
40.979045
 11
-82.620085
 21
32.97902
  0
LINE
  8
ボルト／ビス
  6
CONTINUOUS
 10
-80.32006
 20
38.97902
 11
-80.32006
 21
34.979045
  0
LINE
  8
ボルト／ビス
  6
CONTINUOUS
 10
-68.504785
 20
36.979047
 11
-85.77841
 21
36.979047
  0
ENDBLK
  0
BLOCK
  2
*GRP_0015
 70
    65
 10
0.0
 20
0.0
  0
LINE
  8
ボルト／ビス
  6
CONTINUOUS
 10
-82.620085
 20
32.97902
 11
-80.32006
 21
30.979047
  0
LINE
  8
ボルト／ビス
  6
CONTINUOUS
 10
-82.620085
 20
24.979047
 11
-80.32006
 21
26.97902
  0
LINE
  8
ボルト／ビス
  6
CONTINUOUS
 10
-73.12006
 20
30.979047
 11
-72.620088
 21
30.479045
  0
LINE
  8
ボルト／ビス
  6
CONTINUOUS
 10
-73.12006
 20
26.97902
 11
-72.620088
 21
27.479045
  0
LINE
  8
ボルト／ビス
  6
CONTINUOUS
 10
-72.620088
 20
30.479045
 11
-72.620088
 21
27.479045
  0
LINE
  8
ボルト／ビス
  6
CONTINUOUS
 10
-73.12006
 20
26.97902
 11
-73.12006
 21
30.979047
  0
LINE
  8
ボルト／ビス
  6
CONTINUOUS
 10
-73.12006
 20
30.979047
 11
-80.32006
 21
30.979047
  0
LINE
  8
ボルト／ビス
  6
CONTINUOUS
 10
-72.620088
 20
30.479045
 11
-80.32006
 21
30.479045
  0
LINE
  8
ボルト／ビス
  6
CONTINUOUS
 10
-72.620088
 20
27.479045
 11
-80.32006
 21
27.479045
  0
LINE
  8
ボルト／ビス
  6
CONTINUOUS
 10
-73.12006
 20
26.97902
 11
-80.32006
 21
26.97902
  0
LINE
  8
ボルト／ビス
  6
CONTINUOUS
 10
-82.620085
 20
32.97902
 11
-82.620085
 21
24.979047
  0
LINE
  8
ボルト／ビス
  6
CONTINUOUS
 10
-80.32006
 20
30.979047
 11
-80.32006
 21
26.97902
  0
LINE
  8
ボルト／ビス
  6
CONTINUOUS
 10
-68.504785
 20
28.979045
 11
-85.77841
 21
28.979045
  0
ENDBLK
  0
BLOCK
  2
*GRP_0016
 70
    65
 10
0.0
 20
0.0
  0
LINE
  8
ボルト／ビス
  6
CONTINUOUS
 10
-82.620085
 20
24.979047
 11
-80.32006
 21
22.979045
  0
LINE
  8
ボルト／ビス
  6
CONTINUOUS
 10
-82.620085
 20
16.979045
 11
-80.32006
 21
18.979047
  0
LINE
  8
ボルト／ビス
  6
CONTINUOUS
 10
-73.12006
 20
22.979045
 11
-72.620088
 21
22.47902
  0
LINE
  8
ボルト／ビス
  6
CONTINUOUS
 10
-73.12006
 20
18.979047
 11
-72.620088
 21
19.47902
  0
LINE
  8
ボルト／ビス
  6
CONTINUOUS
 10
-72.620088
 20
22.47902
 11
-72.620088
 21
19.47902
  0
LINE
  8
ボルト／ビス
  6
CONTINUOUS
 10
-73.12006
 20
18.979047
 11
-73.12006
 21
22.979045
  0
LINE
  8
ボルト／ビス
  6
CONTINUOUS
 10
-73.12006
 20
22.979045
 11
-80.32006
 21
22.979045
  0
LINE
  8
ボルト／ビス
  6
CONTINUOUS
 10
-72.620088
 20
22.47902
 11
-80.32006
 21
22.47902
  0
LINE
  8
ボルト／ビス
  6
CONTINUOUS
 10
-72.620088
 20
19.47902
 11
-80.32006
 21
19.47902
  0
LINE
  8
ボルト／ビス
  6
CONTINUOUS
 10
-73.12006
 20
18.979047
 11
-80.32006
 21
18.979047
  0
LINE
  8
ボルト／ビス
  6
CONTINUOUS
 10
-82.620085
 20
24.979047
 11
-82.620085
 21
16.979045
  0
LINE
  8
ボルト／ビス
  6
CONTINUOUS
 10
-80.32006
 20
22.979045
 11
-80.32006
 21
18.979047
  0
LINE
  8
ボルト／ビス
  6
CONTINUOUS
 10
-68.504785
 20
20.97902
 11
-85.77841
 21
20.97902
  0
ENDBLK
  0
BLOCK
  2
*GRP_0017
 70
    65
 10
0.0
 20
0.0
  0
LINE
  8
ボルト／ビス
  6
CONTINUOUS
 62
    64
 10
-67.620085
 20
7.77902
 11
-71.62009
 21
7.77902
  0
LINE
  8
ボルト／ビス
  6
CONTINUOUS
 62
    64
 10
-67.620085
 20
15.479023
 11
-68.120088
 21
15.979018
  0
LINE
  8
ボルト／ビス
  6
CONTINUOUS
 62
    64
 10
-71.62009
 20
15.479023
 11
-71.120088
 21
15.979018
  0
LINE
  8
ボルト／ビス
  6
CONTINUOUS
 62
    64
 10
-68.120088
 20
15.979018
 11
-71.120088
 21
15.979018
  0
LINE
  8
ボルト／ビス
  6
CONTINUOUS
 62
    64
 10
-67.620085
 20
15.479023
 11
-71.62009
 21
15.479023
  0
LINE
  8
ボルト／ビス
  6
CONTINUOUS
 62
    64
 10
-71.120088
 20
7.77902
 11
-71.120088
 21
15.979018
  0
LINE
  8
ボルト／ビス
  6
CONTINUOUS
 62
    64
 10
-68.120088
 20
7.77902
 11
-68.120088
 21
15.979018
  0
LINE
  8
ボルト／ビス
  6
CONTINUOUS
 62
    64
 10
-67.620085
 20
7.77902
 11
-67.620085
 21
15.479023
  0
LINE
  8
ボルト／ビス
  6
CONTINUOUS
 62
    64
 10
-71.62009
 20
7.77902
 11
-71.62009
 21
15.479023
  0
LINE
  8
ボルト／ビス
  6
DASHDOT
 62
    64
 10
-69.620088
 20
2.97902
 11
-69.620088
 21
18.979018
  0
LINE
  8
ボルト／ビス
  6
DOT
 62
    64
 10
-66.620088
 20
5.97902
 11
-67.620085
 21
7.77902
  0
LINE
  8
ボルト／ビス
  6
DOT
 62
    64
 10
-66.620088
 20
5.97902
 11
-72.620088
 21
5.97902
  0
LINE
  8
ボルト／ビス
  6
DOT
 62
    64
 10
-72.620088
 20
5.97902
 11
-71.62009
 21
7.77902
  0
ENDBLK
  0
BLOCK
  2
*GRP_0018
 70
    65
 10
0.0
 20
0.0
  0
LINE
  8
ボルト／ビス
  6
CONTINUOUS
 62
    64
 10
-77.820085
 20
74.976575
 11
-77.820085
 21
78.976572
  0
LINE
  8
ボルト／ビス
  6
CONTINUOUS
 62
    64
 10
-70.120082
 20
74.976575
 11
-69.620088
 21
75.47657
  0
LINE
  8
ボルト／ビス
  6
CONTINUOUS
 62
    64
 10
-70.120082
 20
78.976572
 11
-69.620088
 21
78.47657
  0
LINE
  8
ボルト／ビス
  6
CONTINUOUS
 62
    64
 10
-69.620088
 20
75.47657
 11
-69.620088
 21
78.47657
  0
LINE
  8
ボルト／ビス
  6
CONTINUOUS
 62
    64
 10
-70.120082
 20
74.976575
 11
-70.120082
 21
78.976572
  0
LINE
  8
ボルト／ビス
  6
CONTINUOUS
 62
    64
 10
-77.820085
 20
78.47657
 11
-69.620088
 21
78.47657
  0
LINE
  8
ボルト／ビス
  6
CONTINUOUS
 62
    64
 10
-77.820085
 20
75.47657
 11
-69.620088
 21
75.47657
  0
LINE
  8
ボルト／ビス
  6
CONTINUOUS
 62
    64
 10
-77.820085
 20
74.976575
 11
-70.120082
 21
74.976575
  0
LINE
  8
ボルト／ビス
  6
CONTINUOUS
 62
    64
 10
-77.820085
 20
78.976572
 11
-70.120082
 21
78.976572
  0
LINE
  8
ボルト／ビス
  6
DASHDOT
 62
    64
 10
-82.620085
 20
76.97657
 11
-66.620088
 21
76.97657
  0
LINE
  8
ボルト／ビス
  6
DOT
 62
    64
 10
-79.620085
 20
73.97657
 11
-77.820085
 21
74.976575
  0
LINE
  8
ボルト／ビス
  6
DOT
 62
    64
 10
-79.620085
 20
73.97657
 11
-79.620085
 21
79.97657
  0
LINE
  8
ボルト／ビス
  6
DOT
 62
    64
 10
-79.620085
 20
79.97657
 11
-77.820085
 21
78.976572
  0
ENDBLK
  0
BLOCK
  2
*DIM_0019
 70
    65
 10
0.0
 20
0.0
  0
LINE
  8
寸法
  6
CONTINUOUS
 10
-99.619765
 20
93.980137
 11
-99.619765
 21
126.090603
  0
LINE
  8
寸法
  6
CONTINUOUS
 10
-49.61974
 20
126.090603
 11
-99.619765
 21
126.090603
  0
POINT
  8
寸法
 10
-49.61974
 20
126.090603
  0
POINT
  8
寸法
 10
-99.619765
 20
126.090603
  0
TEXT
  7
TextStyle03
  8
寸法
  6
CONTINUOUS
 10
-76.21875
 20
126.45
  1
50
 40
3.0
 72
     5
 11
-73.03125
 21
126.45
  0
ENDBLK
  0
BLOCK
  2
*DIM_0020
 70
    65
 10
0.0
 20
0.0
  0
LINE
  8
寸法
  6
CONTINUOUS
 10
-99.619765
 20
93.980137
 11
-99.619765
 21
119.0135
  0
LINE
  8
寸法
  6
CONTINUOUS
 10
-69.619712
 20
96.980077
 11
-69.619712
 21
119.0135
  0
LINE
  8
寸法
  6
CONTINUOUS
 10
-99.619765
 20
119.0135
 11
-69.619712
 21
119.0135
  0
POINT
  8
寸法
 10
-99.619765
 20
119.0135
  0
POINT
  8
寸法
 10
-69.619712
 20
119.0135
  0
TEXT
  7
TextStyle03
  8
寸法
  6
CONTINUOUS
 10
-86.21875
 20
119.375
  1
30
 40
3.0
 72
     5
 11
-83.03125
 21
119.375
  0
ENDBLK
  0
BLOCK
  2
*DIM_0021
 70
    65
 10
0.0
 20
0.0
  0
LINE
  8
寸法
  6
CONTINUOUS
 10
-49.61974
 20
93.980137
 11
-49.61974
 21
119.0135
  0
LINE
  8
寸法
  6
CONTINUOUS
 10
-69.619712
 20
119.0135
 11
-49.61974
 21
119.0135
  0
POINT
  8
寸法
 10
-49.61974
 20
119.0135
  0
TEXT
  7
TextStyle03
  8
寸法
  6
CONTINUOUS
 10
-61.21875
 20
119.375
  1
20
 40
3.0
 72
     5
 11
-58.03125
 21
119.375
  0
ENDBLK
  0
BLOCK
  2
*DIM_0022
 70
    65
 10
0.0
 20
0.0
  0
LINE
  8
寸法
  6
CONTINUOUS
 10
-19.620085
 20
-58.019858
 11
-19.620085
 21
119.0135
  0
LINE
  8
寸法
  6
CONTINUOUS
 10
-49.61974
 20
119.0135
 11
-19.620085
 21
119.0135
  0
POINT
  8
寸法
 10
-49.61974
 20
119.0135
  0
POINT
  8
寸法
 10
-19.620085
 20
119.0135
  0
TEXT
  7
TextStyle03
  8
寸法
  6
CONTINUOUS
 10
-36.21875
 20
119.375
  1
30
 40
3.0
 72
     5
 11
-33.03125
 21
119.375
  0
ENDBLK
  0
BLOCK
  2
*DIM_0023
 70
    65
 10
0.0
 20
0.0
  0
LINE
  8
寸法
  6
CONTINUOUS
 10
-18.620085
 20
-73.519863
 11
61.517518
 21
-73.519863
  0
LINE
  8
寸法
  6
CONTINUOUS
 10
-33.619687
 20
86.976568
 11
61.517518
 21
86.976568
  0
LINE
  8
寸法
  6
CONTINUOUS
 10
61.517518
 20
-73.519863
 11
61.517518
 21
86.976568
  0
POINT
  8
寸法
 10
61.517518
 20
-73.519863
  0
POINT
  8
寸法
 10
61.517518
 20
86.976568
  0
TEXT
  7
TextStyle03
  8
寸法
  6
CONTINUOUS
 10
61.125
 20
2.6
  1
160.5
 40
3.0
 50
90.0
 72
     5
 11
61.125
 21
10.85
  0
ENDBLK
  0
BLOCK
  2
*DIM_0024
 70
    65
 10
0.0
 20
0.0
  0
LINE
  8
寸法
  6
CONTINUOUS
 10
-17.620085
 20
-73.519863
 11
55.87215
 21
-73.519863
  0
LINE
  8
寸法
  6
CONTINUOUS
 10
-18.620085
 20
-59.019858
 11
55.87215
 21
-59.019858
  0
LINE
  8
寸法
  6
CONTINUOUS
 10
55.87215
 20
-73.519863
 11
55.87215
 21
-59.019858
  0
POINT
  8
寸法
 10
55.87215
 20
-73.519863
  0
POINT
  8
寸法
 10
55.87215
 20
-59.019858
  0
TEXT
  7
TextStyle03
  8
寸法
  6
CONTINUOUS
 10
55.475
 20
-69.55625
  1
14.5
 40
3.0
 50
90.0
 72
     5
 11
55.475
 21
-62.99375
  0
ENDBLK
  0
BLOCK
  2
*DIM_0025
 70
    65
 10
0.0
 20
0.0
  0
LINE
  8
寸法
  6
CONTINUOUS
 10
-41.120085
 20
6.479023
 11
55.87215
 21
6.479023
  0
LINE
  8
寸法
  6
CONTINUOUS
 10
55.87215
 20
-59.019858
 11
55.87215
 21
6.479023
  0
POINT
  8
寸法
 10
55.87215
 20
6.479023
  0
TEXT
  7
TextStyle03
  8
寸法
  6
CONTINUOUS
 10
55.475
 20
-29.55625
  1
65.5
 40
3.0
 50
90.0
 72
     5
 11
55.475
 21
-22.99375
  0
ENDBLK
  0
BLOCK
  2
*DIM_0026
 70
    65
 10
0.0
 20
0.0
  0
LINE
  8
寸法
  6
CONTINUOUS
 10
-44.120085
 20
13.979023
 11
55.87215
 21
13.979023
  0
LINE
  8
寸法
  6
CONTINUOUS
 10
55.87215
 20
6.479023
 11
55.87215
 21
13.979023
  0
POINT
  8
寸法
 10
55.87215
 20
13.979023
  0
TEXT
  7
TextStyle03
  8
寸法
  6
CONTINUOUS
 10
55.475
 20
7.7875
  1
7.5
 40
3.0
 50
90.0
 72
     5
 11
55.475
 21
12.6625
  0
ENDBLK
  0
BLOCK
  2
*DIM_0027
 70
    65
 10
0.0
 20
0.0
  0
LINE
  8
寸法
  6
CONTINUOUS
 10
-33.619687
 20
64.47902
 11
55.87215
 21
64.47902
  0
LINE
  8
寸法
  6
CONTINUOUS
 10
55.87215
 20
13.979023
 11
55.87215
 21
64.47902
  0
POINT
  8
寸法
 10
55.87215
 20
64.47902
  0
TEXT
  7
TextStyle03
  8
寸法
  6
CONTINUOUS
 10
55.475
 20
35.94375
  1
50.5
 40
3.0
 50
90.0
 72
     5
 11
55.475
 21
42.50625
  0
ENDBLK
  0
BLOCK
  2
*DIM_0028
 70
    65
 10
0.0
 20
0.0
  0
LINE
  8
寸法
  6
CONTINUOUS
 10
28.912455
 20
73.979045
 11
55.87215
 21
73.979045
  0
LINE
  8
寸法
  6
CONTINUOUS
 10
55.87215
 20
64.47902
 11
55.87215
 21
73.979045
  0
POINT
  8
寸法
 10
55.87215
 20
73.979045
  0
TEXT
  7
TextStyle03
  8
寸法
  6
CONTINUOUS
 10
55.475
 20
66.7875
  1
9.5
 40
3.0
 50
90.0
 72
     5
 11
55.475
 21
71.6625
  0
ENDBLK
  0
BLOCK
  2
*DIM_0029
 70
    65
 10
0.0
 20
0.0
  0
LINE
  8
寸法
  6
CONTINUOUS
 10
28.912455
 20
80.779047
 11
55.87215
 21
80.779047
  0
LINE
  8
寸法
  6
CONTINUOUS
 10
55.87215
 20
73.979045
 11
55.87215
 21
80.779047
  0
POINT
  8
寸法
 10
55.87215
 20
80.779047
  0
TEXT
  7
TextStyle03
  8
寸法
  6
CONTINUOUS
 10
55.475
 20
74.9375
  1
6.8
 40
3.0
 50
90.0
 72
     5
 11
55.475
 21
79.8125
  0
ENDBLK
  0
BLOCK
  2
*DIM_0030
 70
    65
 10
0.0
 20
0.0
  0
LINE
  8
寸法
  6
CONTINUOUS
 10
-32.619687
 20
86.976568
 11
55.87215
 21
86.976568
  0
LINE
  8
寸法
  6
CONTINUOUS
 10
55.87215
 20
80.779047
 11
55.87215
 21
86.976568
  0
POINT
  8
寸法
 10
55.87215
 20
86.976568
  0
TEXT
  7
TextStyle03
  8
寸法
  6
CONTINUOUS
 10
55.475
 20
81.4375
  1
6.2
 40
3.0
 50
90.0
 72
     5
 11
55.475
 21
86.3125
  0
ENDBLK
  0
BLOCK
  2
*DIM_0031
 70
    65
 10
0.0
 20
0.0
  0
LINE
  8
寸法
  6
CONTINUOUS
 10
-80.620085
 20
-72.019863
 11
-152.116173
 21
-72.019863
  0
LINE
  8
寸法
  6
CONTINUOUS
 10
-100.619765
 20
92.980137
 11
-152.116173
 21
92.980137
  0
LINE
  8
寸法
  6
CONTINUOUS
 10
-152.116173
 20
-72.019863
 11
-152.116173
 21
92.980137
  0
POINT
  8
寸法
 10
-152.116173
 20
-72.019863
  0
POINT
  8
寸法
 10
-152.116173
 20
92.980137
  0
TEXT
  7
TextStyle03
  8
寸法
  6
CONTINUOUS
 10
-152.5
 20
8.0375
  1
165
 40
3.0
 50
90.0
 72
     5
 11
-152.5
 21
12.9125
  0
ENDBLK
  0
BLOCK
  2
*DIM_0032
 70
    65
 10
0.0
 20
0.0
  0
LINE
  8
寸法
  6
CONTINUOUS
 10
-100.619765
 20
92.980137
 11
-144.45882
 21
92.980137
  0
LINE
  8
寸法
  6
CONTINUOUS
 10
-112.61969
 20
62.980137
 11
-144.45882
 21
62.980137
  0
LINE
  8
寸法
  6
CONTINUOUS
 10
-144.45882
 20
92.980137
 11
-144.45882
 21
62.980137
  0
POINT
  8
寸法
 10
-144.45882
 20
92.980137
  0
POINT
  8
寸法
 10
-144.45882
 20
62.980137
  0
TEXT
  7
TextStyle03
  8
寸法
  6
CONTINUOUS
 10
-144.85
 20
76.38125
  1
30
 40
3.0
 50
90.0
 72
     5
 11
-144.85
 21
79.56875
  0
ENDBLK
  0
BLOCK
  2
*DIM_0033
 70
    65
 10
0.0
 20
0.0
  0
LINE
  8
寸法
  6
CONTINUOUS
 10
-80.620085
 20
5.97902
 11
-144.45882
 21
5.97902
  0
LINE
  8
寸法
  6
CONTINUOUS
 10
-144.45882
 20
62.980137
 11
-144.45882
 21
5.97902
  0
POINT
  8
寸法
 10
-144.45882
 20
5.97902
  0
TEXT
  7
TextStyle03
  8
寸法
  6
CONTINUOUS
 10
-144.85
 20
32.88125
  1
57
 40
3.0
 50
90.0
 72
     5
 11
-144.85
 21
36.06875
  0
ENDBLK
  0
BLOCK
  2
*DIM_0034
 70
    65
 10
0.0
 20
0.0
  0
LINE
  8
寸法
  6
CONTINUOUS
 10
-80.620085
 20
-0.02098
 11
-144.45882
 21
-0.02098
  0
LINE
  8
寸法
  6
CONTINUOUS
 10
-144.45882
 20
5.97902
 11
-144.45882
 21
-0.02098
  0
POINT
  8
寸法
 10
-144.45882
 20
-0.02098
  0
TEXT
  7
TextStyle03
  8
寸法
  6
CONTINUOUS
 10
-144.85
 20
2.225
  1
6
 40
3.0
 50
90.0
 72
     5
 11
-144.85
 21
3.725
  0
ENDBLK
  0
BLOCK
  2
*DIM_0035
 70
    65
 10
0.0
 20
0.0
  0
LINE
  8
寸法
  6
CONTINUOUS
 10
-81.620085
 20
-72.019863
 11
-144.45882
 21
-72.019863
  0
LINE
  8
寸法
  6
CONTINUOUS
 10
-144.45882
 20
-0.02098
 11
-144.45882
 21
-72.019863
  0
POINT
  8
寸法
 10
-144.45882
 20
-72.019863
  0
TEXT
  7
TextStyle03
  8
寸法
  6
CONTINUOUS
 10
-144.85
 20
-37.61875
  1
72
 40
3.0
 50
90.0
 72
     5
 11
-144.85
 21
-34.43125
  0
ENDBLK
  0
BLOCK
  2
*GRP_0036
 70
    65
 10
0.0
 20
0.0
  0
POLYLINE
  8
寸法
  6
CONTINUOUS
 66
     1
  0
VERTEX
  8
寸法
 10
-79.245085
 20
-65.50136
  0
VERTEX
  8
寸法
 10
-86.12031
 20
-58.626135
  0
VERTEX
  8
寸法
 10
-90.838875
 20
-58.626135
  0
SEQEND
  0
ENDBLK
  0
BLOCK
  2
*GRP_0037
 70
    65
 10
0.0
 20
0.0
  0
POLYLINE
  8
寸法
  6
BYBLOCK
 62
     0
 66
     1
  0
VERTEX
  8
寸法
 10
-78.327715
 20
-94.75718
  0
VERTEX
  8
寸法
 10
-81.670965
 20
-98.100428
  0
VERTEX
  8
寸法
 10
-92.202333
 20
-98.100428
  0
SEQEND
  0
ENDBLK
  0
BLOCK
  2
*GRP_0038
 70
    65
 10
0.0
 20
0.0
  0
POLYLINE
  8
寸法
  6
CONTINUOUS
 66
     1
  0
VERTEX
  8
寸法
 10
-38.1085
 20
109.159973
  0
VERTEX
  8
寸法
 10
-43.23157
 20
114.283043
  0
VERTEX
  8
寸法
 10
-73.45085
 20
114.283043
  0
VERTEX
  8
寸法
 10
-72.28508
 20
114.283043
  0
SEQEND
  0
ENDBLK
  0
BLOCK
  2
*GRP_0039
 70
    65
 10
0.0
 20
0.0
  0
POLYLINE
  8
寸法
  6
CONTINUOUS
 66
     1
  0
VERTEX
  8
寸法
 10
-82.620085
 20
13.434212
  0
VERTEX
  8
寸法
 10
-95.338468
 20
26.152595
  0
VERTEX
  8
寸法
 10
-98.351883
 20
26.152595
  0
SEQEND
  0
ENDBLK
  0
BLOCK
  2
*GRP_0040
 70
    65
 10
0.0
 20
0.0
  0
INSERT
  2
*GRP_0044
  8
補助線
  6
CONTINUOUS
 10
0.0
 20
0.0
  0
CIRCLE
  8
別途部材
  6
CONTINUOUS
 10
-85.620085
 20
2.97902
 40
6.0
  0
CIRCLE
  8
別途部材
  6
CONTINUOUS
 10
-85.620085
 20
2.97902
 40
3.0
  0
LINE
  8
別途部材
  6
CONTINUOUS
 10
-82.620085
 20
44.97902
 11
-79.620085
 21
44.97902
  0
LINE
  8
別途部材
  6
CONTINUOUS
 10
-79.620085
 20
2.97902
 11
-79.620085
 21
44.97902
  0
LINE
  8
別途部材
  6
CONTINUOUS
 10
-82.620085
 20
44.97902
 11
-82.620085
 21
8.17517
  0
LINE
  8
別途部材
  6
CONTINUOUS
 10
-82.620085
 20
-39.02098
 11
-79.620085
 21
-39.02098
  0
LINE
  8
別途部材
  6
CONTINUOUS
 10
-79.620085
 20
2.97902
 11
-79.620085
 21
-39.02098
  0
LINE
  8
別途部材
  6
CONTINUOUS
 10
-82.620085
 20
-39.02098
 11
-82.620085
 21
-2.21713
  0
LINE
  8
別途部材
  6
CONTINUOUS
 10
-82.620085
 20
36.979047
 11
-79.620085
 21
36.979047
  0
LINE
  8
別途部材
  6
CONTINUOUS
 10
-82.620085
 20
28.979045
 11
-79.620085
 21
28.979045
  0
LINE
  8
別途部材
  6
CONTINUOUS
 10
-82.620085
 20
20.97902
 11
-79.620085
 21
20.97902
  0
LINE
  8
別途部材
  6
CONTINUOUS
 10
-82.620085
 20
-31.020955
 11
-79.620085
 21
-31.020955
  0
LINE
  8
別途部材
  6
CONTINUOUS
 10
-82.620085
 20
-23.020953
 11
-79.620085
 21
-23.020953
  0
LINE
  8
別途部材
  6
CONTINUOUS
 10
-82.620085
 20
-15.02098
 11
-79.620085
 21
-15.02098
  0
ENDBLK
  0
BLOCK
  2
*GRP_0041
 70
    65
 10
0.0
 20
0.0
  0
LINE
  8
St
  6
CONTINUOUS
 10
-79.570187
 20
-73.519863
 11
-39.57019
 21
-73.519863
  0
LINE
  8
St
  6
CONTINUOUS
 10
-79.570187
 20
-73.519863
 11
-79.570187
 21
-103.519863
  0
LINE
  8
St
  6
CONTINUOUS
 10
-79.529493
 20
-76.719865
 11
-39.57019
 21
-76.719865
  0
LINE
  8
St
  6
CONTINUOUS
 10
-45.92824
 20
-73.519863
 11
-49.128243
 21
-76.719865
  0
LINE
  8
St
  6
CONTINUOUS
 10
-46.63534
 20
-73.519863
 11
-49.835343
 21
-76.719865
  0
LINE
  8
St
  6
CONTINUOUS
 10
-72.173935
 20
-73.519863
 11
-75.373953
 21
-76.719865
  0
LINE
  8
St
  6
CONTINUOUS
 10
-72.881035
 20
-73.519863
 11
-76.081052
 21
-76.719865
  0
LINE
  8
St
  6
CONTINUOUS
 10
-39.57019
 20
-73.519863
 11
-39.57019
 21
-103.519863
  0
LINE
  8
St
  6
CONTINUOUS
 10
-79.570187
 20
-103.519863
 11
-39.57019
 21
-103.519863
  0
ENDBLK
  0
BLOCK
  2
*GRP_0042
 70
    65
 10
0.0
 20
0.0
  0
LINE
  8
St
  6
CONTINUOUS
 10
-63.120085
 20
-2.520985
 11
-63.120085
 21
-5.720987
  0
LINE
  8
St
  6
CONTINUOUS
 10
-63.120085
 20
-5.720987
 11
-74.920082
 21
-5.720987
  0
LINE
  8
St
  6
CONTINUOUS
 10
-74.920082
 20
-2.520985
 11
-63.120085
 21
-2.520985
  0
ARC
  8
St
  6
CONTINUOUS
 10
-74.920083
 20
-5.720988
 40
3.2
 50
90.0
 51
180.0
  0
LINE
  8
St
  6
CONTINUOUS
 10
-78.120085
 20
-5.720987
 11
-78.120085
 21
-67.31986
  0
ARC
  8
St
  6
CONTINUOUS
 10
-74.920083
 20
-67.319866
 40
3.2
 50
180.0
 51
270.0
  0
LINE
  8
St
  6
CONTINUOUS
 10
-74.920082
 20
-5.720987
 11
-74.920082
 21
-67.31986
  0
LINE
  8
St
  6
CONTINUOUS
 10
-74.920082
 20
-67.31986
 11
-63.120085
 21
-67.31986
  0
LINE
  8
St
  6
CONTINUOUS
 10
-63.120085
 20
-67.31986
 11
-63.120085
 21
-70.519863
  0
LINE
  8
St
  6
CONTINUOUS
 10
-74.920082
 20
-70.519863
 11
-63.120085
 21
-70.519863
  0
LINE
  8
St
  6
CONTINUOUS
 10
-74.920082
 20
-23.532445
 11
-78.120085
 21
-20.332442
  0
LINE
  8
St
  6
CONTINUOUS
 10
-74.920082
 20
-24.239545
 11
-78.120085
 21
-21.039542
  0
LINE
  8
St
  6
CONTINUOUS
 10
-74.920082
 20
-58.529283
 11
-78.120085
 21
-55.32928
  0
LINE
  8
St
  6
CONTINUOUS
 10
-74.920082
 20
-59.236383
 11
-78.120085
 21
-56.03638
  0
LINE
  8
St
  6
CONTINUOUS
 10
-66.923867
 20
-5.720987
 11
-70.12387
 21
-2.520985
  0
LINE
  8
St
  6
CONTINUOUS
 10
-67.630968
 20
-5.720987
 11
-70.83097
 21
-2.520985
  0
LINE
  8
St
  6
CONTINUOUS
 10
-66.923867
 20
-70.519863
 11
-70.12387
 21
-67.31986
  0
LINE
  8
St
  6
CONTINUOUS
 10
-67.630968
 20
-70.519863
 11
-70.83097
 21
-67.31986
  0
ENDBLK
  0
BLOCK
  2
*GRP_0043
 70
    65
 10
0.0
 20
0.0
  0
LINE
  8
St
  6
CONTINUOUS
 10
-63.120085
 20
7.47902
 11
-63.120085
 21
10.679023
  0
LINE
  8
St
  6
CONTINUOUS
 10
-63.120085
 20
10.679023
 11
-74.920082
 21
10.679023
  0
LINE
  8
St
  6
CONTINUOUS
 10
-74.920082
 20
7.47902
 11
-63.120085
 21
7.47902
  0
ARC
  8
St
  6
CONTINUOUS
 10
-74.920083
 20
10.679017
 40
3.2
 50
180.0
 51
270.0
  0
LINE
  8
St
  6
CONTINUOUS
 10
-78.120085
 20
10.679023
 11
-78.120085
 21
81.27656
  0
ARC
  8
St
  6
CONTINUOUS
 10
-74.920083
 20
81.276559
 40
3.2
 50
90.0
 51
180.0
  0
LINE
  8
St
  6
CONTINUOUS
 10
-74.920082
 20
10.679023
 11
-74.920082
 21
81.27656
  0
LINE
  8
St
  6
CONTINUOUS
 10
-74.920082
 20
81.27656
 11
-63.120085
 21
81.27656
  0
LINE
  8
St
  6
CONTINUOUS
 10
-63.120085
 20
81.27656
 11
-63.120085
 21
84.476563
  0
LINE
  8
St
  6
CONTINUOUS
 10
-74.920082
 20
84.476563
 11
-63.120085
 21
84.476563
  0
LINE
  8
St
  6
CONTINUOUS
 10
-74.920082
 20
28.49048
 11
-78.120085
 21
25.290478
  0
LINE
  8
St
  6
CONTINUOUS
 10
-74.920082
 20
29.19758
 11
-78.120085
 21
25.997578
  0
LINE
  8
St
  6
CONTINUOUS
 10
-74.920082
 20
63.487318
 11
-78.120085
 21
60.287315
  0
LINE
  8
St
  6
CONTINUOUS
 10
-74.920082
 20
64.194418
 11
-78.120085
 21
60.994415
  0
LINE
  8
St
  6
CONTINUOUS
 10
-66.923867
 20
10.679023
 11
-70.12387
 21
7.47902
  0
LINE
  8
St
  6
CONTINUOUS
 10
-67.630968
 20
10.679023
 11
-70.83097
 21
7.47902
  0
LINE
  8
St
  6
CONTINUOUS
 10
-66.923867
 20
84.476563
 11
-70.12387
 21
81.27656
  0
LINE
  8
St
  6
CONTINUOUS
 10
-67.630968
 20
84.476563
 11
-70.83097
 21
81.27656
  0
ENDBLK
  0
BLOCK
  2
*GRP_0044
 70
    65
 10
0.0
 20
0.0
  0
LINE
  8
補助線
  6
BYBLOCK
 62
     0
 10
-80.62006
 20
2.97902
 11
-90.620088
 21
2.97902
  0
LINE
  8
補助線
  6
BYBLOCK
 62
     0
 10
-85.620085
 20
7.979045
 11
-85.620085
 21
-2.020953
  0
ENDBLK
  0
BLOCK
  2
*GRP_0045
 70
    65
 10
0.0
 20
0.0
  0
LINE
  8
型材断面
  6
DOT
 10
-59.62009
 20
86.976568
 11
-59.62009
 21
85.476568
  0
LINE
  8
型材断面
  6
DOT
 10
-34.619687
 20
86.976568
 11
-34.619687
 21
85.476568
  0
LINE
  8
型材断面
  6
DOT
 10
-34.619687
 20
86.976568
 11
-59.62009
 21
86.976568
  0
LINE
  8
型材断面
  6
DOT
 10
-34.619687
 20
85.476568
 11
-59.62009
 21
85.476568
  0
ENDBLK
  0
BLOCK
  2
*GRP_0046
 70
    65
 10
0.0
 20
0.0
  0
INSERT
  2
*GRP_0048
  8
ゴム等
  6
DOT
 10
0.0
 20
0.0
  0
LINE
  8
ゴム等
  6
DOT
 10
-44.619662
 20
85.476568
 11
-39.921985
 21
80.779047
  0
LINE
  8
ゴム等
  6
DOT
 10
-44.164585
 20
80.779047
 11
-44.619662
 21
81.234095
  0
LINE
  8
ゴム等
  6
DOT
 10
-42.750385
 20
80.779047
 11
-44.619662
 21
82.648243
  0
LINE
  8
ゴム等
  6
DOT
 10
-41.336185
 20
80.779047
 11
-44.619662
 21
84.06242
  0
LINE
  8
ゴム等
  6
DOT
 10
-38.507785
 20
80.779047
 11
-43.205462
 21
85.476568
  0
LINE
  8
ゴム等
  6
DOT
 10
-37.093585
 20
80.779047
 11
-41.79124
 21
85.476568
  0
LINE
  8
ゴム等
  6
DOT
 10
-35.679385
 20
80.779047
 11
-40.37704
 21
85.476568
  0
LINE
  8
ゴム等
  6
DOT
 10
-34.619687
 20
81.133648
 11
-38.962735
 21
85.476568
  0
LINE
  8
ゴム等
  6
DOT
 10
-34.619687
 20
82.547818
 11
-37.548535
 21
85.476568
  0
LINE
  8
ゴム等
  6
DOT
 10
-34.619687
 20
83.961973
 11
-36.134335
 21
85.476568
  0
ENDBLK
  0
BLOCK
  2
*GRP_0047
 70
    65
 10
0.0
 20
0.0
  0
LINE
  8
ボルト／ビス
  6
DOT
 62
    64
 10
-56.620082
 20
85.176568
 11
-52.620085
 21
85.176568
  0
LINE
  8
ボルト／ビス
  6
DOT
 62
    64
 10
-56.620082
 20
79.476568
 11
-56.120088
 21
78.976557
  0
LINE
  8
ボルト／ビス
  6
DOT
 62
    64
 10
-52.620085
 20
79.476568
 11
-53.120088
 21
78.976557
  0
LINE
  8
ボルト／ビス
  6
DOT
 62
    64
 10
-56.120088
 20
78.976557
 11
-53.120088
 21
78.976557
  0
LINE
  8
ボルト／ビス
  6
DOT
 62
    64
 10
-56.620082
 20
79.476568
 11
-52.620085
 21
79.476568
  0
LINE
  8
ボルト／ビス
  6
DOT
 62
    64
 10
-56.120088
 20
85.176568
 11
-56.120088
 21
78.976557
  0
LINE
  8
ボルト／ビス
  6
DOT
 62
    64
 10
-53.120088
 20
85.176568
 11
-53.120088
 21
78.976557
  0
LINE
  8
ボルト／ビス
  6
DOT
 62
    64
 10
-52.620085
 20
85.176568
 11
-52.620085
 21
79.476568
  0
LINE
  8
ボルト／ビス
  6
DOT
 62
    64
 10
-56.620082
 20
85.176568
 11
-56.620082
 21
79.476568
  0
LINE
  8
ボルト／ビス
  6
DOT
 62
    64
 10
-54.620088
 20
89.976568
 11
-54.620088
 21
75.976557
  0
LINE
  8
ボルト／ビス
  6
DOT
 62
    64
 10
-57.620088
 20
86.976568
 11
-56.620082
 21
85.176568
  0
LINE
  8
ボルト／ビス
  6
DOT
 62
    64
 10
-57.620088
 20
86.976568
 11
-51.620088
 21
86.976568
  0
LINE
  8
ボルト／ビス
  6
DOT
 62
    64
 10
-51.620088
 20
86.976568
 11
-52.620085
 21
85.176568
  0
ENDBLK
  0
BLOCK
  2
*GRP_0048
 70
    65
 10
0.0
 20
0.0
  0
LINE
  8
ゴム等
  6
DOT
 10
-44.619662
 20
85.476568
 11
-44.619662
 21
80.779047
  0
LINE
  8
ゴム等
  6
DOT
 10
-34.619687
 20
85.476568
 11
-34.619687
 21
80.779047
  0
LINE
  8
ゴム等
  6
DOT
 10
-34.619687
 20
85.476568
 11
-44.619662
 21
85.476568
  0
LINE
  8
ゴム等
  6
DOT
 10
-34.619687
 20
80.779047
 11
-44.619662
 21
80.779047
  0
ENDBLK
  0
BLOCK
  2
*GRP_0049
 70
    65
 10
0.0
 20
0.0
  0
ARC
  8
型材断面
  6
CONTINUOUS
 10
-62.62009
 20
85.476568
 40
1.5
 50
0.0
 51
90.0
  0
LINE
  8
型材断面
  6
CONTINUOUS
 62
    47
 10
-78.120085
 20
86.976568
 11
-62.62009
 21
86.976568
  0
ARC
  8
型材断面
  6
CONTINUOUS
 10
-78.120085
 20
85.476568
 40
1.5
 50
90.0
 51
180.0
  0
LINE
  8
型材断面
  6
CONTINUOUS
 62
    47
 10
-78.120085
 20
85.476568
 11
-62.62009
 21
85.476568
  0
LINE
  8
型材断面
  6
CONTINUOUS
 62
    47
 10
-78.120085
 20
85.476568
 11
-78.120085
 21
7.47902
  0
LINE
  8
型材断面
  6
CONTINUOUS
 62
    47
 10
-79.620085
 20
85.476568
 11
-79.620085
 21
7.47902
  0
ARC
  8
型材断面
  6
CONTINUOUS
 10
-78.120085
 20
7.479023
 40
1.5
 50
180.0
 51
270.0
  0
LINE
  8
型材断面
  6
CONTINUOUS
 62
    47
 10
-46.620085
 20
7.47902
 11
-78.120085
 21
7.47902
  0
ARC
  8
型材断面
  6
CONTINUOUS
 10
-46.620085
 20
7.479023
 40
1.5
 50
270.0
 51
360.0
  0
LINE
  8
型材断面
  6
CONTINUOUS
 62
    47
 10
-46.620085
 20
5.97902
 11
-78.120085
 21
5.97902
  0
LINE
  8
型材断面
  6
CONTINUOUS
 62
    47
 10
-46.620085
 20
7.47902
 11
-46.620085
 21
13.979023
  0
LINE
  8
型材断面
  6
CONTINUOUS
 10
-46.620085
 20
13.979023
 11
-45.120085
 21
13.979023
  0
LINE
  8
型材断面
  6
CONTINUOUS
 62
    47
 10
-45.120085
 20
7.47902
 11
-45.120085
 21
13.979023
  0
LINE
  8
型材断面
  6
DOT
 10
-78.120085
 20
7.47902
 11
-79.620085
 21
7.47902
  0
LINE
  8
型材断面
  6
DOT
 10
-78.120085
 20
15.479023
 11
-79.620085
 21
15.479023
  0
LINE
  8
型材断面
  6
DOT
 10
-78.495085
 20
7.47902
 11
-78.495085
 21
15.479023
  0
LINE
  8
型材断面
  6
DOT
 10
-78.870085
 20
7.47902
 11
-78.870085
 21
15.479023
  0
LINE
  8
型材断面
  6
DOT
 10
-79.245085
 20
7.47902
 11
-79.245085
 21
15.479023
  0
LINE
  8
型材断面
  6
CONTINUOUS
 10
-61.12009
 20
85.476568
 11
-61.12009
 21
71.976568
  0
LINE
  8
型材断面
  6
CONTINUOUS
 62
    47
 10
-62.62009
 20
85.476568
 11
-62.62009
 21
71.976568
  0
LINE
  8
型材断面
  6
CONTINUOUS
 10
-61.12009
 20
71.976568
 11
-62.62009
 21
71.976568
  0
ENDBLK
  0
BLOCK
  2
*GRP_0050
 70
    65
 10
0.0
 20
0.0
  0
LINE
  8
型材断面
  6
CONTINUOUS
 10
-34.619687
 20
72.479045
 11
-36.119687
 21
72.479045
  0
LINE
  8
型材断面
  6
CONTINUOUS
 10
-36.119687
 20
72.479045
 11
-36.119687
 21
65.97902
  0
LINE
  8
型材断面
  6
CONTINUOUS
 10
-34.619687
 20
72.479045
 11
-34.619687
 21
65.97902
  0
ARC
  8
型材断面
  6
CONTINUOUS
 10
-36.119684
 20
65.979023
 40
1.5
 50
270.0
 51
360.0
  0
LINE
  8
型材断面
  6
CONTINUOUS
 10
-36.119687
 20
65.97902
 11
-59.62009
 21
65.97902
  0
LINE
  8
型材断面
  6
CONTINUOUS
 62
    47
 10
-36.119687
 20
64.47902
 11
-59.62009
 21
64.47902
  0
ARC
  8
型材断面
  6
CONTINUOUS
 10
-59.62009
 20
65.979023
 40
1.5
 50
180.0
 51
270.0
  0
LINE
  8
型材断面
  6
CONTINUOUS
 10
-61.12009
 20
65.97902
 11
-61.12009
 21
80.476565
  0
LINE
  8
型材断面
  6
CONTINUOUS
 10
-59.62009
 20
65.97902
 11
-59.62009
 21
80.476565
  0
LINE
  8
型材断面
  6
CONTINUOUS
 10
-59.62009
 20
80.476565
 11
-61.12009
 21
80.476565
  0
ENDBLK
  0
BLOCK
  2
*GRP_0051
 70
    65
 10
0.0
 20
0.0
  0
LINE
  8
型材断面
  6
DOT
 10
-58.12009
 20
83.976568
 11
-58.12009
 21
70.476568
  0
LINE
  8
型材断面
  6
DOT
 10
-58.12009
 20
70.476568
 11
-59.62009
 21
70.476568
  0
LINE
  8
型材断面
  6
DOT
 10
-58.12009
 20
83.976568
 11
-49.620093
 21
83.976568
  0
LINE
  8
型材断面
  6
DOT
 10
-49.620093
 20
83.976568
 11
-49.620093
 21
85.476568
  0
LINE
  8
型材断面
  6
DOT
 10
-58.12009
 20
85.476568
 11
-49.620093
 21
85.476568
  0
LINE
  8
型材断面
  6
DOT
 10
-59.62009
 20
83.976568
 11
-59.62009
 21
70.476568
  0
ARC
  8
型材断面
  6
DOT
 10
-58.120089
 20
83.976562
 40
1.5
 50
90.0
 51
180.0
  0
ENDBLK
  0
BLOCK
  2
*GRP_0052
 70
    65
 10
0.0
 20
0.0
  0
LINE
  8
ボルト／ビス
  6
CONTINUOUS
 62
    64
 10
-59.92009
 20
73.476568
 11
-59.92009
 21
77.476565
  0
LINE
  8
ボルト／ビス
  6
CONTINUOUS
 62
    64
 10
-67.620093
 20
73.476568
 11
-68.120088
 21
73.976563
  0
LINE
  8
ボルト／ビス
  6
CONTINUOUS
 62
    64
 10
-67.620093
 20
77.476565
 11
-68.120088
 21
76.976563
  0
LINE
  8
ボルト／ビス
  6
CONTINUOUS
 62
    64
 10
-68.120088
 20
73.976563
 11
-68.120088
 21
76.976563
  0
LINE
  8
ボルト／ビス
  6
CONTINUOUS
 62
    64
 10
-67.620093
 20
73.476568
 11
-67.620093
 21
77.476565
  0
LINE
  8
ボルト／ビス
  6
CONTINUOUS
 62
    64
 10
-59.92009
 20
76.976563
 11
-68.120088
 21
76.976563
  0
LINE
  8
ボルト／ビス
  6
CONTINUOUS
 62
    64
 10
-59.92009
 20
73.976563
 11
-68.120088
 21
73.976563
  0
LINE
  8
ボルト／ビス
  6
CONTINUOUS
 62
    64
 10
-59.92009
 20
73.476568
 11
-67.620093
 21
73.476568
  0
LINE
  8
ボルト／ビス
  6
CONTINUOUS
 62
    64
 10
-59.92009
 20
77.476565
 11
-67.620093
 21
77.476565
  0
LINE
  8
ボルト／ビス
  6
DASHDOT
 62
    64
 10
-55.12009
 20
75.476563
 11
-71.120088
 21
75.476563
  0
LINE
  8
ボルト／ビス
  6
DOT
 62
    64
 10
-58.12009
 20
72.476563
 11
-59.92009
 21
73.476568
  0
LINE
  8
ボルト／ビス
  6
DOT
 62
    64
 10
-58.12009
 20
72.476563
 11
-58.12009
 21
78.476563
  0
LINE
  8
ボルト／ビス
  6
DOT
 62
    64
 10
-58.12009
 20
78.476563
 11
-59.92009
 21
77.476565
  0
ENDBLK
  0
BLOCK
  2
*GRP_0053
 70
    65
 10
0.0
 20
0.0
  0
LINE
  8
ゴム等
  6
DOT
 10
-56.62009
 20
72.979025
 11
-59.62009
 21
72.979025
  0
LINE
  8
ゴム等
  6
DOT
 10
-59.62009
 20
65.97902
 11
-49.620093
 21
65.97902
  0
LINE
  8
ゴム等
  6
DOT
 10
-49.620093
 20
65.97902
 11
-49.620093
 21
85.979023
  0
LINE
  8
ゴム等
  6
DOT
 10
-56.62009
 20
72.979025
 11
-56.62009
 21
85.979023
  0
LINE
  8
ゴム等
  6
DOT
 10
-49.620093
 20
65.97902
 11
-56.62009
 21
79.979023
  0
LINE
  8
ゴム等
  6
DOT
 10
-49.620093
 20
85.979023
 11
-56.62009
 21
85.979023
  0
LINE
  8
ゴム等
  6
DOT
 10
-59.62009
 20
65.97902
 11
-59.62009
 21
72.979025
  0
ENDBLK
  0
ENDSEC
  0
SECTION
  2
ENTITIES
  0
POLYLINE
  8
通り芯
  6
CONTINUOUS
 66
     1
 70
     1
  0
VERTEX
  8
通り芯
 10
-210.0
 20
-148.5
  0
VERTEX
  8
通り芯
 10
210.0
 20
-148.5
  0
VERTEX
  8
通り芯
 10
210.0
 20
148.5
  0
VERTEX
  8
通り芯
 10
-210.0
 20
148.5
  0
SEQEND
  0
INSERT
  2
*GRP_0001
  8
型材断面
  6
CONTINUOUS
 10
0.0
 20
0.0
  0
INSERT
  2
*GRP_0002
  8
型材断面
  6
CONTINUOUS
 10
0.0
 20
0.0
  0
ARC
  8
型材断面
  6
CONTINUOUS
 10
-78.120078
 20
-72.01987
 40
1.675118
 50
146.056732
 51
180.725203
  0
ARC
  8
型材断面
  6
CONTINUOUS
 10
-78.120078
 20
-72.01987
 40
2.12133
 50
134.999838
 51
182.029989
  0
LINE
  8
型材断面
  6
CONTINUOUS
 10
-19.620085
 20
-59.019858
 11
-21.120085
 21
-59.019858
  0
LINE
  8
型材断面
  6
CONTINUOUS
 10
-21.120085
 20
-59.019858
 11
-21.120085
 21
-72.019863
  0
LINE
  8
型材断面
  6
CONTINUOUS
 10
-19.620085
 20
-59.019858
 11
-19.620085
 21
-72.019863
  0
ARC
  8
型材断面
  6
CONTINUOUS
 10
-21.120088
 20
-72.019865
 40
1.5
 50
270.0
 51
360.0
  0
LINE
  8
型材断面
  6
CONTINUOUS
 10
-21.120085
 20
-72.019863
 11
-79.620085
 21
-72.019863
  0
LINE
  8
型材断面
  6
CONTINUOUS
 10
-21.120085
 20
-73.519863
 11
-79.529493
 21
-73.519863
  0
LINE
  8
型材断面
  6
CONTINUOUS
 10
-79.620085
 20
-72.019863
 11
-152.116173
 21
-80.80727
  0
LINE
  8
型材断面
  6
CONTINUOUS
 10
-79.529493
 20
-73.519863
 11
-152.116173
 21
-82.318253
  0
LINE
  8
型材断面
  6
CONTINUOUS
 10
57.585407
 20
126.090603
 11
46.895585
 21
129.610782
  0
LINE
  8
型材断面
  6
CONTINUOUS
 10
46.895585
 20
129.610782
 11
46.895585
 21
126.090603
  0
LINE
  8
型材断面
  6
CONTINUOUS
 10
53.631892
 20
126.090603
 11
42.94207
 21
129.610782
  0
LINE
  8
型材断面
  6
CONTINUOUS
 10
42.94207
 20
129.610782
 11
42.94207
 21
126.090603
  0
LINE
  8
型材断面
  6
CONTINUOUS
 10
57.585407
 20
119.0135
 11
46.895585
 21
122.53368
  0
LINE
  8
型材断面
  6
CONTINUOUS
 10
46.895585
 20
122.53368
 11
46.895585
 21
119.0135
  0
LINE
  8
型材断面
  6
CONTINUOUS
 10
53.631892
 20
119.0135
 11
42.94207
 21
122.53368
  0
LINE
  8
型材断面
  6
CONTINUOUS
 10
42.94207
 20
122.53368
 11
42.94207
 21
119.0135
  0
LINE
  8
型材断面
  6
CONTINUOUS
 10
-149.554475
 20
126.090603
 11
-138.864653
 21
129.610782
  0
LINE
  8
型材断面
  6
CONTINUOUS
 10
-138.864653
 20
129.610782
 11
-138.864653
 21
126.090603
  0
LINE
  8
型材断面
  6
CONTINUOUS
 10
-145.60096
 20
126.090603
 11
-134.911138
 21
129.610782
  0
LINE
  8
型材断面
  6
CONTINUOUS
 10
-134.911138
 20
129.610782
 11
-134.911138
 21
126.090603
  0
INSERT
  2
*GRP_0045
  8
型材断面
  6
DOT
 10
0.0
 20
0.0
  0
INSERT
  2
*GRP_0049
  8
型材断面
  6
CONTINUOUS
 10
0.0
 20
0.0
  0
INSERT
  2
*GRP_0050
  8
型材断面
  6
CONTINUOUS
 10
0.0
 20
0.0
  0
LINE
  8
型材断面
  6
DOT
 10
-59.62009
 20
65.97902
 11
-59.62009
 21
64.47902
  0
LINE
  8
型材断面
  6
DOT
 10
-51.620088
 20
65.97902
 11
-51.620088
 21
64.47902
  0
LINE
  8
型材断面
  6
DOT
 10
-59.62009
 20
65.60402
 11
-51.620088
 21
65.60402
  0
LINE
  8
型材断面
  6
DOT
 10
-59.62009
 20
65.22902
 11
-51.620088
 21
65.22902
  0
LINE
  8
型材断面
  6
DOT
 10
-59.62009
 20
64.85402
 11
-51.620088
 21
64.85402
  0
INSERT
  2
*GRP_0051
  8
型材断面
  6
DOT
 10
0.0
 20
0.0
  0
LINE
  8
ガラス
  6
CONTINUOUS
 10
-49.620265
 20
73.979045
 11
-49.620265
 21
80.779047
  0
LINE
  8
ガラス
  6
CONTINUOUS
 10
-49.620265
 20
80.779047
 11
27.912455
 21
80.779047
  0
LINE
  8
ガラス
  6
CONTINUOUS
 10
-49.620265
 20
73.979045
 11
27.912455
 21
73.979045
  0
LINE
  8
ガラス
  6
CONTINUOUS
 10
-49.620265
 20
80.279045
 11
27.912455
 21
80.279045
  0
LINE
  8
ガラス
  6
CONTINUOUS
 10
-49.620265
 20
74.479047
 11
27.912455
 21
74.479047
  0
INSERT
  2
*GRP_0003
  8
ゴム等
  6
CONTINUOUS
 10
0.0
 20
0.0
  0
INSERT
  2
*GRP_0004
  8
ゴム等
  6
CONTINUOUS
 10
0.0
 20
0.0
  0
INSERT
  2
*GRP_0005
  8
ゴム等
  6
CONTINUOUS
 10
0.0
 20
0.0
  0
INSERT
  2
*GRP_0006
  8
ゴム等
  6
DOT
 10
0.0
 20
0.0
  0
INSERT
  2
*GRP_0007
  8
ゴム等
  6
DOT
 10
0.0
 20
0.0
  0
INSERT
  2
*GRP_0046
  8
ゴム等
  6
DOT
 10
0.0
 20
0.0
  0
INSERT
  2
*GRP_0053
  8
ゴム等
  6
DOT
 10
0.0
 20
0.0
  0
INSERT
  2
*GRP_0008
  8
ボルト／ビス
  6
CONTINUOUS
 10
0.0
 20
0.0
  0
INSERT
  2
*GRP_0009
  8
ボルト／ビス
  6
CONTINUOUS
 10
0.0
 20
0.0
  0
INSERT
  2
*GRP_0010
  8
ボルト／ビス
  6
CONTINUOUS
 10
0.0
 20
0.0
  0
INSERT
  2
*GRP_0011
  8
ボルト／ビス
  6
CONTINUOUS
 10
0.0
 20
0.0
  0
INSERT
  2
*GRP_0012
  8
ボルト／ビス
  6
CONTINUOUS
 10
0.0
 20
0.0
  0
INSERT
  2
*GRP_0013
  8
ボルト／ビス
  6
CONTINUOUS
 10
0.0
 20
0.0
  0
INSERT
  2
*GRP_0014
  8
ボルト／ビス
  6
CONTINUOUS
 10
0.0
 20
0.0
  0
INSERT
  2
*GRP_0015
  8
ボルト／ビス
  6
CONTINUOUS
 10
0.0
 20
0.0
  0
INSERT
  2
*GRP_0016
  8
ボルト／ビス
  6
CONTINUOUS
 10
0.0
 20
0.0
  0
INSERT
  2
*GRP_0017
  8
ボルト／ビス
  6
CONTINUOUS
 10
0.0
 20
0.0
  0
INSERT
  2
*GRP_0018
  8
ボルト／ビス
  6
CONTINUOUS
 10
0.0
 20
0.0
  0
INSERT
  2
*GRP_0047
  8
ボルト／ビス
  6
DOT
 10
0.0
 20
0.0
  0
INSERT
  2
*GRP_0052
  8
ボルト／ビス
  6
CONTINUOUS
 10
0.0
 20
0.0
  0
TEXT
  7
TextStyle03
  8
文字
  6
CONTINUOUS
 10
-125.125
 20
127.0
  1
※
 40
4.0
 72
     5
 11
-121.125
 21
127.0
  0
TEXT
  7
TextStyle03
  8
文字
  6
CONTINUOUS
 10
-129.25
 20
121.55
  1
物件対応
 40
3.0
 72
     5
 11
-116.125
 21
121.55
  0
TEXT
  7
TextStyle03
  8
文字
  6
CONTINUOUS
 10
-6.45
 20
127.0
  1
ドーム呼称寸法
 40
3.0
 72
     5
 11
16.8
 21
127.0
  0
TEXT
  7
TextStyle03
  8
文字
  6
CONTINUOUS
 10
0.25
 20
119.75
  1
有効開口
 40
3.0
 72
     5
 11
13.375
 21
119.75
  0
TEXT
  7
TextStyle03
  8
文字
  6
CONTINUOUS
 10
-118.5
 20
-59.925
  1
排水穴　LH-8×16
 40
3.0
 72
     5
 11
-91.6875
 21
-59.925
  0
TEXT
  7
TextStyle03
  8
文字
  6
CONTINUOUS
 10
-118.525
 20
-99.85
  1
L-30×30×3　St
 40
3.0
 72
     5
 11
-93.4
 21
-99.85
  0
TEXT
  7
TextStyle03
  8
文字
  6
CONTINUOUS
 10
-95.1
 20
114.875
  1
アクリルドーム
 40
3.0
 72
     5
 11
-71.85
 21
114.875
  0
TEXT
  7
TextStyle03
  8
文字
  6
CONTINUOUS
 10
-95.1
 20
111.5
  1
ポリカドーム
 40
3.0
 72
     5
 11
-75.225
 21
111.5
  0
TEXT
  7
TextStyle03
  8
文字
  6
CONTINUOUS
 10
-117.075
 20
24.875
  1
丁番（SUS）
 40
3.0
 72
     5
 11
-98.8875
 21
24.875
  0
TEXT
  7
TextStyle03
  8
文字
  6
CONTINUOUS
 10
75.25
 20
97.8
  1
シリーズ：ＳＴＤＨＬ
 40
5.0
 72
     5
 11
130.875
 21
97.8
  0
TEXT
  7
TextStyle03
  8
文字
  6
CONTINUOUS
 10
75.25
 20
92.175
  1
　　　　　（片側開閉）　
 40
5.0
 72
     5
 11
142.125
 21
92.175
  0
TEXT
  7
TextStyle03
  8
文字
  6
CONTINUOUS
 10
75.25
 20
86.55
  1
図面名　：下枠断面詳細図（蝶番側)
 40
5.0
 72
     5
 11
167.75
 21
86.55
  0
TEXT
  7
TextStyle03
  8
文字
  6
CONTINUOUS
 10
74.675
 20
76.25
  1
ＮＳコード：ＮＳＨＳＬ
 40
5.0
 72
     5
 11
135.925
 21
76.25
  0
POLYLINE
  8
寸法
  6
CONTINUOUS
 66
     1
  0
VERTEX
  8
寸法
 10
-49.61974
 20
92.980137
  0
VERTEX
  8
寸法
 10
-49.61974
 20
126.090603
  0
VERTEX
  8
寸法
 10
57.585407
 20
126.090603
  0
SEQEND
  0
INSERT
  2
*DIM_0019
  8
寸法
  6
CONTINUOUS
 10
0.0
 20
0.0
  0
INSERT
  2
*DIM_0020
  8
寸法
  6
CONTINUOUS
 10
0.0
 20
0.0
  0
INSERT
  2
*DIM_0021
  8
寸法
  6
CONTINUOUS
 10
0.0
 20
0.0
  0
INSERT
  2
*DIM_0022
  8
寸法
  6
CONTINUOUS
 10
0.0
 20
0.0
  0
LINE
  8
寸法
  6
CONTINUOUS
 10
57.585407
 20
119.0135
 11
-19.620085
 21
119.0135
  0
LINE
  8
寸法
  6
CONTINUOUS
 10
-99.619765
 20
126.090603
 11
-149.554475
 21
126.090603
  0
INSERT
  2
*DIM_0023
  8
寸法
  6
CONTINUOUS
 10
0.0
 20
0.0
  0
INSERT
  2
*DIM_0024
  8
寸法
  6
CONTINUOUS
 10
0.0
 20
0.0
  0
INSERT
  2
*DIM_0025
  8
寸法
  6
CONTINUOUS
 10
0.0
 20
0.0
  0
INSERT
  2
*DIM_0026
  8
寸法
  6
CONTINUOUS
 10
0.0
 20
0.0
  0
INSERT
  2
*DIM_0027
  8
寸法
  6
CONTINUOUS
 10
0.0
 20
0.0
  0
INSERT
  2
*DIM_0028
  8
寸法
  6
CONTINUOUS
 10
0.0
 20
0.0
  0
INSERT
  2
*DIM_0029
  8
寸法
  6
CONTINUOUS
 10
0.0
 20
0.0
  0
INSERT
  2
*DIM_0030
  8
寸法
  6
CONTINUOUS
 10
0.0
 20
0.0
  0
INSERT
  2
*DIM_0031
  8
寸法
  6
CONTINUOUS
 10
0.0
 20
0.0
  0
INSERT
  2
*DIM_0032
  8
寸法
  6
CONTINUOUS
 10
0.0
 20
0.0
  0
INSERT
  2
*DIM_0033
  8
寸法
  6
CONTINUOUS
 10
0.0
 20
0.0
  0
INSERT
  2
*DIM_0034
  8
寸法
  6
CONTINUOUS
 10
0.0
 20
0.0
  0
INSERT
  2
*DIM_0035
  8
寸法
  6
CONTINUOUS
 10
0.0
 20
0.0
  0
INSERT
  2
*GRP_0036
  8
寸法
  6
CONTINUOUS
 10
0.0
 20
0.0
  0
INSERT
  2
*GRP_0037
  8
寸法
  6
CONTINUOUS
 10
0.0
 20
0.0
  0
INSERT
  2
*GRP_0038
  8
寸法
  6
CONTINUOUS
 10
0.0
 20
0.0
  0
INSERT
  2
*GRP_0039
  8
寸法
  6
CONTINUOUS
 10
0.0
 20
0.0
  0
ARC
  8
別途部材
  6
CONTINUOUS
 62
    96
 10
-94.196932
 20
84.970604
 40
5.005952
 50
90.001375
 51
158.200993
  0
LINE
  8
別途部材
  6
CONTINUOUS
 10
-111.61969
 20
62.980137
 11
-108.384738
 21
62.980137
  0
LINE
  8
別途部材
  6
CONTINUOUS
 62
    96
 10
-99.619765
 20
92.980137
 11
-111.61969
 21
62.980137
  0
LINE
  8
別途部材
  6
CONTINUOUS
 10
-111.619765
 20
62.980137
 11
-108.384738
 21
62.980137
  0
LINE
  8
別途部材
  6
CONTINUOUS
 62
    96
 10
-98.84494
 20
86.829793
 11
-108.384738
 21
62.980137
  0
LINE
  8
別途部材
  6
CONTINUOUS
 62
    96
 10
-99.619765
 20
92.980137
 11
-49.61974
 21
92.980137
  0
LINE
  8
別途部材
  6
CONTINUOUS
 10
-48.015415
 20
89.980137
 11
-94.197115
 21
89.980137
  0
ARC
  8
別途部材
  6
CONTINUOUS
 10
250.380308
 20
-108.269986
 40
361.250025
 50
137.990067
 51
146.144965
  0
ARC
  8
別途部材
  6
CONTINUOUS
 10
250.380308
 20
-108.269986
 40
358.250025
 50
137.556423
 51
146.400476
  0
INSERT
  2
*GRP_0040
  8
別途部材
  6
CONTINUOUS
 10
0.0
 20
0.0
  0
INSERT
  2
*GRP_0041
  8
St
  6
CONTINUOUS
 10
0.0
 20
0.0
  0
INSERT
  2
*GRP_0042
  8
St
  6
CONTINUOUS
 10
0.0
 20
0.0
  0
INSERT
  2
*GRP_0043
  8
St
  6
CONTINUOUS
 10
0.0
 20
0.0
  0
ENDSEC
  0
EOF
