  0
SECTION
  2
HEADER
  9
$EXTMIN
 10
-210.0
 20
-148.5
  9
$EXTMAX
 10
210.0
 20
148.5
  9
$PDMODE
 70
    32
  9
$PDSIZE
 40
0.1
  9
$LTSCALE
 40
10.0
  0
ENDSEC
  0
SECTION
  2
TABLES
  0
TABLE
  2
LTYPE
 70
    15
  0
LTYPE
  2
CONTINUOUS
 70
    64
  3
実線
 72
    65
 73
     0
 40
0.0
  0
LTYPE
  2
DASHED
 70
    64
  3
破線A
 72
    65
 73
     2
 40
0.6
 49
0.4
 49
-0.2
  0
LTYPE
  2
DASHEDX2
 70
    64
  3
破線B
 72
    65
 73
     2
 40
1.3
 49
0.9
 49
-0.4
  0
LTYPE
  2
DASHDOT
 70
    64
  3
１点鎖線A
 72
    65
 73
     4
 40
0.5375
 49
0.375
 49
-0.05
 49
0.0625
 49
-0.05
  0
LTYPE
  2
DASHDOTX2
 70
    64
  3
１点鎖線B
 72
    65
 73
     4
 40
1.075
 49
0.75
 49
-0.1
 49
0.125
 49
-0.1
  0
LTYPE
  2
DIVIDE2
 70
    64
  3
２点鎖線A
 72
    65
 73
     6
 40
0.5125
 49
0.3
 49
-0.0375
 49
0.05
 49
-0.0375
 49
0.05
 49
-0.0375
  0
LTYPE
  2
DIVIDE
 70
    64
  3
２点鎖線B
 72
    65
 73
     6
 40
1.05
 49
0.55
 49
-0.1
 49
0.1
 49
-0.1
 49
0.1
 49
-0.1
  0
LTYPE
  2
DOT
 70
    64
  3
点線A
 72
    65
 73
     2
 40
0.1125
 49
0.0625
 49
-0.05
  0
LTYPE
  2
DOTX2
 70
    64
  3
点線B
 72
    65
 73
     2
 40
0.275
 49
0.15
 49
-0.125
  0
LTYPE
  2
CONTINUOUS
 70
    64
  3
実線
 72
    65
 73
     0
 40
0.0
  0
LTYPE
  2
CONTINUOUS
 70
    64
  3
実線
 72
    65
 73
     0
 40
0.0
  0
LTYPE
  2
CONTINUOUS
 70
    64
  3
実線
 72
    65
 73
     0
 40
0.0
  0
LTYPE
  2
CONTINUOUS
 70
    64
  3
実線
 72
    65
 73
     0
 40
0.0
  0
LTYPE
  2
CONTINUOUS
 70
    64
  3
実線
 72
    65
 73
     0
 40
0.0
  0
LTYPE
  2
CONTINUOUS
 70
    64
  3
実線
 72
    65
 73
     0
 40
0.0
  0
ENDTAB
  0
TABLE
  2
LAYER
 70
    34
  0
LAYER
  2
通り芯
 70
     0
 62
    15
  6
CONTINUOUS
  0
LAYER
  2
補助線
 70
     0
 62
    16
  6
DOT
  0
LAYER
  2
躯体
 70
     0
 62
    31
  6
CONTINUOUS
  0
LAYER
  2
型材
 70
     0
 62
    32
  6
CONTINUOUS
  0
LAYER
  2
型材断面
 70
     0
 62
    47
  6
CONTINUOUS
  0
LAYER
  2
ガラス
 70
     0
 62
    48
  6
CONTINUOUS
  0
LAYER
  2
ゴム等
 70
     0
 62
    63
  6
CONTINUOUS
  0
LAYER
  2
ボルト／ビス
 70
     0
 62
    64
  6
CONTINUOUS
  0
LAYER
  2
文字
 70
     0
 62
    79
  6
CONTINUOUS
  0
LAYER
  2
寸法
 70
     0
 62
    80
  6
CONTINUOUS
  0
LAYER
  2
ﾊｯﾁﾝｸﾞ
 70
     0
 62
    95
  6
CONTINUOUS
  0
LAYER
  2
別途部材
 70
     0
 62
    96
  6
CONTINUOUS
  0
LAYER
  2
曲げ物
 70
     0
 62
   111
  6
CONTINUOUS
  0
LAYER
  2
鉄骨等
 70
     0
 62
   112
  6
CONTINUOUS
  0
LAYER
  2
St
 70
     0
 62
   127
  6
CONTINUOUS
  0
LAYER
  2
その他部品等
 70
     0
 62
   128
  6
CONTINUOUS
  0
LAYER
  2
ｶﾞｽｹｯﾄ
 70
     0
 62
   143
  6
CONTINUOUS
  0
LAYER
  2
ｽｹｯﾁ
 70
     0
 62
    14
  6
CONTINUOUS
  0
LAYER
  2
0
 70
     0
 62
    17
  6
CONTINUOUS
  0
LAYER
  2
1
 70
     0
 62
    30
  6
CONTINUOUS
  0
LAYER
  2
4
 70
     0
 62
    33
  6
CONTINUOUS
  0
LAYER
  2
ﾚｲﾔ3
 70
     0
 62
    46
  6
CONTINUOUS
  0
LAYER
  2
外形線
 70
     0
 62
    49
  6
CONTINUOUS
  0
LAYER
  2
部品
 70
     0
 62
    14
  6
CONTINUOUS
  0
LAYER
  2
サッシ芯
 70
     0
 62
    17
  6
DASHDOTX2
  0
LAYER
  2
寸法線
 70
     0
 62
    62
  6
CONTINUOUS
  0
LAYER
  2
姿図外形線
 70
     0
 62
    65
  6
CONTINUOUS
  0
LAYER
  2
姿補助線
 70
     0
 62
    30
  6
CONTINUOUS
  0
LAYER
  2
透視線
 70
     0
 62
    78
  6
DOT
  0
LAYER
  2
用紙
 70
     0
 62
    81
  6
CONTINUOUS
  0
LAYER
  2
実線図枠
 70
     0
 62
    94
  6
CONTINUOUS
  0
LAYER
  2
補助図枠
 70
     0
 62
    97
  6
CONTINUOUS
  0
LAYER
  2
建具記号
 70
     0
 62
   110
  6
CONTINUOUS
  0
LAYER
  2
補助文字
 70
     0
 62
   113
  6
CONTINUOUS
  0
ENDTAB
  0
TABLE
  2
STYLE
 70
    10
  0
STYLE
  2
STANDARD
 70
     0
 40
1.0
 41
1.0
 42
1.0
 50
0.0
 71
     0
  3
TXT
  4
BIGFONT
  0
STYLE
  2
TATE
 70
     4
 40
1.0
 41
1.0
 42
1.0
 50
0.0
 71
     0
  3
TXT
  4
BIGFONT
  0
STYLE
  2
TextStyle03
 70
     0
 40
1.0
 41
1.0
 42
1.0
 50
0.0
 71
     0
  3
MONOTXT
  4
BIGFONT
  0
STYLE
  2
TextStyle04
 70
     0
 40
1.0
 41
1.0
 42
1.0
 50
0.0
 71
     0
  3
MONOTXT
  4
BIGFONT
  0
STYLE
  2
TextStyle05
 70
     0
 40
1.0
 41
1.0
 42
1.0
 50
0.0
 71
     0
  3
MONOTXT
  4
BIGFONT
  0
STYLE
  2
TextStyle06
 70
     0
 40
1.0
 41
1.0
 42
1.0
 50
0.0
 71
     0
  3
MONOTXT
  4
BIGFONT
  0
STYLE
  2
TextStyle07
 70
     0
 40
1.0
 41
1.0
 42
1.0
 50
0.0
 71
     0
  3
MONOTXT
  4
BIGFONT
  0
STYLE
  2
TextStyle08
 70
     0
 40
1.0
 41
1.0
 42
1.0
 50
0.0
 71
     0
  3
MONOTXT
  4
BIGFONT
  0
STYLE
  2
TextStyle09
 70
     0
 40
1.0
 41
1.0
 42
1.0
 50
0.0
 71
     0
  3
MONOTXT
  4
BIGFONT
  0
STYLE
  2
TextStyle10
 70
     0
 40
1.0
 41
1.0
 42
1.0
 50
0.0
 71
     0
  3
MONOTXT
  4
BIGFONT
  0
ENDTAB
  0
ENDSEC
  0
SECTION
  2
BLOCKS
  0
BLOCK
  2
*HAT_0001
 70
    65
 10
0.0
 20
0.0
  0
LINE
  8
ﾊｯﾁﾝｸﾞ
 10
-163.825
 20
-76.7
 11
-164.5
 21
-76.025
  0
LINE
  8
ﾊｯﾁﾝｸﾞ
 10
-162.975
 20
-76.7
 11
-164.5
 21
-75.175
  0
LINE
  8
ﾊｯﾁﾝｸﾞ
 10
-162.15
 20
-76.7
 11
-164.5
 21
-74.325
  0
LINE
  8
ﾊｯﾁﾝｸﾞ
 10
-161.3
 20
-76.7
 11
-164.5
 21
-73.475
  0
LINE
  8
ﾊｯﾁﾝｸﾞ
 10
-160.45
 20
-76.7
 11
-163.775
 21
-73.35
  0
LINE
  8
ﾊｯﾁﾝｸﾞ
 10
-159.6
 20
-76.7
 11
-162.925
 21
-73.35
  0
LINE
  8
ﾊｯﾁﾝｸﾞ
 10
-158.75
 20
-76.7
 11
-162.075
 21
-73.35
  0
LINE
  8
ﾊｯﾁﾝｸﾞ
 10
-158.325
 20
-76.25
 11
-161.225
 21
-73.35
  0
LINE
  8
ﾊｯﾁﾝｸﾞ
 10
-158.325
 20
-75.425
 11
-160.4
 21
-73.35
  0
LINE
  8
ﾊｯﾁﾝｸﾞ
 10
-158.325
 20
-74.575
 11
-159.55
 21
-73.35
  0
LINE
  8
ﾊｯﾁﾝｸﾞ
 10
-158.325
 20
-73.725
 11
-158.7
 21
-73.35
  0
LINE
  8
ﾊｯﾁﾝｸﾞ
 10
-158.325
 20
-76.2
 11
-158.825
 21
-76.675
  0
LINE
  8
ﾊｯﾁﾝｸﾞ
 10
-158.325
 20
-75.35
 11
-159.65
 21
-76.675
  0
LINE
  8
ﾊｯﾁﾝｸﾞ
 10
-158.325
 20
-74.5
 11
-160.5
 21
-76.675
  0
LINE
  8
ﾊｯﾁﾝｸﾞ
 10
-158.325
 20
-73.65
 11
-161.35
 21
-76.675
  0
LINE
  8
ﾊｯﾁﾝｸﾞ
 10
-158.875
 20
-73.35
 11
-162.2
 21
-76.675
  0
LINE
  8
ﾊｯﾁﾝｸﾞ
 10
-159.725
 20
-73.35
 11
-163.05
 21
-76.675
  0
LINE
  8
ﾊｯﾁﾝｸﾞ
 10
-160.575
 20
-73.35
 11
-163.9
 21
-76.675
  0
LINE
  8
ﾊｯﾁﾝｸﾞ
 10
-161.4
 20
-73.35
 11
-164.5
 21
-76.425
  0
LINE
  8
ﾊｯﾁﾝｸﾞ
 10
-162.25
 20
-73.35
 11
-164.5
 21
-75.575
  0
LINE
  8
ﾊｯﾁﾝｸﾞ
 10
-163.1
 20
-73.35
 11
-164.5
 21
-74.75
  0
LINE
  8
ﾊｯﾁﾝｸﾞ
 10
-163.95
 20
-73.35
 11
-164.5
 21
-73.9
  0
ENDBLK
  0
BLOCK
  2
*HAT_0002
 70
    65
 10
0.0
 20
0.0
  0
LINE
  8
ﾊｯﾁﾝｸﾞ
 10
-113.825
 20
-64.725
 11
-112.825
 21
-66.725
  0
LINE
  8
ﾊｯﾁﾝｸﾞ
 10
-133.825
 20
-64.725
 11
-132.825
 21
-66.725
  0
LINE
  8
ﾊｯﾁﾝｸﾞ
 10
-112.825
 20
-66.725
 11
-113.3
 21
-67.175
  0
LINE
  8
ﾊｯﾁﾝｸﾞ
 10
-132.825
 20
-66.725
 11
-133.3
 21
-67.175
  0
LINE
  8
ﾊｯﾁﾝｸﾞ
 10
-113.825
 20
-67.175
 11
-113.825
 21
-64.725
  0
LINE
  8
ﾊｯﾁﾝｸﾞ
 10
-133.825
 20
-67.175
 11
-133.825
 21
-64.725
  0
LINE
  8
ﾊｯﾁﾝｸﾞ
 10
-122.825
 20
-60.725
 11
-121.825
 21
-62.725
  0
LINE
  8
ﾊｯﾁﾝｸﾞ
 10
-121.825
 20
-62.725
 11
-122.825
 21
-63.725
  0
LINE
  8
ﾊｯﾁﾝｸﾞ
 10
-122.825
 20
-63.725
 11
-123.825
 21
-63.725
  0
LINE
  8
ﾊｯﾁﾝｸﾞ
 10
-123.825
 20
-63.725
 11
-122.825
 21
-60.725
  0
LINE
  8
ﾊｯﾁﾝｸﾞ
 10
-118.825
 20
-48.725
 11
-119.825
 21
-48.725
  0
LINE
  8
ﾊｯﾁﾝｸﾞ
 10
-119.825
 20
-48.725
 11
-119.9
 21
-48.4
  0
LINE
  8
ﾊｯﾁﾝｸﾞ
 10
-118.325
 20
-48.2
 11
-118.825
 21
-48.725
  0
LINE
  8
ﾊｯﾁﾝｸﾞ
 10
-121.25
 20
-48.55
 11
-121.825
 21
-49.725
  0
LINE
  8
ﾊｯﾁﾝｸﾞ
 10
-121.825
 20
-49.725
 11
-122.35
 21
-48.675
  0
LINE
  8
ﾊｯﾁﾝｸﾞ
 10
-116.825
 20
-49.725
 11
-115.825
 21
-50.725
  0
LINE
  8
ﾊｯﾁﾝｸﾞ
 10
-115.825
 20
-50.725
 11
-115.825
 21
-51.725
  0
LINE
  8
ﾊｯﾁﾝｸﾞ
 10
-115.825
 20
-51.725
 11
-116.825
 21
-51.725
  0
LINE
  8
ﾊｯﾁﾝｸﾞ
 10
-116.825
 20
-51.725
 11
-116.825
 21
-49.725
  0
LINE
  8
ﾊｯﾁﾝｸﾞ
 10
-113.825
 20
-53.725
 11
-113.825
 21
-54.725
  0
LINE
  8
ﾊｯﾁﾝｸﾞ
 10
-133.825
 20
-53.725
 11
-133.825
 21
-54.725
  0
LINE
  8
ﾊｯﾁﾝｸﾞ
 10
-113.825
 20
-54.725
 11
-114.825
 21
-55.725
  0
LINE
  8
ﾊｯﾁﾝｸﾞ
 10
-133.825
 20
-54.725
 11
-134.825
 21
-55.725
  0
LINE
  8
ﾊｯﾁﾝｸﾞ
 10
-114.825
 20
-55.7
 11
-115.825
 21
-54.7
  0
LINE
  8
ﾊｯﾁﾝｸﾞ
 10
-134.825
 20
-55.7
 11
-135.625
 21
-54.925
  0
LINE
  8
ﾊｯﾁﾝｸﾞ
 10
-115.825
 20
-54.725
 11
-113.825
 21
-53.725
  0
LINE
  8
ﾊｯﾁﾝｸﾞ
 10
-135.225
 20
-54.425
 11
-133.825
 21
-53.725
  0
LINE
  8
ﾊｯﾁﾝｸﾞ
 10
-117.825
 20
-59.725
 11
-116.825
 21
-60.725
  0
LINE
  8
ﾊｯﾁﾝｸﾞ
 10
-137.65
 20
-59.9
 11
-136.825
 21
-60.725
  0
LINE
  8
ﾊｯﾁﾝｸﾞ
 10
-116.825
 20
-60.725
 11
-116.825
 21
-61.725
  0
LINE
  8
ﾊｯﾁﾝｸﾞ
 10
-136.825
 20
-60.725
 11
-136.825
 21
-61.725
  0
LINE
  8
ﾊｯﾁﾝｸﾞ
 10
-116.825
 20
-61.725
 11
-117.825
 21
-61.725
  0
LINE
  8
ﾊｯﾁﾝｸﾞ
 10
-136.825
 20
-61.725
 11
-137.825
 21
-61.725
  0
LINE
  8
ﾊｯﾁﾝｸﾞ
 10
-117.825
 20
-61.725
 11
-117.825
 21
-59.725
  0
LINE
  8
ﾊｯﾁﾝｸﾞ
 10
-137.825
 20
-61.725
 11
-137.825
 21
-60.6
  0
LINE
  8
ﾊｯﾁﾝｸﾞ
 10
-116.825
 20
-63.725
 11
-115.825
 21
-64.725
  0
LINE
  8
ﾊｯﾁﾝｸﾞ
 10
-136.825
 20
-63.725
 11
-135.825
 21
-64.725
  0
LINE
  8
ﾊｯﾁﾝｸﾞ
 10
-115.825
 20
-64.725
 11
-115.825
 21
-65.725
  0
LINE
  8
ﾊｯﾁﾝｸﾞ
 10
-135.825
 20
-64.725
 11
-135.825
 21
-65.725
  0
LINE
  8
ﾊｯﾁﾝｸﾞ
 10
-115.825
 20
-65.725
 11
-117.825
 21
-65.725
  0
LINE
  8
ﾊｯﾁﾝｸﾞ
 10
-135.825
 20
-65.725
 11
-137.825
 21
-65.725
  0
LINE
  8
ﾊｯﾁﾝｸﾞ
 10
-117.825
 20
-65.725
 11
-116.825
 21
-63.725
  0
LINE
  8
ﾊｯﾁﾝｸﾞ
 10
-137.825
 20
-65.725
 11
-136.825
 21
-63.725
  0
LINE
  8
ﾊｯﾁﾝｸﾞ
 10
-120.825
 20
-66.725
 11
-120.375
 21
-67.175
  0
LINE
  8
ﾊｯﾁﾝｸﾞ
 10
-121.3
 20
-67.175
 11
-120.825
 21
-66.725
  0
LINE
  8
ﾊｯﾁﾝｸﾞ
 10
-119.825
 20
-57.725
 11
-121.825
 21
-54.725
  0
LINE
  8
ﾊｯﾁﾝｸﾞ
 10
-121.825
 20
-54.725
 11
-125.825
 21
-58.725
  0
LINE
  8
ﾊｯﾁﾝｸﾞ
 10
-125.825
 20
-58.725
 11
-123.825
 21
-59.725
  0
LINE
  8
ﾊｯﾁﾝｸﾞ
 10
-123.825
 20
-59.725
 11
-119.825
 21
-57.725
  0
LINE
  8
ﾊｯﾁﾝｸﾞ
 10
-111.825
 20
-47.4
 11
-111.825
 21
-48.725
  0
LINE
  8
ﾊｯﾁﾝｸﾞ
 10
-111.825
 20
-48.725
 11
-110.825
 21
-50.725
  0
LINE
  8
ﾊｯﾁﾝｸﾞ
 10
-131.225
 20
-49.925
 11
-130.825
 21
-50.725
  0
LINE
  8
ﾊｯﾁﾝｸﾞ
 10
-110.825
 20
-50.725
 11
-108.825
 21
-48.725
  0
LINE
  8
ﾊｯﾁﾝｸﾞ
 10
-130.825
 20
-50.725
 11
-129.675
 21
-49.575
  0
LINE
  8
ﾊｯﾁﾝｸﾞ
 10
-108.825
 20
-48.725
 11
-110.95
 21
-47.3
  0
LINE
  8
ﾊｯﾁﾝｸﾞ
 10
-109.825
 20
-60.725
 11
-113.825
 21
-57.725
  0
LINE
  8
ﾊｯﾁﾝｸﾞ
 10
-129.825
 20
-60.725
 11
-133.825
 21
-57.725
  0
LINE
  8
ﾊｯﾁﾝｸﾞ
 10
-113.825
 20
-57.725
 11
-114.825
 21
-58.7
  0
LINE
  8
ﾊｯﾁﾝｸﾞ
 10
-133.825
 20
-57.725
 11
-134.825
 21
-58.7
  0
LINE
  8
ﾊｯﾁﾝｸﾞ
 10
-114.825
 20
-58.725
 11
-113.825
 21
-62.725
  0
LINE
  8
ﾊｯﾁﾝｸﾞ
 10
-134.825
 20
-58.725
 11
-133.825
 21
-62.725
  0
LINE
  8
ﾊｯﾁﾝｸﾞ
 10
-113.825
 20
-62.725
 11
-109.825
 21
-60.725
  0
LINE
  8
ﾊｯﾁﾝｸﾞ
 10
-133.825
 20
-62.725
 11
-129.825
 21
-60.725
  0
LINE
  8
ﾊｯﾁﾝｸﾞ
 10
-126.825
 20
-60.725
 11
-127.825
 21
-60.725
  0
LINE
  8
ﾊｯﾁﾝｸﾞ
 10
-108.325
 20
-61.7
 11
-108.825
 21
-62.725
  0
LINE
  8
ﾊｯﾁﾝｸﾞ
 10
-127.825
 20
-60.725
 11
-128.825
 21
-62.725
  0
LINE
  8
ﾊｯﾁﾝｸﾞ
 10
-108.825
 20
-62.725
 11
-108.325
 21
-62.725
  0
LINE
  8
ﾊｯﾁﾝｸﾞ
 10
-128.825
 20
-62.725
 11
-127.825
 21
-62.725
  0
LINE
  8
ﾊｯﾁﾝｸﾞ
 10
-127.825
 20
-62.725
 11
-126.825
 21
-60.725
  0
LINE
  8
ﾊｯﾁﾝｸﾞ
 10
-125.4
 20
-49.05
 11
-124.825
 21
-50.725
  0
LINE
  8
ﾊｯﾁﾝｸﾞ
 10
-124.825
 20
-50.725
 11
-125.825
 21
-52.725
  0
LINE
  8
ﾊｯﾁﾝｸﾞ
 10
-125.825
 20
-52.725
 11
-127.825
 21
-52.725
  0
LINE
  8
ﾊｯﾁﾝｸﾞ
 10
-127.825
 20
-52.725
 11
-126.425
 21
-49.175
  0
LINE
  8
ﾊｯﾁﾝｸﾞ
 10
-124.825
 20
-53.725
 11
-124.825
 21
-55.725
  0
LINE
  8
ﾊｯﾁﾝｸﾞ
 10
-124.825
 20
-55.725
 11
-125.825
 21
-54.725
  0
LINE
  8
ﾊｯﾁﾝｸﾞ
 10
-125.825
 20
-54.7
 11
-124.825
 21
-53.725
  0
LINE
  8
ﾊｯﾁﾝｸﾞ
 10
-108.825
 20
-55.725
 11
-109.825
 21
-54.725
  0
LINE
  8
ﾊｯﾁﾝｸﾞ
 10
-128.825
 20
-55.725
 11
-129.825
 21
-54.725
  0
LINE
  8
ﾊｯﾁﾝｸﾞ
 10
-109.825
 20
-54.725
 11
-110.825
 21
-55.725
  0
LINE
  8
ﾊｯﾁﾝｸﾞ
 10
-129.825
 20
-54.725
 11
-130.825
 21
-55.725
  0
LINE
  8
ﾊｯﾁﾝｸﾞ
 10
-110.825
 20
-55.725
 11
-109.825
 21
-56.725
  0
LINE
  8
ﾊｯﾁﾝｸﾞ
 10
-130.825
 20
-55.725
 11
-129.825
 21
-56.725
  0
LINE
  8
ﾊｯﾁﾝｸﾞ
 10
-109.825
 20
-56.725
 11
-108.825
 21
-56.725
  0
LINE
  8
ﾊｯﾁﾝｸﾞ
 10
-129.825
 20
-56.725
 11
-128.825
 21
-56.725
  0
LINE
  8
ﾊｯﾁﾝｸﾞ
 10
-108.825
 20
-56.725
 11
-108.825
 21
-55.725
  0
LINE
  8
ﾊｯﾁﾝｸﾞ
 10
-128.825
 20
-56.725
 11
-128.825
 21
-55.725
  0
LINE
  8
ﾊｯﾁﾝｸﾞ
 10
-118.825
 20
-57.725
 11
-119.025
 21
-57.725
  0
LINE
  8
ﾊｯﾁﾝｸﾞ
 10
-118.825
 20
-64.725
 11
-119.025
 21
-64.725
  0
LINE
  8
ﾊｯﾁﾝｸﾞ
 10
-114.725
 20
-48.725
 11
-114.925
 21
-48.725
  0
LINE
  8
ﾊｯﾁﾝｸﾞ
 10
-116.725
 20
-48.725
 11
-116.925
 21
-48.725
  0
LINE
  8
ﾊｯﾁﾝｸﾞ
 10
-119.725
 20
-49.725
 11
-119.925
 21
-49.725
  0
LINE
  8
ﾊｯﾁﾝｸﾞ
 10
-123.725
 20
-49.725
 11
-123.925
 21
-49.725
  0
LINE
  8
ﾊｯﾁﾝｸﾞ
 10
-121.725
 20
-51.725
 11
-121.925
 21
-51.725
  0
LINE
  8
ﾊｯﾁﾝｸﾞ
 10
-119.725
 20
-52.725
 11
-119.925
 21
-52.725
  0
LINE
  8
ﾊｯﾁﾝｸﾞ
 10
-123.725
 20
-52.725
 11
-123.925
 21
-52.725
  0
LINE
  8
ﾊｯﾁﾝｸﾞ
 10
-109.725
 20
-51.725
 11
-109.925
 21
-51.725
  0
LINE
  8
ﾊｯﾁﾝｸﾞ
 10
-129.725
 20
-51.725
 11
-129.925
 21
-51.725
  0
LINE
  8
ﾊｯﾁﾝｸﾞ
 10
-110.725
 20
-52.725
 11
-110.925
 21
-52.725
  0
LINE
  8
ﾊｯﾁﾝｸﾞ
 10
-130.725
 20
-52.725
 11
-130.925
 21
-52.725
  0
LINE
  8
ﾊｯﾁﾝｸﾞ
 10
-112.725
 20
-52.725
 11
-112.925
 21
-52.725
  0
LINE
  8
ﾊｯﾁﾝｸﾞ
 10
-132.725
 20
-52.725
 11
-132.925
 21
-52.725
  0
LINE
  8
ﾊｯﾁﾝｸﾞ
 10
-112.725
 20
-50.725
 11
-112.925
 21
-50.725
  0
LINE
  8
ﾊｯﾁﾝｸﾞ
 10
-113.725
 20
-50.725
 11
-113.925
 21
-50.725
  0
LINE
  8
ﾊｯﾁﾝｸﾞ
 10
-115.725
 20
-52.725
 11
-115.925
 21
-52.725
  0
LINE
  8
ﾊｯﾁﾝｸﾞ
 10
-117.725
 20
-54.7
 11
-117.925
 21
-54.7
  0
LINE
  8
ﾊｯﾁﾝｸﾞ
 10
-117.725
 20
-57.725
 11
-117.925
 21
-57.725
  0
LINE
  8
ﾊｯﾁﾝｸﾞ
 10
-116.725
 20
-56.725
 11
-116.925
 21
-56.725
  0
LINE
  8
ﾊｯﾁﾝｸﾞ
 10
-136.725
 20
-56.725
 11
-136.925
 21
-56.725
  0
LINE
  8
ﾊｯﾁﾝｸﾞ
 10
-115.725
 20
-57.725
 11
-115.925
 21
-57.725
  0
LINE
  8
ﾊｯﾁﾝｸﾞ
 10
-135.725
 20
-57.725
 11
-135.925
 21
-57.725
  0
LINE
  8
ﾊｯﾁﾝｸﾞ
 10
-116.725
 20
-59.725
 11
-116.925
 21
-59.725
  0
LINE
  8
ﾊｯﾁﾝｸﾞ
 10
-136.725
 20
-59.725
 11
-136.925
 21
-59.725
  0
LINE
  8
ﾊｯﾁﾝｸﾞ
 10
-115.725
 20
-60.725
 11
-115.925
 21
-60.725
  0
LINE
  8
ﾊｯﾁﾝｸﾞ
 10
-135.725
 20
-60.725
 11
-135.925
 21
-60.725
  0
LINE
  8
ﾊｯﾁﾝｸﾞ
 10
-111.725
 20
-57.725
 11
-111.925
 21
-57.725
  0
LINE
  8
ﾊｯﾁﾝｸﾞ
 10
-131.725
 20
-57.725
 11
-131.925
 21
-57.725
  0
LINE
  8
ﾊｯﾁﾝｸﾞ
 10
-109.725
 20
-58.725
 11
-109.925
 21
-58.725
  0
LINE
  8
ﾊｯﾁﾝｸﾞ
 10
-129.725
 20
-58.725
 11
-129.925
 21
-58.725
  0
LINE
  8
ﾊｯﾁﾝｸﾞ
 10
-127.725
 20
-59.725
 11
-127.925
 21
-59.725
  0
LINE
  8
ﾊｯﾁﾝｸﾞ
 10
-125.725
 20
-61.725
 11
-125.925
 21
-61.725
  0
LINE
  8
ﾊｯﾁﾝｸﾞ
 10
-123.725
 20
-60.725
 11
-123.925
 21
-60.725
  0
LINE
  8
ﾊｯﾁﾝｸﾞ
 10
-120.725
 20
-61.725
 11
-120.925
 21
-61.725
  0
LINE
  8
ﾊｯﾁﾝｸﾞ
 10
-119.725
 20
-61.725
 11
-119.925
 21
-61.725
  0
LINE
  8
ﾊｯﾁﾝｸﾞ
 10
-126.725
 20
-57.725
 11
-126.925
 21
-57.725
  0
LINE
  8
ﾊｯﾁﾝｸﾞ
 10
-126.725
 20
-56.725
 11
-126.925
 21
-56.725
  0
LINE
  8
ﾊｯﾁﾝｸﾞ
 10
-127.725
 20
-55.725
 11
-127.925
 21
-55.725
  0
LINE
  8
ﾊｯﾁﾝｸﾞ
 10
-108.725
 20
-53.725
 11
-108.925
 21
-53.725
  0
LINE
  8
ﾊｯﾁﾝｸﾞ
 10
-128.725
 20
-53.725
 11
-128.925
 21
-53.725
  0
LINE
  8
ﾊｯﾁﾝｸﾞ
 10
-122.725
 20
-66.725
 11
-122.925
 21
-66.725
  0
LINE
  8
ﾊｯﾁﾝｸﾞ
 10
-123.725
 20
-65.725
 11
-123.925
 21
-65.725
  0
LINE
  8
ﾊｯﾁﾝｸﾞ
 10
-120.725
 20
-65.725
 11
-120.925
 21
-65.725
  0
LINE
  8
ﾊｯﾁﾝｸﾞ
 10
-125.725
 20
-65.725
 11
-125.925
 21
-65.725
  0
LINE
  8
ﾊｯﾁﾝｸﾞ
 10
-124.725
 20
-63.725
 11
-124.925
 21
-63.725
  0
LINE
  8
ﾊｯﾁﾝｸﾞ
 10
-127.725
 20
-66.725
 11
-127.925
 21
-66.725
  0
LINE
  8
ﾊｯﾁﾝｸﾞ
 10
-127.725
 20
-64.725
 11
-127.925
 21
-64.725
  0
LINE
  8
ﾊｯﾁﾝｸﾞ
 10
-109.725
 20
-64.725
 11
-109.925
 21
-64.725
  0
LINE
  8
ﾊｯﾁﾝｸﾞ
 10
-129.725
 20
-64.725
 11
-129.925
 21
-64.725
  0
LINE
  8
ﾊｯﾁﾝｸﾞ
 10
-110.725
 20
-64.725
 11
-110.925
 21
-64.725
  0
LINE
  8
ﾊｯﾁﾝｸﾞ
 10
-130.725
 20
-64.725
 11
-130.925
 21
-64.725
  0
LINE
  8
ﾊｯﾁﾝｸﾞ
 10
-110.725
 20
-63.725
 11
-110.925
 21
-63.725
  0
LINE
  8
ﾊｯﾁﾝｸﾞ
 10
-130.725
 20
-63.725
 11
-130.925
 21
-63.725
  0
LINE
  8
ﾊｯﾁﾝｸﾞ
 10
-112.725
 20
-63.725
 11
-112.925
 21
-63.725
  0
LINE
  8
ﾊｯﾁﾝｸﾞ
 10
-132.725
 20
-63.725
 11
-132.925
 21
-63.725
  0
LINE
  8
ﾊｯﾁﾝｸﾞ
 10
-114.725
 20
-63.725
 11
-114.925
 21
-63.725
  0
LINE
  8
ﾊｯﾁﾝｸﾞ
 10
-134.725
 20
-63.725
 11
-134.925
 21
-63.725
  0
LINE
  8
ﾊｯﾁﾝｸﾞ
 10
-115.725
 20
-62.7
 11
-115.925
 21
-62.7
  0
LINE
  8
ﾊｯﾁﾝｸﾞ
 10
-135.725
 20
-62.7
 11
-135.925
 21
-62.7
  0
LINE
  8
ﾊｯﾁﾝｸﾞ
 10
-117.725
 20
-66.725
 11
-117.925
 21
-66.725
  0
LINE
  8
ﾊｯﾁﾝｸﾞ
 10
-137.725
 20
-66.725
 11
-137.925
 21
-66.725
  0
LINE
  8
ﾊｯﾁﾝｸﾞ
 10
-110.725
 20
-66.725
 11
-110.925
 21
-66.725
  0
LINE
  8
ﾊｯﾁﾝｸﾞ
 10
-130.725
 20
-66.725
 11
-130.925
 21
-66.725
  0
LINE
  8
ﾊｯﾁﾝｸﾞ
 10
-111.725
 20
-54.7
 11
-111.925
 21
-54.7
  0
LINE
  8
ﾊｯﾁﾝｸﾞ
 10
-131.725
 20
-54.7
 11
-131.925
 21
-54.7
  0
LINE
  8
ﾊｯﾁﾝｸﾞ
 10
-121.725
 20
-53.725
 11
-121.925
 21
-53.725
  0
LINE
  8
ﾊｯﾁﾝｸﾞ
 10
-119.725
 20
-59.725
 11
-119.925
 21
-59.725
  0
ENDBLK
  0
BLOCK
  2
*HAT_0003
 70
    65
 10
0.0
 20
0.0
  0
LINE
  8
ﾊｯﾁﾝｸﾞ
 10
-155.725
 20
-100.1
 11
-158.325
 21
-97.5
  0
LINE
  8
ﾊｯﾁﾝｸﾞ
 10
-127.45
 20
-100.1
 11
-158.325
 21
-69.225
  0
LINE
  8
ﾊｯﾁﾝｸﾞ
 10
-108.325
 20
-90.95
 11
-132.075
 21
-67.175
  0
LINE
  8
ﾊｯﾁﾝｸﾞ
 10
-156.725
 20
-100.1
 11
-158.325
 21
-98.5
  0
LINE
  8
ﾊｯﾁﾝｸﾞ
 10
-128.45
 20
-100.1
 11
-158.325
 21
-70.225
  0
LINE
  8
ﾊｯﾁﾝｸﾞ
 10
-108.325
 20
-91.925
 11
-133.075
 21
-67.175
  0
LINE
  8
ﾊｯﾁﾝｸﾞ
 10
-157.725
 20
-100.1
 11
-158.325
 21
-99.5
  0
LINE
  8
ﾊｯﾁﾝｸﾞ
 10
-129.45
 20
-100.1
 11
-158.325
 21
-71.225
  0
LINE
  8
ﾊｯﾁﾝｸﾞ
 10
-108.325
 20
-92.925
 11
-134.075
 21
-67.175
  0
ENDBLK
  0
BLOCK
  2
*HAT_0004
 70
    65
 10
0.0
 20
0.0
  0
LINE
  8
ﾊｯﾁﾝｸﾞ
 10
180.45
 20
-76.7
 11
181.125
 21
-76.025
  0
LINE
  8
ﾊｯﾁﾝｸﾞ
 10
179.6
 20
-76.7
 11
181.125
 21
-75.175
  0
LINE
  8
ﾊｯﾁﾝｸﾞ
 10
178.775
 20
-76.7
 11
181.125
 21
-74.325
  0
LINE
  8
ﾊｯﾁﾝｸﾞ
 10
177.925
 20
-76.7
 11
181.125
 21
-73.475
  0
LINE
  8
ﾊｯﾁﾝｸﾞ
 10
177.075
 20
-76.7
 11
180.4
 21
-73.35
  0
LINE
  8
ﾊｯﾁﾝｸﾞ
 10
176.225
 20
-76.7
 11
179.55
 21
-73.35
  0
LINE
  8
ﾊｯﾁﾝｸﾞ
 10
175.375
 20
-76.7
 11
178.7
 21
-73.35
  0
LINE
  8
ﾊｯﾁﾝｸﾞ
 10
174.95
 20
-76.25
 11
177.85
 21
-73.35
  0
LINE
  8
ﾊｯﾁﾝｸﾞ
 10
174.95
 20
-75.425
 11
177.025
 21
-73.35
  0
LINE
  8
ﾊｯﾁﾝｸﾞ
 10
174.95
 20
-74.575
 11
176.175
 21
-73.35
  0
LINE
  8
ﾊｯﾁﾝｸﾞ
 10
174.95
 20
-73.725
 11
175.325
 21
-73.35
  0
LINE
  8
ﾊｯﾁﾝｸﾞ
 10
174.95
 20
-76.2
 11
175.45
 21
-76.675
  0
LINE
  8
ﾊｯﾁﾝｸﾞ
 10
174.95
 20
-75.35
 11
176.275
 21
-76.675
  0
LINE
  8
ﾊｯﾁﾝｸﾞ
 10
174.95
 20
-74.5
 11
177.125
 21
-76.675
  0
LINE
  8
ﾊｯﾁﾝｸﾞ
 10
174.95
 20
-73.65
 11
177.975
 21
-76.675
  0
LINE
  8
ﾊｯﾁﾝｸﾞ
 10
175.5
 20
-73.35
 11
178.825
 21
-76.675
  0
LINE
  8
ﾊｯﾁﾝｸﾞ
 10
176.35
 20
-73.35
 11
179.675
 21
-76.675
  0
LINE
  8
ﾊｯﾁﾝｸﾞ
 10
177.2
 20
-73.35
 11
180.525
 21
-76.675
  0
LINE
  8
ﾊｯﾁﾝｸﾞ
 10
178.025
 20
-73.35
 11
181.125
 21
-76.425
  0
LINE
  8
ﾊｯﾁﾝｸﾞ
 10
178.875
 20
-73.35
 11
181.125
 21
-75.575
  0
LINE
  8
ﾊｯﾁﾝｸﾞ
 10
179.725
 20
-73.35
 11
181.125
 21
-74.75
  0
LINE
  8
ﾊｯﾁﾝｸﾞ
 10
180.575
 20
-73.35
 11
181.125
 21
-73.9
  0
ENDBLK
  0
BLOCK
  2
*HAT_0005
 70
    65
 10
0.0
 20
0.0
  0
LINE
  8
ﾊｯﾁﾝｸﾞ
 10
130.45
 20
-64.725
 11
129.45
 21
-66.725
  0
LINE
  8
ﾊｯﾁﾝｸﾞ
 10
150.45
 20
-64.725
 11
149.45
 21
-66.725
  0
LINE
  8
ﾊｯﾁﾝｸﾞ
 10
129.45
 20
-66.725
 11
129.925
 21
-67.175
  0
LINE
  8
ﾊｯﾁﾝｸﾞ
 10
149.45
 20
-66.725
 11
149.925
 21
-67.175
  0
LINE
  8
ﾊｯﾁﾝｸﾞ
 10
130.45
 20
-67.175
 11
130.45
 21
-64.725
  0
LINE
  8
ﾊｯﾁﾝｸﾞ
 10
150.45
 20
-67.175
 11
150.45
 21
-64.725
  0
LINE
  8
ﾊｯﾁﾝｸﾞ
 10
139.45
 20
-60.725
 11
138.45
 21
-62.725
  0
LINE
  8
ﾊｯﾁﾝｸﾞ
 10
138.45
 20
-62.725
 11
139.45
 21
-63.725
  0
LINE
  8
ﾊｯﾁﾝｸﾞ
 10
139.45
 20
-63.725
 11
140.45
 21
-63.725
  0
LINE
  8
ﾊｯﾁﾝｸﾞ
 10
140.45
 20
-63.725
 11
139.45
 21
-60.725
  0
LINE
  8
ﾊｯﾁﾝｸﾞ
 10
135.45
 20
-48.725
 11
136.45
 21
-48.725
  0
LINE
  8
ﾊｯﾁﾝｸﾞ
 10
136.45
 20
-48.725
 11
136.525
 21
-48.4
  0
LINE
  8
ﾊｯﾁﾝｸﾞ
 10
134.95
 20
-48.2
 11
135.45
 21
-48.725
  0
LINE
  8
ﾊｯﾁﾝｸﾞ
 10
137.875
 20
-48.55
 11
138.45
 21
-49.725
  0
LINE
  8
ﾊｯﾁﾝｸﾞ
 10
138.45
 20
-49.725
 11
138.975
 21
-48.675
  0
LINE
  8
ﾊｯﾁﾝｸﾞ
 10
133.45
 20
-49.725
 11
132.45
 21
-50.725
  0
LINE
  8
ﾊｯﾁﾝｸﾞ
 10
132.45
 20
-50.725
 11
132.45
 21
-51.725
  0
LINE
  8
ﾊｯﾁﾝｸﾞ
 10
132.45
 20
-51.725
 11
133.45
 21
-51.725
  0
LINE
  8
ﾊｯﾁﾝｸﾞ
 10
133.45
 20
-51.725
 11
133.45
 21
-49.725
  0
LINE
  8
ﾊｯﾁﾝｸﾞ
 10
130.45
 20
-53.725
 11
130.45
 21
-54.725
  0
LINE
  8
ﾊｯﾁﾝｸﾞ
 10
150.45
 20
-53.725
 11
150.45
 21
-54.725
  0
LINE
  8
ﾊｯﾁﾝｸﾞ
 10
130.45
 20
-54.725
 11
131.45
 21
-55.725
  0
LINE
  8
ﾊｯﾁﾝｸﾞ
 10
150.45
 20
-54.725
 11
151.45
 21
-55.725
  0
LINE
  8
ﾊｯﾁﾝｸﾞ
 10
131.45
 20
-55.7
 11
132.45
 21
-54.7
  0
LINE
  8
ﾊｯﾁﾝｸﾞ
 10
151.45
 20
-55.7
 11
152.25
 21
-54.925
  0
LINE
  8
ﾊｯﾁﾝｸﾞ
 10
132.45
 20
-54.725
 11
130.45
 21
-53.725
  0
LINE
  8
ﾊｯﾁﾝｸﾞ
 10
151.85
 20
-54.425
 11
150.45
 21
-53.725
  0
LINE
  8
ﾊｯﾁﾝｸﾞ
 10
134.45
 20
-59.725
 11
133.45
 21
-60.725
  0
LINE
  8
ﾊｯﾁﾝｸﾞ
 10
154.275
 20
-59.9
 11
153.45
 21
-60.725
  0
LINE
  8
ﾊｯﾁﾝｸﾞ
 10
133.45
 20
-60.725
 11
133.45
 21
-61.725
  0
LINE
  8
ﾊｯﾁﾝｸﾞ
 10
153.45
 20
-60.725
 11
153.45
 21
-61.725
  0
LINE
  8
ﾊｯﾁﾝｸﾞ
 10
133.45
 20
-61.725
 11
134.45
 21
-61.725
  0
LINE
  8
ﾊｯﾁﾝｸﾞ
 10
153.45
 20
-61.725
 11
154.45
 21
-61.725
  0
LINE
  8
ﾊｯﾁﾝｸﾞ
 10
134.45
 20
-61.725
 11
134.45
 21
-59.725
  0
LINE
  8
ﾊｯﾁﾝｸﾞ
 10
154.45
 20
-61.725
 11
154.45
 21
-60.6
  0
LINE
  8
ﾊｯﾁﾝｸﾞ
 10
133.45
 20
-63.725
 11
132.45
 21
-64.725
  0
LINE
  8
ﾊｯﾁﾝｸﾞ
 10
153.45
 20
-63.725
 11
152.45
 21
-64.725
  0
LINE
  8
ﾊｯﾁﾝｸﾞ
 10
132.45
 20
-64.725
 11
132.45
 21
-65.725
  0
LINE
  8
ﾊｯﾁﾝｸﾞ
 10
152.45
 20
-64.725
 11
152.45
 21
-65.725
  0
LINE
  8
ﾊｯﾁﾝｸﾞ
 10
132.45
 20
-65.725
 11
134.45
 21
-65.725
  0
LINE
  8
ﾊｯﾁﾝｸﾞ
 10
152.45
 20
-65.725
 11
154.45
 21
-65.725
  0
LINE
  8
ﾊｯﾁﾝｸﾞ
 10
134.45
 20
-65.725
 11
133.45
 21
-63.725
  0
LINE
  8
ﾊｯﾁﾝｸﾞ
 10
154.45
 20
-65.725
 11
153.45
 21
-63.725
  0
LINE
  8
ﾊｯﾁﾝｸﾞ
 10
137.45
 20
-66.725
 11
137.0
 21
-67.175
  0
LINE
  8
ﾊｯﾁﾝｸﾞ
 10
137.925
 20
-67.175
 11
137.45
 21
-66.725
  0
LINE
  8
ﾊｯﾁﾝｸﾞ
 10
136.45
 20
-57.725
 11
138.45
 21
-54.725
  0
LINE
  8
ﾊｯﾁﾝｸﾞ
 10
138.45
 20
-54.725
 11
142.45
 21
-58.725
  0
LINE
  8
ﾊｯﾁﾝｸﾞ
 10
142.45
 20
-58.725
 11
140.45
 21
-59.725
  0
LINE
  8
ﾊｯﾁﾝｸﾞ
 10
140.45
 20
-59.725
 11
136.45
 21
-57.725
  0
LINE
  8
ﾊｯﾁﾝｸﾞ
 10
128.45
 20
-47.4
 11
128.45
 21
-48.725
  0
LINE
  8
ﾊｯﾁﾝｸﾞ
 10
128.45
 20
-48.725
 11
127.45
 21
-50.725
  0
LINE
  8
ﾊｯﾁﾝｸﾞ
 10
147.85
 20
-49.925
 11
147.45
 21
-50.725
  0
LINE
  8
ﾊｯﾁﾝｸﾞ
 10
127.45
 20
-50.725
 11
125.45
 21
-48.725
  0
LINE
  8
ﾊｯﾁﾝｸﾞ
 10
147.45
 20
-50.725
 11
146.3
 21
-49.575
  0
LINE
  8
ﾊｯﾁﾝｸﾞ
 10
125.45
 20
-48.725
 11
127.575
 21
-47.3
  0
LINE
  8
ﾊｯﾁﾝｸﾞ
 10
126.45
 20
-60.725
 11
130.45
 21
-57.725
  0
LINE
  8
ﾊｯﾁﾝｸﾞ
 10
146.45
 20
-60.725
 11
150.45
 21
-57.725
  0
LINE
  8
ﾊｯﾁﾝｸﾞ
 10
130.45
 20
-57.725
 11
131.45
 21
-58.7
  0
LINE
  8
ﾊｯﾁﾝｸﾞ
 10
150.45
 20
-57.725
 11
151.45
 21
-58.7
  0
LINE
  8
ﾊｯﾁﾝｸﾞ
 10
131.45
 20
-58.725
 11
130.45
 21
-62.725
  0
LINE
  8
ﾊｯﾁﾝｸﾞ
 10
151.45
 20
-58.725
 11
150.45
 21
-62.725
  0
LINE
  8
ﾊｯﾁﾝｸﾞ
 10
130.45
 20
-62.725
 11
126.45
 21
-60.725
  0
LINE
  8
ﾊｯﾁﾝｸﾞ
 10
150.45
 20
-62.725
 11
146.45
 21
-60.725
  0
LINE
  8
ﾊｯﾁﾝｸﾞ
 10
143.45
 20
-60.725
 11
144.45
 21
-60.725
  0
LINE
  8
ﾊｯﾁﾝｸﾞ
 10
124.95
 20
-61.7
 11
125.45
 21
-62.725
  0
LINE
  8
ﾊｯﾁﾝｸﾞ
 10
144.45
 20
-60.725
 11
145.45
 21
-62.725
  0
LINE
  8
ﾊｯﾁﾝｸﾞ
 10
125.45
 20
-62.725
 11
124.95
 21
-62.725
  0
LINE
  8
ﾊｯﾁﾝｸﾞ
 10
145.45
 20
-62.725
 11
144.45
 21
-62.725
  0
LINE
  8
ﾊｯﾁﾝｸﾞ
 10
144.45
 20
-62.725
 11
143.45
 21
-60.725
  0
LINE
  8
ﾊｯﾁﾝｸﾞ
 10
142.025
 20
-49.05
 11
141.45
 21
-50.725
  0
LINE
  8
ﾊｯﾁﾝｸﾞ
 10
141.45
 20
-50.725
 11
142.45
 21
-52.725
  0
LINE
  8
ﾊｯﾁﾝｸﾞ
 10
142.45
 20
-52.725
 11
144.45
 21
-52.725
  0
LINE
  8
ﾊｯﾁﾝｸﾞ
 10
144.45
 20
-52.725
 11
143.05
 21
-49.175
  0
LINE
  8
ﾊｯﾁﾝｸﾞ
 10
141.45
 20
-53.725
 11
141.45
 21
-55.725
  0
LINE
  8
ﾊｯﾁﾝｸﾞ
 10
141.45
 20
-55.725
 11
142.45
 21
-54.725
  0
LINE
  8
ﾊｯﾁﾝｸﾞ
 10
142.45
 20
-54.7
 11
141.45
 21
-53.725
  0
LINE
  8
ﾊｯﾁﾝｸﾞ
 10
125.45
 20
-55.725
 11
126.45
 21
-54.725
  0
LINE
  8
ﾊｯﾁﾝｸﾞ
 10
145.45
 20
-55.725
 11
146.45
 21
-54.725
  0
LINE
  8
ﾊｯﾁﾝｸﾞ
 10
126.45
 20
-54.725
 11
127.45
 21
-55.725
  0
LINE
  8
ﾊｯﾁﾝｸﾞ
 10
146.45
 20
-54.725
 11
147.45
 21
-55.725
  0
LINE
  8
ﾊｯﾁﾝｸﾞ
 10
127.45
 20
-55.725
 11
126.45
 21
-56.725
  0
LINE
  8
ﾊｯﾁﾝｸﾞ
 10
147.45
 20
-55.725
 11
146.45
 21
-56.725
  0
LINE
  8
ﾊｯﾁﾝｸﾞ
 10
126.45
 20
-56.725
 11
125.45
 21
-56.725
  0
LINE
  8
ﾊｯﾁﾝｸﾞ
 10
146.45
 20
-56.725
 11
145.45
 21
-56.725
  0
LINE
  8
ﾊｯﾁﾝｸﾞ
 10
125.45
 20
-56.725
 11
125.45
 21
-55.725
  0
LINE
  8
ﾊｯﾁﾝｸﾞ
 10
145.45
 20
-56.725
 11
145.45
 21
-55.725
  0
LINE
  8
ﾊｯﾁﾝｸﾞ
 10
135.45
 20
-57.725
 11
135.65
 21
-57.725
  0
LINE
  8
ﾊｯﾁﾝｸﾞ
 10
135.45
 20
-64.725
 11
135.65
 21
-64.725
  0
LINE
  8
ﾊｯﾁﾝｸﾞ
 10
131.35
 20
-48.725
 11
131.55
 21
-48.725
  0
LINE
  8
ﾊｯﾁﾝｸﾞ
 10
133.35
 20
-48.725
 11
133.55
 21
-48.725
  0
LINE
  8
ﾊｯﾁﾝｸﾞ
 10
136.35
 20
-49.725
 11
136.55
 21
-49.725
  0
LINE
  8
ﾊｯﾁﾝｸﾞ
 10
140.35
 20
-49.725
 11
140.55
 21
-49.725
  0
LINE
  8
ﾊｯﾁﾝｸﾞ
 10
138.35
 20
-51.725
 11
138.55
 21
-51.725
  0
LINE
  8
ﾊｯﾁﾝｸﾞ
 10
136.35
 20
-52.725
 11
136.55
 21
-52.725
  0
LINE
  8
ﾊｯﾁﾝｸﾞ
 10
140.35
 20
-52.725
 11
140.55
 21
-52.725
  0
LINE
  8
ﾊｯﾁﾝｸﾞ
 10
126.35
 20
-51.725
 11
126.55
 21
-51.725
  0
LINE
  8
ﾊｯﾁﾝｸﾞ
 10
146.35
 20
-51.725
 11
146.55
 21
-51.725
  0
LINE
  8
ﾊｯﾁﾝｸﾞ
 10
127.35
 20
-52.725
 11
127.55
 21
-52.725
  0
LINE
  8
ﾊｯﾁﾝｸﾞ
 10
147.35
 20
-52.725
 11
147.55
 21
-52.725
  0
LINE
  8
ﾊｯﾁﾝｸﾞ
 10
129.35
 20
-52.725
 11
129.55
 21
-52.725
  0
LINE
  8
ﾊｯﾁﾝｸﾞ
 10
149.35
 20
-52.725
 11
149.55
 21
-52.725
  0
LINE
  8
ﾊｯﾁﾝｸﾞ
 10
129.35
 20
-50.725
 11
129.55
 21
-50.725
  0
LINE
  8
ﾊｯﾁﾝｸﾞ
 10
130.35
 20
-50.725
 11
130.55
 21
-50.725
  0
LINE
  8
ﾊｯﾁﾝｸﾞ
 10
132.35
 20
-52.725
 11
132.55
 21
-52.725
  0
LINE
  8
ﾊｯﾁﾝｸﾞ
 10
134.35
 20
-54.7
 11
134.55
 21
-54.7
  0
LINE
  8
ﾊｯﾁﾝｸﾞ
 10
134.35
 20
-57.725
 11
134.55
 21
-57.725
  0
LINE
  8
ﾊｯﾁﾝｸﾞ
 10
133.35
 20
-56.725
 11
133.55
 21
-56.725
  0
LINE
  8
ﾊｯﾁﾝｸﾞ
 10
153.35
 20
-56.725
 11
153.55
 21
-56.725
  0
LINE
  8
ﾊｯﾁﾝｸﾞ
 10
132.35
 20
-57.725
 11
132.55
 21
-57.725
  0
LINE
  8
ﾊｯﾁﾝｸﾞ
 10
152.35
 20
-57.725
 11
152.55
 21
-57.725
  0
LINE
  8
ﾊｯﾁﾝｸﾞ
 10
133.35
 20
-59.725
 11
133.55
 21
-59.725
  0
LINE
  8
ﾊｯﾁﾝｸﾞ
 10
153.35
 20
-59.725
 11
153.55
 21
-59.725
  0
LINE
  8
ﾊｯﾁﾝｸﾞ
 10
132.35
 20
-60.725
 11
132.55
 21
-60.725
  0
LINE
  8
ﾊｯﾁﾝｸﾞ
 10
152.35
 20
-60.725
 11
152.55
 21
-60.725
  0
LINE
  8
ﾊｯﾁﾝｸﾞ
 10
128.35
 20
-57.725
 11
128.55
 21
-57.725
  0
LINE
  8
ﾊｯﾁﾝｸﾞ
 10
148.35
 20
-57.725
 11
148.55
 21
-57.725
  0
LINE
  8
ﾊｯﾁﾝｸﾞ
 10
126.35
 20
-58.725
 11
126.55
 21
-58.725
  0
LINE
  8
ﾊｯﾁﾝｸﾞ
 10
146.35
 20
-58.725
 11
146.55
 21
-58.725
  0
LINE
  8
ﾊｯﾁﾝｸﾞ
 10
144.35
 20
-59.725
 11
144.55
 21
-59.725
  0
LINE
  8
ﾊｯﾁﾝｸﾞ
 10
142.35
 20
-61.725
 11
142.55
 21
-61.725
  0
LINE
  8
ﾊｯﾁﾝｸﾞ
 10
140.35
 20
-60.725
 11
140.55
 21
-60.725
  0
LINE
  8
ﾊｯﾁﾝｸﾞ
 10
137.35
 20
-61.725
 11
137.55
 21
-61.725
  0
LINE
  8
ﾊｯﾁﾝｸﾞ
 10
136.35
 20
-61.725
 11
136.55
 21
-61.725
  0
LINE
  8
ﾊｯﾁﾝｸﾞ
 10
143.35
 20
-57.725
 11
143.55
 21
-57.725
  0
LINE
  8
ﾊｯﾁﾝｸﾞ
 10
143.35
 20
-56.725
 11
143.55
 21
-56.725
  0
LINE
  8
ﾊｯﾁﾝｸﾞ
 10
144.35
 20
-55.725
 11
144.55
 21
-55.725
  0
LINE
  8
ﾊｯﾁﾝｸﾞ
 10
125.35
 20
-53.725
 11
125.55
 21
-53.725
  0
LINE
  8
ﾊｯﾁﾝｸﾞ
 10
145.35
 20
-53.725
 11
145.55
 21
-53.725
  0
LINE
  8
ﾊｯﾁﾝｸﾞ
 10
139.35
 20
-66.725
 11
139.55
 21
-66.725
  0
LINE
  8
ﾊｯﾁﾝｸﾞ
 10
140.35
 20
-65.725
 11
140.55
 21
-65.725
  0
LINE
  8
ﾊｯﾁﾝｸﾞ
 10
137.35
 20
-65.725
 11
137.55
 21
-65.725
  0
LINE
  8
ﾊｯﾁﾝｸﾞ
 10
142.35
 20
-65.725
 11
142.55
 21
-65.725
  0
LINE
  8
ﾊｯﾁﾝｸﾞ
 10
141.35
 20
-63.725
 11
141.55
 21
-63.725
  0
LINE
  8
ﾊｯﾁﾝｸﾞ
 10
144.35
 20
-66.725
 11
144.55
 21
-66.725
  0
LINE
  8
ﾊｯﾁﾝｸﾞ
 10
144.35
 20
-64.725
 11
144.55
 21
-64.725
  0
LINE
  8
ﾊｯﾁﾝｸﾞ
 10
126.35
 20
-64.725
 11
126.55
 21
-64.725
  0
LINE
  8
ﾊｯﾁﾝｸﾞ
 10
146.35
 20
-64.725
 11
146.55
 21
-64.725
  0
LINE
  8
ﾊｯﾁﾝｸﾞ
 10
127.35
 20
-64.725
 11
127.55
 21
-64.725
  0
LINE
  8
ﾊｯﾁﾝｸﾞ
 10
147.35
 20
-64.725
 11
147.55
 21
-64.725
  0
LINE
  8
ﾊｯﾁﾝｸﾞ
 10
127.35
 20
-63.725
 11
127.55
 21
-63.725
  0
LINE
  8
ﾊｯﾁﾝｸﾞ
 10
147.35
 20
-63.725
 11
147.55
 21
-63.725
  0
LINE
  8
ﾊｯﾁﾝｸﾞ
 10
129.35
 20
-63.725
 11
129.55
 21
-63.725
  0
LINE
  8
ﾊｯﾁﾝｸﾞ
 10
149.35
 20
-63.725
 11
149.55
 21
-63.725
  0
LINE
  8
ﾊｯﾁﾝｸﾞ
 10
131.35
 20
-63.725
 11
131.55
 21
-63.725
  0
LINE
  8
ﾊｯﾁﾝｸﾞ
 10
151.35
 20
-63.725
 11
151.55
 21
-63.725
  0
LINE
  8
ﾊｯﾁﾝｸﾞ
 10
132.35
 20
-62.7
 11
132.55
 21
-62.7
  0
LINE
  8
ﾊｯﾁﾝｸﾞ
 10
152.35
 20
-62.7
 11
152.55
 21
-62.7
  0
LINE
  8
ﾊｯﾁﾝｸﾞ
 10
134.35
 20
-66.725
 11
134.55
 21
-66.725
  0
LINE
  8
ﾊｯﾁﾝｸﾞ
 10
154.35
 20
-66.725
 11
154.55
 21
-66.725
  0
LINE
  8
ﾊｯﾁﾝｸﾞ
 10
127.35
 20
-66.725
 11
127.55
 21
-66.725
  0
LINE
  8
ﾊｯﾁﾝｸﾞ
 10
147.35
 20
-66.725
 11
147.55
 21
-66.725
  0
LINE
  8
ﾊｯﾁﾝｸﾞ
 10
128.35
 20
-54.7
 11
128.55
 21
-54.7
  0
LINE
  8
ﾊｯﾁﾝｸﾞ
 10
148.35
 20
-54.7
 11
148.55
 21
-54.7
  0
LINE
  8
ﾊｯﾁﾝｸﾞ
 10
138.35
 20
-53.725
 11
138.55
 21
-53.725
  0
LINE
  8
ﾊｯﾁﾝｸﾞ
 10
136.35
 20
-59.725
 11
136.55
 21
-59.725
  0
ENDBLK
  0
BLOCK
  2
*HAT_0006
 70
    65
 10
0.0
 20
0.0
  0
LINE
  8
ﾊｯﾁﾝｸﾞ
 10
172.35
 20
-100.1
 11
174.95
 21
-97.5
  0
LINE
  8
ﾊｯﾁﾝｸﾞ
 10
144.075
 20
-100.1
 11
174.95
 21
-69.225
  0
LINE
  8
ﾊｯﾁﾝｸﾞ
 10
124.95
 20
-90.95
 11
148.7
 21
-67.175
  0
LINE
  8
ﾊｯﾁﾝｸﾞ
 10
173.35
 20
-100.1
 11
174.95
 21
-98.5
  0
LINE
  8
ﾊｯﾁﾝｸﾞ
 10
145.075
 20
-100.1
 11
174.95
 21
-70.225
  0
LINE
  8
ﾊｯﾁﾝｸﾞ
 10
124.95
 20
-91.925
 11
149.7
 21
-67.175
  0
LINE
  8
ﾊｯﾁﾝｸﾞ
 10
174.35
 20
-100.1
 11
174.95
 21
-99.5
  0
LINE
  8
ﾊｯﾁﾝｸﾞ
 10
146.075
 20
-100.1
 11
174.95
 21
-71.225
  0
LINE
  8
ﾊｯﾁﾝｸﾞ
 10
124.95
 20
-92.925
 11
150.7
 21
-67.175
  0
ENDBLK
  0
BLOCK
  2
*GRP_0001
 70
    65
 10
0.0
 20
0.0
  0
LINE
  8
型材断面
  6
CONTINUOUS
 10
195.0
 20
133.5
 11
195.0
 21
-133.5
  0
LINE
  8
型材断面
  6
CONTINUOUS
 10
195.0
 20
-133.5
 11
-185.0
 21
-133.5
  0
LINE
  8
型材断面
  6
CONTINUOUS
 10
-185.0
 20
-133.5
 11
-185.0
 21
133.5
  0
LINE
  8
型材断面
  6
CONTINUOUS
 10
195.0
 20
133.5
 11
-185.0
 21
133.5
  0
LINE
  8
型材断面
  6
CONTINUOUS
 10
145.0
 20
-133.5
 11
145.0
 21
-118.5
  0
LINE
  8
型材断面
  6
CONTINUOUS
 10
195.0
 20
-118.5
 11
145.0
 21
-118.5
  0
ENDBLK
  0
BLOCK
  2
*GRP_0002
 70
    65
 10
0.0
 20
0.0
  0
LINE
  8
型材断面
  6
CONTINUOUS
 10
-89.994927
 20
-42.375708
 11
-90.494927
 21
-42.375708
  0
LINE
  8
型材断面
  6
CONTINUOUS
 10
-90.494927
 20
-42.375708
 11
-90.494927
 21
-46.709043
  0
LINE
  8
型材断面
  6
CONTINUOUS
 10
-89.994927
 20
-42.375708
 11
-89.994927
 21
-46.709043
  0
ARC
  8
型材断面
  6
CONTINUOUS
 10
-90.494927
 20
-46.709043
 40
0.5
 50
270.0
 51
360.0
  0
LINE
  8
型材断面
  6
CONTINUOUS
 10
-90.494927
 20
-46.709043
 11
-109.994927
 21
-46.709043
  0
LINE
  8
型材断面
  6
CONTINUOUS
 10
-164.49493
 20
-53.818765
 11
-109.96473
 21
-47.209043
  0
LINE
  8
型材断面
  6
CONTINUOUS
 10
-90.494927
 20
-47.209043
 11
-109.96473
 21
-47.209043
  0
LINE
  8
型材断面
  6
CONTINUOUS
 10
-109.994927
 20
-46.709043
 11
-164.555095
 21
-53.322397
  0
ARC
  8
型材断面
  6
CONTINUOUS
 10
-164.494928
 20
-53.818764
 40
0.5
 50
96.911228
 51
180.0
  0
LINE
  8
型材断面
  6
CONTINUOUS
 10
-164.49493
 20
-53.818765
 11
-164.49493
 21
-76.709043
  0
LINE
  8
型材断面
  6
CONTINUOUS
 10
-164.49493
 20
-76.709043
 11
-164.99493
 21
-76.709043
  0
LINE
  8
型材断面
  6
CONTINUOUS
 10
-164.99493
 20
-53.818762
 11
-164.99493
 21
-76.709043
  0
ENDBLK
  0
BLOCK
  2
*GRP_0003
 70
    65
 10
0.0
 20
0.0
  0
LINE
  8
型材断面
  6
DOT
 10
-109.494927
 20
-46.209043
 11
-109.994927
 21
-46.209043
  0
LINE
  8
型材断面
  6
DOT
 10
-109.494927
 20
-43.542375
 11
-109.994927
 21
-43.542375
  0
LINE
  8
型材断面
  6
DOT
 10
-109.619927
 20
-46.209043
 11
-109.619927
 21
-43.542375
  0
LINE
  8
型材断面
  6
DOT
 10
-109.744927
 20
-46.209043
 11
-109.744927
 21
-43.542375
  0
LINE
  8
型材断面
  6
DOT
 10
-109.869927
 20
-46.209043
 11
-109.869927
 21
-43.542375
  0
LINE
  8
型材断面
  6
CONTINUOUS
 10
-97.994927
 20
-22.709415
 11
-97.994927
 21
-20.542748
  0
LINE
  8
型材断面
  6
CONTINUOUS
 10
-97.994927
 20
-20.542748
 11
-97.494927
 21
-20.542748
  0
LINE
  8
型材断面
  6
CONTINUOUS
 10
-109.494927
 20
-23.209415
 11
-109.494927
 21
-46.209043
  0
LINE
  8
型材断面
  6
CONTINUOUS
 10
-109.494927
 20
-46.209043
 11
-91.161595
 21
-46.209043
  0
LINE
  8
型材断面
  6
CONTINUOUS
 10
-90.661595
 20
-43.375708
 11
-91.161595
 21
-43.375708
  0
LINE
  8
型材断面
  6
CONTINUOUS
 10
-91.161595
 20
-43.375708
 11
-91.161595
 21
-46.209043
  0
LINE
  8
型材断面
  6
CONTINUOUS
 10
-97.494927
 20
-20.542748
 11
-97.494927
 21
-22.709415
  0
LINE
  8
型材断面
  6
CONTINUOUS
 10
-97.994927
 20
-23.209415
 11
-109.494927
 21
-23.209415
  0
ARC
  8
型材断面
  6
CONTINUOUS
 10
-97.994924
 20
-22.709416
 40
0.5
 50
270.0
 51
360.0
  0
LINE
  8
型材断面
  6
CONTINUOUS
 10
-109.494927
 20
-22.709415
 11
-97.994927
 21
-22.709415
  0
ARC
  8
型材断面
  6
CONTINUOUS
 10
-109.494925
 20
-23.209416
 40
0.5
 50
90.0
 51
180.0
  0
LINE
  8
型材断面
  6
CONTINUOUS
 10
-109.994927
 20
-23.209415
 11
-109.994927
 21
-46.209043
  0
ARC
  8
型材断面
  6
CONTINUOUS
 10
-109.494925
 20
-46.209044
 40
0.5
 50
180.0
 51
270.0
  0
LINE
  8
型材断面
  6
CONTINUOUS
 10
-109.494927
 20
-46.709043
 11
-91.161595
 21
-46.709043
  0
LINE
  8
型材断面
  6
CONTINUOUS
 10
-90.661595
 20
-43.375708
 11
-90.661595
 21
-46.209043
  0
ARC
  8
型材断面
  6
CONTINUOUS
 10
-91.161592
 20
-46.209044
 40
0.5
 50
-90.0
 51
0.0
  0
ENDBLK
  0
BLOCK
  2
*GRP_0004
 70
    65
 10
0.0
 20
0.0
  0
LINE
  8
ゴム等
  6
CONTINUOUS
 10
-94.994795
 20
1.45726
 11
-95.494795
 21
1.45726
  0
LINE
  8
ゴム等
  6
CONTINUOUS
 10
-95.494795
 20
-0.37609
 11
-95.494795
 21
1.45726
  0
LINE
  8
ゴム等
  6
CONTINUOUS
 10
-98.32812
 20
-0.709415
 11
-95.82812
 21
-0.709415
  0
LINE
  8
ゴム等
  6
CONTINUOUS
 10
-95.494795
 20
-0.37609
 11
-95.82812
 21
-0.709415
  0
LINE
  8
ゴム等
  6
CONTINUOUS
 10
-94.994795
 20
1.45726
 11
-94.994795
 21
1.95726
  0
LINE
  8
ゴム等
  6
CONTINUOUS
 10
-94.994795
 20
1.95726
 11
-98.32812
 21
1.95726
  0
LINE
  8
ゴム等
  6
CONTINUOUS
 10
-98.32812
 20
-0.709415
 11
-98.32812
 21
1.95726
  0
LINE
  8
ゴム等
  6
CONTINUOUS
 10
-95.321545
 20
1.95726
 11
-94.994795
 21
1.63051
  0
LINE
  8
ゴム等
  6
CONTINUOUS
 10
-95.792945
 20
1.95726
 11
-95.292945
 21
1.45726
  0
LINE
  8
ゴム等
  6
CONTINUOUS
 10
-96.264345
 20
1.95726
 11
-95.494795
 21
1.187685
  0
LINE
  8
ゴム等
  6
CONTINUOUS
 10
-96.735745
 20
1.95726
 11
-95.494795
 21
0.716285
  0
LINE
  8
ゴム等
  6
CONTINUOUS
 10
-97.207145
 20
1.95726
 11
-95.494795
 21
0.244885
  0
LINE
  8
ゴム等
  6
CONTINUOUS
 10
-97.67857
 20
1.95726
 11
-95.494795
 21
-0.226515
  0
LINE
  8
ゴム等
  6
CONTINUOUS
 10
-98.14997
 20
1.95726
 11
-95.65572
 21
-0.537015
  0
LINE
  8
ゴム等
  6
CONTINUOUS
 10
-98.32812
 20
1.66401
 11
-95.95472
 21
-0.709415
  0
LINE
  8
ゴム等
  6
CONTINUOUS
 10
-98.32812
 20
1.19261
 11
-96.42612
 21
-0.709415
  0
LINE
  8
ゴム等
  6
CONTINUOUS
 10
-98.32812
 20
0.721185
 11
-96.89752
 21
-0.709415
  0
LINE
  8
ゴム等
  6
CONTINUOUS
 10
-98.32812
 20
0.249785
 11
-97.36892
 21
-0.709415
  0
LINE
  8
ゴム等
  6
CONTINUOUS
 10
-98.32812
 20
-0.221615
 11
-97.84032
 21
-0.709415
  0
ENDBLK
  0
BLOCK
  2
*GRP_0005
 70
    65
 10
0.0
 20
0.0
  0
LINE
  8
ゴム等
  6
CONTINUOUS
 62
    63
 10
-103.328262
 20
6.289768
 11
-103.328262
 21
7.289768
  0
LINE
  8
ゴム等
  6
CONTINUOUS
 62
    63
 10
-109.99493
 20
6.289768
 11
-109.99493
 21
7.289768
  0
LINE
  8
ゴム等
  6
CONTINUOUS
 62
    63
 10
-103.328262
 20
6.289768
 11
-109.99493
 21
6.289768
  0
LINE
  8
ゴム等
  6
CONTINUOUS
 62
    63
 10
-109.74033
 20
6.289768
 11
-109.99493
 21
6.544368
  0
LINE
  8
ゴム等
  6
CONTINUOUS
 62
    63
 10
-109.26893
 20
6.289768
 11
-109.99493
 21
7.015768
  0
LINE
  8
ゴム等
  6
CONTINUOUS
 62
    63
 10
-108.797523
 20
6.289768
 11
-109.797523
 21
7.289768
  0
LINE
  8
ゴム等
  6
CONTINUOUS
 62
    63
 10
-108.326123
 20
6.289768
 11
-109.326123
 21
7.289768
  0
LINE
  8
ゴム等
  6
CONTINUOUS
 62
    63
 10
-107.854713
 20
6.289768
 11
-108.854713
 21
7.289768
  0
LINE
  8
ゴム等
  6
CONTINUOUS
 62
    63
 10
-107.383313
 20
6.289768
 11
-108.383313
 21
7.289768
  0
LINE
  8
ゴム等
  6
CONTINUOUS
 62
    63
 10
-106.911905
 20
6.289768
 11
-107.911905
 21
7.289768
  0
LINE
  8
ゴム等
  6
CONTINUOUS
 62
    63
 10
-106.440498
 20
6.289768
 11
-107.440498
 21
7.289768
  0
LINE
  8
ゴム等
  6
CONTINUOUS
 62
    63
 10
-105.969098
 20
6.289768
 11
-106.969098
 21
7.289768
  0
LINE
  8
ゴム等
  6
CONTINUOUS
 62
    63
 10
-105.497688
 20
6.289768
 11
-106.497688
 21
7.289768
  0
LINE
  8
ゴム等
  6
CONTINUOUS
 62
    63
 10
-105.026288
 20
6.289768
 11
-106.026288
 21
7.289768
  0
LINE
  8
ゴム等
  6
CONTINUOUS
 62
    63
 10
-104.55488
 20
6.289768
 11
-105.55488
 21
7.289768
  0
LINE
  8
ゴム等
  6
CONTINUOUS
 62
    63
 10
-104.08348
 20
6.289768
 11
-105.08348
 21
7.289768
  0
LINE
  8
ゴム等
  6
CONTINUOUS
 62
    63
 10
-103.612072
 20
6.289768
 11
-104.612072
 21
7.289768
  0
LINE
  8
ゴム等
  6
CONTINUOUS
 62
    63
 10
-103.328262
 20
6.477368
 11
-104.140672
 21
7.289768
  0
LINE
  8
ゴム等
  6
CONTINUOUS
 62
    63
 10
-103.328262
 20
6.948768
 11
-103.669262
 21
7.289768
  0
LINE
  8
ゴム等
  6
CONTINUOUS
 10
-103.328262
 20
7.289768
 11
-109.99493
 21
7.289768
  0
ENDBLK
  0
BLOCK
  2
*GRP_0006
 70
    65
 10
0.0
 20
0.0
  0
LINE
  8
ゴム等
  6
CONTINUOUS
 10
-99.32826
 20
-21.042748
 11
-99.32826
 21
-20.709415
  0
LINE
  8
ゴム等
  6
CONTINUOUS
 10
-99.32826
 20
-20.709415
 11
-97.994927
 21
-20.709415
  0
LINE
  8
ゴム等
  6
CONTINUOUS
 10
-97.994927
 20
-20.709415
 11
-97.994927
 21
-22.709415
  0
LINE
  8
ゴム等
  6
CONTINUOUS
 10
-97.994927
 20
-22.709415
 11
-102.32826
 21
-22.709415
  0
LINE
  8
ゴム等
  6
CONTINUOUS
 10
-100.661595
 20
-20.709415
 11
-101.994895
 21
-20.718542
  0
LINE
  8
ゴム等
  6
CONTINUOUS
 10
-101.994895
 20
-20.718542
 11
-101.994268
 21
-20.810605
  0
ARC
  8
ゴム等
  6
CONTINUOUS
 10
-103.384137
 20
-20.840671
 40
0.133333
 50
84.469308
 51
267.338712
  0
LINE
  8
ゴム等
  6
CONTINUOUS
 10
-103.371285
 20
-20.707957
 11
-102.263355
 21
-20.803415
  0
LINE
  8
ゴム等
  6
CONTINUOUS
 10
-101.994268
 20
-20.810605
 11
-102.263353
 21
-20.803415
  0
LINE
  8
ゴム等
  6
CONTINUOUS
 10
-103.390327
 20
-20.973858
 11
-102.32826
 21
-21.133702
  0
LINE
  8
ゴム等
  6
CONTINUOUS
 10
-102.32826
 20
-22.709415
 11
-102.32826
 21
-21.133702
  0
LINE
  8
ゴム等
  6
CONTINUOUS
 10
-100.661595
 20
-20.709415
 11
-100.691043
 21
-21.042748
  0
LINE
  8
ゴム等
  6
CONTINUOUS
 10
-99.32826
 20
-21.042748
 11
-100.691043
 21
-21.042748
  0
LINE
  8
ゴム等
  6
CONTINUOUS
 10
-100.859093
 20
-20.710768
 11
-98.860445
 21
-22.709415
  0
LINE
  8
ゴム等
  6
CONTINUOUS
 10
-101.327287
 20
-20.713973
 11
-99.331845
 21
-22.709415
  0
LINE
  8
ゴム等
  6
CONTINUOUS
 10
-101.795488
 20
-20.717177
 11
-99.80325
 21
-22.709415
  0
LINE
  8
ゴム等
  6
CONTINUOUS
 10
-102.172858
 20
-20.811212
 11
-100.274655
 21
-22.709415
  0
LINE
  8
ゴム等
  6
CONTINUOUS
 10
-102.688707
 20
-20.766767
 11
-100.74606
 21
-22.709415
  0
LINE
  8
ゴム等
  6
CONTINUOUS
 10
-100.055707
 20
-21.042748
 11
-98.38904
 21
-22.709415
  0
LINE
  8
ゴム等
  6
CONTINUOUS
 10
-99.584303
 20
-21.042748
 11
-97.994927
 21
-22.632122
  0
LINE
  8
ゴム等
  6
CONTINUOUS
 10
-99.32826
 20
-20.827385
 11
-97.994927
 21
-22.160718
  0
LINE
  8
ゴム等
  6
CONTINUOUS
 10
-98.974825
 20
-20.709415
 11
-97.994927
 21
-21.689312
  0
LINE
  8
ゴム等
  6
CONTINUOUS
 10
-98.50342
 20
-20.709415
 11
-97.994927
 21
-21.217908
  0
LINE
  8
ゴム等
  6
CONTINUOUS
 10
-102.160275
 20
-22.709415
 11
-102.32826
 21
-22.54143
  0
LINE
  8
ゴム等
  6
CONTINUOUS
 10
-101.68887
 20
-22.709415
 11
-102.32826
 21
-22.070025
  0
LINE
  8
ゴム等
  6
CONTINUOUS
 10
-103.204558
 20
-20.722322
 11
-102.875545
 21
-21.051335
  0
LINE
  8
ゴム等
  6
CONTINUOUS
 10
-102.32826
 20
-21.59862
 11
-101.217465
 21
-22.709415
  0
ENDBLK
  0
BLOCK
  2
*GRP_0007
 70
    65
 10
0.0
 20
0.0
  0
POLYLINE
  8
ゴム等
  6
DOT
 66
     1
 70
     1
  0
VERTEX
  8
ゴム等
 10
-109.494927
 20
-16.876083
  0
VERTEX
  8
ゴム等
 10
-106.161595
 20
-16.876083
  0
VERTEX
  8
ゴム等
 10
-106.161595
 20
-20.209415
  0
VERTEX
  8
ゴム等
 10
-109.494927
 20
-20.209415
  0
SEQEND
  0
LINE
  8
ゴム等
  6
DOT
 10
-108.956523
 20
-20.209415
 11
-109.494927
 21
-19.67101
  0
LINE
  8
ゴム等
  6
DOT
 10
-108.485117
 20
-20.209415
 11
-109.494927
 21
-19.199605
  0
LINE
  8
ゴム等
  6
DOT
 10
-108.013713
 20
-20.209415
 11
-109.494927
 21
-18.7282
  0
LINE
  8
ゴム等
  6
DOT
 10
-107.542307
 20
-20.209415
 11
-109.494927
 21
-18.256795
  0
LINE
  8
ゴム等
  6
DOT
 10
-107.070903
 20
-20.209415
 11
-109.494927
 21
-17.78539
  0
LINE
  8
ゴム等
  6
DOT
 10
-106.599497
 20
-20.209415
 11
-109.494927
 21
-17.313985
  0
LINE
  8
ゴム等
  6
DOT
 10
-106.161595
 20
-20.175912
 11
-109.461425
 21
-16.876083
  0
LINE
  8
ゴム等
  6
DOT
 10
-106.161595
 20
-19.704507
 11
-108.99002
 21
-16.876083
  0
LINE
  8
ゴム等
  6
DOT
 10
-106.161595
 20
-17.347487
 11
-106.633
 21
-16.876083
  0
LINE
  8
ゴム等
  6
DOT
 10
-106.161595
 20
-17.818893
 11
-107.104405
 21
-16.876083
  0
LINE
  8
ゴム等
  6
DOT
 10
-106.161595
 20
-18.290297
 11
-107.57581
 21
-16.876083
  0
LINE
  8
ゴム等
  6
DOT
 10
-106.161595
 20
-18.761702
 11
-108.047215
 21
-16.876083
  0
LINE
  8
ゴム等
  6
DOT
 10
-106.161595
 20
-19.233108
 11
-108.51862
 21
-16.876083
  0
ENDBLK
  0
BLOCK
  2
*GRP_0008
 70
    65
 10
0.0
 20
0.0
  0
POLYLINE
  8
ゴム等
  6
DOT
 66
     1
 70
     1
  0
VERTEX
  8
ゴム等
 10
-109.494927
 20
-42.87571
  0
VERTEX
  8
ゴム等
 10
-106.161595
 20
-42.87571
  0
VERTEX
  8
ゴム等
 10
-106.161595
 20
-46.209043
  0
VERTEX
  8
ゴム等
 10
-109.494927
 20
-46.209043
  0
SEQEND
  0
LINE
  8
ゴム等
  6
DOT
 10
-108.956523
 20
-46.209043
 11
-109.494927
 21
-45.670637
  0
LINE
  8
ゴム等
  6
DOT
 10
-108.485117
 20
-46.209043
 11
-109.494927
 21
-45.199233
  0
LINE
  8
ゴム等
  6
DOT
 10
-108.013713
 20
-46.209043
 11
-109.494927
 21
-44.727827
  0
LINE
  8
ゴム等
  6
DOT
 10
-107.542307
 20
-46.209043
 11
-109.494927
 21
-44.256423
  0
LINE
  8
ゴム等
  6
DOT
 10
-107.070903
 20
-46.209043
 11
-109.494927
 21
-43.785017
  0
LINE
  8
ゴム等
  6
DOT
 10
-106.599497
 20
-46.209043
 11
-109.494927
 21
-43.313612
  0
LINE
  8
ゴム等
  6
DOT
 10
-106.161595
 20
-46.17554
 11
-109.461425
 21
-42.87571
  0
LINE
  8
ゴム等
  6
DOT
 10
-106.161595
 20
-45.704135
 11
-108.99002
 21
-42.87571
  0
LINE
  8
ゴム等
  6
DOT
 10
-106.161595
 20
-43.347115
 11
-106.633
 21
-42.87571
  0
LINE
  8
ゴム等
  6
DOT
 10
-106.161595
 20
-43.81852
 11
-107.104405
 21
-42.87571
  0
LINE
  8
ゴム等
  6
DOT
 10
-106.161595
 20
-44.289925
 11
-107.57581
 21
-42.87571
  0
LINE
  8
ゴム等
  6
DOT
 10
-106.161595
 20
-44.76133
 11
-108.047215
 21
-42.87571
  0
LINE
  8
ゴム等
  6
DOT
 10
-106.161595
 20
-45.232735
 11
-108.51862
 21
-42.87571
  0
ENDBLK
  0
BLOCK
  2
*GRP_0009
 70
    65
 10
0.0
 20
0.0
  0
ARC
  8
ボルト／ビス
  6
CONTINUOUS
 62
    64
 10
-107.828133
 20
3.289765
 40
0.333333
 50
180.0
 51
270.0
  0
LINE
  8
ボルト／ビス
  6
CONTINUOUS
 62
    64
 10
-105.494795
 20
2.956402
 11
-107.828133
 21
2.956402
  0
ARC
  8
ボルト／ビス
  6
CONTINUOUS
 62
    64
 10
-105.494799
 20
3.289765
 40
0.333333
 50
270.0
 51
360.0
  0
LINE
  8
ボルト／ビス
  6
CONTINUOUS
 62
    64
 10
-104.994795
 20
6.456402
 11
-104.994795
 21
6.289738
  0
LINE
  8
ボルト／ビス
  6
CONTINUOUS
 62
    64
 10
-108.328133
 20
6.456402
 11
-108.328133
 21
6.289738
  0
LINE
  8
ボルト／ビス
  6
CONTINUOUS
 62
    64
 10
-104.994795
 20
6.456402
 11
-108.328133
 21
6.456402
  0
LINE
  8
ボルト／ビス
  6
CONTINUOUS
 62
    64
 10
-104.994795
 20
6.289738
 11
-108.328133
 21
6.289738
  0
LINE
  8
ボルト／ビス
  6
CONTINUOUS
 62
    64
 10
-105.16147
 20
3.289738
 11
-105.16147
 21
5.289738
  0
LINE
  8
ボルト／ビス
  6
CONTINUOUS
 62
    64
 10
-105.16147
 20
5.789738
 11
-105.16147
 21
6.289738
  0
LINE
  8
ボルト／ビス
  6
CONTINUOUS
 62
    64
 10
-108.16147
 20
6.289738
 11
-108.16147
 21
5.789738
  0
LINE
  8
ボルト／ビス
  6
CONTINUOUS
 62
    64
 10
-108.16147
 20
5.289738
 11
-108.16147
 21
3.289738
  0
LINE
  8
ボルト／ビス
  6
CONTINUOUS
 62
    64
 10
-104.744795
 20
5.789738
 11
-106.66147
 21
5.789738
  0
ARC
  8
ボルト／ビス
  6
CONTINUOUS
 62
    64
 10
-104.744799
 20
5.539765
 40
0.25
 50
0.0
 51
90.0
  0
LINE
  8
ボルト／ビス
  6
CONTINUOUS
 62
    64
 10
-104.494795
 20
5.539738
 11
-104.494795
 21
5.539738
  0
LINE
  8
ボルト／ビス
  6
CONTINUOUS
 62
    64
 10
-104.744795
 20
5.289738
 11
-106.66147
 21
5.289738
  0
ARC
  8
ボルト／ビス
  6
CONTINUOUS
 62
    64
 10
-104.744799
 20
5.539765
 40
0.25
 50
-90.0
 51
0.0
  0
LINE
  8
ボルト／ビス
  6
CONTINUOUS
 62
    64
 10
-108.828133
 20
5.539738
 11
-108.828133
 21
5.539738
  0
LINE
  8
ボルト／ビス
  6
CONTINUOUS
 62
    64
 10
-106.66147
 20
5.789738
 11
-108.494795
 21
5.789738
  0
LINE
  8
ボルト／ビス
  6
CONTINUOUS
 62
    64
 10
-106.66147
 20
5.289738
 11
-108.494795
 21
5.289738
  0
LINE
  8
ボルト／ビス
  6
CONTINUOUS
 62
    64
 10
-108.494795
 20
5.789738
 11
-108.494795
 21
5.289738
  0
ENDBLK
  0
BLOCK
  2
*GRP_0010
 70
    65
 10
0.0
 20
0.0
  0
LINE
  8
ボルト／ビス
  6
CONTINUOUS
 10
-110.328133
 20
8.290937
 11
-110.328133
 21
8.957612
  0
LINE
  8
ボルト／ビス
  6
CONTINUOUS
 10
-110.328133
 20
8.957612
 11
-102.994795
 21
8.957612
  0
LINE
  8
ボルト／ビス
  6
CONTINUOUS
 10
-102.994795
 20
8.957612
 11
-102.994795
 21
8.290937
  0
LINE
  8
ボルト／ビス
  6
CONTINUOUS
 10
-110.328133
 20
8.290937
 11
-102.994795
 21
8.290937
  0
LINE
  8
ボルト／ビス
  6
CONTINUOUS
 10
-109.66147
 20
9.290937
 11
-109.66147
 21
8.957612
  0
LINE
  8
ボルト／ビス
  6
CONTINUOUS
 10
-109.66147
 20
9.290937
 11
-103.66147
 21
9.290937
  0
LINE
  8
ボルト／ビス
  6
CONTINUOUS
 10
-103.66147
 20
9.290937
 11
-103.66147
 21
8.957612
  0
LINE
  8
ボルト／ビス
  6
CONTINUOUS
 62
    64
 10
-108.26522
 20
11.290937
 11
-108.58597
 21
11.174202
  0
ARC
  8
ボルト／ビス
  6
CONTINUOUS
 62
    64
 10
-108.104841
 20
10.24119
 40
1.049784
 50
62.721967
 51
90.0
  0
ARC
  8
ボルト／ビス
  6
CONTINUOUS
 62
    64
 10
-106.661465
 20
7.266952
 40
4.024022
 50
76.165002
 51
103.834985
  0
LINE
  8
ボルト／ビス
  6
CONTINUOUS
 62
    64
 10
-105.05772
 20
11.290937
 11
-104.73697
 21
11.174202
  0
ARC
  8
ボルト／ビス
  6
CONTINUOUS
 62
    64
 10
-105.218089
 20
10.24119
 40
1.049784
 50
90.0
 51
117.278033
  0
LINE
  8
ボルト／ビス
  6
CONTINUOUS
 62
    64
 10
-108.26522
 20
11.290937
 11
-105.05772
 21
11.290937
  0
LINE
  8
ボルト／ビス
  6
CONTINUOUS
 62
    64
 10
-104.73697
 20
11.174202
 11
-104.73697
 21
9.957612
  0
LINE
  8
ボルト／ビス
  6
CONTINUOUS
 62
    64
 10
-105.69922
 20
11.174202
 11
-105.69922
 21
9.957612
  0
LINE
  8
ボルト／ビス
  6
CONTINUOUS
 62
    64
 10
-108.58597
 20
11.174202
 11
-108.58597
 21
9.957612
  0
LINE
  8
ボルト／ビス
  6
CONTINUOUS
 62
    64
 10
-107.62372
 20
11.174202
 11
-107.62372
 21
9.957612
  0
LINE
  8
ボルト／ビス
  6
CONTINUOUS
 10
-108.58597
 20
9.957612
 11
-104.73697
 21
9.957612
  0
LINE
  8
ボルト／ビス
  6
CONTINUOUS
 10
-108.66147
 20
9.957612
 11
-108.66147
 21
9.290937
  0
LINE
  8
ボルト／ビス
  6
CONTINUOUS
 10
-108.66147
 20
9.957612
 11
-104.66147
 21
9.957612
  0
LINE
  8
ボルト／ビス
  6
CONTINUOUS
 10
-104.66147
 20
9.957612
 11
-104.66147
 21
9.290937
  0
LINE
  8
ボルト／ビス
  6
CONTINUOUS
 62
    64
 10
-105.894795
 20
8.290937
 11
-105.894795
 21
1.624287
  0
LINE
  8
ボルト／ビス
  6
CONTINUOUS
 62
    64
 10
-107.428132
 20
8.290937
 11
-107.428132
 21
1.624287
  0
LINE
  8
ボルト／ビス
  6
CONTINUOUS
 62
    64
 10
-107.428132
 20
1.624287
 11
-105.894795
 21
1.624287
  0
LINE
  8
ボルト／ビス
  6
CONTINUOUS
 62
    64
 10
-105.66147
 20
1.957612
 11
-105.894795
 21
1.624287
  0
LINE
  8
ボルト／ビス
  6
CONTINUOUS
 62
    64
 10
-107.66147
 20
1.957612
 11
-107.428132
 21
1.624287
  0
LINE
  8
ボルト／ビス
  6
CONTINUOUS
 62
    64
 10
-107.66147
 20
1.957612
 11
-105.66147
 21
1.957612
  0
LINE
  8
ボルト／ビス
  6
CONTINUOUS
 62
    64
 10
-107.428132
 20
1.624287
 11
-105.894795
 21
1.624287
  0
LINE
  8
ボルト／ビス
  6
CONTINUOUS
 62
    64
 10
-107.66147
 20
8.290937
 11
-107.66147
 21
1.957612
  0
LINE
  8
ボルト／ビス
  6
CONTINUOUS
 62
    64
 10
-105.66147
 20
8.290937
 11
-105.66147
 21
1.957612
  0
ENDBLK
  0
BLOCK
  2
*GRP_0011
 70
    65
 10
0.0
 20
0.0
  0
LINE
  8
ボルト／ビス
  6
CONTINUOUS
 10
-110.994927
 20
-34.376073
 11
-110.228252
 21
-33.709415
  0
LINE
  8
ボルト／ビス
  6
CONTINUOUS
 10
-110.994927
 20
-31.709415
 11
-110.228252
 21
-32.376073
  0
LINE
  8
ボルト／ビス
  6
CONTINUOUS
 10
-107.828252
 20
-33.709415
 11
-107.661595
 21
-33.54274
  0
LINE
  8
ボルト／ビス
  6
CONTINUOUS
 10
-107.828252
 20
-32.376073
 11
-107.661595
 21
-32.54274
  0
LINE
  8
ボルト／ビス
  6
CONTINUOUS
 10
-107.661595
 20
-33.54274
 11
-107.661595
 21
-32.54274
  0
LINE
  8
ボルト／ビス
  6
CONTINUOUS
 10
-107.828252
 20
-32.376073
 11
-107.828252
 21
-33.709415
  0
LINE
  8
ボルト／ビス
  6
CONTINUOUS
 10
-107.828252
 20
-33.709415
 11
-110.228252
 21
-33.709415
  0
LINE
  8
ボルト／ビス
  6
CONTINUOUS
 10
-107.661595
 20
-33.54274
 11
-110.228252
 21
-33.54274
  0
LINE
  8
ボルト／ビス
  6
CONTINUOUS
 10
-107.661595
 20
-32.54274
 11
-110.228252
 21
-32.54274
  0
LINE
  8
ボルト／ビス
  6
CONTINUOUS
 10
-107.828252
 20
-32.376073
 11
-110.228252
 21
-32.376073
  0
LINE
  8
ボルト／ビス
  6
CONTINUOUS
 10
-110.994927
 20
-34.376073
 11
-110.994927
 21
-31.709415
  0
LINE
  8
ボルト／ビス
  6
CONTINUOUS
 10
-110.228252
 20
-33.709415
 11
-110.228252
 21
-32.376073
  0
LINE
  8
ボルト／ビス
  6
CONTINUOUS
 10
-106.289827
 20
-33.04274
 11
-112.047703
 21
-33.04274
  0
ENDBLK
  0
BLOCK
  2
*GRP_0012
 70
    65
 10
0.0
 20
0.0
  0
LINE
  8
ボルト／ビス
  6
CONTINUOUS
 10
-110.994927
 20
-31.709415
 11
-110.228252
 21
-31.04274
  0
LINE
  8
ボルト／ビス
  6
CONTINUOUS
 10
-110.994927
 20
-29.04274
 11
-110.228252
 21
-29.709415
  0
LINE
  8
ボルト／ビス
  6
CONTINUOUS
 10
-107.828252
 20
-31.04274
 11
-107.661595
 21
-30.876073
  0
LINE
  8
ボルト／ビス
  6
CONTINUOUS
 10
-107.828252
 20
-29.709415
 11
-107.661595
 21
-29.876073
  0
LINE
  8
ボルト／ビス
  6
CONTINUOUS
 10
-107.661595
 20
-30.876073
 11
-107.661595
 21
-29.876073
  0
LINE
  8
ボルト／ビス
  6
CONTINUOUS
 10
-107.828252
 20
-29.709415
 11
-107.828252
 21
-31.04274
  0
LINE
  8
ボルト／ビス
  6
CONTINUOUS
 10
-107.828252
 20
-31.04274
 11
-110.228252
 21
-31.04274
  0
LINE
  8
ボルト／ビス
  6
CONTINUOUS
 10
-107.661595
 20
-30.876073
 11
-110.228252
 21
-30.876073
  0
LINE
  8
ボルト／ビス
  6
CONTINUOUS
 10
-107.661595
 20
-29.876073
 11
-110.228252
 21
-29.876073
  0
LINE
  8
ボルト／ビス
  6
CONTINUOUS
 10
-107.828252
 20
-29.709415
 11
-110.228252
 21
-29.709415
  0
LINE
  8
ボルト／ビス
  6
CONTINUOUS
 10
-110.994927
 20
-31.709415
 11
-110.994927
 21
-29.04274
  0
LINE
  8
ボルト／ビス
  6
CONTINUOUS
 10
-110.228252
 20
-31.04274
 11
-110.228252
 21
-29.709415
  0
LINE
  8
ボルト／ビス
  6
CONTINUOUS
 10
-106.289827
 20
-30.376073
 11
-112.047703
 21
-30.376073
  0
ENDBLK
  0
BLOCK
  2
*GRP_0013
 70
    65
 10
0.0
 20
0.0
  0
LINE
  8
ボルト／ビス
  6
CONTINUOUS
 10
-110.994927
 20
-29.04274
 11
-110.228252
 21
-28.376073
  0
LINE
  8
ボルト／ビス
  6
CONTINUOUS
 10
-110.994927
 20
-26.376073
 11
-110.228252
 21
-27.04274
  0
LINE
  8
ボルト／ビス
  6
CONTINUOUS
 10
-107.828252
 20
-28.376073
 11
-107.661595
 21
-28.209415
  0
LINE
  8
ボルト／ビス
  6
CONTINUOUS
 10
-107.828252
 20
-27.04274
 11
-107.661595
 21
-27.209415
  0
LINE
  8
ボルト／ビス
  6
CONTINUOUS
 10
-107.661595
 20
-28.209415
 11
-107.661595
 21
-27.209415
  0
LINE
  8
ボルト／ビス
  6
CONTINUOUS
 10
-107.828252
 20
-27.04274
 11
-107.828252
 21
-28.376073
  0
LINE
  8
ボルト／ビス
  6
CONTINUOUS
 10
-107.828252
 20
-28.376073
 11
-110.228252
 21
-28.376073
  0
LINE
  8
ボルト／ビス
  6
CONTINUOUS
 10
-107.661595
 20
-28.209415
 11
-110.228252
 21
-28.209415
  0
LINE
  8
ボルト／ビス
  6
CONTINUOUS
 10
-107.661595
 20
-27.209415
 11
-110.228252
 21
-27.209415
  0
LINE
  8
ボルト／ビス
  6
CONTINUOUS
 10
-107.828252
 20
-27.04274
 11
-110.228252
 21
-27.04274
  0
LINE
  8
ボルト／ビス
  6
CONTINUOUS
 10
-110.994927
 20
-29.04274
 11
-110.994927
 21
-26.376073
  0
LINE
  8
ボルト／ビス
  6
CONTINUOUS
 10
-110.228252
 20
-28.376073
 11
-110.228252
 21
-27.04274
  0
LINE
  8
ボルト／ビス
  6
CONTINUOUS
 10
-106.289827
 20
-27.709415
 11
-112.047703
 21
-27.709415
  0
ENDBLK
  0
BLOCK
  2
*GRP_0014
 70
    65
 10
0.0
 20
0.0
  0
LINE
  8
ボルト／ビス
  6
CONTINUOUS
 10
-110.994927
 20
-9.04274
 11
-110.228252
 21
-9.709415
  0
LINE
  8
ボルト／ビス
  6
CONTINUOUS
 10
-110.994927
 20
-11.709415
 11
-110.228252
 21
-11.04274
  0
LINE
  8
ボルト／ビス
  6
CONTINUOUS
 10
-107.828252
 20
-9.709415
 11
-107.661595
 21
-9.876073
  0
LINE
  8
ボルト／ビス
  6
CONTINUOUS
 10
-107.828252
 20
-11.04274
 11
-107.661595
 21
-10.876073
  0
LINE
  8
ボルト／ビス
  6
CONTINUOUS
 10
-107.661595
 20
-9.876073
 11
-107.661595
 21
-10.876073
  0
LINE
  8
ボルト／ビス
  6
CONTINUOUS
 10
-107.828252
 20
-11.04274
 11
-107.828252
 21
-9.709415
  0
LINE
  8
ボルト／ビス
  6
CONTINUOUS
 10
-107.828252
 20
-9.709415
 11
-110.228252
 21
-9.709415
  0
LINE
  8
ボルト／ビス
  6
CONTINUOUS
 10
-107.661595
 20
-9.876073
 11
-110.228252
 21
-9.876073
  0
LINE
  8
ボルト／ビス
  6
CONTINUOUS
 10
-107.661595
 20
-10.876073
 11
-110.228252
 21
-10.876073
  0
LINE
  8
ボルト／ビス
  6
CONTINUOUS
 10
-107.828252
 20
-11.04274
 11
-110.228252
 21
-11.04274
  0
LINE
  8
ボルト／ビス
  6
CONTINUOUS
 10
-110.994927
 20
-9.04274
 11
-110.994927
 21
-11.709415
  0
LINE
  8
ボルト／ビス
  6
CONTINUOUS
 10
-110.228252
 20
-9.709415
 11
-110.228252
 21
-11.04274
  0
LINE
  8
ボルト／ビス
  6
CONTINUOUS
 10
-106.289827
 20
-10.376073
 11
-112.047703
 21
-10.376073
  0
ENDBLK
  0
BLOCK
  2
*GRP_0015
 70
    65
 10
0.0
 20
0.0
  0
LINE
  8
ボルト／ビス
  6
CONTINUOUS
 10
-110.994927
 20
-11.709415
 11
-110.228252
 21
-12.376073
  0
LINE
  8
ボルト／ビス
  6
CONTINUOUS
 10
-110.994927
 20
-14.376073
 11
-110.228252
 21
-13.709415
  0
LINE
  8
ボルト／ビス
  6
CONTINUOUS
 10
-107.828252
 20
-12.376073
 11
-107.661595
 21
-12.54274
  0
LINE
  8
ボルト／ビス
  6
CONTINUOUS
 10
-107.828252
 20
-13.709415
 11
-107.661595
 21
-13.54274
  0
LINE
  8
ボルト／ビス
  6
CONTINUOUS
 10
-107.661595
 20
-12.54274
 11
-107.661595
 21
-13.54274
  0
LINE
  8
ボルト／ビス
  6
CONTINUOUS
 10
-107.828252
 20
-13.709415
 11
-107.828252
 21
-12.376073
  0
LINE
  8
ボルト／ビス
  6
CONTINUOUS
 10
-107.828252
 20
-12.376073
 11
-110.228252
 21
-12.376073
  0
LINE
  8
ボルト／ビス
  6
CONTINUOUS
 10
-107.661595
 20
-12.54274
 11
-110.228252
 21
-12.54274
  0
LINE
  8
ボルト／ビス
  6
CONTINUOUS
 10
-107.661595
 20
-13.54274
 11
-110.228252
 21
-13.54274
  0
LINE
  8
ボルト／ビス
  6
CONTINUOUS
 10
-107.828252
 20
-13.709415
 11
-110.228252
 21
-13.709415
  0
LINE
  8
ボルト／ビス
  6
CONTINUOUS
 10
-110.994927
 20
-11.709415
 11
-110.994927
 21
-14.376073
  0
LINE
  8
ボルト／ビス
  6
CONTINUOUS
 10
-110.228252
 20
-12.376073
 11
-110.228252
 21
-13.709415
  0
LINE
  8
ボルト／ビス
  6
CONTINUOUS
 10
-106.289827
 20
-13.04274
 11
-112.047703
 21
-13.04274
  0
ENDBLK
  0
BLOCK
  2
*GRP_0016
 70
    65
 10
0.0
 20
0.0
  0
LINE
  8
ボルト／ビス
  6
CONTINUOUS
 10
-110.994927
 20
-14.376073
 11
-110.228252
 21
-15.04274
  0
LINE
  8
ボルト／ビス
  6
CONTINUOUS
 10
-110.994927
 20
-17.04274
 11
-110.228252
 21
-16.376073
  0
LINE
  8
ボルト／ビス
  6
CONTINUOUS
 10
-107.828252
 20
-15.04274
 11
-107.661595
 21
-15.209415
  0
LINE
  8
ボルト／ビス
  6
CONTINUOUS
 10
-107.828252
 20
-16.376073
 11
-107.661595
 21
-16.209415
  0
LINE
  8
ボルト／ビス
  6
CONTINUOUS
 10
-107.661595
 20
-15.209415
 11
-107.661595
 21
-16.209415
  0
LINE
  8
ボルト／ビス
  6
CONTINUOUS
 10
-107.828252
 20
-16.376073
 11
-107.828252
 21
-15.04274
  0
LINE
  8
ボルト／ビス
  6
CONTINUOUS
 10
-107.828252
 20
-15.04274
 11
-110.228252
 21
-15.04274
  0
LINE
  8
ボルト／ビス
  6
CONTINUOUS
 10
-107.661595
 20
-15.209415
 11
-110.228252
 21
-15.209415
  0
LINE
  8
ボルト／ビス
  6
CONTINUOUS
 10
-107.661595
 20
-16.209415
 11
-110.228252
 21
-16.209415
  0
LINE
  8
ボルト／ビス
  6
CONTINUOUS
 10
-107.828252
 20
-16.376073
 11
-110.228252
 21
-16.376073
  0
LINE
  8
ボルト／ビス
  6
CONTINUOUS
 10
-110.994927
 20
-14.376073
 11
-110.994927
 21
-17.04274
  0
LINE
  8
ボルト／ビス
  6
CONTINUOUS
 10
-110.228252
 20
-15.04274
 11
-110.228252
 21
-16.376073
  0
LINE
  8
ボルト／ビス
  6
CONTINUOUS
 10
-106.289827
 20
-15.709415
 11
-112.047703
 21
-15.709415
  0
ENDBLK
  0
BLOCK
  2
*GRP_0017
 70
    65
 10
0.0
 20
0.0
  0
LINE
  8
ボルト／ビス
  6
CONTINUOUS
 62
    64
 10
-126.328255
 20
-62.111333
 11
-126.09257
 21
-61.875658
  0
LINE
  8
ボルト／ビス
  6
CONTINUOUS
 62
    64
 10
-126.09257
 20
-61.875658
 11
-123.897345
 21
-61.875658
  0
LINE
  8
ボルト／ビス
  6
CONTINUOUS
 62
    64
 10
-123.897345
 20
-61.875658
 11
-123.66157
 21
-62.111333
  0
LINE
  8
ボルト／ビス
  6
CONTINUOUS
 62
    64
 10
-126.328255
 20
-62.111333
 11
-123.66157
 21
-62.111333
  0
LINE
  8
ボルト／ビス
  6
DASHDOT
 62
    64
 10
-124.99493
 20
-61.141867
 11
-124.99493
 21
-84.388768
  0
LINE
  8
ボルト／ビス
  6
CONTINUOUS
 62
    64
 10
-126.09257
 20
-67.209043
 11
-126.09257
 21
-61.875658
  0
LINE
  8
ボルト／ビス
  6
CONTINUOUS
 62
    64
 10
-126.328255
 20
-67.209043
 11
-126.328255
 21
-62.111333
  0
LINE
  8
ボルト／ビス
  6
CONTINUOUS
 62
    64
 10
-123.897345
 20
-67.209043
 11
-123.897345
 21
-61.875658
  0
LINE
  8
ボルト／ビス
  6
CONTINUOUS
 62
    64
 10
-123.66157
 20
-67.209043
 11
-123.66157
 21
-62.111333
  0
LINE
  8
ボルト／ビス
  6
DOT
 62
    64
 10
-123.66157
 20
-73.542292
 11
-123.897345
 21
-73.306617
  0
LINE
  8
ボルト／ビス
  6
DOT
 62
    64
 10
-123.66157
 20
-76.675393
 11
-122.367505
 21
-81.505058
  0
LINE
  8
ボルト／ビス
  6
DOT
 62
    64
 10
-126.328255
 20
-73.542292
 11
-126.09257
 21
-73.306617
  0
LINE
  8
ボルト／ビス
  6
DOT
 62
    64
 10
-126.328255
 20
-76.675393
 11
-127.622355
 21
-81.505058
  0
LINE
  8
ボルト／ビス
  6
DOT
 62
    64
 10
-124.99493
 20
-76.894883
 11
-126.32357
 21
-81.853107
  0
LINE
  8
ボルト／ビス
  6
DOT
 62
    64
 10
-127.622355
 20
-81.505058
 11
-126.32357
 21
-81.853107
  0
LINE
  8
ボルト／ビス
  6
DOT
 62
    64
 10
-124.99493
 20
-76.894883
 11
-123.66638
 21
-81.853107
  0
LINE
  8
ボルト／ビス
  6
DOT
 62
    64
 10
-122.367505
 20
-81.505058
 11
-123.66638
 21
-81.853107
  0
LINE
  8
ボルト／ビス
  6
DOT
 62
    64
 10
-123.66157
 20
-82.542242
 11
-124.09157
 21
-80.103543
  0
LINE
  8
ボルト／ビス
  6
DOT
 62
    64
 10
-126.328255
 20
-82.542242
 11
-125.898287
 21
-80.103543
  0
LINE
  8
ボルト／ビス
  6
DOT
 62
    64
 10
-123.66157
 20
-82.542242
 11
-126.328255
 21
-82.542242
  0
LINE
  8
ボルト／ビス
  6
DOT
 62
    64
 10
-124.09157
 20
-80.103543
 11
-125.898287
 21
-80.103543
  0
LINE
  8
ボルト／ビス
  6
DOT
 62
    64
 10
-123.897345
 20
-73.306617
 11
-123.897345
 21
-67.209043
  0
LINE
  8
ボルト／ビス
  6
DOT
 62
    64
 10
-123.66157
 20
-76.675393
 11
-123.66157
 21
-67.209043
  0
LINE
  8
ボルト／ビス
  6
DOT
 62
    64
 10
-126.09257
 20
-73.306617
 11
-126.09257
 21
-67.209043
  0
LINE
  8
ボルト／ビス
  6
DOT
 62
    64
 10
-126.328255
 20
-76.675393
 11
-126.328255
 21
-67.209043
  0
ENDBLK
  0
BLOCK
  2
*GRP_0018
 70
    65
 10
0.0
 20
0.0
  0
LINE
  8
ボルト／ビス
  6
CONTINUOUS
 62
    64
 10
-105.994927
 20
-20.109415
 11
-107.328262
 21
-20.109415
  0
LINE
  8
ボルト／ビス
  6
CONTINUOUS
 62
    64
 10
-105.994927
 20
-17.542748
 11
-106.161595
 21
-17.376083
  0
LINE
  8
ボルト／ビス
  6
CONTINUOUS
 62
    64
 10
-107.328262
 20
-17.542748
 11
-107.161595
 21
-17.376083
  0
LINE
  8
ボルト／ビス
  6
CONTINUOUS
 62
    64
 10
-106.161595
 20
-17.376083
 11
-107.161595
 21
-17.376083
  0
LINE
  8
ボルト／ビス
  6
CONTINUOUS
 62
    64
 10
-105.994927
 20
-17.542748
 11
-107.328262
 21
-17.542748
  0
LINE
  8
ボルト／ビス
  6
CONTINUOUS
 62
    64
 10
-107.161595
 20
-20.109415
 11
-107.161595
 21
-17.376083
  0
LINE
  8
ボルト／ビス
  6
CONTINUOUS
 62
    64
 10
-106.161595
 20
-20.109415
 11
-106.161595
 21
-17.376083
  0
LINE
  8
ボルト／ビス
  6
CONTINUOUS
 62
    64
 10
-105.994927
 20
-20.109415
 11
-105.994927
 21
-17.542748
  0
LINE
  8
ボルト／ビス
  6
CONTINUOUS
 62
    64
 10
-107.328262
 20
-20.109415
 11
-107.328262
 21
-17.542748
  0
LINE
  8
ボルト／ビス
  6
DASHDOT
 62
    64
 10
-106.661595
 20
-21.709415
 11
-106.661595
 21
-16.376083
  0
LINE
  8
ボルト／ビス
  6
DOT
 62
    64
 10
-105.661595
 20
-20.709415
 11
-105.994927
 21
-20.109415
  0
LINE
  8
ボルト／ビス
  6
DOT
 62
    64
 10
-105.661595
 20
-20.709415
 11
-107.661595
 21
-20.709415
  0
LINE
  8
ボルト／ビス
  6
DOT
 62
    64
 10
-107.661595
 20
-20.709415
 11
-107.328262
 21
-20.109415
  0
ENDBLK
  0
BLOCK
  2
*GRP_0019
 70
    65
 10
0.0
 20
0.0
  0
LINE
  8
ボルト／ビス
  6
CONTINUOUS
 62
    64
 10
-105.994927
 20
-46.109043
 11
-107.328262
 21
-46.109043
  0
LINE
  8
ボルト／ビス
  6
CONTINUOUS
 62
    64
 10
-105.994927
 20
-43.542375
 11
-106.161595
 21
-43.37571
  0
LINE
  8
ボルト／ビス
  6
CONTINUOUS
 62
    64
 10
-107.328262
 20
-43.542375
 11
-107.161595
 21
-43.37571
  0
LINE
  8
ボルト／ビス
  6
CONTINUOUS
 62
    64
 10
-106.161595
 20
-43.37571
 11
-107.161595
 21
-43.37571
  0
LINE
  8
ボルト／ビス
  6
CONTINUOUS
 62
    64
 10
-105.994927
 20
-43.542375
 11
-107.328262
 21
-43.542375
  0
LINE
  8
ボルト／ビス
  6
CONTINUOUS
 62
    64
 10
-107.161595
 20
-46.109043
 11
-107.161595
 21
-43.37571
  0
LINE
  8
ボルト／ビス
  6
CONTINUOUS
 62
    64
 10
-106.161595
 20
-46.109043
 11
-106.161595
 21
-43.37571
  0
LINE
  8
ボルト／ビス
  6
CONTINUOUS
 62
    64
 10
-105.994927
 20
-46.109043
 11
-105.994927
 21
-43.542375
  0
LINE
  8
ボルト／ビス
  6
CONTINUOUS
 62
    64
 10
-107.328262
 20
-46.109043
 11
-107.328262
 21
-43.542375
  0
LINE
  8
ボルト／ビス
  6
DASHDOT
 62
    64
 10
-106.661595
 20
-47.709043
 11
-106.661595
 21
-42.37571
  0
LINE
  8
ボルト／ビス
  6
DOT
 62
    64
 10
-105.661595
 20
-46.709043
 11
-105.994927
 21
-46.109043
  0
LINE
  8
ボルト／ビス
  6
DOT
 62
    64
 10
-105.661595
 20
-46.709043
 11
-107.661595
 21
-46.709043
  0
LINE
  8
ボルト／ビス
  6
DOT
 62
    64
 10
-107.661595
 20
-46.709043
 11
-107.328262
 21
-46.109043
  0
ENDBLK
  0
BLOCK
  2
*GRP_0020
 70
    65
 10
0.0
 20
0.0
  0
LINE
  8
ボルト／ビス
  6
CONTINUOUS
 62
    64
 10
-109.394927
 20
2.28977
 11
-109.394927
 21
3.623102
  0
LINE
  8
ボルト／ビス
  6
CONTINUOUS
 62
    64
 10
-106.82826
 20
2.28977
 11
-106.661595
 21
2.456435
  0
LINE
  8
ボルト／ビス
  6
CONTINUOUS
 62
    64
 10
-106.82826
 20
3.623102
 11
-106.661595
 21
3.456435
  0
LINE
  8
ボルト／ビス
  6
CONTINUOUS
 62
    64
 10
-106.661595
 20
2.456435
 11
-106.661595
 21
3.456435
  0
LINE
  8
ボルト／ビス
  6
CONTINUOUS
 62
    64
 10
-106.82826
 20
2.28977
 11
-106.82826
 21
3.623102
  0
LINE
  8
ボルト／ビス
  6
CONTINUOUS
 62
    64
 10
-109.394927
 20
3.456435
 11
-106.661595
 21
3.456435
  0
LINE
  8
ボルト／ビス
  6
CONTINUOUS
 62
    64
 10
-109.394927
 20
2.456435
 11
-106.661595
 21
2.456435
  0
LINE
  8
ボルト／ビス
  6
CONTINUOUS
 62
    64
 10
-109.394927
 20
2.28977
 11
-106.82826
 21
2.28977
  0
LINE
  8
ボルト／ビス
  6
CONTINUOUS
 62
    64
 10
-109.394927
 20
3.623102
 11
-106.82826
 21
3.623102
  0
LINE
  8
ボルト／ビス
  6
DASHDOT
 62
    64
 10
-110.994927
 20
2.956435
 11
-105.661595
 21
2.956435
  0
LINE
  8
ボルト／ビス
  6
DOT
 62
    64
 10
-109.994927
 20
1.956435
 11
-109.394927
 21
2.28977
  0
LINE
  8
ボルト／ビス
  6
DOT
 62
    64
 10
-109.994927
 20
1.956435
 11
-109.994927
 21
3.956435
  0
LINE
  8
ボルト／ビス
  6
DOT
 62
    64
 10
-109.994927
 20
3.956435
 11
-109.394927
 21
3.623102
  0
ENDBLK
  0
BLOCK
  2
*GRP_0021
 70
    65
 10
0.0
 20
0.0
  0
INSERT
  2
*GRP_0026
  8
補助線
  6
CONTINUOUS
 10
0.0
 20
0.0
  0
CIRCLE
  8
別途部材
  6
CONTINUOUS
 10
-111.994927
 20
-21.709415
 40
2.0
  0
CIRCLE
  8
別途部材
  6
CONTINUOUS
 10
-111.994927
 20
-21.709415
 40
1.0
  0
LINE
  8
別途部材
  6
CONTINUOUS
 10
-110.994927
 20
-7.709415
 11
-109.994927
 21
-7.709415
  0
LINE
  8
別途部材
  6
CONTINUOUS
 10
-109.994927
 20
-21.709415
 11
-109.994927
 21
-7.709415
  0
LINE
  8
別途部材
  6
CONTINUOUS
 10
-110.994927
 20
-7.709415
 11
-110.994927
 21
-19.977365
  0
LINE
  8
別途部材
  6
CONTINUOUS
 10
-110.994927
 20
-35.709415
 11
-109.994927
 21
-35.709415
  0
LINE
  8
別途部材
  6
CONTINUOUS
 10
-109.994927
 20
-21.709415
 11
-109.994927
 21
-35.709415
  0
LINE
  8
別途部材
  6
CONTINUOUS
 10
-110.994927
 20
-35.709415
 11
-110.994927
 21
-23.441465
  0
LINE
  8
別途部材
  6
CONTINUOUS
 10
-110.994927
 20
-10.376073
 11
-109.994927
 21
-10.376073
  0
LINE
  8
別途部材
  6
CONTINUOUS
 10
-110.994927
 20
-13.04274
 11
-109.994927
 21
-13.04274
  0
LINE
  8
別途部材
  6
CONTINUOUS
 10
-110.994927
 20
-15.709415
 11
-109.994927
 21
-15.709415
  0
LINE
  8
別途部材
  6
CONTINUOUS
 10
-110.994927
 20
-33.04274
 11
-109.994927
 21
-33.04274
  0
LINE
  8
別途部材
  6
CONTINUOUS
 10
-110.994927
 20
-30.376073
 11
-109.994927
 21
-30.376073
  0
LINE
  8
別途部材
  6
CONTINUOUS
 10
-110.994927
 20
-27.709415
 11
-109.994927
 21
-27.709415
  0
ENDBLK
  0
BLOCK
  2
*GRP_0022
 70
    65
 10
0.0
 20
0.0
  0
LINE
  8
St
  6
CONTINUOUS
 10
-109.978295
 20
-47.209043
 11
-96.644963
 21
-47.209043
  0
LINE
  8
St
  6
CONTINUOUS
 10
-109.978295
 20
-47.209043
 11
-109.978295
 21
-57.209043
  0
LINE
  8
St
  6
CONTINUOUS
 10
-109.96473
 20
-48.27571
 11
-96.644963
 21
-48.27571
  0
LINE
  8
St
  6
CONTINUOUS
 10
-98.764312
 20
-47.209043
 11
-99.83098
 21
-48.27571
  0
LINE
  8
St
  6
CONTINUOUS
 10
-99.000012
 20
-47.209043
 11
-100.06668
 21
-48.27571
  0
LINE
  8
St
  6
CONTINUOUS
 10
-107.512878
 20
-47.209043
 11
-108.57955
 21
-48.27571
  0
LINE
  8
St
  6
CONTINUOUS
 10
-107.748578
 20
-47.209043
 11
-108.81525
 21
-48.27571
  0
LINE
  8
St
  6
CONTINUOUS
 10
-96.644963
 20
-47.209043
 11
-96.644963
 21
-57.209043
  0
LINE
  8
St
  6
CONTINUOUS
 10
-109.978295
 20
-57.209043
 11
-96.644963
 21
-57.209043
  0
ENDBLK
  0
BLOCK
  2
*GRP_0023
 70
    65
 10
0.0
 20
0.0
  0
LINE
  8
St
  6
CONTINUOUS
 10
-129.418033
 20
-67.209043
 11
-102.186147
 21
-54.27545
  0
LINE
  8
St
  6
CONTINUOUS
 10
-130.705077
 20
-64.49915
 11
-103.473193
 21
-51.565557
  0
POLYLINE
  8
St
  6
CONTINUOUS
 66
     1
 70
     4
  0
VERTEX
  8
St
 10
-102.2
 20
-54.3
 70
     8
  0
VERTEX
  8
St
 10
-102.2
 20
-54.275
 70
     8
  0
VERTEX
  8
St
 10
-102.2
 20
-54.275
 70
     8
  0
VERTEX
  8
St
 10
-102.2
 20
-54.25
 70
     8
  0
VERTEX
  8
St
 10
-102.2
 20
-54.25
 70
     8
  0
VERTEX
  8
St
 10
-102.2
 20
-54.225
 70
     8
  0
VERTEX
  8
St
 10
-102.175
 20
-54.225
 70
     8
  0
VERTEX
  8
St
 10
-102.175
 20
-54.2
 70
     8
  0
VERTEX
  8
St
 10
-102.175
 20
-54.2
 70
     8
  0
VERTEX
  8
St
 10
-102.175
 20
-54.175
 70
     8
  0
VERTEX
  8
St
 10
-102.175
 20
-54.175
 70
     8
  0
VERTEX
  8
St
 10
-102.175
 20
-54.15
 70
     8
  0
VERTEX
  8
St
 10
-102.175
 20
-54.15
 70
     8
  0
VERTEX
  8
St
 10
-102.175
 20
-54.15
 70
     8
  0
VERTEX
  8
St
 10
-102.175
 20
-54.125
 70
     8
  0
VERTEX
  8
St
 10
-102.175
 20
-54.125
 70
     8
  0
VERTEX
  8
St
 10
-102.175
 20
-54.1
 70
     8
  0
VERTEX
  8
St
 10
-102.175
 20
-54.1
 70
     8
  0
VERTEX
  8
St
 10
-102.175
 20
-54.075
 70
     8
  0
VERTEX
  8
St
 10
-102.15
 20
-54.075
 70
     8
  0
VERTEX
  8
St
 10
-102.15
 20
-54.05
 70
     8
  0
VERTEX
  8
St
 10
-102.15
 20
-54.05
 70
     8
  0
VERTEX
  8
St
 10
-102.15
 20
-54.025
 70
     8
  0
VERTEX
  8
St
 10
-102.15
 20
-54.025
 70
     8
  0
VERTEX
  8
St
 10
-102.15
 20
-54.025
 70
     8
  0
VERTEX
  8
St
 10
-102.15
 20
-54.0
 70
     8
  0
VERTEX
  8
St
 10
-102.15
 20
-54.0
 70
     8
  0
VERTEX
  8
St
 10
-102.15
 20
-53.975
 70
     8
  0
VERTEX
  8
St
 10
-102.15
 20
-53.975
 70
     8
  0
VERTEX
  8
St
 10
-102.15
 20
-53.95
 70
     8
  0
VERTEX
  8
St
 10
-102.15
 20
-53.95
 70
     8
  0
VERTEX
  8
St
 10
-102.15
 20
-53.925
 70
     8
  0
VERTEX
  8
St
 10
-102.15
 20
-53.925
 70
     8
  0
VERTEX
  8
St
 10
-102.125
 20
-53.9
 70
     8
  0
VERTEX
  8
St
 10
-102.125
 20
-53.9
 70
     8
  0
VERTEX
  8
St
 10
-102.125
 20
-53.9
 70
     8
  0
VERTEX
  8
St
 10
-102.125
 20
-53.875
 70
     8
  0
VERTEX
  8
St
 10
-102.125
 20
-53.875
 70
     8
  0
VERTEX
  8
St
 10
-102.125
 20
-53.85
 70
     8
  0
VERTEX
  8
St
 10
-102.125
 20
-53.85
 70
     8
  0
VERTEX
  8
St
 10
-102.125
 20
-53.825
 70
     8
  0
VERTEX
  8
St
 10
-102.125
 20
-53.825
 70
     8
  0
VERTEX
  8
St
 10
-102.125
 20
-53.825
 70
     8
  0
VERTEX
  8
St
 10
-102.125
 20
-53.8
 70
     8
  0
VERTEX
  8
St
 10
-102.125
 20
-53.8
 70
     8
  0
VERTEX
  8
St
 10
-102.125
 20
-53.775
 70
     8
  0
VERTEX
  8
St
 10
-102.125
 20
-53.775
 70
     8
  0
VERTEX
  8
St
 10
-102.125
 20
-53.75
 70
     8
  0
VERTEX
  8
St
 10
-102.125
 20
-53.75
 70
     8
  0
VERTEX
  8
St
 10
-102.125
 20
-53.75
 70
     8
  0
VERTEX
  8
St
 10
-102.125
 20
-53.725
 70
     8
  0
VERTEX
  8
St
 10
-102.125
 20
-53.725
 70
     8
  0
VERTEX
  8
St
 10
-102.125
 20
-53.7
 70
     8
  0
VERTEX
  8
St
 10
-102.125
 20
-53.7
 70
     8
  0
VERTEX
  8
St
 10
-102.125
 20
-53.675
 70
     8
  0
VERTEX
  8
St
 10
-102.125
 20
-53.675
 70
     8
  0
VERTEX
  8
St
 10
-102.125
 20
-53.675
 70
     8
  0
VERTEX
  8
St
 10
-102.125
 20
-53.65
 70
     8
  0
VERTEX
  8
St
 10
-102.125
 20
-53.65
 70
     8
  0
VERTEX
  8
St
 10
-102.125
 20
-53.625
 70
     8
  0
VERTEX
  8
St
 10
-102.125
 20
-53.625
 70
     8
  0
VERTEX
  8
St
 10
-102.125
 20
-53.625
 70
     8
  0
VERTEX
  8
St
 10
-102.125
 20
-53.6
 70
     8
  0
VERTEX
  8
St
 10
-102.125
 20
-53.6
 70
     8
  0
VERTEX
  8
St
 10
-102.125
 20
-53.575
 70
     8
  0
VERTEX
  8
St
 10
-102.125
 20
-53.575
 70
     8
  0
VERTEX
  8
St
 10
-102.125
 20
-53.575
 70
     8
  0
VERTEX
  8
St
 10
-102.125
 20
-53.55
 70
     8
  0
VERTEX
  8
St
 10
-102.125
 20
-53.55
 70
     8
  0
VERTEX
  8
St
 10
-102.125
 20
-53.525
 70
     8
  0
VERTEX
  8
St
 10
-102.125
 20
-53.525
 70
     8
  0
VERTEX
  8
St
 10
-102.125
 20
-53.525
 70
     8
  0
VERTEX
  8
St
 10
-102.125
 20
-53.5
 70
     8
  0
VERTEX
  8
St
 10
-102.125
 20
-53.5
 70
     8
  0
VERTEX
  8
St
 10
-102.125
 20
-53.475
 70
     8
  0
VERTEX
  8
St
 10
-102.125
 20
-53.475
 70
     8
  0
VERTEX
  8
St
 10
-102.125
 20
-53.475
 70
     8
  0
VERTEX
  8
St
 10
-102.125
 20
-53.45
 70
     8
  0
VERTEX
  8
St
 10
-102.125
 20
-53.45
 70
     8
  0
VERTEX
  8
St
 10
-102.125
 20
-53.45
 70
     8
  0
VERTEX
  8
St
 10
-102.125
 20
-53.425
 70
     8
  0
VERTEX
  8
St
 10
-102.125
 20
-53.425
 70
     8
  0
VERTEX
  8
St
 10
-102.125
 20
-53.425
 70
     8
  0
VERTEX
  8
St
 10
-102.125
 20
-53.4
 70
     8
  0
VERTEX
  8
St
 10
-102.125
 20
-53.4
 70
     8
  0
VERTEX
  8
St
 10
-102.125
 20
-53.375
 70
     8
  0
VERTEX
  8
St
 10
-102.125
 20
-53.375
 70
     8
  0
VERTEX
  8
St
 10
-102.15
 20
-53.375
 70
     8
  0
VERTEX
  8
St
 10
-102.15
 20
-53.35
 70
     8
  0
VERTEX
  8
St
 10
-102.15
 20
-53.35
 70
     8
  0
VERTEX
  8
St
 10
-102.15
 20
-53.35
 70
     8
  0
VERTEX
  8
St
 10
-102.15
 20
-53.325
 70
     8
  0
VERTEX
  8
St
 10
-102.15
 20
-53.325
 70
     8
  0
VERTEX
  8
St
 10
-102.15
 20
-53.325
 70
     8
  0
VERTEX
  8
St
 10
-102.15
 20
-53.3
 70
     8
  0
VERTEX
  8
St
 10
-102.15
 20
-53.3
 70
     8
  0
VERTEX
  8
St
 10
-102.15
 20
-53.3
 70
     8
  0
VERTEX
  8
St
 10
-102.175
 20
-53.275
 70
     8
  0
VERTEX
  8
St
 10
-102.175
 20
-53.275
 70
     8
  0
VERTEX
  8
St
 10
-102.175
 20
-53.275
 70
     8
  0
VERTEX
  8
St
 10
-102.175
 20
-53.25
 70
     8
  0
VERTEX
  8
St
 10
-102.175
 20
-53.25
 70
     8
  0
VERTEX
  8
St
 10
-102.175
 20
-53.25
 70
     8
  0
VERTEX
  8
St
 10
-102.175
 20
-53.25
 70
     8
  0
VERTEX
  8
St
 10
-102.2
 20
-53.225
 70
     8
  0
VERTEX
  8
St
 10
-102.2
 20
-53.225
 70
     8
  0
VERTEX
  8
St
 10
-102.2
 20
-53.225
 70
     8
  0
VERTEX
  8
St
 10
-102.2
 20
-53.2
 70
     8
  0
VERTEX
  8
St
 10
-102.2
 20
-53.2
 70
     8
  0
VERTEX
  8
St
 10
-102.2
 20
-53.2
 70
     8
  0
VERTEX
  8
St
 10
-102.225
 20
-53.2
 70
     8
  0
VERTEX
  8
St
 10
-102.225
 20
-53.175
 70
     8
  0
VERTEX
  8
St
 10
-102.225
 20
-53.175
 70
     8
  0
VERTEX
  8
St
 10
-102.225
 20
-53.175
 70
     8
  0
VERTEX
  8
St
 10
-102.225
 20
-53.175
 70
     8
  0
VERTEX
  8
St
 10
-102.25
 20
-53.15
 70
     8
  0
VERTEX
  8
St
 10
-102.25
 20
-53.15
 70
     8
  0
VERTEX
  8
St
 10
-102.25
 20
-53.15
 70
     8
  0
VERTEX
  8
St
 10
-102.25
 20
-53.125
 70
     8
  0
VERTEX
  8
St
 10
-102.25
 20
-53.125
 70
     8
  0
VERTEX
  8
St
 10
-102.275
 20
-53.125
 70
     8
  0
VERTEX
  8
St
 10
-102.275
 20
-53.125
 70
     8
  0
VERTEX
  8
St
 10
-102.275
 20
-53.125
 70
     8
  0
VERTEX
  8
St
 10
-102.275
 20
-53.1
 70
     8
  0
VERTEX
  8
St
 10
-102.3
 20
-53.1
 70
     8
  0
VERTEX
  8
St
 10
-102.3
 20
-53.1
 70
     8
  0
VERTEX
  8
St
 10
-102.3
 20
-53.1
 70
     8
  0
VERTEX
  8
St
 10
-102.3
 20
-53.075
 70
     8
  0
VERTEX
  8
St
 10
-102.325
 20
-53.075
 70
     8
  0
VERTEX
  8
St
 10
-102.325
 20
-53.075
 70
     8
  0
VERTEX
  8
St
 10
-102.325
 20
-53.075
 70
     8
  0
VERTEX
  8
St
 10
-102.325
 20
-53.075
 70
     8
  0
VERTEX
  8
St
 10
-102.35
 20
-53.05
 70
     8
  0
VERTEX
  8
St
 10
-102.35
 20
-53.05
 70
     8
  0
VERTEX
  8
St
 10
-102.35
 20
-53.05
 70
     8
  0
VERTEX
  8
St
 10
-102.375
 20
-53.05
 70
     8
  0
VERTEX
  8
St
 10
-102.375
 20
-53.025
 70
     8
  0
VERTEX
  8
St
 10
-102.375
 20
-53.025
 70
     8
  0
VERTEX
  8
St
 10
-102.375
 20
-53.025
 70
     8
  0
VERTEX
  8
St
 10
-102.4
 20
-53.025
 70
     8
  0
VERTEX
  8
St
 10
-102.4
 20
-53.025
 70
     8
  0
VERTEX
  8
St
 10
-102.4
 20
-53.025
 70
     8
  0
VERTEX
  8
St
 10
-102.425
 20
-53.0
 70
     8
  0
VERTEX
  8
St
 10
-102.425
 20
-53.0
 70
     8
  0
VERTEX
  8
St
 10
-102.425
 20
-53.0
 70
     8
  0
VERTEX
  8
St
 10
-102.45
 20
-53.0
 70
     8
  0
VERTEX
  8
St
 10
-102.45
 20
-53.0
 70
     8
  0
VERTEX
  8
St
 10
-102.45
 20
-52.975
 70
     8
  0
VERTEX
  8
St
 10
-102.475
 20
-52.975
 70
     8
  0
VERTEX
  8
St
 10
-102.475
 20
-52.975
 70
     8
  0
VERTEX
  8
St
 10
-102.475
 20
-52.975
 70
     8
  0
VERTEX
  8
St
 10
-102.5
 20
-52.975
 70
     8
  0
VERTEX
  8
St
 10
-102.5
 20
-52.975
 70
     8
  0
VERTEX
  8
St
 10
-102.5
 20
-52.95
 70
     8
  0
VERTEX
  8
St
 10
-102.525
 20
-52.95
 70
     8
  0
VERTEX
  8
St
 10
-102.525
 20
-52.95
 70
     8
  0
VERTEX
  8
St
 10
-102.525
 20
-52.95
 70
     8
  0
VERTEX
  8
St
 10
-102.55
 20
-52.95
 70
     8
  0
VERTEX
  8
St
 10
-102.55
 20
-52.95
 70
     8
  0
VERTEX
  8
St
 10
-102.55
 20
-52.925
 70
     8
  0
VERTEX
  8
St
 10
-102.575
 20
-52.925
 70
     8
  0
VERTEX
  8
St
 10
-102.575
 20
-52.925
 70
     8
  0
VERTEX
  8
St
 10
-102.6
 20
-52.925
 70
     8
  0
VERTEX
  8
St
 10
-102.6
 20
-52.925
 70
     8
  0
VERTEX
  8
St
 10
-102.6
 20
-52.925
 70
     8
  0
VERTEX
  8
St
 10
-102.625
 20
-52.9
 70
     8
  0
VERTEX
  8
St
 10
-102.625
 20
-52.9
 70
     8
  0
VERTEX
  8
St
 10
-102.625
 20
-52.9
 70
     8
  0
VERTEX
  8
St
 10
-102.65
 20
-52.9
 70
     8
  0
VERTEX
  8
St
 10
-102.65
 20
-52.9
 70
     8
  0
VERTEX
  8
St
 10
-102.675
 20
-52.9
 70
     8
  0
VERTEX
  8
St
 10
-102.675
 20
-52.875
 70
     8
  0
VERTEX
  8
St
 10
-102.675
 20
-52.875
 70
     8
  0
VERTEX
  8
St
 10
-102.7
 20
-52.875
 70
     8
  0
VERTEX
  8
St
 10
-102.7
 20
-52.875
 70
     8
  0
VERTEX
  8
St
 10
-102.7
 20
-52.875
 70
     8
  0
VERTEX
  8
St
 10
-102.725
 20
-52.875
 70
     8
  0
VERTEX
  8
St
 10
-102.725
 20
-52.85
 70
     8
  0
VERTEX
  8
St
 10
-102.75
 20
-52.85
 70
     8
  0
VERTEX
  8
St
 10
-102.75
 20
-52.85
 70
     8
  0
VERTEX
  8
St
 10
-102.75
 20
-52.85
 70
     8
  0
VERTEX
  8
St
 10
-102.775
 20
-52.85
 70
     8
  0
VERTEX
  8
St
 10
-102.775
 20
-52.85
 70
     8
  0
VERTEX
  8
St
 10
-102.775
 20
-52.85
 70
     8
  0
VERTEX
  8
St
 10
-102.8
 20
-52.825
 70
     8
  0
VERTEX
  8
St
 10
-102.8
 20
-52.825
 70
     8
  0
VERTEX
  8
St
 10
-102.825
 20
-52.825
 70
     8
  0
VERTEX
  8
St
 10
-102.825
 20
-52.825
 70
     8
  0
VERTEX
  8
St
 10
-102.825
 20
-52.825
 70
     8
  0
VERTEX
  8
St
 10
-102.85
 20
-52.825
 70
     8
  0
VERTEX
  8
St
 10
-102.85
 20
-52.8
 70
     8
  0
VERTEX
  8
St
 10
-102.875
 20
-52.8
 70
     8
  0
VERTEX
  8
St
 10
-102.875
 20
-52.8
 70
     8
  0
VERTEX
  8
St
 10
-102.875
 20
-52.8
 70
     8
  0
VERTEX
  8
St
 10
-102.9
 20
-52.8
 70
     8
  0
VERTEX
  8
St
 10
-102.9
 20
-52.8
 70
     8
  0
VERTEX
  8
St
 10
-102.925
 20
-52.775
 70
     8
  0
VERTEX
  8
St
 10
-102.925
 20
-52.775
 70
     8
  0
VERTEX
  8
St
 10
-102.925
 20
-52.775
 70
     8
  0
VERTEX
  8
St
 10
-102.95
 20
-52.775
 70
     8
  0
VERTEX
  8
St
 10
-102.95
 20
-52.775
 70
     8
  0
VERTEX
  8
St
 10
-102.95
 20
-52.75
 70
     8
  0
VERTEX
  8
St
 10
-102.975
 20
-52.75
 70
     8
  0
VERTEX
  8
St
 10
-102.975
 20
-52.75
 70
     8
  0
VERTEX
  8
St
 10
-103.0
 20
-52.75
 70
     8
  0
VERTEX
  8
St
 10
-103.0
 20
-52.75
 70
     8
  0
VERTEX
  8
St
 10
-103.0
 20
-52.75
 70
     8
  0
VERTEX
  8
St
 10
-103.025
 20
-52.725
 70
     8
  0
VERTEX
  8
St
 10
-103.025
 20
-52.725
 70
     8
  0
VERTEX
  8
St
 10
-103.05
 20
-52.725
 70
     8
  0
VERTEX
  8
St
 10
-103.05
 20
-52.725
 70
     8
  0
VERTEX
  8
St
 10
-103.05
 20
-52.725
 70
     8
  0
VERTEX
  8
St
 10
-103.075
 20
-52.7
 70
     8
  0
VERTEX
  8
St
 10
-103.075
 20
-52.7
 70
     8
  0
VERTEX
  8
St
 10
-103.075
 20
-52.7
 70
     8
  0
VERTEX
  8
St
 10
-103.1
 20
-52.7
 70
     8
  0
VERTEX
  8
St
 10
-103.1
 20
-52.7
 70
     8
  0
VERTEX
  8
St
 10
-103.125
 20
-52.675
 70
     8
  0
VERTEX
  8
St
 10
-103.125
 20
-52.675
 70
     8
  0
VERTEX
  8
St
 10
-103.125
 20
-52.675
 70
     8
  0
VERTEX
  8
St
 10
-103.15
 20
-52.675
 70
     8
  0
VERTEX
  8
St
 10
-103.15
 20
-52.65
 70
     8
  0
VERTEX
  8
St
 10
-103.15
 20
-52.65
 70
     8
  0
VERTEX
  8
St
 10
-103.175
 20
-52.65
 70
     8
  0
VERTEX
  8
St
 10
-103.175
 20
-52.65
 70
     8
  0
VERTEX
  8
St
 10
-103.175
 20
-52.65
 70
     8
  0
VERTEX
  8
St
 10
-103.2
 20
-52.625
 70
     8
  0
VERTEX
  8
St
 10
-103.2
 20
-52.625
 70
     8
  0
VERTEX
  8
St
 10
-103.2
 20
-52.625
 70
     8
  0
VERTEX
  8
St
 10
-103.225
 20
-52.625
 70
     8
  0
VERTEX
  8
St
 10
-103.225
 20
-52.6
 70
     8
  0
VERTEX
  8
St
 10
-103.225
 20
-52.6
 70
     8
  0
VERTEX
  8
St
 10
-103.25
 20
-52.6
 70
     8
  0
VERTEX
  8
St
 10
-103.25
 20
-52.6
 70
     8
  0
VERTEX
  8
St
 10
-103.25
 20
-52.575
 70
     8
  0
VERTEX
  8
St
 10
-103.275
 20
-52.575
 70
     8
  0
VERTEX
  8
St
 10
-103.275
 20
-52.575
 70
     8
  0
VERTEX
  8
St
 10
-103.275
 20
-52.55
 70
     8
  0
VERTEX
  8
St
 10
-103.3
 20
-52.55
 70
     8
  0
VERTEX
  8
St
 10
-103.3
 20
-52.55
 70
     8
  0
VERTEX
  8
St
 10
-103.3
 20
-52.55
 70
     8
  0
VERTEX
  8
St
 10
-103.325
 20
-52.525
 70
     8
  0
VERTEX
  8
St
 10
-103.325
 20
-52.525
 70
     8
  0
VERTEX
  8
St
 10
-103.325
 20
-52.525
 70
     8
  0
VERTEX
  8
St
 10
-103.325
 20
-52.5
 70
     8
  0
VERTEX
  8
St
 10
-103.35
 20
-52.5
 70
     8
  0
VERTEX
  8
St
 10
-103.35
 20
-52.5
 70
     8
  0
VERTEX
  8
St
 10
-103.35
 20
-52.475
 70
     8
  0
VERTEX
  8
St
 10
-103.375
 20
-52.475
 70
     8
  0
VERTEX
  8
St
 10
-103.375
 20
-52.475
 70
     8
  0
VERTEX
  8
St
 10
-103.375
 20
-52.475
 70
     8
  0
VERTEX
  8
St
 10
-103.375
 20
-52.45
 70
     8
  0
VERTEX
  8
St
 10
-103.4
 20
-52.45
 70
     8
  0
VERTEX
  8
St
 10
-103.4
 20
-52.425
 70
     8
  0
VERTEX
  8
St
 10
-103.4
 20
-52.425
 70
     8
  0
VERTEX
  8
St
 10
-103.4
 20
-52.425
 70
     8
  0
VERTEX
  8
St
 10
-103.425
 20
-52.4
 70
     8
  0
VERTEX
  8
St
 10
-103.425
 20
-52.4
 70
     8
  0
VERTEX
  8
St
 10
-103.425
 20
-52.4
 70
     8
  0
VERTEX
  8
St
 10
-103.425
 20
-52.375
 70
     8
  0
VERTEX
  8
St
 10
-103.45
 20
-52.375
 70
     8
  0
VERTEX
  8
St
 10
-103.45
 20
-52.375
 70
     8
  0
VERTEX
  8
St
 10
-103.45
 20
-52.35
 70
     8
  0
VERTEX
  8
St
 10
-103.45
 20
-52.35
 70
     8
  0
VERTEX
  8
St
 10
-103.475
 20
-52.325
 70
     8
  0
VERTEX
  8
St
 10
-103.475
 20
-52.325
 70
     8
  0
VERTEX
  8
St
 10
-103.475
 20
-52.325
 70
     8
  0
VERTEX
  8
St
 10
-103.475
 20
-52.3
 70
     8
  0
VERTEX
  8
St
 10
-103.475
 20
-52.3
 70
     8
  0
VERTEX
  8
St
 10
-103.475
 20
-52.275
 70
     8
  0
VERTEX
  8
St
 10
-103.5
 20
-52.275
 70
     8
  0
VERTEX
  8
St
 10
-103.5
 20
-52.25
 70
     8
  0
VERTEX
  8
St
 10
-103.5
 20
-52.25
 70
     8
  0
VERTEX
  8
St
 10
-103.5
 20
-52.25
 70
     8
  0
VERTEX
  8
St
 10
-103.5
 20
-52.225
 70
     8
  0
VERTEX
  8
St
 10
-103.5
 20
-52.225
 70
     8
  0
VERTEX
  8
St
 10
-103.525
 20
-52.2
 70
     8
  0
VERTEX
  8
St
 10
-103.525
 20
-52.2
 70
     8
  0
VERTEX
  8
St
 10
-103.525
 20
-52.175
 70
     8
  0
VERTEX
  8
St
 10
-103.525
 20
-52.175
 70
     8
  0
VERTEX
  8
St
 10
-103.525
 20
-52.15
 70
     8
  0
VERTEX
  8
St
 10
-103.525
 20
-52.15
 70
     8
  0
VERTEX
  8
St
 10
-103.525
 20
-52.125
 70
     8
  0
VERTEX
  8
St
 10
-103.525
 20
-52.125
 70
     8
  0
VERTEX
  8
St
 10
-103.55
 20
-52.1
 70
     8
  0
VERTEX
  8
St
 10
-103.55
 20
-52.1
 70
     8
  0
VERTEX
  8
St
 10
-103.55
 20
-52.075
 70
     8
  0
VERTEX
  8
St
 10
-103.55
 20
-52.075
 70
     8
  0
VERTEX
  8
St
 10
-103.55
 20
-52.05
 70
     8
  0
VERTEX
  8
St
 10
-103.55
 20
-52.05
 70
     8
  0
VERTEX
  8
St
 10
-103.55
 20
-52.025
 70
     8
  0
VERTEX
  8
St
 10
-103.55
 20
-52.025
 70
     8
  0
VERTEX
  8
St
 10
-103.55
 20
-52.0
 70
     8
  0
VERTEX
  8
St
 10
-103.55
 20
-52.0
 70
     8
  0
VERTEX
  8
St
 10
-103.55
 20
-51.975
 70
     8
  0
VERTEX
  8
St
 10
-103.55
 20
-51.975
 70
     8
  0
VERTEX
  8
St
 10
-103.55
 20
-51.95
 70
     8
  0
VERTEX
  8
St
 10
-103.55
 20
-51.95
 70
     8
  0
VERTEX
  8
St
 10
-103.55
 20
-51.925
 70
     8
  0
VERTEX
  8
St
 10
-103.575
 20
-51.925
 70
     8
  0
VERTEX
  8
St
 10
-103.575
 20
-51.9
 70
     8
  0
VERTEX
  8
St
 10
-103.575
 20
-51.9
 70
     8
  0
VERTEX
  8
St
 10
-103.575
 20
-51.9
 70
     8
  0
VERTEX
  8
St
 10
-103.575
 20
-51.875
 70
     8
  0
VERTEX
  8
St
 10
-103.575
 20
-51.875
 70
     8
  0
VERTEX
  8
St
 10
-103.575
 20
-51.85
 70
     8
  0
VERTEX
  8
St
 10
-103.575
 20
-51.85
 70
     8
  0
VERTEX
  8
St
 10
-103.575
 20
-51.825
 70
     8
  0
VERTEX
  8
St
 10
-103.575
 20
-51.825
 70
     8
  0
VERTEX
  8
St
 10
-103.575
 20
-51.8
 70
     8
  0
VERTEX
  8
St
 10
-103.55
 20
-51.8
 70
     8
  0
VERTEX
  8
St
 10
-103.55
 20
-51.775
 70
     8
  0
VERTEX
  8
St
 10
-103.55
 20
-51.775
 70
     8
  0
VERTEX
  8
St
 10
-103.55
 20
-51.775
 70
     8
  0
VERTEX
  8
St
 10
-103.55
 20
-51.75
 70
     8
  0
VERTEX
  8
St
 10
-103.55
 20
-51.75
 70
     8
  0
VERTEX
  8
St
 10
-103.55
 20
-51.725
 70
     8
  0
VERTEX
  8
St
 10
-103.55
 20
-51.725
 70
     8
  0
VERTEX
  8
St
 10
-103.55
 20
-51.725
 70
     8
  0
VERTEX
  8
St
 10
-103.55
 20
-51.7
 70
     8
  0
VERTEX
  8
St
 10
-103.55
 20
-51.7
 70
     8
  0
VERTEX
  8
St
 10
-103.55
 20
-51.7
 70
     8
  0
VERTEX
  8
St
 10
-103.55
 20
-51.675
 70
     8
  0
VERTEX
  8
St
 10
-103.55
 20
-51.675
 70
     8
  0
VERTEX
  8
St
 10
-103.55
 20
-51.675
 70
     8
  0
VERTEX
  8
St
 10
-103.525
 20
-51.65
 70
     8
  0
VERTEX
  8
St
 10
-103.525
 20
-51.65
 70
     8
  0
VERTEX
  8
St
 10
-103.525
 20
-51.65
 70
     8
  0
VERTEX
  8
St
 10
-103.525
 20
-51.625
 70
     8
  0
VERTEX
  8
St
 10
-103.525
 20
-51.625
 70
     8
  0
VERTEX
  8
St
 10
-103.525
 20
-51.625
 70
     8
  0
VERTEX
  8
St
 10
-103.525
 20
-51.625
 70
     8
  0
VERTEX
  8
St
 10
-103.525
 20
-51.6
 70
     8
  0
VERTEX
  8
St
 10
-103.525
 20
-51.6
 70
     8
  0
VERTEX
  8
St
 10
-103.5
 20
-51.6
 70
     8
  0
VERTEX
  8
St
 10
-103.5
 20
-51.6
 70
     8
  0
VERTEX
  8
St
 10
-103.5
 20
-51.6
 70
     8
  0
VERTEX
  8
St
 10
-103.5
 20
-51.6
 70
     8
  0
VERTEX
  8
St
 10
-103.5
 20
-51.575
 70
     8
  0
VERTEX
  8
St
 10
-103.5
 20
-51.575
 70
     8
  0
VERTEX
  8
St
 10
-103.475
 20
-51.575
 70
     8
  0
VERTEX
  8
St
 10
-103.475
 20
-51.575
 70
     8
  0
VERTEX
  8
St
 10
-103.475
 20
-51.575
 70
     8
  0
VERTEX
  8
St
 10
-103.475
 20
-51.575
 70
     8
  0
VERTEX
  8
St
 10
-103.475
 20
-51.575
 70
     8
  0
VERTEX
  8
St
 10
-103.475
 20
-51.575
 70
     8
  0
VERTEX
  8
St
 10
-103.45
 20
-51.575
 70
     8
  0
VERTEX
  8
St
 10
-103.45
 20
-51.575
 70
     8
  0
VERTEX
  8
St
 10
-103.45
 20
-51.575
 70
     8
  0
VERTEX
  8
St
 10
-103.45
 20
-51.575
 70
     8
  0
VERTEX
  8
St
 10
-103.45
 20
-51.575
 70
     8
  0
VERTEX
  8
St
 10
-103.425
 20
-51.575
 70
     8
  0
VERTEX
  8
St
 10
-103.425
 20
-51.575
 70
     8
  0
VERTEX
  8
St
 10
-103.425
 20
-51.575
 70
     8
  0
VERTEX
  8
St
 10
-103.425
 20
-51.575
 70
     8
  0
VERTEX
  8
St
 10
-103.4
 20
-51.575
 70
     8
  0
VERTEX
  8
St
 10
-103.4
 20
-51.575
 70
     8
  0
VERTEX
  8
St
 10
-103.4
 20
-51.575
 70
     8
  0
VERTEX
  8
St
 10
-103.4
 20
-51.6
 70
     8
  0
VERTEX
  8
St
 10
-103.4
 20
-51.6
 70
     8
  0
VERTEX
  8
St
 10
-103.375
 20
-51.6
 70
     8
  0
VERTEX
  8
St
 10
-103.375
 20
-51.6
 70
     8
  0
VERTEX
  8
St
 10
-103.375
 20
-51.6
 70
     8
  0
VERTEX
  8
St
 10
-103.375
 20
-51.6
 70
     8
  0
VERTEX
  8
St
 10
-103.35
 20
-51.625
 70
     8
  0
VERTEX
  8
St
 10
-103.35
 20
-51.625
 70
     8
  0
VERTEX
  8
St
 10
-103.35
 20
-51.625
 70
     8
  0
VERTEX
  8
St
 10
-103.35
 20
-51.625
 70
     8
  0
VERTEX
  8
St
 10
-103.325
 20
-51.65
 70
     8
  0
VERTEX
  8
St
 10
-103.325
 20
-51.65
 70
     8
  0
VERTEX
  8
St
 10
-103.325
 20
-51.65
 70
     8
  0
VERTEX
  8
St
 10
-103.3
 20
-51.65
 70
     8
  0
VERTEX
  8
St
 10
-103.3
 20
-51.675
 70
     8
  0
VERTEX
  8
St
 10
-103.3
 20
-51.675
 70
     8
  0
VERTEX
  8
St
 10
-103.3
 20
-51.675
 70
     8
  0
VERTEX
  8
St
 10
-103.275
 20
-51.7
 70
     8
  0
VERTEX
  8
St
 10
-103.275
 20
-51.7
 70
     8
  0
VERTEX
  8
St
 10
-103.275
 20
-51.7
 70
     8
  0
VERTEX
  8
St
 10
-103.275
 20
-51.7
 70
     8
  0
VERTEX
  8
St
 10
-103.25
 20
-51.725
 70
     8
  0
VERTEX
  8
St
 10
-103.25
 20
-51.725
 70
     8
  0
VERTEX
  8
St
 10
-103.25
 20
-51.75
 70
     8
  0
VERTEX
  8
St
 10
-103.225
 20
-51.75
 70
     8
  0
VERTEX
  8
St
 10
-103.225
 20
-51.75
 70
     8
  0
VERTEX
  8
St
 10
-103.225
 20
-51.775
 70
     8
  0
VERTEX
  8
St
 10
-103.225
 20
-51.775
 70
     8
  0
VERTEX
  8
St
 10
-103.2
 20
-51.775
 70
     8
  0
VERTEX
  8
St
 10
-103.2
 20
-51.8
 70
     8
  0
VERTEX
  8
St
 10
-103.2
 20
-51.8
 70
     8
  0
VERTEX
  8
St
 10
-103.2
 20
-51.825
 70
     8
  0
VERTEX
  8
St
 10
-103.175
 20
-51.825
 70
     8
  0
VERTEX
  8
St
 10
-103.175
 20
-51.825
 70
     8
  0
VERTEX
  8
St
 10
-103.175
 20
-51.85
 70
     8
  0
VERTEX
  8
St
 10
-103.15
 20
-51.85
 70
     8
  0
VERTEX
  8
St
 10
-103.15
 20
-51.875
 70
     8
  0
VERTEX
  8
St
 10
-103.15
 20
-51.875
 70
     8
  0
VERTEX
  8
St
 10
-103.15
 20
-51.9
 70
     8
  0
VERTEX
  8
St
 10
-103.125
 20
-51.9
 70
     8
  0
VERTEX
  8
St
 10
-103.125
 20
-51.9
 70
     8
  0
VERTEX
  8
St
 10
-103.125
 20
-51.925
 70
     8
  0
VERTEX
  8
St
 10
-103.1
 20
-51.925
 70
     8
  0
VERTEX
  8
St
 10
-103.1
 20
-51.95
 70
     8
  0
VERTEX
  8
St
 10
-103.1
 20
-51.95
 70
     8
  0
VERTEX
  8
St
 10
-103.1
 20
-51.975
 70
     8
  0
VERTEX
  8
St
 10
-103.075
 20
-51.975
 70
     8
  0
VERTEX
  8
St
 10
-103.075
 20
-52.0
 70
     8
  0
VERTEX
  8
St
 10
-103.075
 20
-52.0
 70
     8
  0
VERTEX
  8
St
 10
-103.075
 20
-52.0
 70
     8
  0
VERTEX
  8
St
 10
-103.05
 20
-52.025
 70
     8
  0
VERTEX
  8
St
 10
-103.05
 20
-52.025
 70
     8
  0
VERTEX
  8
St
 10
-103.05
 20
-52.05
 70
     8
  0
VERTEX
  8
St
 10
-103.025
 20
-52.05
 70
     8
  0
VERTEX
  8
St
 10
-103.025
 20
-52.075
 70
     8
  0
VERTEX
  8
St
 10
-103.025
 20
-52.075
 70
     8
  0
VERTEX
  8
St
 10
-103.025
 20
-52.1
 70
     8
  0
VERTEX
  8
St
 10
-103.0
 20
-52.1
 70
     8
  0
VERTEX
  8
St
 10
-103.0
 20
-52.125
 70
     8
  0
VERTEX
  8
St
 10
-103.0
 20
-52.125
 70
     8
  0
VERTEX
  8
St
 10
-103.0
 20
-52.15
 70
     8
  0
VERTEX
  8
St
 10
-102.975
 20
-52.15
 70
     8
  0
VERTEX
  8
St
 10
-102.975
 20
-52.15
 70
     8
  0
VERTEX
  8
St
 10
-102.975
 20
-52.175
 70
     8
  0
VERTEX
  8
St
 10
-102.975
 20
-52.175
 70
     8
  0
VERTEX
  8
St
 10
-102.95
 20
-52.2
 70
     8
  0
VERTEX
  8
St
 10
-102.95
 20
-52.2
 70
     8
  0
VERTEX
  8
St
 10
-102.95
 20
-52.225
 70
     8
  0
VERTEX
  8
St
 10
-102.95
 20
-52.225
 70
     8
  0
VERTEX
  8
St
 10
-102.95
 20
-52.25
 70
     8
  0
VERTEX
  8
St
 10
-102.925
 20
-52.25
 70
     8
  0
VERTEX
  8
St
 10
-102.925
 20
-52.25
 70
     8
  0
VERTEX
  8
St
 10
-102.925
 20
-52.275
 70
     8
  0
VERTEX
  8
St
 10
-102.925
 20
-52.275
 70
     8
  0
VERTEX
  8
St
 10
-102.925
 20
-52.3
 70
     8
  0
VERTEX
  8
St
 10
-102.9
 20
-52.3
 70
     8
  0
VERTEX
  8
St
 10
-102.9
 20
-52.325
 70
     8
  0
VERTEX
  8
St
 10
-102.9
 20
-52.325
 70
     8
  0
VERTEX
  8
St
 10
-102.9
 20
-52.325
 70
     8
  0
VERTEX
  8
St
 10
-102.9
 20
-52.35
 70
     8
  0
VERTEX
  8
St
 10
-102.875
 20
-52.35
 70
     8
  0
VERTEX
  8
St
 10
-102.875
 20
-52.375
 70
     8
  0
VERTEX
  8
St
 10
-102.875
 20
-52.375
 70
     8
  0
VERTEX
  8
St
 10
-102.875
 20
-52.4
 70
     8
  0
VERTEX
  8
St
 10
-102.875
 20
-52.4
 70
     8
  0
VERTEX
  8
St
 10
-102.85
 20
-52.4
 70
     8
  0
VERTEX
  8
St
 10
-102.85
 20
-52.425
 70
     8
  0
VERTEX
  8
St
 10
-102.85
 20
-52.425
 70
     8
  0
VERTEX
  8
St
 10
-102.85
 20
-52.45
 70
     8
  0
VERTEX
  8
St
 10
-102.85
 20
-52.45
 70
     8
  0
VERTEX
  8
St
 10
-102.85
 20
-52.45
 70
     8
  0
VERTEX
  8
St
 10
-102.825
 20
-52.475
 70
     8
  0
VERTEX
  8
St
 10
-102.825
 20
-52.475
 70
     8
  0
VERTEX
  8
St
 10
-102.825
 20
-52.475
 70
     8
  0
VERTEX
  8
St
 10
-102.825
 20
-52.5
 70
     8
  0
VERTEX
  8
St
 10
-102.825
 20
-52.5
 70
     8
  0
VERTEX
  8
St
 10
-102.825
 20
-52.525
 70
     8
  0
VERTEX
  8
St
 10
-102.8
 20
-52.525
 70
     8
  0
VERTEX
  8
St
 10
-102.8
 20
-52.525
 70
     8
  0
VERTEX
  8
St
 10
-102.8
 20
-52.55
 70
     8
  0
VERTEX
  8
St
 10
-102.8
 20
-52.55
 70
     8
  0
VERTEX
  8
St
 10
-102.8
 20
-52.55
 70
     8
  0
VERTEX
  8
St
 10
-102.8
 20
-52.575
 70
     8
  0
VERTEX
  8
St
 10
-102.8
 20
-52.575
 70
     8
  0
VERTEX
  8
St
 10
-102.775
 20
-52.6
 70
     8
  0
VERTEX
  8
St
 10
-102.775
 20
-52.6
 70
     8
  0
VERTEX
  8
St
 10
-102.775
 20
-52.6
 70
     8
  0
VERTEX
  8
St
 10
-102.775
 20
-52.625
 70
     8
  0
VERTEX
  8
St
 10
-102.775
 20
-52.625
 70
     8
  0
VERTEX
  8
St
 10
-102.775
 20
-52.625
 70
     8
  0
VERTEX
  8
St
 10
-102.775
 20
-52.65
 70
     8
  0
VERTEX
  8
St
 10
-102.775
 20
-52.65
 70
     8
  0
VERTEX
  8
St
 10
-102.75
 20
-52.65
 70
     8
  0
VERTEX
  8
St
 10
-102.75
 20
-52.675
 70
     8
  0
VERTEX
  8
St
 10
-102.75
 20
-52.675
 70
     8
  0
VERTEX
  8
St
 10
-102.75
 20
-52.675
 70
     8
  0
VERTEX
  8
St
 10
-102.75
 20
-52.7
 70
     8
  0
VERTEX
  8
St
 10
-102.75
 20
-52.7
 70
     8
  0
VERTEX
  8
St
 10
-102.75
 20
-52.7
 70
     8
  0
VERTEX
  8
St
 10
-102.75
 20
-52.725
 70
     8
  0
VERTEX
  8
St
 10
-102.75
 20
-52.725
 70
     8
  0
VERTEX
  8
St
 10
-102.725
 20
-52.725
 70
     8
  0
VERTEX
  8
St
 10
-102.725
 20
-52.75
 70
     8
  0
VERTEX
  8
St
 10
-102.725
 20
-52.75
 70
     8
  0
VERTEX
  8
St
 10
-102.725
 20
-52.75
 70
     8
  0
VERTEX
  8
St
 10
-102.725
 20
-52.775
 70
     8
  0
VERTEX
  8
St
 10
-102.725
 20
-52.775
 70
     8
  0
VERTEX
  8
St
 10
-102.725
 20
-52.775
 70
     8
  0
VERTEX
  8
St
 10
-102.725
 20
-52.8
 70
     8
  0
VERTEX
  8
St
 10
-102.725
 20
-52.8
 70
     8
  0
VERTEX
  8
St
 10
-102.7
 20
-52.825
 70
     8
  0
VERTEX
  8
St
 10
-102.7
 20
-52.825
 70
     8
  0
VERTEX
  8
St
 10
-102.7
 20
-52.825
 70
     8
  0
VERTEX
  8
St
 10
-102.7
 20
-52.85
 70
     8
  0
VERTEX
  8
St
 10
-102.7
 20
-52.85
 70
     8
  0
VERTEX
  8
St
 10
-102.7
 20
-52.85
 70
     8
  0
VERTEX
  8
St
 10
-102.7
 20
-52.875
 70
     8
  0
VERTEX
  8
St
 10
-102.7
 20
-52.875
 70
     8
  0
VERTEX
  8
St
 10
-102.7
 20
-52.875
 70
     8
  0
VERTEX
  8
St
 10
-102.675
 20
-52.875
 70
     8
  0
VERTEX
  8
St
 10
-102.675
 20
-52.9
 70
     8
  0
VERTEX
  8
St
 10
-102.675
 20
-52.9
 70
     8
  0
VERTEX
  8
St
 10
-102.675
 20
-52.9
 70
     8
  0
SEQEND
  0
POLYLINE
  8
St
  6
CONTINUOUS
 66
     1
 70
     4
  0
VERTEX
  8
St
 10
-129.425
 20
-67.225
 70
     8
  0
VERTEX
  8
St
 10
-129.45
 20
-67.225
 70
     8
  0
VERTEX
  8
St
 10
-129.45
 20
-67.2
 70
     8
  0
VERTEX
  8
St
 10
-129.45
 20
-67.2
 70
     8
  0
VERTEX
  8
St
 10
-129.45
 20
-67.2
 70
     8
  0
VERTEX
  8
St
 10
-129.475
 20
-67.175
 70
     8
  0
VERTEX
  8
St
 10
-129.475
 20
-67.175
 70
     8
  0
VERTEX
  8
St
 10
-129.475
 20
-67.175
 70
     8
  0
VERTEX
  8
St
 10
-129.5
 20
-67.175
 70
     8
  0
VERTEX
  8
St
 10
-129.5
 20
-67.15
 70
     8
  0
VERTEX
  8
St
 10
-129.5
 20
-67.15
 70
     8
  0
VERTEX
  8
St
 10
-129.5
 20
-67.15
 70
     8
  0
VERTEX
  8
St
 10
-129.525
 20
-67.125
 70
     8
  0
VERTEX
  8
St
 10
-129.525
 20
-67.125
 70
     8
  0
VERTEX
  8
St
 10
-129.525
 20
-67.125
 70
     8
  0
VERTEX
  8
St
 10
-129.55
 20
-67.1
 70
     8
  0
VERTEX
  8
St
 10
-129.55
 20
-67.1
 70
     8
  0
VERTEX
  8
St
 10
-129.55
 20
-67.1
 70
     8
  0
VERTEX
  8
St
 10
-129.575
 20
-67.1
 70
     8
  0
VERTEX
  8
St
 10
-129.575
 20
-67.075
 70
     8
  0
VERTEX
  8
St
 10
-129.575
 20
-67.075
 70
     8
  0
VERTEX
  8
St
 10
-129.575
 20
-67.075
 70
     8
  0
VERTEX
  8
St
 10
-129.6
 20
-67.05
 70
     8
  0
VERTEX
  8
St
 10
-129.6
 20
-67.05
 70
     8
  0
VERTEX
  8
St
 10
-129.6
 20
-67.05
 70
     8
  0
VERTEX
  8
St
 10
-129.625
 20
-67.025
 70
     8
  0
VERTEX
  8
St
 10
-129.625
 20
-67.025
 70
     8
  0
VERTEX
  8
St
 10
-129.625
 20
-67.025
 70
     8
  0
VERTEX
  8
St
 10
-129.625
 20
-67.025
 70
     8
  0
VERTEX
  8
St
 10
-129.65
 20
-67.0
 70
     8
  0
VERTEX
  8
St
 10
-129.65
 20
-67.0
 70
     8
  0
VERTEX
  8
St
 10
-129.65
 20
-67.0
 70
     8
  0
VERTEX
  8
St
 10
-129.675
 20
-66.975
 70
     8
  0
VERTEX
  8
St
 10
-129.675
 20
-66.975
 70
     8
  0
VERTEX
  8
St
 10
-129.675
 20
-66.975
 70
     8
  0
VERTEX
  8
St
 10
-129.675
 20
-66.95
 70
     8
  0
VERTEX
  8
St
 10
-129.7
 20
-66.95
 70
     8
  0
VERTEX
  8
St
 10
-129.7
 20
-66.95
 70
     8
  0
VERTEX
  8
St
 10
-129.7
 20
-66.95
 70
     8
  0
VERTEX
  8
St
 10
-129.7
 20
-66.925
 70
     8
  0
VERTEX
  8
St
 10
-129.725
 20
-66.925
 70
     8
  0
VERTEX
  8
St
 10
-129.725
 20
-66.925
 70
     8
  0
VERTEX
  8
St
 10
-129.725
 20
-66.9
 70
     8
  0
VERTEX
  8
St
 10
-129.75
 20
-66.9
 70
     8
  0
VERTEX
  8
St
 10
-129.75
 20
-66.9
 70
     8
  0
VERTEX
  8
St
 10
-129.75
 20
-66.875
 70
     8
  0
VERTEX
  8
St
 10
-129.75
 20
-66.875
 70
     8
  0
VERTEX
  8
St
 10
-129.775
 20
-66.875
 70
     8
  0
VERTEX
  8
St
 10
-129.775
 20
-66.875
 70
     8
  0
VERTEX
  8
St
 10
-129.775
 20
-66.85
 70
     8
  0
VERTEX
  8
St
 10
-129.775
 20
-66.85
 70
     8
  0
VERTEX
  8
St
 10
-129.8
 20
-66.85
 70
     8
  0
VERTEX
  8
St
 10
-129.8
 20
-66.825
 70
     8
  0
VERTEX
  8
St
 10
-129.8
 20
-66.825
 70
     8
  0
VERTEX
  8
St
 10
-129.8
 20
-66.825
 70
     8
  0
VERTEX
  8
St
 10
-129.825
 20
-66.8
 70
     8
  0
VERTEX
  8
St
 10
-129.825
 20
-66.8
 70
     8
  0
VERTEX
  8
St
 10
-129.825
 20
-66.8
 70
     8
  0
VERTEX
  8
St
 10
-129.825
 20
-66.8
 70
     8
  0
VERTEX
  8
St
 10
-129.85
 20
-66.775
 70
     8
  0
VERTEX
  8
St
 10
-129.85
 20
-66.775
 70
     8
  0
VERTEX
  8
St
 10
-129.85
 20
-66.775
 70
     8
  0
VERTEX
  8
St
 10
-129.85
 20
-66.75
 70
     8
  0
VERTEX
  8
St
 10
-129.875
 20
-66.75
 70
     8
  0
VERTEX
  8
St
 10
-129.875
 20
-66.75
 70
     8
  0
VERTEX
  8
St
 10
-129.875
 20
-66.725
 70
     8
  0
VERTEX
  8
St
 10
-129.875
 20
-66.725
 70
     8
  0
VERTEX
  8
St
 10
-129.875
 20
-66.725
 70
     8
  0
VERTEX
  8
St
 10
-129.9
 20
-66.7
 70
     8
  0
VERTEX
  8
St
 10
-129.9
 20
-66.7
 70
     8
  0
VERTEX
  8
St
 10
-129.9
 20
-66.7
 70
     8
  0
VERTEX
  8
St
 10
-129.9
 20
-66.7
 70
     8
  0
VERTEX
  8
St
 10
-129.925
 20
-66.675
 70
     8
  0
VERTEX
  8
St
 10
-129.925
 20
-66.675
 70
     8
  0
VERTEX
  8
St
 10
-129.925
 20
-66.675
 70
     8
  0
VERTEX
  8
St
 10
-129.925
 20
-66.65
 70
     8
  0
VERTEX
  8
St
 10
-129.925
 20
-66.65
 70
     8
  0
VERTEX
  8
St
 10
-129.95
 20
-66.65
 70
     8
  0
VERTEX
  8
St
 10
-129.95
 20
-66.625
 70
     8
  0
VERTEX
  8
St
 10
-129.95
 20
-66.625
 70
     8
  0
VERTEX
  8
St
 10
-129.95
 20
-66.625
 70
     8
  0
VERTEX
  8
St
 10
-129.95
 20
-66.6
 70
     8
  0
VERTEX
  8
St
 10
-129.975
 20
-66.6
 70
     8
  0
VERTEX
  8
St
 10
-129.975
 20
-66.6
 70
     8
  0
VERTEX
  8
St
 10
-129.975
 20
-66.575
 70
     8
  0
VERTEX
  8
St
 10
-129.975
 20
-66.575
 70
     8
  0
VERTEX
  8
St
 10
-129.975
 20
-66.575
 70
     8
  0
VERTEX
  8
St
 10
-129.975
 20
-66.55
 70
     8
  0
VERTEX
  8
St
 10
-130.0
 20
-66.55
 70
     8
  0
VERTEX
  8
St
 10
-130.0
 20
-66.55
 70
     8
  0
VERTEX
  8
St
 10
-130.0
 20
-66.525
 70
     8
  0
VERTEX
  8
St
 10
-130.0
 20
-66.525
 70
     8
  0
VERTEX
  8
St
 10
-130.0
 20
-66.525
 70
     8
  0
VERTEX
  8
St
 10
-130.0
 20
-66.525
 70
     8
  0
VERTEX
  8
St
 10
-130.025
 20
-66.5
 70
     8
  0
VERTEX
  8
St
 10
-130.025
 20
-66.5
 70
     8
  0
VERTEX
  8
St
 10
-130.025
 20
-66.5
 70
     8
  0
VERTEX
  8
St
 10
-130.025
 20
-66.475
 70
     8
  0
VERTEX
  8
St
 10
-130.025
 20
-66.475
 70
     8
  0
VERTEX
  8
St
 10
-130.025
 20
-66.475
 70
     8
  0
VERTEX
  8
St
 10
-130.025
 20
-66.45
 70
     8
  0
VERTEX
  8
St
 10
-130.05
 20
-66.45
 70
     8
  0
VERTEX
  8
St
 10
-130.05
 20
-66.45
 70
     8
  0
VERTEX
  8
St
 10
-130.05
 20
-66.425
 70
     8
  0
VERTEX
  8
St
 10
-130.05
 20
-66.425
 70
     8
  0
VERTEX
  8
St
 10
-130.05
 20
-66.425
 70
     8
  0
VERTEX
  8
St
 10
-130.05
 20
-66.4
 70
     8
  0
VERTEX
  8
St
 10
-130.05
 20
-66.4
 70
     8
  0
VERTEX
  8
St
 10
-130.05
 20
-66.4
 70
     8
  0
VERTEX
  8
St
 10
-130.05
 20
-66.375
 70
     8
  0
VERTEX
  8
St
 10
-130.075
 20
-66.375
 70
     8
  0
VERTEX
  8
St
 10
-130.075
 20
-66.375
 70
     8
  0
VERTEX
  8
St
 10
-130.075
 20
-66.35
 70
     8
  0
VERTEX
  8
St
 10
-130.075
 20
-66.35
 70
     8
  0
VERTEX
  8
St
 10
-130.075
 20
-66.35
 70
     8
  0
VERTEX
  8
St
 10
-130.075
 20
-66.325
 70
     8
  0
VERTEX
  8
St
 10
-130.075
 20
-66.325
 70
     8
  0
VERTEX
  8
St
 10
-130.075
 20
-66.325
 70
     8
  0
VERTEX
  8
St
 10
-130.075
 20
-66.3
 70
     8
  0
VERTEX
  8
St
 10
-130.075
 20
-66.3
 70
     8
  0
VERTEX
  8
St
 10
-130.075
 20
-66.275
 70
     8
  0
VERTEX
  8
St
 10
-130.075
 20
-66.275
 70
     8
  0
VERTEX
  8
St
 10
-130.1
 20
-66.275
 70
     8
  0
VERTEX
  8
St
 10
-130.1
 20
-66.25
 70
     8
  0
VERTEX
  8
St
 10
-130.1
 20
-66.25
 70
     8
  0
VERTEX
  8
St
 10
-130.1
 20
-66.25
 70
     8
  0
VERTEX
  8
St
 10
-130.1
 20
-66.225
 70
     8
  0
VERTEX
  8
St
 10
-130.1
 20
-66.225
 70
     8
  0
VERTEX
  8
St
 10
-130.1
 20
-66.225
 70
     8
  0
VERTEX
  8
St
 10
-130.1
 20
-66.2
 70
     8
  0
VERTEX
  8
St
 10
-130.1
 20
-66.2
 70
     8
  0
VERTEX
  8
St
 10
-130.1
 20
-66.2
 70
     8
  0
VERTEX
  8
St
 10
-130.1
 20
-66.175
 70
     8
  0
VERTEX
  8
St
 10
-130.1
 20
-66.175
 70
     8
  0
VERTEX
  8
St
 10
-130.1
 20
-66.175
 70
     8
  0
VERTEX
  8
St
 10
-130.1
 20
-66.15
 70
     8
  0
VERTEX
  8
St
 10
-130.1
 20
-66.15
 70
     8
  0
VERTEX
  8
St
 10
-130.1
 20
-66.15
 70
     8
  0
VERTEX
  8
St
 10
-130.1
 20
-66.125
 70
     8
  0
VERTEX
  8
St
 10
-130.1
 20
-66.125
 70
     8
  0
VERTEX
  8
St
 10
-130.1
 20
-66.1
 70
     8
  0
VERTEX
  8
St
 10
-130.1
 20
-66.1
 70
     8
  0
VERTEX
  8
St
 10
-130.1
 20
-66.1
 70
     8
  0
VERTEX
  8
St
 10
-130.1
 20
-66.075
 70
     8
  0
VERTEX
  8
St
 10
-130.1
 20
-66.075
 70
     8
  0
VERTEX
  8
St
 10
-130.125
 20
-66.075
 70
     8
  0
VERTEX
  8
St
 10
-130.125
 20
-66.05
 70
     8
  0
VERTEX
  8
St
 10
-130.125
 20
-66.05
 70
     8
  0
VERTEX
  8
St
 10
-130.125
 20
-66.05
 70
     8
  0
VERTEX
  8
St
 10
-130.125
 20
-66.025
 70
     8
  0
VERTEX
  8
St
 10
-130.125
 20
-66.025
 70
     8
  0
VERTEX
  8
St
 10
-130.125
 20
-66.025
 70
     8
  0
VERTEX
  8
St
 10
-130.125
 20
-66.0
 70
     8
  0
VERTEX
  8
St
 10
-130.125
 20
-66.0
 70
     8
  0
VERTEX
  8
St
 10
-130.125
 20
-65.975
 70
     8
  0
VERTEX
  8
St
 10
-130.125
 20
-65.975
 70
     8
  0
VERTEX
  8
St
 10
-130.125
 20
-65.975
 70
     8
  0
VERTEX
  8
St
 10
-130.125
 20
-65.95
 70
     8
  0
VERTEX
  8
St
 10
-130.125
 20
-65.95
 70
     8
  0
VERTEX
  8
St
 10
-130.125
 20
-65.95
 70
     8
  0
VERTEX
  8
St
 10
-130.125
 20
-65.925
 70
     8
  0
VERTEX
  8
St
 10
-130.125
 20
-65.925
 70
     8
  0
VERTEX
  8
St
 10
-130.125
 20
-65.9
 70
     8
  0
VERTEX
  8
St
 10
-130.125
 20
-65.9
 70
     8
  0
VERTEX
  8
St
 10
-130.125
 20
-65.9
 70
     8
  0
VERTEX
  8
St
 10
-130.125
 20
-65.875
 70
     8
  0
VERTEX
  8
St
 10
-130.125
 20
-65.875
 70
     8
  0
VERTEX
  8
St
 10
-130.125
 20
-65.875
 70
     8
  0
VERTEX
  8
St
 10
-130.125
 20
-65.85
 70
     8
  0
VERTEX
  8
St
 10
-130.125
 20
-65.85
 70
     8
  0
VERTEX
  8
St
 10
-130.125
 20
-65.825
 70
     8
  0
VERTEX
  8
St
 10
-130.125
 20
-65.825
 70
     8
  0
VERTEX
  8
St
 10
-130.125
 20
-65.825
 70
     8
  0
VERTEX
  8
St
 10
-130.125
 20
-65.8
 70
     8
  0
VERTEX
  8
St
 10
-130.125
 20
-65.8
 70
     8
  0
VERTEX
  8
St
 10
-130.125
 20
-65.8
 70
     8
  0
VERTEX
  8
St
 10
-130.125
 20
-65.775
 70
     8
  0
VERTEX
  8
St
 10
-130.125
 20
-65.775
 70
     8
  0
VERTEX
  8
St
 10
-130.125
 20
-65.75
 70
     8
  0
VERTEX
  8
St
 10
-130.125
 20
-65.75
 70
     8
  0
VERTEX
  8
St
 10
-130.125
 20
-65.75
 70
     8
  0
VERTEX
  8
St
 10
-130.125
 20
-65.725
 70
     8
  0
VERTEX
  8
St
 10
-130.125
 20
-65.725
 70
     8
  0
VERTEX
  8
St
 10
-130.125
 20
-65.7
 70
     8
  0
VERTEX
  8
St
 10
-130.125
 20
-65.7
 70
     8
  0
VERTEX
  8
St
 10
-130.125
 20
-65.7
 70
     8
  0
VERTEX
  8
St
 10
-130.125
 20
-65.675
 70
     8
  0
VERTEX
  8
St
 10
-130.125
 20
-65.675
 70
     8
  0
VERTEX
  8
St
 10
-130.125
 20
-65.65
 70
     8
  0
VERTEX
  8
St
 10
-130.125
 20
-65.65
 70
     8
  0
VERTEX
  8
St
 10
-130.125
 20
-65.65
 70
     8
  0
VERTEX
  8
St
 10
-130.125
 20
-65.625
 70
     8
  0
VERTEX
  8
St
 10
-130.125
 20
-65.625
 70
     8
  0
VERTEX
  8
St
 10
-130.125
 20
-65.625
 70
     8
  0
VERTEX
  8
St
 10
-130.125
 20
-65.6
 70
     8
  0
VERTEX
  8
St
 10
-130.125
 20
-65.6
 70
     8
  0
VERTEX
  8
St
 10
-130.125
 20
-65.575
 70
     8
  0
VERTEX
  8
St
 10
-130.15
 20
-65.575
 70
     8
  0
VERTEX
  8
St
 10
-130.15
 20
-65.575
 70
     8
  0
VERTEX
  8
St
 10
-130.15
 20
-65.55
 70
     8
  0
VERTEX
  8
St
 10
-130.15
 20
-65.55
 70
     8
  0
VERTEX
  8
St
 10
-130.15
 20
-65.525
 70
     8
  0
VERTEX
  8
St
 10
-130.15
 20
-65.525
 70
     8
  0
VERTEX
  8
St
 10
-130.15
 20
-65.525
 70
     8
  0
VERTEX
  8
St
 10
-130.15
 20
-65.5
 70
     8
  0
VERTEX
  8
St
 10
-130.15
 20
-65.5
 70
     8
  0
VERTEX
  8
St
 10
-130.15
 20
-65.475
 70
     8
  0
VERTEX
  8
St
 10
-130.15
 20
-65.475
 70
     8
  0
VERTEX
  8
St
 10
-130.15
 20
-65.45
 70
     8
  0
VERTEX
  8
St
 10
-130.15
 20
-65.45
 70
     8
  0
VERTEX
  8
St
 10
-130.15
 20
-65.45
 70
     8
  0
VERTEX
  8
St
 10
-130.15
 20
-65.425
 70
     8
  0
VERTEX
  8
St
 10
-130.15
 20
-65.425
 70
     8
  0
VERTEX
  8
St
 10
-130.15
 20
-65.4
 70
     8
  0
VERTEX
  8
St
 10
-130.15
 20
-65.4
 70
     8
  0
VERTEX
  8
St
 10
-130.15
 20
-65.4
 70
     8
  0
VERTEX
  8
St
 10
-130.175
 20
-65.375
 70
     8
  0
VERTEX
  8
St
 10
-130.175
 20
-65.375
 70
     8
  0
VERTEX
  8
St
 10
-130.175
 20
-65.35
 70
     8
  0
VERTEX
  8
St
 10
-130.175
 20
-65.35
 70
     8
  0
VERTEX
  8
St
 10
-130.175
 20
-65.35
 70
     8
  0
VERTEX
  8
St
 10
-130.175
 20
-65.325
 70
     8
  0
VERTEX
  8
St
 10
-130.175
 20
-65.325
 70
     8
  0
VERTEX
  8
St
 10
-130.175
 20
-65.3
 70
     8
  0
VERTEX
  8
St
 10
-130.175
 20
-65.3
 70
     8
  0
VERTEX
  8
St
 10
-130.175
 20
-65.275
 70
     8
  0
VERTEX
  8
St
 10
-130.175
 20
-65.275
 70
     8
  0
VERTEX
  8
St
 10
-130.2
 20
-65.275
 70
     8
  0
VERTEX
  8
St
 10
-130.2
 20
-65.25
 70
     8
  0
VERTEX
  8
St
 10
-130.2
 20
-65.25
 70
     8
  0
VERTEX
  8
St
 10
-130.2
 20
-65.225
 70
     8
  0
VERTEX
  8
St
 10
-130.2
 20
-65.225
 70
     8
  0
VERTEX
  8
St
 10
-130.2
 20
-65.2
 70
     8
  0
VERTEX
  8
St
 10
-130.2
 20
-65.2
 70
     8
  0
VERTEX
  8
St
 10
-130.2
 20
-65.2
 70
     8
  0
VERTEX
  8
St
 10
-130.225
 20
-65.175
 70
     8
  0
VERTEX
  8
St
 10
-130.225
 20
-65.175
 70
     8
  0
VERTEX
  8
St
 10
-130.225
 20
-65.15
 70
     8
  0
VERTEX
  8
St
 10
-130.225
 20
-65.15
 70
     8
  0
VERTEX
  8
St
 10
-130.225
 20
-65.125
 70
     8
  0
VERTEX
  8
St
 10
-130.225
 20
-65.125
 70
     8
  0
VERTEX
  8
St
 10
-130.225
 20
-65.125
 70
     8
  0
VERTEX
  8
St
 10
-130.25
 20
-65.1
 70
     8
  0
VERTEX
  8
St
 10
-130.25
 20
-65.1
 70
     8
  0
VERTEX
  8
St
 10
-130.25
 20
-65.075
 70
     8
  0
VERTEX
  8
St
 10
-130.25
 20
-65.075
 70
     8
  0
VERTEX
  8
St
 10
-130.25
 20
-65.05
 70
     8
  0
VERTEX
  8
St
 10
-130.275
 20
-65.05
 70
     8
  0
VERTEX
  8
St
 10
-130.275
 20
-65.05
 70
     8
  0
VERTEX
  8
St
 10
-130.275
 20
-65.025
 70
     8
  0
VERTEX
  8
St
 10
-130.275
 20
-65.025
 70
     8
  0
VERTEX
  8
St
 10
-130.275
 20
-65.0
 70
     8
  0
VERTEX
  8
St
 10
-130.3
 20
-65.0
 70
     8
  0
VERTEX
  8
St
 10
-130.3
 20
-64.975
 70
     8
  0
VERTEX
  8
St
 10
-130.3
 20
-64.975
 70
     8
  0
VERTEX
  8
St
 10
-130.3
 20
-64.975
 70
     8
  0
VERTEX
  8
St
 10
-130.3
 20
-64.95
 70
     8
  0
VERTEX
  8
St
 10
-130.325
 20
-64.95
 70
     8
  0
VERTEX
  8
St
 10
-130.325
 20
-64.925
 70
     8
  0
VERTEX
  8
St
 10
-130.325
 20
-64.925
 70
     8
  0
VERTEX
  8
St
 10
-130.325
 20
-64.9
 70
     8
  0
VERTEX
  8
St
 10
-130.35
 20
-64.9
 70
     8
  0
VERTEX
  8
St
 10
-130.35
 20
-64.875
 70
     8
  0
VERTEX
  8
St
 10
-130.35
 20
-64.875
 70
     8
  0
VERTEX
  8
St
 10
-130.35
 20
-64.875
 70
     8
  0
VERTEX
  8
St
 10
-130.35
 20
-64.85
 70
     8
  0
VERTEX
  8
St
 10
-130.375
 20
-64.85
 70
     8
  0
VERTEX
  8
St
 10
-130.375
 20
-64.825
 70
     8
  0
VERTEX
  8
St
 10
-130.375
 20
-64.825
 70
     8
  0
VERTEX
  8
St
 10
-130.4
 20
-64.825
 70
     8
  0
VERTEX
  8
St
 10
-130.4
 20
-64.8
 70
     8
  0
VERTEX
  8
St
 10
-130.4
 20
-64.8
 70
     8
  0
VERTEX
  8
St
 10
-130.4
 20
-64.775
 70
     8
  0
VERTEX
  8
St
 10
-130.425
 20
-64.775
 70
     8
  0
VERTEX
  8
St
 10
-130.425
 20
-64.75
 70
     8
  0
VERTEX
  8
St
 10
-130.425
 20
-64.75
 70
     8
  0
VERTEX
  8
St
 10
-130.425
 20
-64.75
 70
     8
  0
VERTEX
  8
St
 10
-130.45
 20
-64.725
 70
     8
  0
VERTEX
  8
St
 10
-130.45
 20
-64.725
 70
     8
  0
VERTEX
  8
St
 10
-130.45
 20
-64.725
 70
     8
  0
VERTEX
  8
St
 10
-130.45
 20
-64.7
 70
     8
  0
VERTEX
  8
St
 10
-130.475
 20
-64.7
 70
     8
  0
VERTEX
  8
St
 10
-130.475
 20
-64.7
 70
     8
  0
VERTEX
  8
St
 10
-130.475
 20
-64.675
 70
     8
  0
VERTEX
  8
St
 10
-130.5
 20
-64.675
 70
     8
  0
VERTEX
  8
St
 10
-130.5
 20
-64.65
 70
     8
  0
VERTEX
  8
St
 10
-130.5
 20
-64.65
 70
     8
  0
VERTEX
  8
St
 10
-130.5
 20
-64.65
 70
     8
  0
VERTEX
  8
St
 10
-130.525
 20
-64.65
 70
     8
  0
VERTEX
  8
St
 10
-130.525
 20
-64.625
 70
     8
  0
VERTEX
  8
St
 10
-130.525
 20
-64.625
 70
     8
  0
VERTEX
  8
St
 10
-130.55
 20
-64.625
 70
     8
  0
VERTEX
  8
St
 10
-130.55
 20
-64.6
 70
     8
  0
VERTEX
  8
St
 10
-130.55
 20
-64.6
 70
     8
  0
VERTEX
  8
St
 10
-130.55
 20
-64.6
 70
     8
  0
VERTEX
  8
St
 10
-130.575
 20
-64.6
 70
     8
  0
VERTEX
  8
St
 10
-130.575
 20
-64.575
 70
     8
  0
VERTEX
  8
St
 10
-130.575
 20
-64.575
 70
     8
  0
VERTEX
  8
St
 10
-130.575
 20
-64.575
 70
     8
  0
VERTEX
  8
St
 10
-130.6
 20
-64.575
 70
     8
  0
VERTEX
  8
St
 10
-130.6
 20
-64.55
 70
     8
  0
VERTEX
  8
St
 10
-130.6
 20
-64.55
 70
     8
  0
VERTEX
  8
St
 10
-130.625
 20
-64.55
 70
     8
  0
VERTEX
  8
St
 10
-130.625
 20
-64.55
 70
     8
  0
VERTEX
  8
St
 10
-130.625
 20
-64.55
 70
     8
  0
VERTEX
  8
St
 10
-130.625
 20
-64.525
 70
     8
  0
VERTEX
  8
St
 10
-130.65
 20
-64.525
 70
     8
  0
VERTEX
  8
St
 10
-130.65
 20
-64.525
 70
     8
  0
VERTEX
  8
St
 10
-130.65
 20
-64.525
 70
     8
  0
VERTEX
  8
St
 10
-130.65
 20
-64.525
 70
     8
  0
VERTEX
  8
St
 10
-130.675
 20
-64.525
 70
     8
  0
VERTEX
  8
St
 10
-130.675
 20
-64.525
 70
     8
  0
VERTEX
  8
St
 10
-130.675
 20
-64.525
 70
     8
  0
VERTEX
  8
St
 10
-130.675
 20
-64.525
 70
     8
  0
VERTEX
  8
St
 10
-130.7
 20
-64.525
 70
     8
  0
VERTEX
  8
St
 10
-130.7
 20
-64.525
 70
     8
  0
VERTEX
  8
St
 10
-130.7
 20
-64.5
 70
     8
  0
VERTEX
  8
St
 10
-130.7
 20
-64.5
 70
     8
  0
VERTEX
  8
St
 10
-130.7
 20
-64.5
 70
     8
  0
VERTEX
  8
St
 10
-130.725
 20
-64.5
 70
     8
  0
VERTEX
  8
St
 10
-130.725
 20
-64.5
 70
     8
  0
VERTEX
  8
St
 10
-130.725
 20
-64.525
 70
     8
  0
VERTEX
  8
St
 10
-130.725
 20
-64.525
 70
     8
  0
VERTEX
  8
St
 10
-130.75
 20
-64.525
 70
     8
  0
VERTEX
  8
St
 10
-130.75
 20
-64.525
 70
     8
  0
VERTEX
  8
St
 10
-130.75
 20
-64.525
 70
     8
  0
VERTEX
  8
St
 10
-130.75
 20
-64.525
 70
     8
  0
VERTEX
  8
St
 10
-130.75
 20
-64.525
 70
     8
  0
VERTEX
  8
St
 10
-130.75
 20
-64.525
 70
     8
  0
VERTEX
  8
St
 10
-130.775
 20
-64.525
 70
     8
  0
VERTEX
  8
St
 10
-130.775
 20
-64.525
 70
     8
  0
VERTEX
  8
St
 10
-130.775
 20
-64.55
 70
     8
  0
VERTEX
  8
St
 10
-130.775
 20
-64.55
 70
     8
  0
VERTEX
  8
St
 10
-130.775
 20
-64.55
 70
     8
  0
VERTEX
  8
St
 10
-130.8
 20
-64.55
 70
     8
  0
VERTEX
  8
St
 10
-130.8
 20
-64.55
 70
     8
  0
VERTEX
  8
St
 10
-130.8
 20
-64.575
 70
     8
  0
VERTEX
  8
St
 10
-130.8
 20
-64.575
 70
     8
  0
VERTEX
  8
St
 10
-130.8
 20
-64.575
 70
     8
  0
VERTEX
  8
St
 10
-130.8
 20
-64.575
 70
     8
  0
VERTEX
  8
St
 10
-130.8
 20
-64.6
 70
     8
  0
VERTEX
  8
St
 10
-130.825
 20
-64.6
 70
     8
  0
VERTEX
  8
St
 10
-130.825
 20
-64.6
 70
     8
  0
VERTEX
  8
St
 10
-130.825
 20
-64.6
 70
     8
  0
VERTEX
  8
St
 10
-130.825
 20
-64.625
 70
     8
  0
VERTEX
  8
St
 10
-130.825
 20
-64.625
 70
     8
  0
VERTEX
  8
St
 10
-130.825
 20
-64.625
 70
     8
  0
VERTEX
  8
St
 10
-130.825
 20
-64.65
 70
     8
  0
VERTEX
  8
St
 10
-130.825
 20
-64.65
 70
     8
  0
VERTEX
  8
St
 10
-130.85
 20
-64.65
 70
     8
  0
VERTEX
  8
St
 10
-130.85
 20
-64.675
 70
     8
  0
VERTEX
  8
St
 10
-130.85
 20
-64.675
 70
     8
  0
VERTEX
  8
St
 10
-130.85
 20
-64.675
 70
     8
  0
VERTEX
  8
St
 10
-130.85
 20
-64.7
 70
     8
  0
VERTEX
  8
St
 10
-130.85
 20
-64.7
 70
     8
  0
VERTEX
  8
St
 10
-130.85
 20
-64.725
 70
     8
  0
VERTEX
  8
St
 10
-130.85
 20
-64.725
 70
     8
  0
VERTEX
  8
St
 10
-130.85
 20
-64.725
 70
     8
  0
VERTEX
  8
St
 10
-130.85
 20
-64.75
 70
     8
  0
VERTEX
  8
St
 10
-130.85
 20
-64.75
 70
     8
  0
VERTEX
  8
St
 10
-130.85
 20
-64.775
 70
     8
  0
VERTEX
  8
St
 10
-130.875
 20
-64.775
 70
     8
  0
VERTEX
  8
St
 10
-130.875
 20
-64.775
 70
     8
  0
VERTEX
  8
St
 10
-130.875
 20
-64.8
 70
     8
  0
VERTEX
  8
St
 10
-130.875
 20
-64.8
 70
     8
  0
VERTEX
  8
St
 10
-130.875
 20
-64.825
 70
     8
  0
VERTEX
  8
St
 10
-130.875
 20
-64.825
 70
     8
  0
VERTEX
  8
St
 10
-130.875
 20
-64.85
 70
     8
  0
VERTEX
  8
St
 10
-130.875
 20
-64.85
 70
     8
  0
VERTEX
  8
St
 10
-130.875
 20
-64.875
 70
     8
  0
VERTEX
  8
St
 10
-130.875
 20
-64.875
 70
     8
  0
VERTEX
  8
St
 10
-130.875
 20
-64.875
 70
     8
  0
VERTEX
  8
St
 10
-130.875
 20
-64.9
 70
     8
  0
VERTEX
  8
St
 10
-130.875
 20
-64.9
 70
     8
  0
VERTEX
  8
St
 10
-130.875
 20
-64.925
 70
     8
  0
VERTEX
  8
St
 10
-130.875
 20
-64.925
 70
     8
  0
VERTEX
  8
St
 10
-130.875
 20
-64.95
 70
     8
  0
VERTEX
  8
St
 10
-130.875
 20
-64.95
 70
     8
  0
VERTEX
  8
St
 10
-130.875
 20
-64.975
 70
     8
  0
VERTEX
  8
St
 10
-130.875
 20
-64.975
 70
     8
  0
VERTEX
  8
St
 10
-130.875
 20
-65.0
 70
     8
  0
VERTEX
  8
St
 10
-130.875
 20
-65.0
 70
     8
  0
VERTEX
  8
St
 10
-130.875
 20
-65.025
 70
     8
  0
VERTEX
  8
St
 10
-130.875
 20
-65.025
 70
     8
  0
VERTEX
  8
St
 10
-130.875
 20
-65.05
 70
     8
  0
VERTEX
  8
St
 10
-130.875
 20
-65.05
 70
     8
  0
VERTEX
  8
St
 10
-130.875
 20
-65.075
 70
     8
  0
VERTEX
  8
St
 10
-130.875
 20
-65.075
 70
     8
  0
VERTEX
  8
St
 10
-130.875
 20
-65.1
 70
     8
  0
VERTEX
  8
St
 10
-130.875
 20
-65.1
 70
     8
  0
VERTEX
  8
St
 10
-130.85
 20
-65.125
 70
     8
  0
VERTEX
  8
St
 10
-130.85
 20
-65.15
 70
     8
  0
VERTEX
  8
St
 10
-130.85
 20
-65.15
 70
     8
  0
VERTEX
  8
St
 10
-130.85
 20
-65.175
 70
     8
  0
VERTEX
  8
St
 10
-130.85
 20
-65.175
 70
     8
  0
VERTEX
  8
St
 10
-130.85
 20
-65.2
 70
     8
  0
VERTEX
  8
St
 10
-130.85
 20
-65.2
 70
     8
  0
VERTEX
  8
St
 10
-130.85
 20
-65.225
 70
     8
  0
VERTEX
  8
St
 10
-130.85
 20
-65.225
 70
     8
  0
VERTEX
  8
St
 10
-130.85
 20
-65.25
 70
     8
  0
VERTEX
  8
St
 10
-130.85
 20
-65.25
 70
     8
  0
VERTEX
  8
St
 10
-130.85
 20
-65.275
 70
     8
  0
VERTEX
  8
St
 10
-130.825
 20
-65.275
 70
     8
  0
VERTEX
  8
St
 10
-130.825
 20
-65.3
 70
     8
  0
VERTEX
  8
St
 10
-130.825
 20
-65.3
 70
     8
  0
VERTEX
  8
St
 10
-130.825
 20
-65.325
 70
     8
  0
VERTEX
  8
St
 10
-130.825
 20
-65.325
 70
     8
  0
VERTEX
  8
St
 10
-130.825
 20
-65.35
 70
     8
  0
VERTEX
  8
St
 10
-130.825
 20
-65.35
 70
     8
  0
VERTEX
  8
St
 10
-130.825
 20
-65.375
 70
     8
  0
VERTEX
  8
St
 10
-130.8
 20
-65.375
 70
     8
  0
VERTEX
  8
St
 10
-130.8
 20
-65.4
 70
     8
  0
VERTEX
  8
St
 10
-130.8
 20
-65.4
 70
     8
  0
VERTEX
  8
St
 10
-130.8
 20
-65.4
 70
     8
  0
VERTEX
  8
St
 10
-130.8
 20
-65.425
 70
     8
  0
VERTEX
  8
St
 10
-130.8
 20
-65.425
 70
     8
  0
VERTEX
  8
St
 10
-130.775
 20
-65.45
 70
     8
  0
VERTEX
  8
St
 10
-130.775
 20
-65.45
 70
     8
  0
VERTEX
  8
St
 10
-130.775
 20
-65.475
 70
     8
  0
VERTEX
  8
St
 10
-130.775
 20
-65.475
 70
     8
  0
VERTEX
  8
St
 10
-130.775
 20
-65.5
 70
     8
  0
VERTEX
  8
St
 10
-130.775
 20
-65.5
 70
     8
  0
VERTEX
  8
St
 10
-130.75
 20
-65.5
 70
     8
  0
VERTEX
  8
St
 10
-130.75
 20
-65.525
 70
     8
  0
VERTEX
  8
St
 10
-130.75
 20
-65.525
 70
     8
  0
VERTEX
  8
St
 10
-130.75
 20
-65.55
 70
     8
  0
VERTEX
  8
St
 10
-130.725
 20
-65.55
 70
     8
  0
VERTEX
  8
St
 10
-130.725
 20
-65.575
 70
     8
  0
VERTEX
  8
St
 10
-130.725
 20
-65.575
 70
     8
  0
VERTEX
  8
St
 10
-130.725
 20
-65.575
 70
     8
  0
VERTEX
  8
St
 10
-130.725
 20
-65.6
 70
     8
  0
VERTEX
  8
St
 10
-130.7
 20
-65.6
 70
     8
  0
VERTEX
  8
St
 10
-130.7
 20
-65.6
 70
     8
  0
VERTEX
  8
St
 10
-130.7
 20
-65.625
 70
     8
  0
VERTEX
  8
St
 10
-130.7
 20
-65.625
 70
     8
  0
VERTEX
  8
St
 10
-130.675
 20
-65.625
 70
     8
  0
VERTEX
  8
St
 10
-130.675
 20
-65.65
 70
     8
  0
VERTEX
  8
St
 10
-130.675
 20
-65.65
 70
     8
  0
VERTEX
  8
St
 10
-130.675
 20
-65.65
 70
     8
  0
VERTEX
  8
St
 10
-130.65
 20
-65.675
 70
     8
  0
VERTEX
  8
St
 10
-130.65
 20
-65.675
 70
     8
  0
VERTEX
  8
St
 10
-130.65
 20
-65.675
 70
     8
  0
VERTEX
  8
St
 10
-130.625
 20
-65.7
 70
     8
  0
VERTEX
  8
St
 10
-130.625
 20
-65.7
 70
     8
  0
VERTEX
  8
St
 10
-130.625
 20
-65.7
 70
     8
  0
VERTEX
  8
St
 10
-130.625
 20
-65.7
 70
     8
  0
VERTEX
  8
St
 10
-130.6
 20
-65.725
 70
     8
  0
VERTEX
  8
St
 10
-130.6
 20
-65.725
 70
     8
  0
VERTEX
  8
St
 10
-130.6
 20
-65.725
 70
     8
  0
VERTEX
  8
St
 10
-130.575
 20
-65.725
 70
     8
  0
VERTEX
  8
St
 10
-130.575
 20
-65.75
 70
     8
  0
VERTEX
  8
St
 10
-130.575
 20
-65.75
 70
     8
  0
VERTEX
  8
St
 10
-130.55
 20
-65.75
 70
     8
  0
VERTEX
  8
St
 10
-130.55
 20
-65.75
 70
     8
  0
VERTEX
  8
St
 10
-130.55
 20
-65.75
 70
     8
  0
VERTEX
  8
St
 10
-130.525
 20
-65.775
 70
     8
  0
VERTEX
  8
St
 10
-130.525
 20
-65.775
 70
     8
  0
VERTEX
  8
St
 10
-130.525
 20
-65.775
 70
     8
  0
VERTEX
  8
St
 10
-130.5
 20
-65.775
 70
     8
  0
VERTEX
  8
St
 10
-130.5
 20
-65.775
 70
     8
  0
VERTEX
  8
St
 10
-130.5
 20
-65.8
 70
     8
  0
VERTEX
  8
St
 10
-130.475
 20
-65.8
 70
     8
  0
VERTEX
  8
St
 10
-130.475
 20
-65.8
 70
     8
  0
VERTEX
  8
St
 10
-130.475
 20
-65.8
 70
     8
  0
VERTEX
  8
St
 10
-130.45
 20
-65.8
 70
     8
  0
VERTEX
  8
St
 10
-130.45
 20
-65.8
 70
     8
  0
VERTEX
  8
St
 10
-130.45
 20
-65.825
 70
     8
  0
VERTEX
  8
St
 10
-130.425
 20
-65.825
 70
     8
  0
VERTEX
  8
St
 10
-130.425
 20
-65.825
 70
     8
  0
VERTEX
  8
St
 10
-130.4
 20
-65.825
 70
     8
  0
VERTEX
  8
St
 10
-130.4
 20
-65.825
 70
     8
  0
VERTEX
  8
St
 10
-130.4
 20
-65.825
 70
     8
  0
VERTEX
  8
St
 10
-130.375
 20
-65.825
 70
     8
  0
VERTEX
  8
St
 10
-130.375
 20
-65.825
 70
     8
  0
VERTEX
  8
St
 10
-130.375
 20
-65.85
 70
     8
  0
VERTEX
  8
St
 10
-130.35
 20
-65.85
 70
     8
  0
VERTEX
  8
St
 10
-130.35
 20
-65.85
 70
     8
  0
VERTEX
  8
St
 10
-130.325
 20
-65.85
 70
     8
  0
VERTEX
  8
St
 10
-130.325
 20
-65.85
 70
     8
  0
VERTEX
  8
St
 10
-130.325
 20
-65.85
 70
     8
  0
VERTEX
  8
St
 10
-130.3
 20
-65.85
 70
     8
  0
VERTEX
  8
St
 10
-130.3
 20
-65.85
 70
     8
  0
VERTEX
  8
St
 10
-130.3
 20
-65.85
 70
     8
  0
VERTEX
  8
St
 10
-130.275
 20
-65.875
 70
     8
  0
VERTEX
  8
St
 10
-130.275
 20
-65.875
 70
     8
  0
VERTEX
  8
St
 10
-130.25
 20
-65.875
 70
     8
  0
VERTEX
  8
St
 10
-130.25
 20
-65.875
 70
     8
  0
VERTEX
  8
St
 10
-130.25
 20
-65.875
 70
     8
  0
VERTEX
  8
St
 10
-130.225
 20
-65.875
 70
     8
  0
VERTEX
  8
St
 10
-130.225
 20
-65.875
 70
     8
  0
VERTEX
  8
St
 10
-130.2
 20
-65.875
 70
     8
  0
VERTEX
  8
St
 10
-130.2
 20
-65.875
 70
     8
  0
VERTEX
  8
St
 10
-130.2
 20
-65.875
 70
     8
  0
VERTEX
  8
St
 10
-130.175
 20
-65.875
 70
     8
  0
VERTEX
  8
St
 10
-130.175
 20
-65.9
 70
     8
  0
VERTEX
  8
St
 10
-130.15
 20
-65.9
 70
     8
  0
VERTEX
  8
St
 10
-130.15
 20
-65.9
 70
     8
  0
VERTEX
  8
St
 10
-130.15
 20
-65.9
 70
     8
  0
VERTEX
  8
St
 10
-130.125
 20
-65.9
 70
     8
  0
VERTEX
  8
St
 10
-130.125
 20
-65.9
 70
     8
  0
VERTEX
  8
St
 10
-130.1
 20
-65.9
 70
     8
  0
SEQEND
  0
ENDBLK
  0
BLOCK
  2
*GRP_0024
 70
    65
 10
0.0
 20
0.0
  0
LINE
  8
St
  6
CONTINUOUS
 10
-104.494927
 20
-23.54275
 11
-104.494927
 21
-24.609418
  0
LINE
  8
St
  6
CONTINUOUS
 10
-104.494927
 20
-24.609418
 11
-108.42826
 21
-24.609418
  0
LINE
  8
St
  6
CONTINUOUS
 10
-108.42826
 20
-23.54275
 11
-104.494927
 21
-23.54275
  0
ARC
  8
St
  6
CONTINUOUS
 10
-108.428259
 20
-24.609417
 40
1.066667
 50
90.0
 51
180.0
  0
LINE
  8
St
  6
CONTINUOUS
 10
-109.494927
 20
-24.609418
 11
-109.494927
 21
-45.142375
  0
ARC
  8
St
  6
CONTINUOUS
 10
-108.428259
 20
-45.142376
 40
1.066667
 50
180.0
 51
270.0
  0
LINE
  8
St
  6
CONTINUOUS
 10
-108.42826
 20
-24.609418
 11
-108.42826
 21
-45.142375
  0
LINE
  8
St
  6
CONTINUOUS
 10
-108.42826
 20
-45.142375
 11
-104.494927
 21
-45.142375
  0
LINE
  8
St
  6
CONTINUOUS
 10
-104.494927
 20
-45.142375
 11
-104.494927
 21
-46.209043
  0
LINE
  8
St
  6
CONTINUOUS
 10
-108.42826
 20
-46.209043
 11
-104.494927
 21
-46.209043
  0
LINE
  8
St
  6
CONTINUOUS
 10
-108.42826
 20
-30.54657
 11
-109.494927
 21
-29.479903
  0
LINE
  8
St
  6
CONTINUOUS
 10
-108.42826
 20
-30.78227
 11
-109.494927
 21
-29.715603
  0
LINE
  8
St
  6
CONTINUOUS
 10
-108.42826
 20
-42.212183
 11
-109.494927
 21
-41.145515
  0
LINE
  8
St
  6
CONTINUOUS
 10
-108.42826
 20
-42.447883
 11
-109.494927
 21
-41.381215
  0
LINE
  8
St
  6
CONTINUOUS
 10
-105.762855
 20
-24.609418
 11
-106.829522
 21
-23.54275
  0
LINE
  8
St
  6
CONTINUOUS
 10
-105.998555
 20
-24.609418
 11
-107.065222
 21
-23.54275
  0
LINE
  8
St
  6
CONTINUOUS
 10
-105.762855
 20
-46.209043
 11
-106.829522
 21
-45.142375
  0
LINE
  8
St
  6
CONTINUOUS
 10
-105.998555
 20
-46.209043
 11
-107.065222
 21
-45.142375
  0
ENDBLK
  0
BLOCK
  2
*GRP_0025
 70
    65
 10
0.0
 20
0.0
  0
LINE
  8
St
  6
CONTINUOUS
 10
-104.494927
 20
-20.209415
 11
-104.494927
 21
-19.142748
  0
LINE
  8
St
  6
CONTINUOUS
 10
-104.494927
 20
-19.142748
 11
-108.42826
 21
-19.142748
  0
LINE
  8
St
  6
CONTINUOUS
 10
-108.42826
 20
-20.209415
 11
-104.494927
 21
-20.209415
  0
ARC
  8
St
  6
CONTINUOUS
 10
-108.428259
 20
-19.142749
 40
1.066667
 50
180.0
 51
270.0
  0
LINE
  8
St
  6
CONTINUOUS
 10
-109.494927
 20
-19.142748
 11
-109.494927
 21
4.389765
  0
ARC
  8
St
  6
CONTINUOUS
 10
-108.428259
 20
4.389765
 40
1.066667
 50
90.0
 51
180.0
  0
LINE
  8
St
  6
CONTINUOUS
 10
-108.42826
 20
-19.142748
 11
-108.42826
 21
4.389765
  0
LINE
  8
St
  6
CONTINUOUS
 10
-108.42826
 20
4.389765
 11
-104.494927
 21
4.389765
  0
LINE
  8
St
  6
CONTINUOUS
 10
-104.494927
 20
4.389765
 11
-104.494927
 21
5.456432
  0
LINE
  8
St
  6
CONTINUOUS
 10
-108.42826
 20
5.456432
 11
-104.494927
 21
5.456432
  0
LINE
  8
St
  6
CONTINUOUS
 10
-108.42826
 20
-13.205595
 11
-109.494927
 21
-14.272263
  0
LINE
  8
St
  6
CONTINUOUS
 10
-108.42826
 20
-12.969895
 11
-109.494927
 21
-14.036563
  0
LINE
  8
St
  6
CONTINUOUS
 10
-108.42826
 20
-1.539983
 11
-109.494927
 21
-2.60665
  0
LINE
  8
St
  6
CONTINUOUS
 10
-108.42826
 20
-1.304283
 11
-109.494927
 21
-2.37095
  0
LINE
  8
St
  6
CONTINUOUS
 10
-105.762855
 20
-19.142748
 11
-106.829522
 21
-20.209415
  0
LINE
  8
St
  6
CONTINUOUS
 10
-105.998555
 20
-19.142748
 11
-107.065222
 21
-20.209415
  0
LINE
  8
St
  6
CONTINUOUS
 10
-105.762855
 20
5.456432
 11
-106.829522
 21
4.389765
  0
LINE
  8
St
  6
CONTINUOUS
 10
-105.998555
 20
5.456432
 11
-107.065222
 21
4.389765
  0
ENDBLK
  0
BLOCK
  2
*GRP_0026
 70
    65
 10
0.0
 20
0.0
  0
LINE
  8
補助線
  6
BYBLOCK
 62
     0
 10
-110.328252
 20
-21.709415
 11
-113.661595
 21
-21.709415
  0
LINE
  8
補助線
  6
BYBLOCK
 62
     0
 10
-111.994927
 20
-20.04274
 11
-111.994927
 21
-23.376073
  0
ENDBLK
  0
BLOCK
  2
*DIM_0027
 70
    65
 10
0.0
 20
0.0
  0
LINE
  8
寸法
  6
CONTINUOUS
 10
-99.99478
 20
9.290957
 11
-99.99478
 21
95.073788
  0
LINE
  8
寸法
  6
CONTINUOUS
 10
116.5979
 20
9.290957
 11
116.5979
 21
95.073788
  0
LINE
  8
寸法
  6
CONTINUOUS
 10
-99.99478
 20
95.073788
 11
116.5979
 21
95.073788
  0
POINT
  8
寸法
 10
-99.99478
 20
95.073788
  0
POINT
  8
寸法
 10
116.5979
 20
95.073788
  0
TEXT
  7
TextStyle03
  8
寸法
  6
CONTINUOUS
 10
1.7375
 20
95.425
  1
呼称寸法
 40
3.0
 72
     5
 11
14.8625
 21
95.425
  0
ENDBLK
  0
BLOCK
  2
*DIM_0028
 70
    65
 10
0.0
 20
0.0
  0
LINE
  8
寸法
  6
CONTINUOUS
 10
133.264608
 20
9.290957
 11
133.264608
 21
95.073788
  0
LINE
  8
寸法
  6
CONTINUOUS
 10
116.5979
 20
95.073788
 11
133.264608
 21
95.073788
  0
POINT
  8
寸法
 10
116.5979
 20
95.073788
  0
POINT
  8
寸法
 10
133.264608
 20
95.073788
  0
TEXT
  7
TextStyle03
  8
寸法
  6
CONTINUOUS
 10
123.33125
 20
95.425
  1
50
 40
3.0
 72
     5
 11
126.51875
 21
95.425
  0
ENDBLK
  0
BLOCK
  2
*DIM_0029
 70
    65
 10
0.0
 20
0.0
  0
LINE
  8
寸法
  6
CONTINUOUS
 10
181.59805
 20
-52.37571
 11
181.59805
 21
95.073788
  0
LINE
  8
寸法
  6
CONTINUOUS
 10
133.264608
 20
95.073788
 11
181.59805
 21
95.073788
  0
POINT
  8
寸法
 10
181.59805
 20
95.073788
  0
TEXT
  7
TextStyle03
  8
寸法
  6
CONTINUOUS
 10
155.925
 20
95.425
  1
※
 40
3.0
 72
     5
 11
158.925
 21
95.425
  0
ENDBLK
  0
BLOCK
  2
*DIM_0030
 70
    65
 10
0.0
 20
0.0
  0
LINE
  8
寸法
  6
CONTINUOUS
 10
-116.661488
 20
9.290957
 11
-116.661488
 21
95.073788
  0
LINE
  8
寸法
  6
CONTINUOUS
 10
-99.99478
 20
95.073788
 11
-116.661488
 21
95.073788
  0
POINT
  8
寸法
 10
-99.99478
 20
95.073788
  0
POINT
  8
寸法
 10
-116.661488
 20
95.073788
  0
TEXT
  7
TextStyle03
  8
寸法
  6
CONTINUOUS
 10
-109.94375
 20
95.425
  1
50
 40
3.0
 72
     5
 11
-106.75625
 21
95.425
  0
ENDBLK
  0
BLOCK
  2
*DIM_0031
 70
    65
 10
0.0
 20
0.0
  0
LINE
  8
寸法
  6
CONTINUOUS
 10
-116.661488
 20
9.290957
 11
-116.661488
 21
95.073788
  0
LINE
  8
寸法
  6
CONTINUOUS
 10
-164.99493
 20
-52.37571
 11
-164.99493
 21
95.073788
  0
LINE
  8
寸法
  6
CONTINUOUS
 10
-116.661488
 20
95.073788
 11
-164.99493
 21
95.073788
  0
POINT
  8
寸法
 10
-164.99493
 20
95.073788
  0
TEXT
  7
TextStyle03
  8
寸法
  6
CONTINUOUS
 10
-142.35
 20
95.425
  1
※
 40
3.0
 72
     5
 11
-139.35
 21
95.425
  0
ENDBLK
  0
BLOCK
  2
*DIM_0032
 70
    65
 10
0.0
 20
0.0
  0
LINE
  8
寸法
  6
CONTINUOUS
 10
116.5979
 20
9.290957
 11
116.5979
 21
89.523447
  0
LINE
  8
寸法
  6
CONTINUOUS
 10
123.264585
 20
9.957612
 11
123.264585
 21
89.523447
  0
LINE
  8
寸法
  6
CONTINUOUS
 10
116.5979
 20
89.523447
 11
123.264585
 21
89.523447
  0
POINT
  8
寸法
 10
116.5979
 20
89.523447
  0
POINT
  8
寸法
 10
123.264585
 20
89.523447
  0
TEXT
  7
TextStyle03
  8
寸法
  6
CONTINUOUS
 10
118.33125
 20
89.875
  1
20
 40
3.0
 72
     5
 11
121.51875
 21
89.875
  0
ENDBLK
  0
BLOCK
  2
*DIM_0033
 70
    65
 10
0.0
 20
0.0
  0
LINE
  8
寸法
  6
CONTINUOUS
 10
133.264608
 20
10.290957
 11
133.264608
 21
89.523447
  0
LINE
  8
寸法
  6
CONTINUOUS
 10
123.264585
 20
89.523447
 11
133.264608
 21
89.523447
  0
POINT
  8
寸法
 10
133.264608
 20
89.523447
  0
TEXT
  7
TextStyle03
  8
寸法
  6
CONTINUOUS
 10
126.65625
 20
89.875
  1
30
 40
3.0
 72
     5
 11
129.84375
 21
89.875
  0
ENDBLK
  0
BLOCK
  2
*DIM_0034
 70
    65
 10
0.0
 20
0.0
  0
LINE
  8
寸法
  6
CONTINUOUS
 10
-99.99478
 20
9.290957
 11
-99.99478
 21
89.523447
  0
LINE
  8
寸法
  6
CONTINUOUS
 10
-106.661465
 20
9.957612
 11
-106.661465
 21
89.523447
  0
LINE
  8
寸法
  6
CONTINUOUS
 10
-99.99478
 20
89.523447
 11
-106.661465
 21
89.523447
  0
POINT
  8
寸法
 10
-99.99478
 20
89.523447
  0
POINT
  8
寸法
 10
-106.661465
 20
89.523447
  0
TEXT
  7
TextStyle03
  8
寸法
  6
CONTINUOUS
 10
-104.94375
 20
89.875
  1
20
 40
3.0
 72
     5
 11
-101.75625
 21
89.875
  0
ENDBLK
  0
BLOCK
  2
*DIM_0035
 70
    65
 10
0.0
 20
0.0
  0
LINE
  8
寸法
  6
CONTINUOUS
 10
-106.661465
 20
9.957612
 11
-106.661465
 21
89.523447
  0
LINE
  8
寸法
  6
CONTINUOUS
 10
-116.661488
 20
10.290957
 11
-116.661488
 21
89.523447
  0
LINE
  8
寸法
  6
CONTINUOUS
 10
-106.661465
 20
89.523447
 11
-116.661488
 21
89.523447
  0
POINT
  8
寸法
 10
-116.661488
 20
89.523447
  0
TEXT
  7
TextStyle03
  8
寸法
  6
CONTINUOUS
 10
-113.26875
 20
89.875
  1
30
 40
3.0
 72
     5
 11
-110.08125
 21
89.875
  0
ENDBLK
  0
BLOCK
  2
*DIM_0036
 70
    65
 10
0.0
 20
0.0
  0
LINE
  8
寸法
  6
CONTINUOUS
 10
-89.994927
 20
-41.375708
 11
-89.994927
 21
89.523447
  0
LINE
  8
寸法
  6
CONTINUOUS
 10
-99.99478
 20
89.523447
 11
-89.994927
 21
89.523447
  0
POINT
  8
寸法
 10
-99.99478
 20
89.523447
  0
POINT
  8
寸法
 10
-89.994927
 20
89.523447
  0
TEXT
  7
TextStyle03
  8
寸法
  6
CONTINUOUS
 10
-96.59375
 20
89.875
  1
30
 40
3.0
 72
     5
 11
-93.40625
 21
89.875
  0
ENDBLK
  0
BLOCK
  2
*DIM_0037
 70
    65
 10
0.0
 20
0.0
  0
LINE
  8
寸法
  6
CONTINUOUS
 10
116.5979
 20
9.290957
 11
116.5979
 21
89.523447
  0
LINE
  8
寸法
  6
CONTINUOUS
 10
106.598048
 20
-41.375708
 11
106.598048
 21
89.523447
  0
LINE
  8
寸法
  6
CONTINUOUS
 10
116.5979
 20
89.523447
 11
106.598048
 21
89.523447
  0
POINT
  8
寸法
 10
116.5979
 20
89.523447
  0
POINT
  8
寸法
 10
106.598048
 20
89.523447
  0
TEXT
  7
TextStyle03
  8
寸法
  6
CONTINUOUS
 10
109.98125
 20
89.875
  1
30
 40
3.0
 72
     5
 11
113.16875
 21
89.875
  0
ENDBLK
  0
BLOCK
  2
*DIM_0038
 70
    65
 10
0.0
 20
0.0
  0
LINE
  8
寸法
  6
CONTINUOUS
 10
-110.994927
 20
-46.709043
 11
-155.16909
 21
-46.709043
  0
LINE
  8
寸法
  6
CONTINUOUS
 10
-110.994927
 20
-22.709415
 11
-155.16909
 21
-22.709415
  0
LINE
  8
寸法
  6
CONTINUOUS
 10
-155.16909
 20
-46.709043
 11
-155.16909
 21
-22.709415
  0
POINT
  8
寸法
 10
-155.16909
 20
-46.709043
  0
POINT
  8
寸法
 10
-155.16909
 20
-22.709415
  0
TEXT
  7
TextStyle03
  8
寸法
  6
CONTINUOUS
 10
-155.55
 20
-36.31875
  1
72
 40
3.0
 50
90.0
 72
     5
 11
-155.55
 21
-33.13125
  0
ENDBLK
  0
BLOCK
  2
*DIM_0039
 70
    65
 10
0.0
 20
0.0
  0
LINE
  8
寸法
  6
CONTINUOUS
 10
-110.994927
 20
-20.709415
 11
-155.16909
 21
-20.709415
  0
LINE
  8
寸法
  6
CONTINUOUS
 10
-155.16909
 20
-22.709415
 11
-155.16909
 21
-20.709415
  0
POINT
  8
寸法
 10
-155.16909
 20
-20.709415
  0
TEXT
  7
TextStyle03
  8
寸法
  6
CONTINUOUS
 10
-155.55
 20
-22.475
  1
6
 40
3.0
 50
90.0
 72
     5
 11
-155.55
 21
-20.975
  0
ENDBLK
  0
BLOCK
  2
*DIM_0040
 70
    65
 10
0.0
 20
0.0
  0
LINE
  8
寸法
  6
CONTINUOUS
 10
-110.99493
 20
6.289768
 11
-155.16909
 21
6.289768
  0
LINE
  8
寸法
  6
CONTINUOUS
 10
-155.16909
 20
-20.709415
 11
-155.16909
 21
6.289768
  0
POINT
  8
寸法
 10
-155.16909
 20
6.289768
  0
TEXT
  7
TextStyle03
  8
寸法
  6
CONTINUOUS
 10
-155.55
 20
-8.81875
  1
81
 40
3.0
 50
90.0
 72
     5
 11
-155.55
 21
-5.63125
  0
ENDBLK
  0
BLOCK
  2
*DIM_0041
 70
    65
 10
0.0
 20
0.0
  0
LINE
  8
寸法
  6
CONTINUOUS
 10
-117.661488
 20
8.290957
 11
-155.16909
 21
8.290957
  0
LINE
  8
寸法
  6
CONTINUOUS
 10
-155.16909
 20
6.289768
 11
-155.16909
 21
8.290957
  0
POINT
  8
寸法
 10
-155.16909
 20
8.290957
  0
TEXT
  7
TextStyle03
  8
寸法
  6
CONTINUOUS
 10
-155.55
 20
6.525
  1
6
 40
3.0
 50
90.0
 72
     5
 11
-155.55
 21
8.025
  0
ENDBLK
  0
BLOCK
  2
*DIM_0042
 70
    65
 10
0.0
 20
0.0
  0
LINE
  8
寸法
  6
CONTINUOUS
 10
-118.661488
 20
8.290957
 11
-159.55713
 21
8.290957
  0
LINE
  8
寸法
  6
CONTINUOUS
 10
-111.994927
 20
-46.709043
 11
-159.55713
 21
-46.709043
  0
LINE
  8
寸法
  6
CONTINUOUS
 10
-159.55713
 20
8.290957
 11
-159.55713
 21
-46.709043
  0
POINT
  8
寸法
 10
-159.55713
 20
8.290957
  0
POINT
  8
寸法
 10
-159.55713
 20
-46.709043
  0
TEXT
  7
TextStyle03
  8
寸法
  6
CONTINUOUS
 10
-159.95
 20
-21.6625
  1
165
 40
3.0
 50
90.0
 72
     5
 11
-159.95
 21
-16.7875
  0
ENDBLK
  0
BLOCK
  2
*DIM_0043
 70
    65
 10
0.0
 20
0.0
  0
LINE
  8
寸法
  6
CONTINUOUS
 10
-164.99493
 20
-77.709043
 11
-164.99493
 21
-112.062763
  0
LINE
  8
寸法
  6
CONTINUOUS
 10
-158.328262
 20
-101.12576
 11
-158.328262
 21
-112.062763
  0
LINE
  8
寸法
  6
CONTINUOUS
 10
-164.99493
 20
-112.062763
 11
-158.328262
 21
-112.062763
  0
POINT
  8
寸法
 10
-164.99493
 20
-112.062763
  0
POINT
  8
寸法
 10
-158.328262
 20
-112.062763
  0
TEXT
  7
TextStyle03
  8
寸法
  6
CONTINUOUS
 10
-163.26875
 20
-111.7
  1
20
 40
3.0
 72
     5
 11
-160.08125
 21
-111.7
  0
ENDBLK
  0
BLOCK
  2
*DIM_0044
 70
    65
 10
0.0
 20
0.0
  0
LINE
  8
寸法
  6
CONTINUOUS
 10
-108.328262
 20
-101.12576
 11
-108.328262
 21
-112.062763
  0
LINE
  8
寸法
  6
CONTINUOUS
 10
-158.328262
 20
-112.062763
 11
-108.328262
 21
-112.062763
  0
POINT
  8
寸法
 10
-108.328262
 20
-112.062763
  0
TEXT
  7
TextStyle03
  8
寸法
  6
CONTINUOUS
 10
-135.7875
 20
-111.7
  1
150
 40
3.0
 72
     5
 11
-130.9125
 21
-111.7
  0
ENDBLK
  0
BLOCK
  2
*DIM_0045
 70
    65
 10
0.0
 20
0.0
  0
LINE
  8
寸法
  6
CONTINUOUS
 10
-91.661595
 20
-101.12576
 11
-91.661595
 21
-112.062763
  0
LINE
  8
寸法
  6
CONTINUOUS
 10
-108.328262
 20
-112.062763
 11
-91.661595
 21
-112.062763
  0
POINT
  8
寸法
 10
-91.661595
 20
-112.062763
  0
TEXT
  7
TextStyle03
  8
寸法
  6
CONTINUOUS
 10
-101.59375
 20
-111.7
  1
50
 40
3.0
 72
     5
 11
-98.40625
 21
-111.7
  0
ENDBLK
  0
BLOCK
  2
*DIM_0046
 70
    65
 10
0.0
 20
0.0
  0
LINE
  8
寸法
  6
CONTINUOUS
 10
-89.994927
 20
-48.209043
 11
-89.994927
 21
-112.062763
  0
LINE
  8
寸法
  6
CONTINUOUS
 10
-91.661595
 20
-112.062763
 11
-89.994927
 21
-112.062763
  0
POINT
  8
寸法
 10
-89.994927
 20
-112.062763
  0
TEXT
  7
TextStyle03
  8
寸法
  6
CONTINUOUS
 10
-89.925
 20
-111.7
  1
5
 40
3.0
 72
     5
 11
-88.425
 21
-111.7
  0
ENDBLK
  0
BLOCK
  2
*DIM_0047
 70
    65
 10
0.0
 20
0.0
  0
LINE
  8
寸法
  6
CONTINUOUS
 10
181.59805
 20
-77.709043
 11
181.59805
 21
-112.062763
  0
LINE
  8
寸法
  6
CONTINUOUS
 10
174.931382
 20
-101.12576
 11
174.931382
 21
-112.062763
  0
LINE
  8
寸法
  6
CONTINUOUS
 10
181.59805
 20
-112.062763
 11
174.931382
 21
-112.062763
  0
POINT
  8
寸法
 10
181.59805
 20
-112.062763
  0
POINT
  8
寸法
 10
174.931382
 20
-112.062763
  0
TEXT
  7
TextStyle03
  8
寸法
  6
CONTINUOUS
 10
176.65625
 20
-111.7
  1
20
 40
3.0
 72
     5
 11
179.84375
 21
-111.7
  0
ENDBLK
  0
BLOCK
  2
*DIM_0048
 70
    65
 10
0.0
 20
0.0
  0
LINE
  8
寸法
  6
CONTINUOUS
 10
174.931382
 20
-101.12576
 11
174.931382
 21
-112.062763
  0
LINE
  8
寸法
  6
CONTINUOUS
 10
124.931382
 20
-101.12576
 11
124.931382
 21
-112.062763
  0
LINE
  8
寸法
  6
CONTINUOUS
 10
174.931382
 20
-112.062763
 11
124.931382
 21
-112.062763
  0
POINT
  8
寸法
 10
124.931382
 20
-112.062763
  0
TEXT
  7
TextStyle03
  8
寸法
  6
CONTINUOUS
 10
147.4875
 20
-111.7
  1
150
 40
3.0
 72
     5
 11
152.3625
 21
-111.7
  0
ENDBLK
  0
BLOCK
  2
*DIM_0049
 70
    65
 10
0.0
 20
0.0
  0
LINE
  8
寸法
  6
CONTINUOUS
 10
124.931382
 20
-101.12576
 11
124.931382
 21
-112.062763
  0
LINE
  8
寸法
  6
CONTINUOUS
 10
108.264715
 20
-101.12576
 11
108.264715
 21
-112.062763
  0
LINE
  8
寸法
  6
CONTINUOUS
 10
124.931382
 20
-112.062763
 11
108.264715
 21
-112.062763
  0
POINT
  8
寸法
 10
108.264715
 20
-112.062763
  0
TEXT
  7
TextStyle03
  8
寸法
  6
CONTINUOUS
 10
114.98125
 20
-111.7
  1
50
 40
3.0
 72
     5
 11
118.16875
 21
-111.7
  0
ENDBLK
  0
BLOCK
  2
*DIM_0050
 70
    65
 10
0.0
 20
0.0
  0
LINE
  8
寸法
  6
CONTINUOUS
 10
108.264715
 20
-101.12576
 11
108.264715
 21
-112.062763
  0
LINE
  8
寸法
  6
CONTINUOUS
 10
106.598048
 20
-48.209043
 11
106.598048
 21
-112.062763
  0
LINE
  8
寸法
  6
CONTINUOUS
 10
108.264715
 20
-112.062763
 11
106.598048
 21
-112.062763
  0
POINT
  8
寸法
 10
106.598048
 20
-112.062763
  0
TEXT
  7
TextStyle03
  8
寸法
  6
CONTINUOUS
 10
104.3
 20
-111.95
  1
5
 40
3.0
 72
     5
 11
105.8
 21
-111.95
  0
ENDBLK
  0
BLOCK
  2
*DIM_0051
 70
    65
 10
0.0
 20
0.0
  0
LINE
  8
寸法
  6
CONTINUOUS
 10
-89.994927
 20
-112.062763
 11
106.598048
 21
-112.062763
  0
POINT
  8
寸法
 10
-89.994927
 20
-112.062763
  0
POINT
  8
寸法
 10
106.598048
 20
-112.062763
  0
TEXT
  7
TextStyle03
  8
寸法
  6
CONTINUOUS
 10
-1.6375
 20
-111.7
  1
有効開口寸法
 40
3.0
 72
     5
 11
18.2375
 21
-111.7
  0
ENDBLK
  0
BLOCK
  2
*GRP_0052
 70
    65
 10
0.0
 20
0.0
  0
LINE
  8
型材断面
  6
DOT
 10
-102.828262
 20
5.289768
 11
-102.828262
 21
2.456435
  0
LINE
  8
型材断面
  6
DOT
 10
-102.828262
 20
2.456435
 11
-103.328262
 21
2.456435
  0
LINE
  8
型材断面
  6
DOT
 10
-102.828262
 20
5.289768
 11
-99.99493
 21
5.289768
  0
LINE
  8
型材断面
  6
DOT
 10
-99.99493
 20
5.289768
 11
-99.99493
 21
5.789768
  0
LINE
  8
型材断面
  6
DOT
 10
-102.828262
 20
5.789768
 11
-99.99493
 21
5.789768
  0
LINE
  8
型材断面
  6
DOT
 10
-103.328262
 20
5.289768
 11
-103.328262
 21
2.456435
  0
ARC
  8
型材断面
  6
DOT
 10
-102.828262
 20
5.289767
 40
0.5
 50
90.0
 51
180.0
  0
ENDBLK
  0
BLOCK
  2
*GRP_0053
 70
    65
 10
0.0
 20
0.0
  0
LINE
  8
型材断面
  6
DOT
 10
-103.328262
 20
6.289768
 11
-103.328262
 21
5.789768
  0
LINE
  8
型材断面
  6
DOT
 10
-94.994795
 20
6.289768
 11
-94.994795
 21
5.789768
  0
LINE
  8
型材断面
  6
DOT
 10
-94.994795
 20
6.289768
 11
-103.328262
 21
6.289768
  0
LINE
  8
型材断面
  6
DOT
 10
-94.994795
 20
5.789768
 11
-103.328262
 21
5.789768
  0
ENDBLK
  0
BLOCK
  2
*GRP_0054
 70
    65
 10
0.0
 20
0.0
  0
INSERT
  2
*GRP_0056
  8
ゴム等
  6
DOT
 10
0.0
 20
0.0
  0
LINE
  8
ゴム等
  6
DOT
 10
-98.32812
 20
5.789768
 11
-96.762227
 21
4.223927
  0
LINE
  8
ゴム等
  6
DOT
 10
-98.176428
 20
4.223927
 11
-98.32812
 21
4.37561
  0
LINE
  8
ゴム等
  6
DOT
 10
-97.705027
 20
4.223927
 11
-98.32812
 21
4.846992
  0
LINE
  8
ゴム等
  6
DOT
 10
-97.233627
 20
4.223927
 11
-98.32812
 21
5.318385
  0
LINE
  8
ゴム等
  6
DOT
 10
-96.290827
 20
4.223927
 11
-97.85672
 21
5.789768
  0
LINE
  8
ゴム等
  6
DOT
 10
-95.819427
 20
4.223927
 11
-97.385312
 21
5.789768
  0
LINE
  8
ゴム等
  6
DOT
 10
-95.348027
 20
4.223927
 11
-96.913912
 21
5.789768
  0
LINE
  8
ゴム等
  6
DOT
 10
-94.994795
 20
4.342128
 11
-96.442478
 21
5.789768
  0
LINE
  8
ゴム等
  6
DOT
 10
-94.994795
 20
4.813517
 11
-95.971077
 21
5.789768
  0
LINE
  8
ゴム等
  6
DOT
 10
-94.994795
 20
5.284902
 11
-95.499677
 21
5.789768
  0
ENDBLK
  0
BLOCK
  2
*GRP_0055
 70
    65
 10
0.0
 20
0.0
  0
LINE
  8
ボルト／ビス
  6
DOT
 62
    64
 10
-102.32826
 20
5.689768
 11
-100.994927
 21
5.689768
  0
LINE
  8
ボルト／ビス
  6
DOT
 62
    64
 10
-102.32826
 20
3.789768
 11
-102.161595
 21
3.623098
  0
LINE
  8
ボルト／ビス
  6
DOT
 62
    64
 10
-100.994927
 20
3.789768
 11
-101.161595
 21
3.623098
  0
LINE
  8
ボルト／ビス
  6
DOT
 62
    64
 10
-102.161595
 20
3.623098
 11
-101.161595
 21
3.623098
  0
LINE
  8
ボルト／ビス
  6
DOT
 62
    64
 10
-102.32826
 20
3.789768
 11
-100.994927
 21
3.789768
  0
LINE
  8
ボルト／ビス
  6
DOT
 62
    64
 10
-102.161595
 20
5.689768
 11
-102.161595
 21
3.623098
  0
LINE
  8
ボルト／ビス
  6
DOT
 62
    64
 10
-101.161595
 20
5.689768
 11
-101.161595
 21
3.623098
  0
LINE
  8
ボルト／ビス
  6
DOT
 62
    64
 10
-100.994927
 20
5.689768
 11
-100.994927
 21
3.789768
  0
LINE
  8
ボルト／ビス
  6
DOT
 62
    64
 10
-102.32826
 20
5.689768
 11
-102.32826
 21
3.789768
  0
LINE
  8
ボルト／ビス
  6
DOT
 62
    64
 10
-101.661595
 20
7.289768
 11
-101.661595
 21
2.623098
  0
LINE
  8
ボルト／ビス
  6
DOT
 62
    64
 10
-102.661595
 20
6.289768
 11
-102.32826
 21
5.689768
  0
LINE
  8
ボルト／ビス
  6
DOT
 62
    64
 10
-102.661595
 20
6.289768
 11
-100.661595
 21
6.289768
  0
LINE
  8
ボルト／ビス
  6
DOT
 62
    64
 10
-100.661595
 20
6.289768
 11
-100.994927
 21
5.689768
  0
ENDBLK
  0
BLOCK
  2
*GRP_0056
 70
    65
 10
0.0
 20
0.0
  0
LINE
  8
ゴム等
  6
DOT
 10
-98.32812
 20
5.789768
 11
-98.32812
 21
4.223927
  0
LINE
  8
ゴム等
  6
DOT
 10
-94.994795
 20
5.789768
 11
-94.994795
 21
4.223927
  0
LINE
  8
ゴム等
  6
DOT
 10
-94.994795
 20
5.789768
 11
-98.32812
 21
5.789768
  0
LINE
  8
ゴム等
  6
DOT
 10
-94.994795
 20
4.223927
 11
-98.32812
 21
4.223927
  0
ENDBLK
  0
BLOCK
  2
*GRP_0057
 70
    65
 10
0.0
 20
0.0
  0
ARC
  8
型材断面
  6
CONTINUOUS
 10
-104.328262
 20
5.789768
 40
0.5
 50
0.0
 51
90.0
  0
LINE
  8
型材断面
  6
CONTINUOUS
 62
    47
 10
-109.494927
 20
6.289768
 11
-104.328262
 21
6.289768
  0
ARC
  8
型材断面
  6
CONTINUOUS
 10
-109.494927
 20
5.789768
 40
0.5
 50
90.0
 51
180.0
  0
LINE
  8
型材断面
  6
CONTINUOUS
 62
    47
 10
-109.494927
 20
5.789768
 11
-104.328262
 21
5.789768
  0
LINE
  8
型材断面
  6
CONTINUOUS
 62
    47
 10
-109.494927
 20
5.789768
 11
-109.494927
 21
-20.209415
  0
LINE
  8
型材断面
  6
CONTINUOUS
 62
    47
 10
-109.994927
 20
5.789768
 11
-109.994927
 21
-20.209415
  0
ARC
  8
型材断面
  6
CONTINUOUS
 10
-109.494927
 20
-20.209414
 40
0.5
 50
180.0
 51
270.0
  0
LINE
  8
型材断面
  6
CONTINUOUS
 62
    47
 10
-98.994927
 20
-20.209415
 11
-109.494927
 21
-20.209415
  0
ARC
  8
型材断面
  6
CONTINUOUS
 10
-98.994927
 20
-20.209414
 40
0.5
 50
270.0
 51
360.0
  0
LINE
  8
型材断面
  6
CONTINUOUS
 62
    47
 10
-98.994927
 20
-20.709415
 11
-109.494927
 21
-20.709415
  0
LINE
  8
型材断面
  6
CONTINUOUS
 62
    47
 10
-98.994927
 20
-20.209415
 11
-98.994927
 21
-18.042748
  0
LINE
  8
型材断面
  6
CONTINUOUS
 10
-98.994927
 20
-18.042748
 11
-98.494927
 21
-18.042748
  0
LINE
  8
型材断面
  6
CONTINUOUS
 62
    47
 10
-98.494927
 20
-20.209415
 11
-98.494927
 21
-18.042748
  0
LINE
  8
型材断面
  6
DOT
 10
-109.494927
 20
-20.209415
 11
-109.994927
 21
-20.209415
  0
LINE
  8
型材断面
  6
DOT
 10
-109.494927
 20
-17.542748
 11
-109.994927
 21
-17.542748
  0
LINE
  8
型材断面
  6
DOT
 10
-109.619927
 20
-20.209415
 11
-109.619927
 21
-17.542748
  0
LINE
  8
型材断面
  6
DOT
 10
-109.744927
 20
-20.209415
 11
-109.744927
 21
-17.542748
  0
LINE
  8
型材断面
  6
DOT
 10
-109.869927
 20
-20.209415
 11
-109.869927
 21
-17.542748
  0
LINE
  8
型材断面
  6
CONTINUOUS
 10
-103.828262
 20
5.789768
 11
-103.828262
 21
1.289768
  0
LINE
  8
型材断面
  6
CONTINUOUS
 62
    47
 10
-104.328262
 20
5.789768
 11
-104.328262
 21
1.289768
  0
LINE
  8
型材断面
  6
CONTINUOUS
 10
-103.828262
 20
1.289768
 11
-104.328262
 21
1.289768
  0
ENDBLK
  0
BLOCK
  2
*GRP_0058
 70
    65
 10
0.0
 20
0.0
  0
LINE
  8
型材断面
  6
CONTINUOUS
 10
-94.994795
 20
1.45726
 11
-95.494795
 21
1.45726
  0
LINE
  8
型材断面
  6
CONTINUOUS
 10
-95.494795
 20
1.45726
 11
-95.494795
 21
-0.709415
  0
LINE
  8
型材断面
  6
CONTINUOUS
 10
-94.994795
 20
1.45726
 11
-94.994795
 21
-0.709415
  0
ARC
  8
型材断面
  6
CONTINUOUS
 10
-95.494794
 20
-0.709414
 40
0.5
 50
270.0
 51
360.0
  0
LINE
  8
型材断面
  6
CONTINUOUS
 10
-95.494795
 20
-0.709415
 11
-103.328262
 21
-0.709415
  0
LINE
  8
型材断面
  6
CONTINUOUS
 62
    47
 10
-95.494795
 20
-1.209415
 11
-103.328262
 21
-1.209415
  0
ARC
  8
型材断面
  6
CONTINUOUS
 10
-103.328263
 20
-0.709414
 40
0.5
 50
180.0
 51
270.0
  0
LINE
  8
型材断面
  6
CONTINUOUS
 10
-103.828262
 20
-0.709415
 11
-103.828262
 21
4.1231
  0
LINE
  8
型材断面
  6
CONTINUOUS
 10
-103.328262
 20
-0.709415
 11
-103.328262
 21
4.1231
  0
LINE
  8
型材断面
  6
CONTINUOUS
 10
-103.328262
 20
4.1231
 11
-103.828262
 21
4.1231
  0
ENDBLK
  0
BLOCK
  2
*GRP_0059
 70
    65
 10
0.0
 20
0.0
  0
LINE
  8
型材断面
  6
DOT
 10
-102.828262
 20
5.289768
 11
-102.828262
 21
0.789768
  0
LINE
  8
型材断面
  6
DOT
 10
-102.828262
 20
0.789768
 11
-103.328262
 21
0.789768
  0
LINE
  8
型材断面
  6
DOT
 10
-102.828262
 20
5.289768
 11
-99.99493
 21
5.289768
  0
LINE
  8
型材断面
  6
DOT
 10
-99.99493
 20
5.289768
 11
-99.99493
 21
5.789768
  0
LINE
  8
型材断面
  6
DOT
 10
-102.828262
 20
5.789768
 11
-99.99493
 21
5.789768
  0
LINE
  8
型材断面
  6
DOT
 10
-103.328262
 20
5.289768
 11
-103.328262
 21
0.789768
  0
ARC
  8
型材断面
  6
DOT
 10
-102.828262
 20
5.289766
 40
0.5
 50
90.0
 51
180.0
  0
ENDBLK
  0
BLOCK
  2
*GRP_0060
 70
    65
 10
0.0
 20
0.0
  0
LINE
  8
ボルト／ビス
  6
CONTINUOUS
 62
    64
 10
-103.428262
 20
1.789768
 11
-103.428262
 21
3.1231
  0
LINE
  8
ボルト／ビス
  6
CONTINUOUS
 62
    64
 10
-105.99493
 20
1.789768
 11
-106.161595
 21
1.956432
  0
LINE
  8
ボルト／ビス
  6
CONTINUOUS
 62
    64
 10
-105.99493
 20
3.1231
 11
-106.161595
 21
2.956432
  0
LINE
  8
ボルト／ビス
  6
CONTINUOUS
 62
    64
 10
-106.161595
 20
1.956432
 11
-106.161595
 21
2.956432
  0
LINE
  8
ボルト／ビス
  6
CONTINUOUS
 62
    64
 10
-105.99493
 20
1.789768
 11
-105.99493
 21
3.1231
  0
LINE
  8
ボルト／ビス
  6
CONTINUOUS
 62
    64
 10
-103.428262
 20
2.956432
 11
-106.161595
 21
2.956432
  0
LINE
  8
ボルト／ビス
  6
CONTINUOUS
 62
    64
 10
-103.428262
 20
1.956432
 11
-106.161595
 21
1.956432
  0
LINE
  8
ボルト／ビス
  6
CONTINUOUS
 62
    64
 10
-103.428262
 20
1.789768
 11
-105.99493
 21
1.789768
  0
LINE
  8
ボルト／ビス
  6
CONTINUOUS
 62
    64
 10
-103.428262
 20
3.1231
 11
-105.99493
 21
3.1231
  0
LINE
  8
ボルト／ビス
  6
DASHDOT
 62
    64
 10
-101.828262
 20
2.456432
 11
-107.161595
 21
2.456432
  0
LINE
  8
ボルト／ビス
  6
DOT
 62
    64
 10
-102.828262
 20
1.456432
 11
-103.428262
 21
1.789768
  0
LINE
  8
ボルト／ビス
  6
DOT
 62
    64
 10
-102.828262
 20
1.456432
 11
-102.828262
 21
3.456432
  0
LINE
  8
ボルト／ビス
  6
DOT
 62
    64
 10
-102.828262
 20
3.456432
 11
-103.428262
 21
3.1231
  0
ENDBLK
  0
BLOCK
  2
*GRP_0061
 70
    65
 10
0.0
 20
0.0
  0
LINE
  8
ゴム等
  6
DOT
 10
-102.328262
 20
1.62392
 11
-103.328262
 21
1.62392
  0
LINE
  8
ゴム等
  6
DOT
 10
-103.328262
 20
-0.709415
 11
-99.99493
 21
-0.709415
  0
LINE
  8
ゴム等
  6
DOT
 10
-99.99493
 20
-0.709415
 11
-99.99493
 21
5.957252
  0
LINE
  8
ゴム等
  6
DOT
 10
-102.328262
 20
1.62392
 11
-102.328262
 21
5.957252
  0
LINE
  8
ゴム等
  6
DOT
 10
-99.99493
 20
-0.709415
 11
-102.328262
 21
3.957252
  0
LINE
  8
ゴム等
  6
DOT
 10
-99.99493
 20
5.957252
 11
-102.328262
 21
5.957252
  0
LINE
  8
ゴム等
  6
DOT
 10
-103.328262
 20
-0.709415
 11
-103.328262
 21
1.62392
  0
ENDBLK
  0
BLOCK
  2
*DIM_0062
 70
    65
 10
0.0
 20
0.0
  0
LINE
  8
寸法
  6
CONTINUOUS
 10
-89.994927
 20
89.523447
 11
106.598048
 21
89.523447
  0
POINT
  8
寸法
 10
-89.994927
 20
89.523447
  0
POINT
  8
寸法
 10
106.598048
 20
89.523447
  0
TEXT
  7
TextStyle03
  8
寸法
  6
CONTINUOUS
 10
1.7375
 20
89.875
  1
有効開口
 40
3.0
 72
     5
 11
14.8625
 21
89.875
  0
ENDBLK
  0
BLOCK
  2
*GRP_0063
 70
    65
 10
0.0
 20
0.0
  0
LINE
  8
型材断面
  6
CONTINUOUS
 10
106.598048
 20
-42.375708
 11
107.098048
 21
-42.375708
  0
LINE
  8
型材断面
  6
CONTINUOUS
 10
107.098048
 20
-42.375708
 11
107.098048
 21
-46.709043
  0
LINE
  8
型材断面
  6
CONTINUOUS
 10
106.598048
 20
-42.375708
 11
106.598048
 21
-46.709043
  0
ARC
  8
型材断面
  6
CONTINUOUS
 10
107.098047
 20
-46.709044
 40
0.5
 50
180.0
 51
270.0
  0
LINE
  8
型材断面
  6
CONTINUOUS
 10
107.098048
 20
-46.709043
 11
126.598048
 21
-46.709043
  0
LINE
  8
型材断面
  6
CONTINUOUS
 10
181.09805
 20
-53.818765
 11
126.56785
 21
-47.209043
  0
LINE
  8
型材断面
  6
CONTINUOUS
 10
107.098048
 20
-47.209043
 11
126.56785
 21
-47.209043
  0
LINE
  8
型材断面
  6
CONTINUOUS
 10
126.598048
 20
-46.709043
 11
181.158215
 21
-53.322397
  0
ARC
  8
型材断面
  6
CONTINUOUS
 10
181.098048
 20
-53.818765
 40
0.5
 50
0.0
 51
83.088772
  0
LINE
  8
型材断面
  6
CONTINUOUS
 10
181.09805
 20
-53.818765
 11
181.09805
 21
-76.709043
  0
LINE
  8
型材断面
  6
CONTINUOUS
 10
181.09805
 20
-76.709043
 11
181.59805
 21
-76.709043
  0
LINE
  8
型材断面
  6
CONTINUOUS
 10
181.59805
 20
-53.818762
 11
181.59805
 21
-76.709043
  0
ENDBLK
  0
BLOCK
  2
*GRP_0064
 70
    65
 10
0.0
 20
0.0
  0
LINE
  8
ゴム等
  6
CONTINUOUS
 10
111.597915
 20
1.45726
 11
112.097915
 21
1.45726
  0
LINE
  8
ゴム等
  6
CONTINUOUS
 10
112.097915
 20
-0.37609
 11
112.097915
 21
1.45726
  0
LINE
  8
ゴム等
  6
CONTINUOUS
 10
114.93124
 20
-0.709415
 11
112.43124
 21
-0.709415
  0
LINE
  8
ゴム等
  6
CONTINUOUS
 10
112.097915
 20
-0.37609
 11
112.43124
 21
-0.709415
  0
LINE
  8
ゴム等
  6
CONTINUOUS
 10
111.597915
 20
1.45726
 11
111.597915
 21
1.95726
  0
LINE
  8
ゴム等
  6
CONTINUOUS
 10
111.597915
 20
1.95726
 11
114.93124
 21
1.95726
  0
LINE
  8
ゴム等
  6
CONTINUOUS
 10
114.93124
 20
-0.709415
 11
114.93124
 21
1.95726
  0
LINE
  8
ゴム等
  6
CONTINUOUS
 10
111.924665
 20
1.95726
 11
111.597915
 21
1.63051
  0
LINE
  8
ゴム等
  6
CONTINUOUS
 10
112.396065
 20
1.95726
 11
111.896065
 21
1.45726
  0
LINE
  8
ゴム等
  6
CONTINUOUS
 10
112.867465
 20
1.95726
 11
112.097915
 21
1.187685
  0
LINE
  8
ゴム等
  6
CONTINUOUS
 10
113.338865
 20
1.95726
 11
112.097915
 21
0.716285
  0
LINE
  8
ゴム等
  6
CONTINUOUS
 10
113.810265
 20
1.95726
 11
112.097915
 21
0.244885
  0
LINE
  8
ゴム等
  6
CONTINUOUS
 10
114.28169
 20
1.95726
 11
112.097915
 21
-0.226515
  0
LINE
  8
ゴム等
  6
CONTINUOUS
 10
114.75309
 20
1.95726
 11
112.25884
 21
-0.537015
  0
LINE
  8
ゴム等
  6
CONTINUOUS
 10
114.93124
 20
1.66401
 11
112.55784
 21
-0.709415
  0
LINE
  8
ゴム等
  6
CONTINUOUS
 10
114.93124
 20
1.19261
 11
113.02924
 21
-0.709415
  0
LINE
  8
ゴム等
  6
CONTINUOUS
 10
114.93124
 20
0.721185
 11
113.50064
 21
-0.709415
  0
LINE
  8
ゴム等
  6
CONTINUOUS
 10
114.93124
 20
0.249785
 11
113.97204
 21
-0.709415
  0
LINE
  8
ゴム等
  6
CONTINUOUS
 10
114.93124
 20
-0.221615
 11
114.44344
 21
-0.709415
  0
ENDBLK
  0
BLOCK
  2
*GRP_0065
 70
    65
 10
0.0
 20
0.0
  0
LINE
  8
ゴム等
  6
CONTINUOUS
 62
    63
 10
119.931382
 20
6.289768
 11
119.931382
 21
7.289768
  0
LINE
  8
ゴム等
  6
CONTINUOUS
 62
    63
 10
126.59805
 20
6.289768
 11
126.59805
 21
7.289768
  0
LINE
  8
ゴム等
  6
CONTINUOUS
 62
    63
 10
119.931382
 20
6.289768
 11
126.59805
 21
6.289768
  0
LINE
  8
ゴム等
  6
CONTINUOUS
 62
    63
 10
126.34345
 20
6.289768
 11
126.59805
 21
6.544368
  0
LINE
  8
ゴム等
  6
CONTINUOUS
 62
    63
 10
125.87205
 20
6.289768
 11
126.59805
 21
7.015768
  0
LINE
  8
ゴム等
  6
CONTINUOUS
 62
    63
 10
125.400642
 20
6.289768
 11
126.400642
 21
7.289768
  0
LINE
  8
ゴム等
  6
CONTINUOUS
 62
    63
 10
124.929242
 20
6.289768
 11
125.929242
 21
7.289768
  0
LINE
  8
ゴム等
  6
CONTINUOUS
 62
    63
 10
124.457833
 20
6.289768
 11
125.457833
 21
7.289768
  0
LINE
  8
ゴム等
  6
CONTINUOUS
 62
    63
 10
123.986433
 20
6.289768
 11
124.986433
 21
7.289768
  0
LINE
  8
ゴム等
  6
CONTINUOUS
 62
    63
 10
123.515025
 20
6.289768
 11
124.515025
 21
7.289768
  0
LINE
  8
ゴム等
  6
CONTINUOUS
 62
    63
 10
123.043618
 20
6.289768
 11
124.043618
 21
7.289768
  0
LINE
  8
ゴム等
  6
CONTINUOUS
 62
    63
 10
122.572218
 20
6.289768
 11
123.572218
 21
7.289768
  0
LINE
  8
ゴム等
  6
CONTINUOUS
 62
    63
 10
122.100807
 20
6.289768
 11
123.100807
 21
7.289768
  0
LINE
  8
ゴム等
  6
CONTINUOUS
 62
    63
 10
121.629407
 20
6.289768
 11
122.629407
 21
7.289768
  0
LINE
  8
ゴム等
  6
CONTINUOUS
 62
    63
 10
121.158
 20
6.289768
 11
122.158
 21
7.289768
  0
LINE
  8
ゴム等
  6
CONTINUOUS
 62
    63
 10
120.6866
 20
6.289768
 11
121.6866
 21
7.289768
  0
LINE
  8
ゴム等
  6
CONTINUOUS
 62
    63
 10
120.215193
 20
6.289768
 11
121.215193
 21
7.289768
  0
LINE
  8
ゴム等
  6
CONTINUOUS
 62
    63
 10
119.931382
 20
6.477368
 11
120.743793
 21
7.289768
  0
LINE
  8
ゴム等
  6
CONTINUOUS
 62
    63
 10
119.931382
 20
6.948768
 11
120.272382
 21
7.289768
  0
LINE
  8
ゴム等
  6
CONTINUOUS
 10
119.931382
 20
7.289768
 11
126.59805
 21
7.289768
  0
ENDBLK
  0
BLOCK
  2
*GRP_0066
 70
    65
 10
0.0
 20
0.0
  0
POLYLINE
  8
ゴム等
  6
DOT
 66
     1
 70
     1
  0
VERTEX
  8
ゴム等
 10
126.098048
 20
-16.876083
  0
VERTEX
  8
ゴム等
 10
122.764715
 20
-16.876083
  0
VERTEX
  8
ゴム等
 10
122.764715
 20
-20.209415
  0
VERTEX
  8
ゴム等
 10
126.098048
 20
-20.209415
  0
SEQEND
  0
LINE
  8
ゴム等
  6
DOT
 10
125.559642
 20
-20.209415
 11
126.098048
 21
-19.67101
  0
LINE
  8
ゴム等
  6
DOT
 10
125.088237
 20
-20.209415
 11
126.098048
 21
-19.199605
  0
LINE
  8
ゴム等
  6
DOT
 10
124.616833
 20
-20.209415
 11
126.098048
 21
-18.7282
  0
LINE
  8
ゴム等
  6
DOT
 10
124.145428
 20
-20.209415
 11
126.098048
 21
-18.256795
  0
LINE
  8
ゴム等
  6
DOT
 10
123.674022
 20
-20.209415
 11
126.098048
 21
-17.78539
  0
LINE
  8
ゴム等
  6
DOT
 10
123.202618
 20
-20.209415
 11
126.098048
 21
-17.313985
  0
LINE
  8
ゴム等
  6
DOT
 10
122.764715
 20
-20.175912
 11
126.064545
 21
-16.876083
  0
LINE
  8
ゴム等
  6
DOT
 10
122.764715
 20
-19.704507
 11
125.59314
 21
-16.876083
  0
LINE
  8
ゴム等
  6
DOT
 10
122.764715
 20
-17.347487
 11
123.23612
 21
-16.876083
  0
LINE
  8
ゴム等
  6
DOT
 10
122.764715
 20
-17.818893
 11
123.707525
 21
-16.876083
  0
LINE
  8
ゴム等
  6
DOT
 10
122.764715
 20
-18.290297
 11
124.17893
 21
-16.876083
  0
LINE
  8
ゴム等
  6
DOT
 10
122.764715
 20
-18.761702
 11
124.650335
 21
-16.876083
  0
LINE
  8
ゴム等
  6
DOT
 10
122.764715
 20
-19.233108
 11
125.12174
 21
-16.876083
  0
ENDBLK
  0
BLOCK
  2
*GRP_0067
 70
    65
 10
0.0
 20
0.0
  0
POLYLINE
  8
ゴム等
  6
DOT
 66
     1
 70
     1
  0
VERTEX
  8
ゴム等
 10
126.098048
 20
-42.87571
  0
VERTEX
  8
ゴム等
 10
122.764715
 20
-42.87571
  0
VERTEX
  8
ゴム等
 10
122.764715
 20
-46.209043
  0
VERTEX
  8
ゴム等
 10
126.098048
 20
-46.209043
  0
SEQEND
  0
LINE
  8
ゴム等
  6
DOT
 10
125.559642
 20
-46.209043
 11
126.098048
 21
-45.670637
  0
LINE
  8
ゴム等
  6
DOT
 10
125.088237
 20
-46.209043
 11
126.098048
 21
-45.199233
  0
LINE
  8
ゴム等
  6
DOT
 10
124.616833
 20
-46.209043
 11
126.098048
 21
-44.727827
  0
LINE
  8
ゴム等
  6
DOT
 10
124.145428
 20
-46.209043
 11
126.098048
 21
-44.256423
  0
LINE
  8
ゴム等
  6
DOT
 10
123.674022
 20
-46.209043
 11
126.098048
 21
-43.785017
  0
LINE
  8
ゴム等
  6
DOT
 10
123.202618
 20
-46.209043
 11
126.098048
 21
-43.313612
  0
LINE
  8
ゴム等
  6
DOT
 10
122.764715
 20
-46.17554
 11
126.064545
 21
-42.87571
  0
LINE
  8
ゴム等
  6
DOT
 10
122.764715
 20
-45.704135
 11
125.59314
 21
-42.87571
  0
LINE
  8
ゴム等
  6
DOT
 10
122.764715
 20
-43.347115
 11
123.23612
 21
-42.87571
  0
LINE
  8
ゴム等
  6
DOT
 10
122.764715
 20
-43.81852
 11
123.707525
 21
-42.87571
  0
LINE
  8
ゴム等
  6
DOT
 10
122.764715
 20
-44.289925
 11
124.17893
 21
-42.87571
  0
LINE
  8
ゴム等
  6
DOT
 10
122.764715
 20
-44.76133
 11
124.650335
 21
-42.87571
  0
LINE
  8
ゴム等
  6
DOT
 10
122.764715
 20
-45.232735
 11
125.12174
 21
-42.87571
  0
ENDBLK
  0
BLOCK
  2
*GRP_0068
 70
    65
 10
0.0
 20
0.0
  0
ARC
  8
ボルト／ビス
  6
CONTINUOUS
 62
    64
 10
124.431252
 20
3.289764
 40
0.333333
 50
270.0
 51
360.0
  0
LINE
  8
ボルト／ビス
  6
CONTINUOUS
 62
    64
 10
122.097915
 20
2.956402
 11
124.431252
 21
2.956402
  0
ARC
  8
ボルト／ビス
  6
CONTINUOUS
 62
    64
 10
122.097919
 20
3.289764
 40
0.333333
 50
180.0
 51
270.0
  0
LINE
  8
ボルト／ビス
  6
CONTINUOUS
 62
    64
 10
121.597915
 20
6.456402
 11
121.597915
 21
6.289738
  0
LINE
  8
ボルト／ビス
  6
CONTINUOUS
 62
    64
 10
124.931252
 20
6.456402
 11
124.931252
 21
6.289738
  0
LINE
  8
ボルト／ビス
  6
CONTINUOUS
 62
    64
 10
121.597915
 20
6.456402
 11
124.931252
 21
6.456402
  0
LINE
  8
ボルト／ビス
  6
CONTINUOUS
 62
    64
 10
121.597915
 20
6.289738
 11
124.931252
 21
6.289738
  0
LINE
  8
ボルト／ビス
  6
CONTINUOUS
 62
    64
 10
121.76459
 20
3.289738
 11
121.76459
 21
5.289738
  0
LINE
  8
ボルト／ビス
  6
CONTINUOUS
 62
    64
 10
121.76459
 20
5.789738
 11
121.76459
 21
6.289738
  0
LINE
  8
ボルト／ビス
  6
CONTINUOUS
 62
    64
 10
124.76459
 20
6.289738
 11
124.76459
 21
5.789738
  0
LINE
  8
ボルト／ビス
  6
CONTINUOUS
 62
    64
 10
124.76459
 20
5.289738
 11
124.76459
 21
3.289738
  0
LINE
  8
ボルト／ビス
  6
CONTINUOUS
 62
    64
 10
121.347915
 20
5.789738
 11
123.26459
 21
5.789738
  0
ARC
  8
ボルト／ビス
  6
CONTINUOUS
 62
    64
 10
121.347919
 20
5.539764
 40
0.25
 50
90.0
 51
180.0
  0
LINE
  8
ボルト／ビス
  6
CONTINUOUS
 62
    64
 10
121.097915
 20
5.539738
 11
121.097915
 21
5.539738
  0
LINE
  8
ボルト／ビス
  6
CONTINUOUS
 62
    64
 10
121.347915
 20
5.289738
 11
123.26459
 21
5.289738
  0
ARC
  8
ボルト／ビス
  6
CONTINUOUS
 62
    64
 10
121.347919
 20
5.539764
 40
0.25
 50
180.0
 51
270.0
  0
LINE
  8
ボルト／ビス
  6
CONTINUOUS
 62
    64
 10
125.431252
 20
5.539738
 11
125.431252
 21
5.539738
  0
LINE
  8
ボルト／ビス
  6
CONTINUOUS
 62
    64
 10
123.26459
 20
5.789738
 11
125.097915
 21
5.789738
  0
LINE
  8
ボルト／ビス
  6
CONTINUOUS
 62
    64
 10
123.26459
 20
5.289738
 11
125.097915
 21
5.289738
  0
LINE
  8
ボルト／ビス
  6
CONTINUOUS
 62
    64
 10
125.097915
 20
5.789738
 11
125.097915
 21
5.289738
  0
ENDBLK
  0
BLOCK
  2
*GRP_0069
 70
    65
 10
0.0
 20
0.0
  0
LINE
  8
ボルト／ビス
  6
CONTINUOUS
 10
126.931252
 20
8.290937
 11
126.931252
 21
8.957612
  0
LINE
  8
ボルト／ビス
  6
CONTINUOUS
 10
126.931252
 20
8.957612
 11
119.597915
 21
8.957612
  0
LINE
  8
ボルト／ビス
  6
CONTINUOUS
 10
119.597915
 20
8.957612
 11
119.597915
 21
8.290937
  0
LINE
  8
ボルト／ビス
  6
CONTINUOUS
 10
126.931252
 20
8.290937
 11
119.597915
 21
8.290937
  0
LINE
  8
ボルト／ビス
  6
CONTINUOUS
 10
126.26459
 20
9.290937
 11
126.26459
 21
8.957612
  0
LINE
  8
ボルト／ビス
  6
CONTINUOUS
 10
126.26459
 20
9.290937
 11
120.26459
 21
9.290937
  0
LINE
  8
ボルト／ビス
  6
CONTINUOUS
 10
120.26459
 20
9.290937
 11
120.26459
 21
8.957612
  0
LINE
  8
ボルト／ビス
  6
CONTINUOUS
 62
    64
 10
124.86834
 20
11.290937
 11
125.18909
 21
11.174202
  0
ARC
  8
ボルト／ビス
  6
CONTINUOUS
 62
    64
 10
124.70796
 20
10.241189
 40
1.049784
 50
90.0
 51
117.278033
  0
ARC
  8
ボルト／ビス
  6
CONTINUOUS
 62
    64
 10
123.264584
 20
7.266951
 40
4.024022
 50
76.165015
 51
103.834998
  0
LINE
  8
ボルト／ビス
  6
CONTINUOUS
 62
    64
 10
121.66084
 20
11.290937
 11
121.34009
 21
11.174202
  0
ARC
  8
ボルト／ビス
  6
CONTINUOUS
 62
    64
 10
121.821209
 20
10.241189
 40
1.049784
 50
62.721967
 51
90.0
  0
LINE
  8
ボルト／ビス
  6
CONTINUOUS
 62
    64
 10
124.86834
 20
11.290937
 11
121.66084
 21
11.290937
  0
LINE
  8
ボルト／ビス
  6
CONTINUOUS
 62
    64
 10
121.34009
 20
11.174202
 11
121.34009
 21
9.957612
  0
LINE
  8
ボルト／ビス
  6
CONTINUOUS
 62
    64
 10
122.30234
 20
11.174202
 11
122.30234
 21
9.957612
  0
LINE
  8
ボルト／ビス
  6
CONTINUOUS
 62
    64
 10
125.18909
 20
11.174202
 11
125.18909
 21
9.957612
  0
LINE
  8
ボルト／ビス
  6
CONTINUOUS
 62
    64
 10
124.22684
 20
11.174202
 11
124.22684
 21
9.957612
  0
LINE
  8
ボルト／ビス
  6
CONTINUOUS
 10
125.18909
 20
9.957612
 11
121.34009
 21
9.957612
  0
LINE
  8
ボルト／ビス
  6
CONTINUOUS
 10
125.26459
 20
9.957612
 11
125.26459
 21
9.290937
  0
LINE
  8
ボルト／ビス
  6
CONTINUOUS
 10
125.26459
 20
9.957612
 11
121.26459
 21
9.957612
  0
LINE
  8
ボルト／ビス
  6
CONTINUOUS
 10
121.26459
 20
9.957612
 11
121.26459
 21
9.290937
  0
LINE
  8
ボルト／ビス
  6
CONTINUOUS
 62
    64
 10
122.497915
 20
8.290937
 11
122.497915
 21
1.624287
  0
LINE
  8
ボルト／ビス
  6
CONTINUOUS
 62
    64
 10
124.031252
 20
8.290937
 11
124.031252
 21
1.624287
  0
LINE
  8
ボルト／ビス
  6
CONTINUOUS
 62
    64
 10
124.031252
 20
1.624287
 11
122.497915
 21
1.624287
  0
LINE
  8
ボルト／ビス
  6
CONTINUOUS
 62
    64
 10
122.26459
 20
1.957612
 11
122.497915
 21
1.624287
  0
LINE
  8
ボルト／ビス
  6
CONTINUOUS
 62
    64
 10
124.26459
 20
1.957612
 11
124.031252
 21
1.624287
  0
LINE
  8
ボルト／ビス
  6
CONTINUOUS
 62
    64
 10
124.26459
 20
1.957612
 11
122.26459
 21
1.957612
  0
LINE
  8
ボルト／ビス
  6
CONTINUOUS
 62
    64
 10
124.031252
 20
1.624287
 11
122.497915
 21
1.624287
  0
LINE
  8
ボルト／ビス
  6
CONTINUOUS
 62
    64
 10
124.26459
 20
8.290937
 11
124.26459
 21
1.957612
  0
LINE
  8
ボルト／ビス
  6
CONTINUOUS
 62
    64
 10
122.26459
 20
8.290937
 11
122.26459
 21
1.957612
  0
ENDBLK
  0
BLOCK
  2
*GRP_0070
 70
    65
 10
0.0
 20
0.0
  0
LINE
  8
ボルト／ビス
  6
CONTINUOUS
 62
    64
 10
142.931375
 20
-62.111333
 11
142.69569
 21
-61.875658
  0
LINE
  8
ボルト／ビス
  6
CONTINUOUS
 62
    64
 10
142.69569
 20
-61.875658
 11
140.500465
 21
-61.875658
  0
LINE
  8
ボルト／ビス
  6
CONTINUOUS
 62
    64
 10
140.500465
 20
-61.875658
 11
140.26469
 21
-62.111333
  0
LINE
  8
ボルト／ビス
  6
CONTINUOUS
 62
    64
 10
142.931375
 20
-62.111333
 11
140.26469
 21
-62.111333
  0
LINE
  8
ボルト／ビス
  6
DASHDOT
 62
    64
 10
141.59805
 20
-61.141867
 11
141.59805
 21
-84.388768
  0
LINE
  8
ボルト／ビス
  6
CONTINUOUS
 62
    64
 10
142.69569
 20
-67.209043
 11
142.69569
 21
-61.875658
  0
LINE
  8
ボルト／ビス
  6
CONTINUOUS
 62
    64
 10
142.931375
 20
-67.209043
 11
142.931375
 21
-62.111333
  0
LINE
  8
ボルト／ビス
  6
CONTINUOUS
 62
    64
 10
140.500465
 20
-67.209043
 11
140.500465
 21
-61.875658
  0
LINE
  8
ボルト／ビス
  6
CONTINUOUS
 62
    64
 10
140.26469
 20
-67.209043
 11
140.26469
 21
-62.111333
  0
LINE
  8
ボルト／ビス
  6
DOT
 62
    64
 10
140.26469
 20
-73.542292
 11
140.500465
 21
-73.306617
  0
LINE
  8
ボルト／ビス
  6
DOT
 62
    64
 10
140.26469
 20
-76.675393
 11
138.970625
 21
-81.505058
  0
LINE
  8
ボルト／ビス
  6
DOT
 62
    64
 10
142.931375
 20
-73.542292
 11
142.69569
 21
-73.306617
  0
LINE
  8
ボルト／ビス
  6
DOT
 62
    64
 10
142.931375
 20
-76.675393
 11
144.225475
 21
-81.505058
  0
LINE
  8
ボルト／ビス
  6
DOT
 62
    64
 10
141.59805
 20
-76.894883
 11
142.92669
 21
-81.853107
  0
LINE
  8
ボルト／ビス
  6
DOT
 62
    64
 10
144.225475
 20
-81.505058
 11
142.92669
 21
-81.853107
  0
LINE
  8
ボルト／ビス
  6
DOT
 62
    64
 10
141.59805
 20
-76.894883
 11
140.2695
 21
-81.853107
  0
LINE
  8
ボルト／ビス
  6
DOT
 62
    64
 10
138.970625
 20
-81.505058
 11
140.2695
 21
-81.853107
  0
LINE
  8
ボルト／ビス
  6
DOT
 62
    64
 10
140.26469
 20
-82.542242
 11
140.69469
 21
-80.103543
  0
LINE
  8
ボルト／ビス
  6
DOT
 62
    64
 10
142.931375
 20
-82.542242
 11
142.501407
 21
-80.103543
  0
LINE
  8
ボルト／ビス
  6
DOT
 62
    64
 10
140.26469
 20
-82.542242
 11
142.931375
 21
-82.542242
  0
LINE
  8
ボルト／ビス
  6
DOT
 62
    64
 10
140.69469
 20
-80.103543
 11
142.501407
 21
-80.103543
  0
LINE
  8
ボルト／ビス
  6
DOT
 62
    64
 10
140.500465
 20
-73.306617
 11
140.500465
 21
-67.209043
  0
LINE
  8
ボルト／ビス
  6
DOT
 62
    64
 10
140.26469
 20
-76.675393
 11
140.26469
 21
-67.209043
  0
LINE
  8
ボルト／ビス
  6
DOT
 62
    64
 10
142.69569
 20
-73.306617
 11
142.69569
 21
-67.209043
  0
LINE
  8
ボルト／ビス
  6
DOT
 62
    64
 10
142.931375
 20
-76.675393
 11
142.931375
 21
-67.209043
  0
ENDBLK
  0
BLOCK
  2
*GRP_0071
 70
    65
 10
0.0
 20
0.0
  0
LINE
  8
ボルト／ビス
  6
CONTINUOUS
 62
    64
 10
125.998048
 20
2.28977
 11
125.998048
 21
3.623102
  0
LINE
  8
ボルト／ビス
  6
CONTINUOUS
 62
    64
 10
123.43138
 20
2.28977
 11
123.264715
 21
2.456435
  0
LINE
  8
ボルト／ビス
  6
CONTINUOUS
 62
    64
 10
123.43138
 20
3.623102
 11
123.264715
 21
3.456435
  0
LINE
  8
ボルト／ビス
  6
CONTINUOUS
 62
    64
 10
123.264715
 20
2.456435
 11
123.264715
 21
3.456435
  0
LINE
  8
ボルト／ビス
  6
CONTINUOUS
 62
    64
 10
123.43138
 20
2.28977
 11
123.43138
 21
3.623102
  0
LINE
  8
ボルト／ビス
  6
CONTINUOUS
 62
    64
 10
125.998048
 20
3.456435
 11
123.264715
 21
3.456435
  0
LINE
  8
ボルト／ビス
  6
CONTINUOUS
 62
    64
 10
125.998048
 20
2.456435
 11
123.264715
 21
2.456435
  0
LINE
  8
ボルト／ビス
  6
CONTINUOUS
 62
    64
 10
125.998048
 20
2.28977
 11
123.43138
 21
2.28977
  0
LINE
  8
ボルト／ビス
  6
CONTINUOUS
 62
    64
 10
125.998048
 20
3.623102
 11
123.43138
 21
3.623102
  0
LINE
  8
ボルト／ビス
  6
DASHDOT
 62
    64
 10
127.598048
 20
2.956435
 11
122.264715
 21
2.956435
  0
LINE
  8
ボルト／ビス
  6
DOT
 62
    64
 10
126.598048
 20
1.956435
 11
125.998048
 21
2.28977
  0
LINE
  8
ボルト／ビス
  6
DOT
 62
    64
 10
126.598048
 20
1.956435
 11
126.598048
 21
3.956435
  0
LINE
  8
ボルト／ビス
  6
DOT
 62
    64
 10
126.598048
 20
3.956435
 11
125.998048
 21
3.623102
  0
ENDBLK
  0
BLOCK
  2
*GRP_0072
 70
    65
 10
0.0
 20
0.0
  0
LINE
  8
ボルト／ビス
  6
CONTINUOUS
 62
    64
 10
122.598048
 20
-20.109415
 11
123.931382
 21
-20.109415
  0
LINE
  8
ボルト／ビス
  6
CONTINUOUS
 62
    64
 10
122.598048
 20
-17.542748
 11
122.764715
 21
-17.376083
  0
LINE
  8
ボルト／ビス
  6
CONTINUOUS
 62
    64
 10
123.931382
 20
-17.542748
 11
123.764715
 21
-17.376083
  0
LINE
  8
ボルト／ビス
  6
CONTINUOUS
 62
    64
 10
122.764715
 20
-17.376083
 11
123.764715
 21
-17.376083
  0
LINE
  8
ボルト／ビス
  6
CONTINUOUS
 62
    64
 10
122.598048
 20
-17.542748
 11
123.931382
 21
-17.542748
  0
LINE
  8
ボルト／ビス
  6
CONTINUOUS
 62
    64
 10
123.764715
 20
-20.109415
 11
123.764715
 21
-17.376083
  0
LINE
  8
ボルト／ビス
  6
CONTINUOUS
 62
    64
 10
122.764715
 20
-20.109415
 11
122.764715
 21
-17.376083
  0
LINE
  8
ボルト／ビス
  6
CONTINUOUS
 62
    64
 10
122.598048
 20
-20.109415
 11
122.598048
 21
-17.542748
  0
LINE
  8
ボルト／ビス
  6
CONTINUOUS
 62
    64
 10
123.931382
 20
-20.109415
 11
123.931382
 21
-17.542748
  0
LINE
  8
ボルト／ビス
  6
DASHDOT
 62
    64
 10
123.264715
 20
-21.709415
 11
123.264715
 21
-16.376083
  0
LINE
  8
ボルト／ビス
  6
DOT
 62
    64
 10
122.264715
 20
-20.709415
 11
122.598048
 21
-20.109415
  0
LINE
  8
ボルト／ビス
  6
DOT
 62
    64
 10
122.264715
 20
-20.709415
 11
124.264715
 21
-20.709415
  0
LINE
  8
ボルト／ビス
  6
DOT
 62
    64
 10
124.264715
 20
-20.709415
 11
123.931382
 21
-20.109415
  0
ENDBLK
  0
BLOCK
  2
*GRP_0073
 70
    65
 10
0.0
 20
0.0
  0
LINE
  8
ボルト／ビス
  6
CONTINUOUS
 62
    64
 10
122.598048
 20
-46.109043
 11
123.931382
 21
-46.109043
  0
LINE
  8
ボルト／ビス
  6
CONTINUOUS
 62
    64
 10
122.598048
 20
-43.542375
 11
122.764715
 21
-43.37571
  0
LINE
  8
ボルト／ビス
  6
CONTINUOUS
 62
    64
 10
123.931382
 20
-43.542375
 11
123.764715
 21
-43.37571
  0
LINE
  8
ボルト／ビス
  6
CONTINUOUS
 62
    64
 10
122.764715
 20
-43.37571
 11
123.764715
 21
-43.37571
  0
LINE
  8
ボルト／ビス
  6
CONTINUOUS
 62
    64
 10
122.598048
 20
-43.542375
 11
123.931382
 21
-43.542375
  0
LINE
  8
ボルト／ビス
  6
CONTINUOUS
 62
    64
 10
123.764715
 20
-46.109043
 11
123.764715
 21
-43.37571
  0
LINE
  8
ボルト／ビス
  6
CONTINUOUS
 62
    64
 10
122.764715
 20
-46.109043
 11
122.764715
 21
-43.37571
  0
LINE
  8
ボルト／ビス
  6
CONTINUOUS
 62
    64
 10
122.598048
 20
-46.109043
 11
122.598048
 21
-43.542375
  0
LINE
  8
ボルト／ビス
  6
CONTINUOUS
 62
    64
 10
123.931382
 20
-46.109043
 11
123.931382
 21
-43.542375
  0
LINE
  8
ボルト／ビス
  6
DASHDOT
 62
    64
 10
123.264715
 20
-47.709043
 11
123.264715
 21
-42.37571
  0
LINE
  8
ボルト／ビス
  6
DOT
 62
    64
 10
122.264715
 20
-46.709043
 11
122.598048
 21
-46.109043
  0
LINE
  8
ボルト／ビス
  6
DOT
 62
    64
 10
122.264715
 20
-46.709043
 11
124.264715
 21
-46.709043
  0
LINE
  8
ボルト／ビス
  6
DOT
 62
    64
 10
124.264715
 20
-46.709043
 11
123.931382
 21
-46.109043
  0
ENDBLK
  0
BLOCK
  2
*GRP_0074
 70
    65
 10
0.0
 20
0.0
  0
LINE
  8
ボルト／ビス
  6
CONTINUOUS
 62
    64
 10
125.998048
 20
2.28977
 11
125.998048
 21
3.623102
  0
LINE
  8
ボルト／ビス
  6
CONTINUOUS
 62
    64
 10
123.43138
 20
2.28977
 11
123.264715
 21
2.456435
  0
LINE
  8
ボルト／ビス
  6
CONTINUOUS
 62
    64
 10
123.43138
 20
3.623102
 11
123.264715
 21
3.456435
  0
LINE
  8
ボルト／ビス
  6
CONTINUOUS
 62
    64
 10
123.264715
 20
2.456435
 11
123.264715
 21
3.456435
  0
LINE
  8
ボルト／ビス
  6
CONTINUOUS
 62
    64
 10
123.43138
 20
2.28977
 11
123.43138
 21
3.623102
  0
LINE
  8
ボルト／ビス
  6
CONTINUOUS
 62
    64
 10
125.998048
 20
3.456435
 11
123.264715
 21
3.456435
  0
LINE
  8
ボルト／ビス
  6
CONTINUOUS
 62
    64
 10
125.998048
 20
2.456435
 11
123.264715
 21
2.456435
  0
LINE
  8
ボルト／ビス
  6
CONTINUOUS
 62
    64
 10
125.998048
 20
2.28977
 11
123.43138
 21
2.28977
  0
LINE
  8
ボルト／ビス
  6
CONTINUOUS
 62
    64
 10
125.998048
 20
3.623102
 11
123.43138
 21
3.623102
  0
LINE
  8
ボルト／ビス
  6
DASHDOT
 62
    64
 10
127.598048
 20
2.956435
 11
122.264715
 21
2.956435
  0
LINE
  8
ボルト／ビス
  6
DOT
 62
    64
 10
126.598048
 20
1.956435
 11
125.998048
 21
2.28977
  0
LINE
  8
ボルト／ビス
  6
DOT
 62
    64
 10
126.598048
 20
1.956435
 11
126.598048
 21
3.956435
  0
LINE
  8
ボルト／ビス
  6
DOT
 62
    64
 10
126.598048
 20
3.956435
 11
125.998048
 21
3.623102
  0
ENDBLK
  0
BLOCK
  2
*GRP_0075
 70
    65
 10
0.0
 20
0.0
  0
LINE
  8
St
  6
CONTINUOUS
 10
126.581415
 20
-47.209043
 11
113.248083
 21
-47.209043
  0
LINE
  8
St
  6
CONTINUOUS
 10
126.581415
 20
-47.209043
 11
126.581415
 21
-57.209043
  0
LINE
  8
St
  6
CONTINUOUS
 10
126.56785
 20
-48.27571
 11
113.248083
 21
-48.27571
  0
LINE
  8
St
  6
CONTINUOUS
 10
115.367432
 20
-47.209043
 11
116.4341
 21
-48.27571
  0
LINE
  8
St
  6
CONTINUOUS
 10
115.603132
 20
-47.209043
 11
116.6698
 21
-48.27571
  0
LINE
  8
St
  6
CONTINUOUS
 10
124.115998
 20
-47.209043
 11
125.18267
 21
-48.27571
  0
LINE
  8
St
  6
CONTINUOUS
 10
124.351698
 20
-47.209043
 11
125.41837
 21
-48.27571
  0
LINE
  8
St
  6
CONTINUOUS
 10
113.248083
 20
-47.209043
 11
113.248083
 21
-57.209043
  0
LINE
  8
St
  6
CONTINUOUS
 10
126.581415
 20
-57.209043
 11
113.248083
 21
-57.209043
  0
ENDBLK
  0
BLOCK
  2
*GRP_0076
 70
    65
 10
0.0
 20
0.0
  0
LINE
  8
St
  6
CONTINUOUS
 10
146.021153
 20
-67.209043
 11
118.789267
 21
-54.27545
  0
LINE
  8
St
  6
CONTINUOUS
 10
147.308197
 20
-64.49915
 11
120.076312
 21
-51.565557
  0
POLYLINE
  8
St
  6
CONTINUOUS
 66
     1
 70
     4
  0
VERTEX
  8
St
 10
118.775
 20
-54.3
 70
     8
  0
VERTEX
  8
St
 10
118.775
 20
-54.275
 70
     8
  0
VERTEX
  8
St
 10
118.775
 20
-54.275
 70
     8
  0
VERTEX
  8
St
 10
118.775
 20
-54.25
 70
     8
  0
VERTEX
  8
St
 10
118.775
 20
-54.25
 70
     8
  0
VERTEX
  8
St
 10
118.775
 20
-54.225
 70
     8
  0
VERTEX
  8
St
 10
118.775
 20
-54.225
 70
     8
  0
VERTEX
  8
St
 10
118.75
 20
-54.2
 70
     8
  0
VERTEX
  8
St
 10
118.75
 20
-54.2
 70
     8
  0
VERTEX
  8
St
 10
118.75
 20
-54.175
 70
     8
  0
VERTEX
  8
St
 10
118.75
 20
-54.175
 70
     8
  0
VERTEX
  8
St
 10
118.75
 20
-54.15
 70
     8
  0
VERTEX
  8
St
 10
118.75
 20
-54.15
 70
     8
  0
VERTEX
  8
St
 10
118.75
 20
-54.15
 70
     8
  0
VERTEX
  8
St
 10
118.75
 20
-54.125
 70
     8
  0
VERTEX
  8
St
 10
118.75
 20
-54.125
 70
     8
  0
VERTEX
  8
St
 10
118.75
 20
-54.1
 70
     8
  0
VERTEX
  8
St
 10
118.75
 20
-54.1
 70
     8
  0
VERTEX
  8
St
 10
118.75
 20
-54.075
 70
     8
  0
VERTEX
  8
St
 10
118.75
 20
-54.075
 70
     8
  0
VERTEX
  8
St
 10
118.725
 20
-54.05
 70
     8
  0
VERTEX
  8
St
 10
118.725
 20
-54.05
 70
     8
  0
VERTEX
  8
St
 10
118.725
 20
-54.025
 70
     8
  0
VERTEX
  8
St
 10
118.725
 20
-54.025
 70
     8
  0
VERTEX
  8
St
 10
118.725
 20
-54.025
 70
     8
  0
VERTEX
  8
St
 10
118.725
 20
-54.0
 70
     8
  0
VERTEX
  8
St
 10
118.725
 20
-54.0
 70
     8
  0
VERTEX
  8
St
 10
118.725
 20
-53.975
 70
     8
  0
VERTEX
  8
St
 10
118.725
 20
-53.975
 70
     8
  0
VERTEX
  8
St
 10
118.725
 20
-53.95
 70
     8
  0
VERTEX
  8
St
 10
118.725
 20
-53.95
 70
     8
  0
VERTEX
  8
St
 10
118.725
 20
-53.925
 70
     8
  0
VERTEX
  8
St
 10
118.725
 20
-53.925
 70
     8
  0
VERTEX
  8
St
 10
118.725
 20
-53.9
 70
     8
  0
VERTEX
  8
St
 10
118.725
 20
-53.9
 70
     8
  0
VERTEX
  8
St
 10
118.7
 20
-53.9
 70
     8
  0
VERTEX
  8
St
 10
118.7
 20
-53.875
 70
     8
  0
VERTEX
  8
St
 10
118.7
 20
-53.875
 70
     8
  0
VERTEX
  8
St
 10
118.7
 20
-53.85
 70
     8
  0
VERTEX
  8
St
 10
118.7
 20
-53.85
 70
     8
  0
VERTEX
  8
St
 10
118.7
 20
-53.825
 70
     8
  0
VERTEX
  8
St
 10
118.7
 20
-53.825
 70
     8
  0
VERTEX
  8
St
 10
118.7
 20
-53.825
 70
     8
  0
VERTEX
  8
St
 10
118.7
 20
-53.8
 70
     8
  0
VERTEX
  8
St
 10
118.7
 20
-53.8
 70
     8
  0
VERTEX
  8
St
 10
118.7
 20
-53.775
 70
     8
  0
VERTEX
  8
St
 10
118.7
 20
-53.775
 70
     8
  0
VERTEX
  8
St
 10
118.7
 20
-53.75
 70
     8
  0
VERTEX
  8
St
 10
118.7
 20
-53.75
 70
     8
  0
VERTEX
  8
St
 10
118.7
 20
-53.75
 70
     8
  0
VERTEX
  8
St
 10
118.7
 20
-53.725
 70
     8
  0
VERTEX
  8
St
 10
118.7
 20
-53.725
 70
     8
  0
VERTEX
  8
St
 10
118.7
 20
-53.7
 70
     8
  0
VERTEX
  8
St
 10
118.7
 20
-53.7
 70
     8
  0
VERTEX
  8
St
 10
118.7
 20
-53.675
 70
     8
  0
VERTEX
  8
St
 10
118.7
 20
-53.675
 70
     8
  0
VERTEX
  8
St
 10
118.7
 20
-53.675
 70
     8
  0
VERTEX
  8
St
 10
118.7
 20
-53.65
 70
     8
  0
VERTEX
  8
St
 10
118.7
 20
-53.65
 70
     8
  0
VERTEX
  8
St
 10
118.7
 20
-53.625
 70
     8
  0
VERTEX
  8
St
 10
118.7
 20
-53.625
 70
     8
  0
VERTEX
  8
St
 10
118.7
 20
-53.625
 70
     8
  0
VERTEX
  8
St
 10
118.7
 20
-53.6
 70
     8
  0
VERTEX
  8
St
 10
118.7
 20
-53.6
 70
     8
  0
VERTEX
  8
St
 10
118.7
 20
-53.575
 70
     8
  0
VERTEX
  8
St
 10
118.7
 20
-53.575
 70
     8
  0
VERTEX
  8
St
 10
118.7
 20
-53.575
 70
     8
  0
VERTEX
  8
St
 10
118.7
 20
-53.55
 70
     8
  0
VERTEX
  8
St
 10
118.7
 20
-53.55
 70
     8
  0
VERTEX
  8
St
 10
118.7
 20
-53.525
 70
     8
  0
VERTEX
  8
St
 10
118.7
 20
-53.525
 70
     8
  0
VERTEX
  8
St
 10
118.7
 20
-53.525
 70
     8
  0
VERTEX
  8
St
 10
118.7
 20
-53.5
 70
     8
  0
VERTEX
  8
St
 10
118.7
 20
-53.5
 70
     8
  0
VERTEX
  8
St
 10
118.7
 20
-53.475
 70
     8
  0
VERTEX
  8
St
 10
118.7
 20
-53.475
 70
     8
  0
VERTEX
  8
St
 10
118.7
 20
-53.475
 70
     8
  0
VERTEX
  8
St
 10
118.7
 20
-53.45
 70
     8
  0
VERTEX
  8
St
 10
118.7
 20
-53.45
 70
     8
  0
VERTEX
  8
St
 10
118.7
 20
-53.45
 70
     8
  0
VERTEX
  8
St
 10
118.7
 20
-53.425
 70
     8
  0
VERTEX
  8
St
 10
118.7
 20
-53.425
 70
     8
  0
VERTEX
  8
St
 10
118.7
 20
-53.425
 70
     8
  0
VERTEX
  8
St
 10
118.7
 20
-53.4
 70
     8
  0
VERTEX
  8
St
 10
118.7
 20
-53.4
 70
     8
  0
VERTEX
  8
St
 10
118.725
 20
-53.375
 70
     8
  0
VERTEX
  8
St
 10
118.725
 20
-53.375
 70
     8
  0
VERTEX
  8
St
 10
118.725
 20
-53.375
 70
     8
  0
VERTEX
  8
St
 10
118.725
 20
-53.35
 70
     8
  0
VERTEX
  8
St
 10
118.725
 20
-53.35
 70
     8
  0
VERTEX
  8
St
 10
118.725
 20
-53.35
 70
     8
  0
VERTEX
  8
St
 10
118.725
 20
-53.325
 70
     8
  0
VERTEX
  8
St
 10
118.725
 20
-53.325
 70
     8
  0
VERTEX
  8
St
 10
118.725
 20
-53.325
 70
     8
  0
VERTEX
  8
St
 10
118.725
 20
-53.3
 70
     8
  0
VERTEX
  8
St
 10
118.725
 20
-53.3
 70
     8
  0
VERTEX
  8
St
 10
118.75
 20
-53.3
 70
     8
  0
VERTEX
  8
St
 10
118.75
 20
-53.275
 70
     8
  0
VERTEX
  8
St
 10
118.75
 20
-53.275
 70
     8
  0
VERTEX
  8
St
 10
118.75
 20
-53.275
 70
     8
  0
VERTEX
  8
St
 10
118.75
 20
-53.25
 70
     8
  0
VERTEX
  8
St
 10
118.75
 20
-53.25
 70
     8
  0
VERTEX
  8
St
 10
118.75
 20
-53.25
 70
     8
  0
VERTEX
  8
St
 10
118.775
 20
-53.25
 70
     8
  0
VERTEX
  8
St
 10
118.775
 20
-53.225
 70
     8
  0
VERTEX
  8
St
 10
118.775
 20
-53.225
 70
     8
  0
VERTEX
  8
St
 10
118.775
 20
-53.225
 70
     8
  0
VERTEX
  8
St
 10
118.775
 20
-53.2
 70
     8
  0
VERTEX
  8
St
 10
118.775
 20
-53.2
 70
     8
  0
VERTEX
  8
St
 10
118.8
 20
-53.2
 70
     8
  0
VERTEX
  8
St
 10
118.8
 20
-53.2
 70
     8
  0
VERTEX
  8
St
 10
118.8
 20
-53.175
 70
     8
  0
VERTEX
  8
St
 10
118.8
 20
-53.175
 70
     8
  0
VERTEX
  8
St
 10
118.8
 20
-53.175
 70
     8
  0
VERTEX
  8
St
 10
118.8
 20
-53.175
 70
     8
  0
VERTEX
  8
St
 10
118.825
 20
-53.15
 70
     8
  0
VERTEX
  8
St
 10
118.825
 20
-53.15
 70
     8
  0
VERTEX
  8
St
 10
118.825
 20
-53.15
 70
     8
  0
VERTEX
  8
St
 10
118.825
 20
-53.125
 70
     8
  0
VERTEX
  8
St
 10
118.85
 20
-53.125
 70
     8
  0
VERTEX
  8
St
 10
118.85
 20
-53.125
 70
     8
  0
VERTEX
  8
St
 10
118.85
 20
-53.125
 70
     8
  0
VERTEX
  8
St
 10
118.85
 20
-53.125
 70
     8
  0
VERTEX
  8
St
 10
118.85
 20
-53.1
 70
     8
  0
VERTEX
  8
St
 10
118.875
 20
-53.1
 70
     8
  0
VERTEX
  8
St
 10
118.875
 20
-53.1
 70
     8
  0
VERTEX
  8
St
 10
118.875
 20
-53.1
 70
     8
  0
VERTEX
  8
St
 10
118.875
 20
-53.075
 70
     8
  0
VERTEX
  8
St
 10
118.9
 20
-53.075
 70
     8
  0
VERTEX
  8
St
 10
118.9
 20
-53.075
 70
     8
  0
VERTEX
  8
St
 10
118.9
 20
-53.075
 70
     8
  0
VERTEX
  8
St
 10
118.925
 20
-53.075
 70
     8
  0
VERTEX
  8
St
 10
118.925
 20
-53.05
 70
     8
  0
VERTEX
  8
St
 10
118.925
 20
-53.05
 70
     8
  0
VERTEX
  8
St
 10
118.925
 20
-53.05
 70
     8
  0
VERTEX
  8
St
 10
118.95
 20
-53.05
 70
     8
  0
VERTEX
  8
St
 10
118.95
 20
-53.025
 70
     8
  0
VERTEX
  8
St
 10
118.95
 20
-53.025
 70
     8
  0
VERTEX
  8
St
 10
118.975
 20
-53.025
 70
     8
  0
VERTEX
  8
St
 10
118.975
 20
-53.025
 70
     8
  0
VERTEX
  8
St
 10
118.975
 20
-53.025
 70
     8
  0
VERTEX
  8
St
 10
119.0
 20
-53.025
 70
     8
  0
VERTEX
  8
St
 10
119.0
 20
-53.0
 70
     8
  0
VERTEX
  8
St
 10
119.0
 20
-53.0
 70
     8
  0
VERTEX
  8
St
 10
119.0
 20
-53.0
 70
     8
  0
VERTEX
  8
St
 10
119.025
 20
-53.0
 70
     8
  0
VERTEX
  8
St
 10
119.025
 20
-53.0
 70
     8
  0
VERTEX
  8
St
 10
119.025
 20
-52.975
 70
     8
  0
VERTEX
  8
St
 10
119.05
 20
-52.975
 70
     8
  0
VERTEX
  8
St
 10
119.05
 20
-52.975
 70
     8
  0
VERTEX
  8
St
 10
119.05
 20
-52.975
 70
     8
  0
VERTEX
  8
St
 10
119.075
 20
-52.975
 70
     8
  0
VERTEX
  8
St
 10
119.075
 20
-52.975
 70
     8
  0
VERTEX
  8
St
 10
119.075
 20
-52.95
 70
     8
  0
VERTEX
  8
St
 10
119.1
 20
-52.95
 70
     8
  0
VERTEX
  8
St
 10
119.1
 20
-52.95
 70
     8
  0
VERTEX
  8
St
 10
119.125
 20
-52.95
 70
     8
  0
VERTEX
  8
St
 10
119.125
 20
-52.95
 70
     8
  0
VERTEX
  8
St
 10
119.125
 20
-52.95
 70
     8
  0
VERTEX
  8
St
 10
119.15
 20
-52.925
 70
     8
  0
VERTEX
  8
St
 10
119.15
 20
-52.925
 70
     8
  0
VERTEX
  8
St
 10
119.15
 20
-52.925
 70
     8
  0
VERTEX
  8
St
 10
119.175
 20
-52.925
 70
     8
  0
VERTEX
  8
St
 10
119.175
 20
-52.925
 70
     8
  0
VERTEX
  8
St
 10
119.175
 20
-52.925
 70
     8
  0
VERTEX
  8
St
 10
119.2
 20
-52.9
 70
     8
  0
VERTEX
  8
St
 10
119.2
 20
-52.9
 70
     8
  0
VERTEX
  8
St
 10
119.225
 20
-52.9
 70
     8
  0
VERTEX
  8
St
 10
119.225
 20
-52.9
 70
     8
  0
VERTEX
  8
St
 10
119.225
 20
-52.9
 70
     8
  0
VERTEX
  8
St
 10
119.25
 20
-52.9
 70
     8
  0
VERTEX
  8
St
 10
119.25
 20
-52.875
 70
     8
  0
VERTEX
  8
St
 10
119.25
 20
-52.875
 70
     8
  0
VERTEX
  8
St
 10
119.275
 20
-52.875
 70
     8
  0
VERTEX
  8
St
 10
119.275
 20
-52.875
 70
     8
  0
VERTEX
  8
St
 10
119.3
 20
-52.875
 70
     8
  0
VERTEX
  8
St
 10
119.3
 20
-52.875
 70
     8
  0
VERTEX
  8
St
 10
119.3
 20
-52.85
 70
     8
  0
VERTEX
  8
St
 10
119.325
 20
-52.85
 70
     8
  0
VERTEX
  8
St
 10
119.325
 20
-52.85
 70
     8
  0
VERTEX
  8
St
 10
119.325
 20
-52.85
 70
     8
  0
VERTEX
  8
St
 10
119.35
 20
-52.85
 70
     8
  0
VERTEX
  8
St
 10
119.35
 20
-52.85
 70
     8
  0
VERTEX
  8
St
 10
119.375
 20
-52.85
 70
     8
  0
VERTEX
  8
St
 10
119.375
 20
-52.825
 70
     8
  0
VERTEX
  8
St
 10
119.375
 20
-52.825
 70
     8
  0
VERTEX
  8
St
 10
119.4
 20
-52.825
 70
     8
  0
VERTEX
  8
St
 10
119.4
 20
-52.825
 70
     8
  0
VERTEX
  8
St
 10
119.425
 20
-52.825
 70
     8
  0
VERTEX
  8
St
 10
119.425
 20
-52.825
 70
     8
  0
VERTEX
  8
St
 10
119.425
 20
-52.8
 70
     8
  0
VERTEX
  8
St
 10
119.45
 20
-52.8
 70
     8
  0
VERTEX
  8
St
 10
119.45
 20
-52.8
 70
     8
  0
VERTEX
  8
St
 10
119.475
 20
-52.8
 70
     8
  0
VERTEX
  8
St
 10
119.475
 20
-52.8
 70
     8
  0
VERTEX
  8
St
 10
119.475
 20
-52.8
 70
     8
  0
VERTEX
  8
St
 10
119.5
 20
-52.775
 70
     8
  0
VERTEX
  8
St
 10
119.5
 20
-52.775
 70
     8
  0
VERTEX
  8
St
 10
119.5
 20
-52.775
 70
     8
  0
VERTEX
  8
St
 10
119.525
 20
-52.775
 70
     8
  0
VERTEX
  8
St
 10
119.525
 20
-52.775
 70
     8
  0
VERTEX
  8
St
 10
119.55
 20
-52.75
 70
     8
  0
VERTEX
  8
St
 10
119.55
 20
-52.75
 70
     8
  0
VERTEX
  8
St
 10
119.55
 20
-52.75
 70
     8
  0
VERTEX
  8
St
 10
119.575
 20
-52.75
 70
     8
  0
VERTEX
  8
St
 10
119.575
 20
-52.75
 70
     8
  0
VERTEX
  8
St
 10
119.6
 20
-52.75
 70
     8
  0
VERTEX
  8
St
 10
119.6
 20
-52.725
 70
     8
  0
VERTEX
  8
St
 10
119.6
 20
-52.725
 70
     8
  0
VERTEX
  8
St
 10
119.625
 20
-52.725
 70
     8
  0
VERTEX
  8
St
 10
119.625
 20
-52.725
 70
     8
  0
VERTEX
  8
St
 10
119.625
 20
-52.725
 70
     8
  0
VERTEX
  8
St
 10
119.65
 20
-52.7
 70
     8
  0
VERTEX
  8
St
 10
119.65
 20
-52.7
 70
     8
  0
VERTEX
  8
St
 10
119.675
 20
-52.7
 70
     8
  0
VERTEX
  8
St
 10
119.675
 20
-52.7
 70
     8
  0
VERTEX
  8
St
 10
119.675
 20
-52.7
 70
     8
  0
VERTEX
  8
St
 10
119.7
 20
-52.675
 70
     8
  0
VERTEX
  8
St
 10
119.7
 20
-52.675
 70
     8
  0
VERTEX
  8
St
 10
119.7
 20
-52.675
 70
     8
  0
VERTEX
  8
St
 10
119.725
 20
-52.675
 70
     8
  0
VERTEX
  8
St
 10
119.725
 20
-52.65
 70
     8
  0
VERTEX
  8
St
 10
119.725
 20
-52.65
 70
     8
  0
VERTEX
  8
St
 10
119.75
 20
-52.65
 70
     8
  0
VERTEX
  8
St
 10
119.75
 20
-52.65
 70
     8
  0
VERTEX
  8
St
 10
119.75
 20
-52.65
 70
     8
  0
VERTEX
  8
St
 10
119.775
 20
-52.625
 70
     8
  0
VERTEX
  8
St
 10
119.775
 20
-52.625
 70
     8
  0
VERTEX
  8
St
 10
119.8
 20
-52.625
 70
     8
  0
VERTEX
  8
St
 10
119.8
 20
-52.625
 70
     8
  0
VERTEX
  8
St
 10
119.8
 20
-52.6
 70
     8
  0
VERTEX
  8
St
 10
119.825
 20
-52.6
 70
     8
  0
VERTEX
  8
St
 10
119.825
 20
-52.6
 70
     8
  0
VERTEX
  8
St
 10
119.825
 20
-52.6
 70
     8
  0
VERTEX
  8
St
 10
119.85
 20
-52.575
 70
     8
  0
VERTEX
  8
St
 10
119.85
 20
-52.575
 70
     8
  0
VERTEX
  8
St
 10
119.85
 20
-52.575
 70
     8
  0
VERTEX
  8
St
 10
119.85
 20
-52.55
 70
     8
  0
VERTEX
  8
St
 10
119.875
 20
-52.55
 70
     8
  0
VERTEX
  8
St
 10
119.875
 20
-52.55
 70
     8
  0
VERTEX
  8
St
 10
119.875
 20
-52.55
 70
     8
  0
VERTEX
  8
St
 10
119.9
 20
-52.525
 70
     8
  0
VERTEX
  8
St
 10
119.9
 20
-52.525
 70
     8
  0
VERTEX
  8
St
 10
119.9
 20
-52.525
 70
     8
  0
VERTEX
  8
St
 10
119.925
 20
-52.5
 70
     8
  0
VERTEX
  8
St
 10
119.925
 20
-52.5
 70
     8
  0
VERTEX
  8
St
 10
119.925
 20
-52.5
 70
     8
  0
VERTEX
  8
St
 10
119.925
 20
-52.475
 70
     8
  0
VERTEX
  8
St
 10
119.95
 20
-52.475
 70
     8
  0
VERTEX
  8
St
 10
119.95
 20
-52.475
 70
     8
  0
VERTEX
  8
St
 10
119.95
 20
-52.475
 70
     8
  0
VERTEX
  8
St
 10
119.975
 20
-52.45
 70
     8
  0
VERTEX
  8
St
 10
119.975
 20
-52.45
 70
     8
  0
VERTEX
  8
St
 10
119.975
 20
-52.425
 70
     8
  0
VERTEX
  8
St
 10
119.975
 20
-52.425
 70
     8
  0
VERTEX
  8
St
 10
120.0
 20
-52.425
 70
     8
  0
VERTEX
  8
St
 10
120.0
 20
-52.4
 70
     8
  0
VERTEX
  8
St
 10
120.0
 20
-52.4
 70
     8
  0
VERTEX
  8
St
 10
120.0
 20
-52.4
 70
     8
  0
VERTEX
  8
St
 10
120.025
 20
-52.375
 70
     8
  0
VERTEX
  8
St
 10
120.025
 20
-52.375
 70
     8
  0
VERTEX
  8
St
 10
120.025
 20
-52.375
 70
     8
  0
VERTEX
  8
St
 10
120.025
 20
-52.35
 70
     8
  0
VERTEX
  8
St
 10
120.025
 20
-52.35
 70
     8
  0
VERTEX
  8
St
 10
120.05
 20
-52.325
 70
     8
  0
VERTEX
  8
St
 10
120.05
 20
-52.325
 70
     8
  0
VERTEX
  8
St
 10
120.05
 20
-52.325
 70
     8
  0
VERTEX
  8
St
 10
120.05
 20
-52.3
 70
     8
  0
VERTEX
  8
St
 10
120.05
 20
-52.3
 70
     8
  0
VERTEX
  8
St
 10
120.075
 20
-52.275
 70
     8
  0
VERTEX
  8
St
 10
120.075
 20
-52.275
 70
     8
  0
VERTEX
  8
St
 10
120.075
 20
-52.25
 70
     8
  0
VERTEX
  8
St
 10
120.075
 20
-52.25
 70
     8
  0
VERTEX
  8
St
 10
120.075
 20
-52.25
 70
     8
  0
VERTEX
  8
St
 10
120.075
 20
-52.225
 70
     8
  0
VERTEX
  8
St
 10
120.1
 20
-52.225
 70
     8
  0
VERTEX
  8
St
 10
120.1
 20
-52.2
 70
     8
  0
VERTEX
  8
St
 10
120.1
 20
-52.2
 70
     8
  0
VERTEX
  8
St
 10
120.1
 20
-52.175
 70
     8
  0
VERTEX
  8
St
 10
120.1
 20
-52.175
 70
     8
  0
VERTEX
  8
St
 10
120.1
 20
-52.15
 70
     8
  0
VERTEX
  8
St
 10
120.1
 20
-52.15
 70
     8
  0
VERTEX
  8
St
 10
120.1
 20
-52.125
 70
     8
  0
VERTEX
  8
St
 10
120.125
 20
-52.125
 70
     8
  0
VERTEX
  8
St
 10
120.125
 20
-52.1
 70
     8
  0
VERTEX
  8
St
 10
120.125
 20
-52.1
 70
     8
  0
VERTEX
  8
St
 10
120.125
 20
-52.075
 70
     8
  0
VERTEX
  8
St
 10
120.125
 20
-52.075
 70
     8
  0
VERTEX
  8
St
 10
120.125
 20
-52.05
 70
     8
  0
VERTEX
  8
St
 10
120.125
 20
-52.05
 70
     8
  0
VERTEX
  8
St
 10
120.125
 20
-52.025
 70
     8
  0
VERTEX
  8
St
 10
120.125
 20
-52.025
 70
     8
  0
VERTEX
  8
St
 10
120.125
 20
-52.0
 70
     8
  0
VERTEX
  8
St
 10
120.125
 20
-52.0
 70
     8
  0
VERTEX
  8
St
 10
120.125
 20
-51.975
 70
     8
  0
VERTEX
  8
St
 10
120.15
 20
-51.975
 70
     8
  0
VERTEX
  8
St
 10
120.15
 20
-51.95
 70
     8
  0
VERTEX
  8
St
 10
120.15
 20
-51.95
 70
     8
  0
VERTEX
  8
St
 10
120.15
 20
-51.925
 70
     8
  0
VERTEX
  8
St
 10
120.15
 20
-51.925
 70
     8
  0
VERTEX
  8
St
 10
120.15
 20
-51.9
 70
     8
  0
VERTEX
  8
St
 10
120.15
 20
-51.9
 70
     8
  0
VERTEX
  8
St
 10
120.15
 20
-51.9
 70
     8
  0
VERTEX
  8
St
 10
120.15
 20
-51.875
 70
     8
  0
VERTEX
  8
St
 10
120.15
 20
-51.875
 70
     8
  0
VERTEX
  8
St
 10
120.15
 20
-51.85
 70
     8
  0
VERTEX
  8
St
 10
120.15
 20
-51.85
 70
     8
  0
VERTEX
  8
St
 10
120.15
 20
-51.825
 70
     8
  0
VERTEX
  8
St
 10
120.15
 20
-51.825
 70
     8
  0
VERTEX
  8
St
 10
120.15
 20
-51.8
 70
     8
  0
VERTEX
  8
St
 10
120.15
 20
-51.8
 70
     8
  0
VERTEX
  8
St
 10
120.15
 20
-51.775
 70
     8
  0
VERTEX
  8
St
 10
120.15
 20
-51.775
 70
     8
  0
VERTEX
  8
St
 10
120.125
 20
-51.775
 70
     8
  0
VERTEX
  8
St
 10
120.125
 20
-51.75
 70
     8
  0
VERTEX
  8
St
 10
120.125
 20
-51.75
 70
     8
  0
VERTEX
  8
St
 10
120.125
 20
-51.725
 70
     8
  0
VERTEX
  8
St
 10
120.125
 20
-51.725
 70
     8
  0
VERTEX
  8
St
 10
120.125
 20
-51.725
 70
     8
  0
VERTEX
  8
St
 10
120.125
 20
-51.7
 70
     8
  0
VERTEX
  8
St
 10
120.125
 20
-51.7
 70
     8
  0
VERTEX
  8
St
 10
120.125
 20
-51.7
 70
     8
  0
VERTEX
  8
St
 10
120.125
 20
-51.675
 70
     8
  0
VERTEX
  8
St
 10
120.125
 20
-51.675
 70
     8
  0
VERTEX
  8
St
 10
120.125
 20
-51.675
 70
     8
  0
VERTEX
  8
St
 10
120.125
 20
-51.65
 70
     8
  0
VERTEX
  8
St
 10
120.125
 20
-51.65
 70
     8
  0
VERTEX
  8
St
 10
120.1
 20
-51.65
 70
     8
  0
VERTEX
  8
St
 10
120.1
 20
-51.625
 70
     8
  0
VERTEX
  8
St
 10
120.1
 20
-51.625
 70
     8
  0
VERTEX
  8
St
 10
120.1
 20
-51.625
 70
     8
  0
VERTEX
  8
St
 10
120.1
 20
-51.625
 70
     8
  0
VERTEX
  8
St
 10
120.1
 20
-51.6
 70
     8
  0
VERTEX
  8
St
 10
120.1
 20
-51.6
 70
     8
  0
VERTEX
  8
St
 10
120.1
 20
-51.6
 70
     8
  0
VERTEX
  8
St
 10
120.075
 20
-51.6
 70
     8
  0
VERTEX
  8
St
 10
120.075
 20
-51.6
 70
     8
  0
VERTEX
  8
St
 10
120.075
 20
-51.6
 70
     8
  0
VERTEX
  8
St
 10
120.075
 20
-51.575
 70
     8
  0
VERTEX
  8
St
 10
120.075
 20
-51.575
 70
     8
  0
VERTEX
  8
St
 10
120.075
 20
-51.575
 70
     8
  0
VERTEX
  8
St
 10
120.05
 20
-51.575
 70
     8
  0
VERTEX
  8
St
 10
120.05
 20
-51.575
 70
     8
  0
VERTEX
  8
St
 10
120.05
 20
-51.575
 70
     8
  0
VERTEX
  8
St
 10
120.05
 20
-51.575
 70
     8
  0
VERTEX
  8
St
 10
120.05
 20
-51.575
 70
     8
  0
VERTEX
  8
St
 10
120.025
 20
-51.575
 70
     8
  0
VERTEX
  8
St
 10
120.025
 20
-51.575
 70
     8
  0
VERTEX
  8
St
 10
120.025
 20
-51.575
 70
     8
  0
VERTEX
  8
St
 10
120.025
 20
-51.575
 70
     8
  0
VERTEX
  8
St
 10
120.025
 20
-51.575
 70
     8
  0
VERTEX
  8
St
 10
120.0
 20
-51.575
 70
     8
  0
VERTEX
  8
St
 10
120.0
 20
-51.575
 70
     8
  0
VERTEX
  8
St
 10
120.0
 20
-51.575
 70
     8
  0
VERTEX
  8
St
 10
120.0
 20
-51.575
 70
     8
  0
VERTEX
  8
St
 10
120.0
 20
-51.575
 70
     8
  0
VERTEX
  8
St
 10
119.975
 20
-51.575
 70
     8
  0
VERTEX
  8
St
 10
119.975
 20
-51.575
 70
     8
  0
VERTEX
  8
St
 10
119.975
 20
-51.6
 70
     8
  0
VERTEX
  8
St
 10
119.975
 20
-51.6
 70
     8
  0
VERTEX
  8
St
 10
119.95
 20
-51.6
 70
     8
  0
VERTEX
  8
St
 10
119.95
 20
-51.6
 70
     8
  0
VERTEX
  8
St
 10
119.95
 20
-51.6
 70
     8
  0
VERTEX
  8
St
 10
119.95
 20
-51.6
 70
     8
  0
VERTEX
  8
St
 10
119.925
 20
-51.625
 70
     8
  0
VERTEX
  8
St
 10
119.925
 20
-51.625
 70
     8
  0
VERTEX
  8
St
 10
119.925
 20
-51.625
 70
     8
  0
VERTEX
  8
St
 10
119.925
 20
-51.625
 70
     8
  0
VERTEX
  8
St
 10
119.9
 20
-51.65
 70
     8
  0
VERTEX
  8
St
 10
119.9
 20
-51.65
 70
     8
  0
VERTEX
  8
St
 10
119.9
 20
-51.65
 70
     8
  0
VERTEX
  8
St
 10
119.9
 20
-51.65
 70
     8
  0
VERTEX
  8
St
 10
119.875
 20
-51.675
 70
     8
  0
VERTEX
  8
St
 10
119.875
 20
-51.675
 70
     8
  0
VERTEX
  8
St
 10
119.875
 20
-51.675
 70
     8
  0
VERTEX
  8
St
 10
119.875
 20
-51.7
 70
     8
  0
VERTEX
  8
St
 10
119.85
 20
-51.7
 70
     8
  0
VERTEX
  8
St
 10
119.85
 20
-51.7
 70
     8
  0
VERTEX
  8
St
 10
119.85
 20
-51.7
 70
     8
  0
VERTEX
  8
St
 10
119.825
 20
-51.725
 70
     8
  0
VERTEX
  8
St
 10
119.825
 20
-51.725
 70
     8
  0
VERTEX
  8
St
 10
119.825
 20
-51.75
 70
     8
  0
VERTEX
  8
St
 10
119.825
 20
-51.75
 70
     8
  0
VERTEX
  8
St
 10
119.8
 20
-51.75
 70
     8
  0
VERTEX
  8
St
 10
119.8
 20
-51.775
 70
     8
  0
VERTEX
  8
St
 10
119.8
 20
-51.775
 70
     8
  0
VERTEX
  8
St
 10
119.775
 20
-51.775
 70
     8
  0
VERTEX
  8
St
 10
119.775
 20
-51.8
 70
     8
  0
VERTEX
  8
St
 10
119.775
 20
-51.8
 70
     8
  0
VERTEX
  8
St
 10
119.775
 20
-51.825
 70
     8
  0
VERTEX
  8
St
 10
119.75
 20
-51.825
 70
     8
  0
VERTEX
  8
St
 10
119.75
 20
-51.825
 70
     8
  0
VERTEX
  8
St
 10
119.75
 20
-51.85
 70
     8
  0
VERTEX
  8
St
 10
119.75
 20
-51.85
 70
     8
  0
VERTEX
  8
St
 10
119.725
 20
-51.875
 70
     8
  0
VERTEX
  8
St
 10
119.725
 20
-51.875
 70
     8
  0
VERTEX
  8
St
 10
119.725
 20
-51.9
 70
     8
  0
VERTEX
  8
St
 10
119.7
 20
-51.9
 70
     8
  0
VERTEX
  8
St
 10
119.7
 20
-51.9
 70
     8
  0
VERTEX
  8
St
 10
119.7
 20
-51.925
 70
     8
  0
VERTEX
  8
St
 10
119.7
 20
-51.925
 70
     8
  0
VERTEX
  8
St
 10
119.675
 20
-51.95
 70
     8
  0
VERTEX
  8
St
 10
119.675
 20
-51.95
 70
     8
  0
VERTEX
  8
St
 10
119.675
 20
-51.975
 70
     8
  0
VERTEX
  8
St
 10
119.65
 20
-51.975
 70
     8
  0
VERTEX
  8
St
 10
119.65
 20
-52.0
 70
     8
  0
VERTEX
  8
St
 10
119.65
 20
-52.0
 70
     8
  0
VERTEX
  8
St
 10
119.65
 20
-52.0
 70
     8
  0
VERTEX
  8
St
 10
119.625
 20
-52.025
 70
     8
  0
VERTEX
  8
St
 10
119.625
 20
-52.025
 70
     8
  0
VERTEX
  8
St
 10
119.625
 20
-52.05
 70
     8
  0
VERTEX
  8
St
 10
119.625
 20
-52.05
 70
     8
  0
VERTEX
  8
St
 10
119.6
 20
-52.075
 70
     8
  0
VERTEX
  8
St
 10
119.6
 20
-52.075
 70
     8
  0
VERTEX
  8
St
 10
119.6
 20
-52.1
 70
     8
  0
VERTEX
  8
St
 10
119.6
 20
-52.1
 70
     8
  0
VERTEX
  8
St
 10
119.575
 20
-52.125
 70
     8
  0
VERTEX
  8
St
 10
119.575
 20
-52.125
 70
     8
  0
VERTEX
  8
St
 10
119.575
 20
-52.15
 70
     8
  0
VERTEX
  8
St
 10
119.575
 20
-52.15
 70
     8
  0
VERTEX
  8
St
 10
119.55
 20
-52.15
 70
     8
  0
VERTEX
  8
St
 10
119.55
 20
-52.175
 70
     8
  0
VERTEX
  8
St
 10
119.55
 20
-52.175
 70
     8
  0
VERTEX
  8
St
 10
119.55
 20
-52.2
 70
     8
  0
VERTEX
  8
St
 10
119.525
 20
-52.2
 70
     8
  0
VERTEX
  8
St
 10
119.525
 20
-52.225
 70
     8
  0
VERTEX
  8
St
 10
119.525
 20
-52.225
 70
     8
  0
VERTEX
  8
St
 10
119.525
 20
-52.25
 70
     8
  0
VERTEX
  8
St
 10
119.5
 20
-52.25
 70
     8
  0
VERTEX
  8
St
 10
119.5
 20
-52.25
 70
     8
  0
VERTEX
  8
St
 10
119.5
 20
-52.275
 70
     8
  0
VERTEX
  8
St
 10
119.5
 20
-52.275
 70
     8
  0
VERTEX
  8
St
 10
119.5
 20
-52.3
 70
     8
  0
VERTEX
  8
St
 10
119.475
 20
-52.3
 70
     8
  0
VERTEX
  8
St
 10
119.475
 20
-52.325
 70
     8
  0
VERTEX
  8
St
 10
119.475
 20
-52.325
 70
     8
  0
VERTEX
  8
St
 10
119.475
 20
-52.325
 70
     8
  0
VERTEX
  8
St
 10
119.475
 20
-52.35
 70
     8
  0
VERTEX
  8
St
 10
119.45
 20
-52.35
 70
     8
  0
VERTEX
  8
St
 10
119.45
 20
-52.375
 70
     8
  0
VERTEX
  8
St
 10
119.45
 20
-52.375
 70
     8
  0
VERTEX
  8
St
 10
119.45
 20
-52.4
 70
     8
  0
VERTEX
  8
St
 10
119.45
 20
-52.4
 70
     8
  0
VERTEX
  8
St
 10
119.45
 20
-52.4
 70
     8
  0
VERTEX
  8
St
 10
119.425
 20
-52.425
 70
     8
  0
VERTEX
  8
St
 10
119.425
 20
-52.425
 70
     8
  0
VERTEX
  8
St
 10
119.425
 20
-52.45
 70
     8
  0
VERTEX
  8
St
 10
119.425
 20
-52.45
 70
     8
  0
VERTEX
  8
St
 10
119.425
 20
-52.45
 70
     8
  0
VERTEX
  8
St
 10
119.425
 20
-52.475
 70
     8
  0
VERTEX
  8
St
 10
119.4
 20
-52.475
 70
     8
  0
VERTEX
  8
St
 10
119.4
 20
-52.475
 70
     8
  0
VERTEX
  8
St
 10
119.4
 20
-52.5
 70
     8
  0
VERTEX
  8
St
 10
119.4
 20
-52.5
 70
     8
  0
VERTEX
  8
St
 10
119.4
 20
-52.525
 70
     8
  0
VERTEX
  8
St
 10
119.4
 20
-52.525
 70
     8
  0
VERTEX
  8
St
 10
119.375
 20
-52.525
 70
     8
  0
VERTEX
  8
St
 10
119.375
 20
-52.55
 70
     8
  0
VERTEX
  8
St
 10
119.375
 20
-52.55
 70
     8
  0
VERTEX
  8
St
 10
119.375
 20
-52.55
 70
     8
  0
VERTEX
  8
St
 10
119.375
 20
-52.575
 70
     8
  0
VERTEX
  8
St
 10
119.375
 20
-52.575
 70
     8
  0
VERTEX
  8
St
 10
119.375
 20
-52.6
 70
     8
  0
VERTEX
  8
St
 10
119.35
 20
-52.6
 70
     8
  0
VERTEX
  8
St
 10
119.35
 20
-52.6
 70
     8
  0
VERTEX
  8
St
 10
119.35
 20
-52.625
 70
     8
  0
VERTEX
  8
St
 10
119.35
 20
-52.625
 70
     8
  0
VERTEX
  8
St
 10
119.35
 20
-52.625
 70
     8
  0
VERTEX
  8
St
 10
119.35
 20
-52.65
 70
     8
  0
VERTEX
  8
St
 10
119.35
 20
-52.65
 70
     8
  0
VERTEX
  8
St
 10
119.35
 20
-52.65
 70
     8
  0
VERTEX
  8
St
 10
119.325
 20
-52.675
 70
     8
  0
VERTEX
  8
St
 10
119.325
 20
-52.675
 70
     8
  0
VERTEX
  8
St
 10
119.325
 20
-52.675
 70
     8
  0
VERTEX
  8
St
 10
119.325
 20
-52.7
 70
     8
  0
VERTEX
  8
St
 10
119.325
 20
-52.7
 70
     8
  0
VERTEX
  8
St
 10
119.325
 20
-52.7
 70
     8
  0
VERTEX
  8
St
 10
119.325
 20
-52.725
 70
     8
  0
VERTEX
  8
St
 10
119.325
 20
-52.725
 70
     8
  0
VERTEX
  8
St
 10
119.325
 20
-52.725
 70
     8
  0
VERTEX
  8
St
 10
119.3
 20
-52.75
 70
     8
  0
VERTEX
  8
St
 10
119.3
 20
-52.75
 70
     8
  0
VERTEX
  8
St
 10
119.3
 20
-52.75
 70
     8
  0
VERTEX
  8
St
 10
119.3
 20
-52.775
 70
     8
  0
VERTEX
  8
St
 10
119.3
 20
-52.775
 70
     8
  0
VERTEX
  8
St
 10
119.3
 20
-52.775
 70
     8
  0
VERTEX
  8
St
 10
119.3
 20
-52.8
 70
     8
  0
VERTEX
  8
St
 10
119.3
 20
-52.8
 70
     8
  0
VERTEX
  8
St
 10
119.3
 20
-52.825
 70
     8
  0
VERTEX
  8
St
 10
119.275
 20
-52.825
 70
     8
  0
VERTEX
  8
St
 10
119.275
 20
-52.825
 70
     8
  0
VERTEX
  8
St
 10
119.275
 20
-52.85
 70
     8
  0
VERTEX
  8
St
 10
119.275
 20
-52.85
 70
     8
  0
VERTEX
  8
St
 10
119.275
 20
-52.85
 70
     8
  0
VERTEX
  8
St
 10
119.275
 20
-52.875
 70
     8
  0
VERTEX
  8
St
 10
119.275
 20
-52.875
 70
     8
  0
VERTEX
  8
St
 10
119.275
 20
-52.875
 70
     8
  0
VERTEX
  8
St
 10
119.275
 20
-52.875
 70
     8
  0
VERTEX
  8
St
 10
119.275
 20
-52.9
 70
     8
  0
VERTEX
  8
St
 10
119.25
 20
-52.9
 70
     8
  0
VERTEX
  8
St
 10
119.25
 20
-52.9
 70
     8
  0
SEQEND
  0
POLYLINE
  8
St
  6
CONTINUOUS
 66
     1
 70
     4
  0
VERTEX
  8
St
 10
146.0
 20
-67.225
 70
     8
  0
VERTEX
  8
St
 10
146.025
 20
-67.225
 70
     8
  0
VERTEX
  8
St
 10
146.025
 20
-67.2
 70
     8
  0
VERTEX
  8
St
 10
146.025
 20
-67.2
 70
     8
  0
VERTEX
  8
St
 10
146.05
 20
-67.2
 70
     8
  0
VERTEX
  8
St
 10
146.05
 20
-67.175
 70
     8
  0
VERTEX
  8
St
 10
146.05
 20
-67.175
 70
     8
  0
VERTEX
  8
St
 10
146.05
 20
-67.175
 70
     8
  0
VERTEX
  8
St
 10
146.075
 20
-67.175
 70
     8
  0
VERTEX
  8
St
 10
146.075
 20
-67.15
 70
     8
  0
VERTEX
  8
St
 10
146.075
 20
-67.15
 70
     8
  0
VERTEX
  8
St
 10
146.1
 20
-67.15
 70
     8
  0
VERTEX
  8
St
 10
146.1
 20
-67.125
 70
     8
  0
VERTEX
  8
St
 10
146.1
 20
-67.125
 70
     8
  0
VERTEX
  8
St
 10
146.1
 20
-67.125
 70
     8
  0
VERTEX
  8
St
 10
146.125
 20
-67.1
 70
     8
  0
VERTEX
  8
St
 10
146.125
 20
-67.1
 70
     8
  0
VERTEX
  8
St
 10
146.125
 20
-67.1
 70
     8
  0
VERTEX
  8
St
 10
146.15
 20
-67.1
 70
     8
  0
VERTEX
  8
St
 10
146.15
 20
-67.075
 70
     8
  0
VERTEX
  8
St
 10
146.15
 20
-67.075
 70
     8
  0
VERTEX
  8
St
 10
146.175
 20
-67.075
 70
     8
  0
VERTEX
  8
St
 10
146.175
 20
-67.05
 70
     8
  0
VERTEX
  8
St
 10
146.175
 20
-67.05
 70
     8
  0
VERTEX
  8
St
 10
146.175
 20
-67.05
 70
     8
  0
VERTEX
  8
St
 10
146.2
 20
-67.025
 70
     8
  0
VERTEX
  8
St
 10
146.2
 20
-67.025
 70
     8
  0
VERTEX
  8
St
 10
146.2
 20
-67.025
 70
     8
  0
VERTEX
  8
St
 10
146.225
 20
-67.025
 70
     8
  0
VERTEX
  8
St
 10
146.225
 20
-67.0
 70
     8
  0
VERTEX
  8
St
 10
146.225
 20
-67.0
 70
     8
  0
VERTEX
  8
St
 10
146.225
 20
-67.0
 70
     8
  0
VERTEX
  8
St
 10
146.25
 20
-66.975
 70
     8
  0
VERTEX
  8
St
 10
146.25
 20
-66.975
 70
     8
  0
VERTEX
  8
St
 10
146.25
 20
-66.975
 70
     8
  0
VERTEX
  8
St
 10
146.275
 20
-66.95
 70
     8
  0
VERTEX
  8
St
 10
146.275
 20
-66.95
 70
     8
  0
VERTEX
  8
St
 10
146.275
 20
-66.95
 70
     8
  0
VERTEX
  8
St
 10
146.275
 20
-66.95
 70
     8
  0
VERTEX
  8
St
 10
146.3
 20
-66.925
 70
     8
  0
VERTEX
  8
St
 10
146.3
 20
-66.925
 70
     8
  0
VERTEX
  8
St
 10
146.3
 20
-66.925
 70
     8
  0
VERTEX
  8
St
 10
146.3
 20
-66.9
 70
     8
  0
VERTEX
  8
St
 10
146.325
 20
-66.9
 70
     8
  0
VERTEX
  8
St
 10
146.325
 20
-66.9
 70
     8
  0
VERTEX
  8
St
 10
146.325
 20
-66.875
 70
     8
  0
VERTEX
  8
St
 10
146.325
 20
-66.875
 70
     8
  0
VERTEX
  8
St
 10
146.35
 20
-66.875
 70
     8
  0
VERTEX
  8
St
 10
146.35
 20
-66.875
 70
     8
  0
VERTEX
  8
St
 10
146.35
 20
-66.85
 70
     8
  0
VERTEX
  8
St
 10
146.375
 20
-66.85
 70
     8
  0
VERTEX
  8
St
 10
146.375
 20
-66.85
 70
     8
  0
VERTEX
  8
St
 10
146.375
 20
-66.825
 70
     8
  0
VERTEX
  8
St
 10
146.375
 20
-66.825
 70
     8
  0
VERTEX
  8
St
 10
146.4
 20
-66.825
 70
     8
  0
VERTEX
  8
St
 10
146.4
 20
-66.8
 70
     8
  0
VERTEX
  8
St
 10
146.4
 20
-66.8
 70
     8
  0
VERTEX
  8
St
 10
146.4
 20
-66.8
 70
     8
  0
VERTEX
  8
St
 10
146.425
 20
-66.8
 70
     8
  0
VERTEX
  8
St
 10
146.425
 20
-66.775
 70
     8
  0
VERTEX
  8
St
 10
146.425
 20
-66.775
 70
     8
  0
VERTEX
  8
St
 10
146.425
 20
-66.775
 70
     8
  0
VERTEX
  8
St
 10
146.425
 20
-66.75
 70
     8
  0
VERTEX
  8
St
 10
146.45
 20
-66.75
 70
     8
  0
VERTEX
  8
St
 10
146.45
 20
-66.75
 70
     8
  0
VERTEX
  8
St
 10
146.45
 20
-66.725
 70
     8
  0
VERTEX
  8
St
 10
146.45
 20
-66.725
 70
     8
  0
VERTEX
  8
St
 10
146.475
 20
-66.725
 70
     8
  0
VERTEX
  8
St
 10
146.475
 20
-66.7
 70
     8
  0
VERTEX
  8
St
 10
146.475
 20
-66.7
 70
     8
  0
VERTEX
  8
St
 10
146.475
 20
-66.7
 70
     8
  0
VERTEX
  8
St
 10
146.475
 20
-66.7
 70
     8
  0
VERTEX
  8
St
 10
146.5
 20
-66.675
 70
     8
  0
VERTEX
  8
St
 10
146.5
 20
-66.675
 70
     8
  0
VERTEX
  8
St
 10
146.5
 20
-66.675
 70
     8
  0
VERTEX
  8
St
 10
146.5
 20
-66.65
 70
     8
  0
VERTEX
  8
St
 10
146.525
 20
-66.65
 70
     8
  0
VERTEX
  8
St
 10
146.525
 20
-66.65
 70
     8
  0
VERTEX
  8
St
 10
146.525
 20
-66.625
 70
     8
  0
VERTEX
  8
St
 10
146.525
 20
-66.625
 70
     8
  0
VERTEX
  8
St
 10
146.525
 20
-66.625
 70
     8
  0
VERTEX
  8
St
 10
146.525
 20
-66.6
 70
     8
  0
VERTEX
  8
St
 10
146.55
 20
-66.6
 70
     8
  0
VERTEX
  8
St
 10
146.55
 20
-66.6
 70
     8
  0
VERTEX
  8
St
 10
146.55
 20
-66.575
 70
     8
  0
VERTEX
  8
St
 10
146.55
 20
-66.575
 70
     8
  0
VERTEX
  8
St
 10
146.55
 20
-66.575
 70
     8
  0
VERTEX
  8
St
 10
146.575
 20
-66.55
 70
     8
  0
VERTEX
  8
St
 10
146.575
 20
-66.55
 70
     8
  0
VERTEX
  8
St
 10
146.575
 20
-66.55
 70
     8
  0
VERTEX
  8
St
 10
146.575
 20
-66.525
 70
     8
  0
VERTEX
  8
St
 10
146.575
 20
-66.525
 70
     8
  0
VERTEX
  8
St
 10
146.575
 20
-66.525
 70
     8
  0
VERTEX
  8
St
 10
146.6
 20
-66.525
 70
     8
  0
VERTEX
  8
St
 10
146.6
 20
-66.5
 70
     8
  0
VERTEX
  8
St
 10
146.6
 20
-66.5
 70
     8
  0
VERTEX
  8
St
 10
146.6
 20
-66.5
 70
     8
  0
VERTEX
  8
St
 10
146.6
 20
-66.475
 70
     8
  0
VERTEX
  8
St
 10
146.6
 20
-66.475
 70
     8
  0
VERTEX
  8
St
 10
146.6
 20
-66.475
 70
     8
  0
VERTEX
  8
St
 10
146.625
 20
-66.45
 70
     8
  0
VERTEX
  8
St
 10
146.625
 20
-66.45
 70
     8
  0
VERTEX
  8
St
 10
146.625
 20
-66.45
 70
     8
  0
VERTEX
  8
St
 10
146.625
 20
-66.425
 70
     8
  0
VERTEX
  8
St
 10
146.625
 20
-66.425
 70
     8
  0
VERTEX
  8
St
 10
146.625
 20
-66.425
 70
     8
  0
VERTEX
  8
St
 10
146.625
 20
-66.4
 70
     8
  0
VERTEX
  8
St
 10
146.625
 20
-66.4
 70
     8
  0
VERTEX
  8
St
 10
146.625
 20
-66.4
 70
     8
  0
VERTEX
  8
St
 10
146.65
 20
-66.375
 70
     8
  0
VERTEX
  8
St
 10
146.65
 20
-66.375
 70
     8
  0
VERTEX
  8
St
 10
146.65
 20
-66.375
 70
     8
  0
VERTEX
  8
St
 10
146.65
 20
-66.35
 70
     8
  0
VERTEX
  8
St
 10
146.65
 20
-66.35
 70
     8
  0
VERTEX
  8
St
 10
146.65
 20
-66.35
 70
     8
  0
VERTEX
  8
St
 10
146.65
 20
-66.325
 70
     8
  0
VERTEX
  8
St
 10
146.65
 20
-66.325
 70
     8
  0
VERTEX
  8
St
 10
146.65
 20
-66.325
 70
     8
  0
VERTEX
  8
St
 10
146.65
 20
-66.3
 70
     8
  0
VERTEX
  8
St
 10
146.65
 20
-66.3
 70
     8
  0
VERTEX
  8
St
 10
146.675
 20
-66.275
 70
     8
  0
VERTEX
  8
St
 10
146.675
 20
-66.275
 70
     8
  0
VERTEX
  8
St
 10
146.675
 20
-66.275
 70
     8
  0
VERTEX
  8
St
 10
146.675
 20
-66.25
 70
     8
  0
VERTEX
  8
St
 10
146.675
 20
-66.25
 70
     8
  0
VERTEX
  8
St
 10
146.675
 20
-66.25
 70
     8
  0
VERTEX
  8
St
 10
146.675
 20
-66.225
 70
     8
  0
VERTEX
  8
St
 10
146.675
 20
-66.225
 70
     8
  0
VERTEX
  8
St
 10
146.675
 20
-66.225
 70
     8
  0
VERTEX
  8
St
 10
146.675
 20
-66.2
 70
     8
  0
VERTEX
  8
St
 10
146.675
 20
-66.2
 70
     8
  0
VERTEX
  8
St
 10
146.675
 20
-66.2
 70
     8
  0
VERTEX
  8
St
 10
146.675
 20
-66.175
 70
     8
  0
VERTEX
  8
St
 10
146.675
 20
-66.175
 70
     8
  0
VERTEX
  8
St
 10
146.675
 20
-66.175
 70
     8
  0
VERTEX
  8
St
 10
146.675
 20
-66.15
 70
     8
  0
VERTEX
  8
St
 10
146.675
 20
-66.15
 70
     8
  0
VERTEX
  8
St
 10
146.675
 20
-66.15
 70
     8
  0
VERTEX
  8
St
 10
146.675
 20
-66.125
 70
     8
  0
VERTEX
  8
St
 10
146.675
 20
-66.125
 70
     8
  0
VERTEX
  8
St
 10
146.675
 20
-66.1
 70
     8
  0
VERTEX
  8
St
 10
146.7
 20
-66.1
 70
     8
  0
VERTEX
  8
St
 10
146.7
 20
-66.1
 70
     8
  0
VERTEX
  8
St
 10
146.7
 20
-66.075
 70
     8
  0
VERTEX
  8
St
 10
146.7
 20
-66.075
 70
     8
  0
VERTEX
  8
St
 10
146.7
 20
-66.075
 70
     8
  0
VERTEX
  8
St
 10
146.7
 20
-66.05
 70
     8
  0
VERTEX
  8
St
 10
146.7
 20
-66.05
 70
     8
  0
VERTEX
  8
St
 10
146.7
 20
-66.05
 70
     8
  0
VERTEX
  8
St
 10
146.7
 20
-66.025
 70
     8
  0
VERTEX
  8
St
 10
146.7
 20
-66.025
 70
     8
  0
VERTEX
  8
St
 10
146.7
 20
-66.025
 70
     8
  0
VERTEX
  8
St
 10
146.7
 20
-66.0
 70
     8
  0
VERTEX
  8
St
 10
146.7
 20
-66.0
 70
     8
  0
VERTEX
  8
St
 10
146.7
 20
-65.975
 70
     8
  0
VERTEX
  8
St
 10
146.7
 20
-65.975
 70
     8
  0
VERTEX
  8
St
 10
146.7
 20
-65.975
 70
     8
  0
VERTEX
  8
St
 10
146.7
 20
-65.95
 70
     8
  0
VERTEX
  8
St
 10
146.7
 20
-65.95
 70
     8
  0
VERTEX
  8
St
 10
146.7
 20
-65.95
 70
     8
  0
VERTEX
  8
St
 10
146.7
 20
-65.925
 70
     8
  0
VERTEX
  8
St
 10
146.7
 20
-65.925
 70
     8
  0
VERTEX
  8
St
 10
146.7
 20
-65.9
 70
     8
  0
VERTEX
  8
St
 10
146.7
 20
-65.9
 70
     8
  0
VERTEX
  8
St
 10
146.7
 20
-65.9
 70
     8
  0
VERTEX
  8
St
 10
146.7
 20
-65.875
 70
     8
  0
VERTEX
  8
St
 10
146.7
 20
-65.875
 70
     8
  0
VERTEX
  8
St
 10
146.7
 20
-65.875
 70
     8
  0
VERTEX
  8
St
 10
146.7
 20
-65.85
 70
     8
  0
VERTEX
  8
St
 10
146.7
 20
-65.85
 70
     8
  0
VERTEX
  8
St
 10
146.7
 20
-65.825
 70
     8
  0
VERTEX
  8
St
 10
146.7
 20
-65.825
 70
     8
  0
VERTEX
  8
St
 10
146.7
 20
-65.825
 70
     8
  0
VERTEX
  8
St
 10
146.7
 20
-65.8
 70
     8
  0
VERTEX
  8
St
 10
146.7
 20
-65.8
 70
     8
  0
VERTEX
  8
St
 10
146.7
 20
-65.8
 70
     8
  0
VERTEX
  8
St
 10
146.7
 20
-65.775
 70
     8
  0
VERTEX
  8
St
 10
146.7
 20
-65.775
 70
     8
  0
VERTEX
  8
St
 10
146.7
 20
-65.75
 70
     8
  0
VERTEX
  8
St
 10
146.7
 20
-65.75
 70
     8
  0
VERTEX
  8
St
 10
146.7
 20
-65.75
 70
     8
  0
VERTEX
  8
St
 10
146.7
 20
-65.725
 70
     8
  0
VERTEX
  8
St
 10
146.7
 20
-65.725
 70
     8
  0
VERTEX
  8
St
 10
146.7
 20
-65.7
 70
     8
  0
VERTEX
  8
St
 10
146.7
 20
-65.7
 70
     8
  0
VERTEX
  8
St
 10
146.7
 20
-65.7
 70
     8
  0
VERTEX
  8
St
 10
146.7
 20
-65.675
 70
     8
  0
VERTEX
  8
St
 10
146.7
 20
-65.675
 70
     8
  0
VERTEX
  8
St
 10
146.7
 20
-65.65
 70
     8
  0
VERTEX
  8
St
 10
146.7
 20
-65.65
 70
     8
  0
VERTEX
  8
St
 10
146.7
 20
-65.65
 70
     8
  0
VERTEX
  8
St
 10
146.7
 20
-65.625
 70
     8
  0
VERTEX
  8
St
 10
146.7
 20
-65.625
 70
     8
  0
VERTEX
  8
St
 10
146.7
 20
-65.625
 70
     8
  0
VERTEX
  8
St
 10
146.725
 20
-65.6
 70
     8
  0
VERTEX
  8
St
 10
146.725
 20
-65.6
 70
     8
  0
VERTEX
  8
St
 10
146.725
 20
-65.575
 70
     8
  0
VERTEX
  8
St
 10
146.725
 20
-65.575
 70
     8
  0
VERTEX
  8
St
 10
146.725
 20
-65.575
 70
     8
  0
VERTEX
  8
St
 10
146.725
 20
-65.55
 70
     8
  0
VERTEX
  8
St
 10
146.725
 20
-65.55
 70
     8
  0
VERTEX
  8
St
 10
146.725
 20
-65.525
 70
     8
  0
VERTEX
  8
St
 10
146.725
 20
-65.525
 70
     8
  0
VERTEX
  8
St
 10
146.725
 20
-65.525
 70
     8
  0
VERTEX
  8
St
 10
146.725
 20
-65.5
 70
     8
  0
VERTEX
  8
St
 10
146.725
 20
-65.5
 70
     8
  0
VERTEX
  8
St
 10
146.725
 20
-65.475
 70
     8
  0
VERTEX
  8
St
 10
146.725
 20
-65.475
 70
     8
  0
VERTEX
  8
St
 10
146.725
 20
-65.45
 70
     8
  0
VERTEX
  8
St
 10
146.725
 20
-65.45
 70
     8
  0
VERTEX
  8
St
 10
146.725
 20
-65.45
 70
     8
  0
VERTEX
  8
St
 10
146.725
 20
-65.425
 70
     8
  0
VERTEX
  8
St
 10
146.725
 20
-65.425
 70
     8
  0
VERTEX
  8
St
 10
146.725
 20
-65.4
 70
     8
  0
VERTEX
  8
St
 10
146.75
 20
-65.4
 70
     8
  0
VERTEX
  8
St
 10
146.75
 20
-65.4
 70
     8
  0
VERTEX
  8
St
 10
146.75
 20
-65.375
 70
     8
  0
VERTEX
  8
St
 10
146.75
 20
-65.375
 70
     8
  0
VERTEX
  8
St
 10
146.75
 20
-65.35
 70
     8
  0
VERTEX
  8
St
 10
146.75
 20
-65.35
 70
     8
  0
VERTEX
  8
St
 10
146.75
 20
-65.35
 70
     8
  0
VERTEX
  8
St
 10
146.75
 20
-65.325
 70
     8
  0
VERTEX
  8
St
 10
146.75
 20
-65.325
 70
     8
  0
VERTEX
  8
St
 10
146.75
 20
-65.3
 70
     8
  0
VERTEX
  8
St
 10
146.75
 20
-65.3
 70
     8
  0
VERTEX
  8
St
 10
146.775
 20
-65.275
 70
     8
  0
VERTEX
  8
St
 10
146.775
 20
-65.275
 70
     8
  0
VERTEX
  8
St
 10
146.775
 20
-65.275
 70
     8
  0
VERTEX
  8
St
 10
146.775
 20
-65.25
 70
     8
  0
VERTEX
  8
St
 10
146.775
 20
-65.25
 70
     8
  0
VERTEX
  8
St
 10
146.775
 20
-65.225
 70
     8
  0
VERTEX
  8
St
 10
146.775
 20
-65.225
 70
     8
  0
VERTEX
  8
St
 10
146.775
 20
-65.2
 70
     8
  0
VERTEX
  8
St
 10
146.775
 20
-65.2
 70
     8
  0
VERTEX
  8
St
 10
146.8
 20
-65.2
 70
     8
  0
VERTEX
  8
St
 10
146.8
 20
-65.175
 70
     8
  0
VERTEX
  8
St
 10
146.8
 20
-65.175
 70
     8
  0
VERTEX
  8
St
 10
146.8
 20
-65.15
 70
     8
  0
VERTEX
  8
St
 10
146.8
 20
-65.15
 70
     8
  0
VERTEX
  8
St
 10
146.8
 20
-65.125
 70
     8
  0
VERTEX
  8
St
 10
146.8
 20
-65.125
 70
     8
  0
VERTEX
  8
St
 10
146.825
 20
-65.125
 70
     8
  0
VERTEX
  8
St
 10
146.825
 20
-65.1
 70
     8
  0
VERTEX
  8
St
 10
146.825
 20
-65.1
 70
     8
  0
VERTEX
  8
St
 10
146.825
 20
-65.075
 70
     8
  0
VERTEX
  8
St
 10
146.825
 20
-65.075
 70
     8
  0
VERTEX
  8
St
 10
146.825
 20
-65.05
 70
     8
  0
VERTEX
  8
St
 10
146.85
 20
-65.05
 70
     8
  0
VERTEX
  8
St
 10
146.85
 20
-65.05
 70
     8
  0
VERTEX
  8
St
 10
146.85
 20
-65.025
 70
     8
  0
VERTEX
  8
St
 10
146.85
 20
-65.025
 70
     8
  0
VERTEX
  8
St
 10
146.85
 20
-65.0
 70
     8
  0
VERTEX
  8
St
 10
146.875
 20
-65.0
 70
     8
  0
VERTEX
  8
St
 10
146.875
 20
-64.975
 70
     8
  0
VERTEX
  8
St
 10
146.875
 20
-64.975
 70
     8
  0
VERTEX
  8
St
 10
146.875
 20
-64.975
 70
     8
  0
VERTEX
  8
St
 10
146.875
 20
-64.95
 70
     8
  0
VERTEX
  8
St
 10
146.9
 20
-64.95
 70
     8
  0
VERTEX
  8
St
 10
146.9
 20
-64.925
 70
     8
  0
VERTEX
  8
St
 10
146.9
 20
-64.925
 70
     8
  0
VERTEX
  8
St
 10
146.9
 20
-64.9
 70
     8
  0
VERTEX
  8
St
 10
146.925
 20
-64.9
 70
     8
  0
VERTEX
  8
St
 10
146.925
 20
-64.875
 70
     8
  0
VERTEX
  8
St
 10
146.925
 20
-64.875
 70
     8
  0
VERTEX
  8
St
 10
146.925
 20
-64.875
 70
     8
  0
VERTEX
  8
St
 10
146.95
 20
-64.85
 70
     8
  0
VERTEX
  8
St
 10
146.95
 20
-64.85
 70
     8
  0
VERTEX
  8
St
 10
146.95
 20
-64.825
 70
     8
  0
VERTEX
  8
St
 10
146.95
 20
-64.825
 70
     8
  0
VERTEX
  8
St
 10
146.975
 20
-64.825
 70
     8
  0
VERTEX
  8
St
 10
146.975
 20
-64.8
 70
     8
  0
VERTEX
  8
St
 10
146.975
 20
-64.8
 70
     8
  0
VERTEX
  8
St
 10
146.975
 20
-64.775
 70
     8
  0
VERTEX
  8
St
 10
147.0
 20
-64.775
 70
     8
  0
VERTEX
  8
St
 10
147.0
 20
-64.75
 70
     8
  0
VERTEX
  8
St
 10
147.0
 20
-64.75
 70
     8
  0
VERTEX
  8
St
 10
147.0
 20
-64.75
 70
     8
  0
VERTEX
  8
St
 10
147.025
 20
-64.725
 70
     8
  0
VERTEX
  8
St
 10
147.025
 20
-64.725
 70
     8
  0
VERTEX
  8
St
 10
147.025
 20
-64.725
 70
     8
  0
VERTEX
  8
St
 10
147.05
 20
-64.7
 70
     8
  0
VERTEX
  8
St
 10
147.05
 20
-64.7
 70
     8
  0
VERTEX
  8
St
 10
147.05
 20
-64.7
 70
     8
  0
VERTEX
  8
St
 10
147.05
 20
-64.675
 70
     8
  0
VERTEX
  8
St
 10
147.075
 20
-64.675
 70
     8
  0
VERTEX
  8
St
 10
147.075
 20
-64.65
 70
     8
  0
VERTEX
  8
St
 10
147.075
 20
-64.65
 70
     8
  0
VERTEX
  8
St
 10
147.1
 20
-64.65
 70
     8
  0
VERTEX
  8
St
 10
147.1
 20
-64.65
 70
     8
  0
VERTEX
  8
St
 10
147.1
 20
-64.625
 70
     8
  0
VERTEX
  8
St
 10
147.1
 20
-64.625
 70
     8
  0
VERTEX
  8
St
 10
147.125
 20
-64.625
 70
     8
  0
VERTEX
  8
St
 10
147.125
 20
-64.6
 70
     8
  0
VERTEX
  8
St
 10
147.125
 20
-64.6
 70
     8
  0
VERTEX
  8
St
 10
147.125
 20
-64.6
 70
     8
  0
VERTEX
  8
St
 10
147.15
 20
-64.6
 70
     8
  0
VERTEX
  8
St
 10
147.15
 20
-64.575
 70
     8
  0
VERTEX
  8
St
 10
147.15
 20
-64.575
 70
     8
  0
VERTEX
  8
St
 10
147.175
 20
-64.575
 70
     8
  0
VERTEX
  8
St
 10
147.175
 20
-64.575
 70
     8
  0
VERTEX
  8
St
 10
147.175
 20
-64.55
 70
     8
  0
VERTEX
  8
St
 10
147.175
 20
-64.55
 70
     8
  0
VERTEX
  8
St
 10
147.2
 20
-64.55
 70
     8
  0
VERTEX
  8
St
 10
147.2
 20
-64.55
 70
     8
  0
VERTEX
  8
St
 10
147.2
 20
-64.55
 70
     8
  0
VERTEX
  8
St
 10
147.2
 20
-64.525
 70
     8
  0
VERTEX
  8
St
 10
147.225
 20
-64.525
 70
     8
  0
VERTEX
  8
St
 10
147.225
 20
-64.525
 70
     8
  0
VERTEX
  8
St
 10
147.225
 20
-64.525
 70
     8
  0
VERTEX
  8
St
 10
147.225
 20
-64.525
 70
     8
  0
VERTEX
  8
St
 10
147.25
 20
-64.525
 70
     8
  0
VERTEX
  8
St
 10
147.25
 20
-64.525
 70
     8
  0
VERTEX
  8
St
 10
147.25
 20
-64.525
 70
     8
  0
VERTEX
  8
St
 10
147.25
 20
-64.525
 70
     8
  0
VERTEX
  8
St
 10
147.275
 20
-64.525
 70
     8
  0
VERTEX
  8
St
 10
147.275
 20
-64.525
 70
     8
  0
VERTEX
  8
St
 10
147.275
 20
-64.5
 70
     8
  0
VERTEX
  8
St
 10
147.275
 20
-64.5
 70
     8
  0
VERTEX
  8
St
 10
147.3
 20
-64.5
 70
     8
  0
VERTEX
  8
St
 10
147.3
 20
-64.5
 70
     8
  0
VERTEX
  8
St
 10
147.3
 20
-64.5
 70
     8
  0
VERTEX
  8
St
 10
147.3
 20
-64.525
 70
     8
  0
VERTEX
  8
St
 10
147.3
 20
-64.525
 70
     8
  0
VERTEX
  8
St
 10
147.325
 20
-64.525
 70
     8
  0
VERTEX
  8
St
 10
147.325
 20
-64.525
 70
     8
  0
VERTEX
  8
St
 10
147.325
 20
-64.525
 70
     8
  0
VERTEX
  8
St
 10
147.325
 20
-64.525
 70
     8
  0
VERTEX
  8
St
 10
147.325
 20
-64.525
 70
     8
  0
VERTEX
  8
St
 10
147.35
 20
-64.525
 70
     8
  0
VERTEX
  8
St
 10
147.35
 20
-64.525
 70
     8
  0
VERTEX
  8
St
 10
147.35
 20
-64.525
 70
     8
  0
VERTEX
  8
St
 10
147.35
 20
-64.55
 70
     8
  0
VERTEX
  8
St
 10
147.35
 20
-64.55
 70
     8
  0
VERTEX
  8
St
 10
147.375
 20
-64.55
 70
     8
  0
VERTEX
  8
St
 10
147.375
 20
-64.55
 70
     8
  0
VERTEX
  8
St
 10
147.375
 20
-64.55
 70
     8
  0
VERTEX
  8
St
 10
147.375
 20
-64.575
 70
     8
  0
VERTEX
  8
St
 10
147.375
 20
-64.575
 70
     8
  0
VERTEX
  8
St
 10
147.375
 20
-64.575
 70
     8
  0
VERTEX
  8
St
 10
147.375
 20
-64.575
 70
     8
  0
VERTEX
  8
St
 10
147.4
 20
-64.6
 70
     8
  0
VERTEX
  8
St
 10
147.4
 20
-64.6
 70
     8
  0
VERTEX
  8
St
 10
147.4
 20
-64.6
 70
     8
  0
VERTEX
  8
St
 10
147.4
 20
-64.6
 70
     8
  0
VERTEX
  8
St
 10
147.4
 20
-64.625
 70
     8
  0
VERTEX
  8
St
 10
147.4
 20
-64.625
 70
     8
  0
VERTEX
  8
St
 10
147.4
 20
-64.625
 70
     8
  0
VERTEX
  8
St
 10
147.4
 20
-64.65
 70
     8
  0
VERTEX
  8
St
 10
147.425
 20
-64.65
 70
     8
  0
VERTEX
  8
St
 10
147.425
 20
-64.65
 70
     8
  0
VERTEX
  8
St
 10
147.425
 20
-64.675
 70
     8
  0
VERTEX
  8
St
 10
147.425
 20
-64.675
 70
     8
  0
VERTEX
  8
St
 10
147.425
 20
-64.675
 70
     8
  0
VERTEX
  8
St
 10
147.425
 20
-64.7
 70
     8
  0
VERTEX
  8
St
 10
147.425
 20
-64.7
 70
     8
  0
VERTEX
  8
St
 10
147.425
 20
-64.725
 70
     8
  0
VERTEX
  8
St
 10
147.425
 20
-64.725
 70
     8
  0
VERTEX
  8
St
 10
147.425
 20
-64.725
 70
     8
  0
VERTEX
  8
St
 10
147.425
 20
-64.75
 70
     8
  0
VERTEX
  8
St
 10
147.45
 20
-64.75
 70
     8
  0
VERTEX
  8
St
 10
147.45
 20
-64.775
 70
     8
  0
VERTEX
  8
St
 10
147.45
 20
-64.775
 70
     8
  0
VERTEX
  8
St
 10
147.45
 20
-64.775
 70
     8
  0
VERTEX
  8
St
 10
147.45
 20
-64.8
 70
     8
  0
VERTEX
  8
St
 10
147.45
 20
-64.8
 70
     8
  0
VERTEX
  8
St
 10
147.45
 20
-64.825
 70
     8
  0
VERTEX
  8
St
 10
147.45
 20
-64.825
 70
     8
  0
VERTEX
  8
St
 10
147.45
 20
-64.85
 70
     8
  0
VERTEX
  8
St
 10
147.45
 20
-64.85
 70
     8
  0
VERTEX
  8
St
 10
147.45
 20
-64.875
 70
     8
  0
VERTEX
  8
St
 10
147.45
 20
-64.875
 70
     8
  0
VERTEX
  8
St
 10
147.45
 20
-64.875
 70
     8
  0
VERTEX
  8
St
 10
147.45
 20
-64.9
 70
     8
  0
VERTEX
  8
St
 10
147.45
 20
-64.9
 70
     8
  0
VERTEX
  8
St
 10
147.45
 20
-64.925
 70
     8
  0
VERTEX
  8
St
 10
147.45
 20
-64.925
 70
     8
  0
VERTEX
  8
St
 10
147.45
 20
-64.95
 70
     8
  0
VERTEX
  8
St
 10
147.45
 20
-64.95
 70
     8
  0
VERTEX
  8
St
 10
147.45
 20
-64.975
 70
     8
  0
VERTEX
  8
St
 10
147.45
 20
-64.975
 70
     8
  0
VERTEX
  8
St
 10
147.45
 20
-65.0
 70
     8
  0
VERTEX
  8
St
 10
147.45
 20
-65.0
 70
     8
  0
VERTEX
  8
St
 10
147.45
 20
-65.025
 70
     8
  0
VERTEX
  8
St
 10
147.45
 20
-65.025
 70
     8
  0
VERTEX
  8
St
 10
147.45
 20
-65.05
 70
     8
  0
VERTEX
  8
St
 10
147.45
 20
-65.05
 70
     8
  0
VERTEX
  8
St
 10
147.45
 20
-65.075
 70
     8
  0
VERTEX
  8
St
 10
147.45
 20
-65.075
 70
     8
  0
VERTEX
  8
St
 10
147.45
 20
-65.1
 70
     8
  0
VERTEX
  8
St
 10
147.45
 20
-65.1
 70
     8
  0
VERTEX
  8
St
 10
147.45
 20
-65.125
 70
     8
  0
VERTEX
  8
St
 10
147.45
 20
-65.15
 70
     8
  0
VERTEX
  8
St
 10
147.425
 20
-65.15
 70
     8
  0
VERTEX
  8
St
 10
147.425
 20
-65.175
 70
     8
  0
VERTEX
  8
St
 10
147.425
 20
-65.175
 70
     8
  0
VERTEX
  8
St
 10
147.425
 20
-65.2
 70
     8
  0
VERTEX
  8
St
 10
147.425
 20
-65.2
 70
     8
  0
VERTEX
  8
St
 10
147.425
 20
-65.225
 70
     8
  0
VERTEX
  8
St
 10
147.425
 20
-65.225
 70
     8
  0
VERTEX
  8
St
 10
147.425
 20
-65.25
 70
     8
  0
VERTEX
  8
St
 10
147.425
 20
-65.25
 70
     8
  0
VERTEX
  8
St
 10
147.425
 20
-65.275
 70
     8
  0
VERTEX
  8
St
 10
147.425
 20
-65.275
 70
     8
  0
VERTEX
  8
St
 10
147.4
 20
-65.3
 70
     8
  0
VERTEX
  8
St
 10
147.4
 20
-65.3
 70
     8
  0
VERTEX
  8
St
 10
147.4
 20
-65.325
 70
     8
  0
VERTEX
  8
St
 10
147.4
 20
-65.325
 70
     8
  0
VERTEX
  8
St
 10
147.4
 20
-65.35
 70
     8
  0
VERTEX
  8
St
 10
147.4
 20
-65.35
 70
     8
  0
VERTEX
  8
St
 10
147.4
 20
-65.375
 70
     8
  0
VERTEX
  8
St
 10
147.4
 20
-65.375
 70
     8
  0
VERTEX
  8
St
 10
147.375
 20
-65.4
 70
     8
  0
VERTEX
  8
St
 10
147.375
 20
-65.4
 70
     8
  0
VERTEX
  8
St
 10
147.375
 20
-65.4
 70
     8
  0
VERTEX
  8
St
 10
147.375
 20
-65.425
 70
     8
  0
VERTEX
  8
St
 10
147.375
 20
-65.425
 70
     8
  0
VERTEX
  8
St
 10
147.375
 20
-65.45
 70
     8
  0
VERTEX
  8
St
 10
147.35
 20
-65.45
 70
     8
  0
VERTEX
  8
St
 10
147.35
 20
-65.475
 70
     8
  0
VERTEX
  8
St
 10
147.35
 20
-65.475
 70
     8
  0
VERTEX
  8
St
 10
147.35
 20
-65.5
 70
     8
  0
VERTEX
  8
St
 10
147.35
 20
-65.5
 70
     8
  0
VERTEX
  8
St
 10
147.325
 20
-65.5
 70
     8
  0
VERTEX
  8
St
 10
147.325
 20
-65.525
 70
     8
  0
VERTEX
  8
St
 10
147.325
 20
-65.525
 70
     8
  0
VERTEX
  8
St
 10
147.325
 20
-65.55
 70
     8
  0
VERTEX
  8
St
 10
147.325
 20
-65.55
 70
     8
  0
VERTEX
  8
St
 10
147.3
 20
-65.575
 70
     8
  0
VERTEX
  8
St
 10
147.3
 20
-65.575
 70
     8
  0
VERTEX
  8
St
 10
147.3
 20
-65.575
 70
     8
  0
VERTEX
  8
St
 10
147.3
 20
-65.6
 70
     8
  0
VERTEX
  8
St
 10
147.275
 20
-65.6
 70
     8
  0
VERTEX
  8
St
 10
147.275
 20
-65.6
 70
     8
  0
VERTEX
  8
St
 10
147.275
 20
-65.625
 70
     8
  0
VERTEX
  8
St
 10
147.275
 20
-65.625
 70
     8
  0
VERTEX
  8
St
 10
147.25
 20
-65.625
 70
     8
  0
VERTEX
  8
St
 10
147.25
 20
-65.65
 70
     8
  0
VERTEX
  8
St
 10
147.25
 20
-65.65
 70
     8
  0
VERTEX
  8
St
 10
147.25
 20
-65.65
 70
     8
  0
VERTEX
  8
St
 10
147.225
 20
-65.675
 70
     8
  0
VERTEX
  8
St
 10
147.225
 20
-65.675
 70
     8
  0
VERTEX
  8
St
 10
147.225
 20
-65.675
 70
     8
  0
VERTEX
  8
St
 10
147.225
 20
-65.7
 70
     8
  0
VERTEX
  8
St
 10
147.2
 20
-65.7
 70
     8
  0
VERTEX
  8
St
 10
147.2
 20
-65.7
 70
     8
  0
VERTEX
  8
St
 10
147.2
 20
-65.7
 70
     8
  0
VERTEX
  8
St
 10
147.175
 20
-65.725
 70
     8
  0
VERTEX
  8
St
 10
147.175
 20
-65.725
 70
     8
  0
VERTEX
  8
St
 10
147.175
 20
-65.725
 70
     8
  0
VERTEX
  8
St
 10
147.15
 20
-65.725
 70
     8
  0
VERTEX
  8
St
 10
147.15
 20
-65.75
 70
     8
  0
VERTEX
  8
St
 10
147.15
 20
-65.75
 70
     8
  0
VERTEX
  8
St
 10
147.125
 20
-65.75
 70
     8
  0
VERTEX
  8
St
 10
147.125
 20
-65.75
 70
     8
  0
VERTEX
  8
St
 10
147.125
 20
-65.75
 70
     8
  0
VERTEX
  8
St
 10
147.125
 20
-65.775
 70
     8
  0
VERTEX
  8
St
 10
147.1
 20
-65.775
 70
     8
  0
VERTEX
  8
St
 10
147.1
 20
-65.775
 70
     8
  0
VERTEX
  8
St
 10
147.075
 20
-65.775
 70
     8
  0
VERTEX
  8
St
 10
147.075
 20
-65.775
 70
     8
  0
VERTEX
  8
St
 10
147.075
 20
-65.8
 70
     8
  0
VERTEX
  8
St
 10
147.05
 20
-65.8
 70
     8
  0
VERTEX
  8
St
 10
147.05
 20
-65.8
 70
     8
  0
VERTEX
  8
St
 10
147.05
 20
-65.8
 70
     8
  0
VERTEX
  8
St
 10
147.025
 20
-65.8
 70
     8
  0
VERTEX
  8
St
 10
147.025
 20
-65.8
 70
     8
  0
VERTEX
  8
St
 10
147.025
 20
-65.825
 70
     8
  0
VERTEX
  8
St
 10
147.0
 20
-65.825
 70
     8
  0
VERTEX
  8
St
 10
147.0
 20
-65.825
 70
     8
  0
VERTEX
  8
St
 10
147.0
 20
-65.825
 70
     8
  0
VERTEX
  8
St
 10
146.975
 20
-65.825
 70
     8
  0
VERTEX
  8
St
 10
146.975
 20
-65.825
 70
     8
  0
VERTEX
  8
St
 10
146.95
 20
-65.825
 70
     8
  0
VERTEX
  8
St
 10
146.95
 20
-65.825
 70
     8
  0
VERTEX
  8
St
 10
146.95
 20
-65.85
 70
     8
  0
VERTEX
  8
St
 10
146.925
 20
-65.85
 70
     8
  0
VERTEX
  8
St
 10
146.925
 20
-65.85
 70
     8
  0
VERTEX
  8
St
 10
146.925
 20
-65.85
 70
     8
  0
VERTEX
  8
St
 10
146.9
 20
-65.85
 70
     8
  0
VERTEX
  8
St
 10
146.9
 20
-65.85
 70
     8
  0
VERTEX
  8
St
 10
146.875
 20
-65.85
 70
     8
  0
VERTEX
  8
St
 10
146.875
 20
-65.85
 70
     8
  0
VERTEX
  8
St
 10
146.875
 20
-65.85
 70
     8
  0
VERTEX
  8
St
 10
146.85
 20
-65.875
 70
     8
  0
VERTEX
  8
St
 10
146.85
 20
-65.875
 70
     8
  0
VERTEX
  8
St
 10
146.825
 20
-65.875
 70
     8
  0
VERTEX
  8
St
 10
146.825
 20
-65.875
 70
     8
  0
VERTEX
  8
St
 10
146.825
 20
-65.875
 70
     8
  0
VERTEX
  8
St
 10
146.8
 20
-65.875
 70
     8
  0
VERTEX
  8
St
 10
146.8
 20
-65.875
 70
     8
  0
VERTEX
  8
St
 10
146.775
 20
-65.875
 70
     8
  0
VERTEX
  8
St
 10
146.775
 20
-65.875
 70
     8
  0
VERTEX
  8
St
 10
146.775
 20
-65.875
 70
     8
  0
VERTEX
  8
St
 10
146.75
 20
-65.875
 70
     8
  0
VERTEX
  8
St
 10
146.75
 20
-65.9
 70
     8
  0
VERTEX
  8
St
 10
146.725
 20
-65.9
 70
     8
  0
VERTEX
  8
St
 10
146.725
 20
-65.9
 70
     8
  0
VERTEX
  8
St
 10
146.725
 20
-65.9
 70
     8
  0
VERTEX
  8
St
 10
146.7
 20
-65.9
 70
     8
  0
VERTEX
  8
St
 10
146.7
 20
-65.9
 70
     8
  0
VERTEX
  8
St
 10
146.675
 20
-65.9
 70
     8
  0
SEQEND
  0
ENDBLK
  0
BLOCK
  2
*DIM_0077
 70
    65
 10
0.0
 20
0.0
  0
LINE
  8
寸法
  6
CONTINUOUS
 10
105.598048
 20
-47.209043
 11
95.912903
 21
-47.209043
  0
LINE
  8
寸法
  6
CONTINUOUS
 10
123.931382
 20
-67.209043
 11
95.912903
 21
-67.209043
  0
LINE
  8
寸法
  6
CONTINUOUS
 10
95.912903
 20
-47.209043
 11
95.912903
 21
-67.209043
  0
POINT
  8
寸法
 10
95.912903
 20
-47.209043
  0
POINT
  8
寸法
 10
95.912903
 20
-67.209043
  0
TEXT
  7
TextStyle03
  8
寸法
  6
CONTINUOUS
 10
95.525
 20
-58.81875
  1
60
 40
3.0
 50
90.0
 72
     5
 11
95.525
 21
-55.63125
  0
ENDBLK
  0
BLOCK
  2
*GRP_0078
 70
    65
 10
0.0
 20
0.0
  0
LINE
  8
型材断面
  6
DOT
 10
119.931382
 20
6.289768
 11
119.931382
 21
5.789768
  0
LINE
  8
型材断面
  6
DOT
 10
111.597915
 20
6.289768
 11
111.597915
 21
5.789768
  0
LINE
  8
型材断面
  6
DOT
 10
111.597915
 20
6.289768
 11
119.931382
 21
6.289768
  0
LINE
  8
型材断面
  6
DOT
 10
111.597915
 20
5.789768
 11
119.931382
 21
5.789768
  0
ENDBLK
  0
BLOCK
  2
*GRP_0079
 70
    65
 10
0.0
 20
0.0
  0
INSERT
  2
*GRP_0081
  8
ゴム等
  6
DOT
 10
0.0
 20
0.0
  0
LINE
  8
ゴム等
  6
DOT
 10
114.93124
 20
5.789768
 11
113.365347
 21
4.223927
  0
LINE
  8
ゴム等
  6
DOT
 10
114.779548
 20
4.223927
 11
114.93124
 21
4.37561
  0
LINE
  8
ゴム等
  6
DOT
 10
114.308148
 20
4.223927
 11
114.93124
 21
4.846992
  0
LINE
  8
ゴム等
  6
DOT
 10
113.836747
 20
4.223927
 11
114.93124
 21
5.318385
  0
LINE
  8
ゴム等
  6
DOT
 10
112.893947
 20
4.223927
 11
114.45984
 21
5.789768
  0
LINE
  8
ゴム等
  6
DOT
 10
112.422547
 20
4.223927
 11
113.988433
 21
5.789768
  0
LINE
  8
ゴム等
  6
DOT
 10
111.951147
 20
4.223927
 11
113.517032
 21
5.789768
  0
LINE
  8
ゴム等
  6
DOT
 10
111.597915
 20
4.342128
 11
113.045598
 21
5.789768
  0
LINE
  8
ゴム等
  6
DOT
 10
111.597915
 20
4.813517
 11
112.574198
 21
5.789768
  0
LINE
  8
ゴム等
  6
DOT
 10
111.597915
 20
5.284902
 11
112.102798
 21
5.789768
  0
ENDBLK
  0
BLOCK
  2
*GRP_0080
 70
    65
 10
0.0
 20
0.0
  0
LINE
  8
ボルト／ビス
  6
DOT
 62
    64
 10
118.93138
 20
5.689768
 11
117.598048
 21
5.689768
  0
LINE
  8
ボルト／ビス
  6
DOT
 62
    64
 10
118.93138
 20
3.789768
 11
118.764715
 21
3.623098
  0
LINE
  8
ボルト／ビス
  6
DOT
 62
    64
 10
117.598048
 20
3.789768
 11
117.764715
 21
3.623098
  0
LINE
  8
ボルト／ビス
  6
DOT
 62
    64
 10
118.764715
 20
3.623098
 11
117.764715
 21
3.623098
  0
LINE
  8
ボルト／ビス
  6
DOT
 62
    64
 10
118.93138
 20
3.789768
 11
117.598048
 21
3.789768
  0
LINE
  8
ボルト／ビス
  6
DOT
 62
    64
 10
118.764715
 20
5.689768
 11
118.764715
 21
3.623098
  0
LINE
  8
ボルト／ビス
  6
DOT
 62
    64
 10
117.764715
 20
5.689768
 11
117.764715
 21
3.623098
  0
LINE
  8
ボルト／ビス
  6
DOT
 62
    64
 10
117.598048
 20
5.689768
 11
117.598048
 21
3.789768
  0
LINE
  8
ボルト／ビス
  6
DOT
 62
    64
 10
118.93138
 20
5.689768
 11
118.93138
 21
3.789768
  0
LINE
  8
ボルト／ビス
  6
DOT
 62
    64
 10
118.264715
 20
7.289768
 11
118.264715
 21
2.623098
  0
LINE
  8
ボルト／ビス
  6
DOT
 62
    64
 10
119.264715
 20
6.289768
 11
118.93138
 21
5.689768
  0
LINE
  8
ボルト／ビス
  6
DOT
 62
    64
 10
119.264715
 20
6.289768
 11
117.264715
 21
6.289768
  0
LINE
  8
ボルト／ビス
  6
DOT
 62
    64
 10
117.264715
 20
6.289768
 11
117.598048
 21
5.689768
  0
ENDBLK
  0
BLOCK
  2
*GRP_0081
 70
    65
 10
0.0
 20
0.0
  0
LINE
  8
ゴム等
  6
DOT
 10
114.93124
 20
5.789768
 11
114.93124
 21
4.223927
  0
LINE
  8
ゴム等
  6
DOT
 10
111.597915
 20
5.789768
 11
111.597915
 21
4.223927
  0
LINE
  8
ゴム等
  6
DOT
 10
111.597915
 20
5.789768
 11
114.93124
 21
5.789768
  0
LINE
  8
ゴム等
  6
DOT
 10
111.597915
 20
4.223927
 11
114.93124
 21
4.223927
  0
ENDBLK
  0
BLOCK
  2
*GRP_0082
 70
    65
 10
0.0
 20
0.0
  0
LINE
  8
型材断面
  6
CONTINUOUS
 10
111.597915
 20
1.45726
 11
112.097915
 21
1.45726
  0
LINE
  8
型材断面
  6
CONTINUOUS
 10
112.097915
 20
1.45726
 11
112.097915
 21
-0.709415
  0
LINE
  8
型材断面
  6
CONTINUOUS
 10
111.597915
 20
1.45726
 11
111.597915
 21
-0.709415
  0
ARC
  8
型材断面
  6
CONTINUOUS
 10
112.097914
 20
-0.709414
 40
0.5
 50
180.0
 51
270.0
  0
LINE
  8
型材断面
  6
CONTINUOUS
 10
112.097915
 20
-0.709415
 11
119.931382
 21
-0.709415
  0
LINE
  8
型材断面
  6
CONTINUOUS
 62
    47
 10
112.097915
 20
-1.209415
 11
119.931382
 21
-1.209415
  0
ARC
  8
型材断面
  6
CONTINUOUS
 10
119.931383
 20
-0.709414
 40
0.5
 50
270.0
 51
360.0
  0
LINE
  8
型材断面
  6
CONTINUOUS
 10
120.431382
 20
-0.709415
 11
120.431382
 21
4.1231
  0
LINE
  8
型材断面
  6
CONTINUOUS
 10
119.931382
 20
-0.709415
 11
119.931382
 21
4.1231
  0
LINE
  8
型材断面
  6
CONTINUOUS
 10
119.931382
 20
4.1231
 11
120.431382
 21
4.1231
  0
ENDBLK
  0
BLOCK
  2
*GRP_0083
 70
    65
 10
0.0
 20
0.0
  0
LINE
  8
型材断面
  6
DOT
 10
119.431382
 20
5.289768
 11
119.431382
 21
0.789768
  0
LINE
  8
型材断面
  6
DOT
 10
119.431382
 20
0.789768
 11
119.931382
 21
0.789768
  0
LINE
  8
型材断面
  6
DOT
 10
119.431382
 20
5.289768
 11
116.59805
 21
5.289768
  0
LINE
  8
型材断面
  6
DOT
 10
116.59805
 20
5.289768
 11
116.59805
 21
5.789768
  0
LINE
  8
型材断面
  6
DOT
 10
119.431382
 20
5.789768
 11
116.59805
 21
5.789768
  0
LINE
  8
型材断面
  6
DOT
 10
119.931382
 20
5.289768
 11
119.931382
 21
0.789768
  0
ARC
  8
型材断面
  6
DOT
 10
119.431383
 20
5.289766
 40
0.5
 50
0.0
 51
90.0
  0
ENDBLK
  0
BLOCK
  2
*GRP_0084
 70
    65
 10
0.0
 20
0.0
  0
LINE
  8
ボルト／ビス
  6
CONTINUOUS
 62
    64
 10
120.031382
 20
1.789768
 11
120.031382
 21
3.1231
  0
LINE
  8
ボルト／ビス
  6
CONTINUOUS
 62
    64
 10
122.59805
 20
1.789768
 11
122.764715
 21
1.956432
  0
LINE
  8
ボルト／ビス
  6
CONTINUOUS
 62
    64
 10
122.59805
 20
3.1231
 11
122.764715
 21
2.956432
  0
LINE
  8
ボルト／ビス
  6
CONTINUOUS
 62
    64
 10
122.764715
 20
1.956432
 11
122.764715
 21
2.956432
  0
LINE
  8
ボルト／ビス
  6
CONTINUOUS
 62
    64
 10
122.59805
 20
1.789768
 11
122.59805
 21
3.1231
  0
LINE
  8
ボルト／ビス
  6
CONTINUOUS
 62
    64
 10
120.031382
 20
2.956432
 11
122.764715
 21
2.956432
  0
LINE
  8
ボルト／ビス
  6
CONTINUOUS
 62
    64
 10
120.031382
 20
1.956432
 11
122.764715
 21
1.956432
  0
LINE
  8
ボルト／ビス
  6
CONTINUOUS
 62
    64
 10
120.031382
 20
1.789768
 11
122.59805
 21
1.789768
  0
LINE
  8
ボルト／ビス
  6
CONTINUOUS
 62
    64
 10
120.031382
 20
3.1231
 11
122.59805
 21
3.1231
  0
LINE
  8
ボルト／ビス
  6
DASHDOT
 62
    64
 10
118.431382
 20
2.456432
 11
123.764715
 21
2.456432
  0
LINE
  8
ボルト／ビス
  6
DOT
 62
    64
 10
119.431382
 20
1.456432
 11
120.031382
 21
1.789768
  0
LINE
  8
ボルト／ビス
  6
DOT
 62
    64
 10
119.431382
 20
1.456432
 11
119.431382
 21
3.456432
  0
LINE
  8
ボルト／ビス
  6
DOT
 62
    64
 10
119.431382
 20
3.456432
 11
120.031382
 21
3.1231
  0
ENDBLK
  0
BLOCK
  2
*GRP_0085
 70
    65
 10
0.0
 20
0.0
  0
LINE
  8
St
  6
CONTINUOUS
 10
125.93138
 20
5.456435
 11
124.864715
 21
5.456435
  0
LINE
  8
St
  6
CONTINUOUS
 10
124.864715
 20
5.456435
 11
124.864715
 21
-1.542748
  0
LINE
  8
St
  6
CONTINUOUS
 10
121.49805
 20
-2.609415
 11
121.49805
 21
-19.142748
  0
LINE
  8
St
  6
CONTINUOUS
 10
121.49805
 20
-19.142748
 11
125.93138
 21
-19.142748
  0
LINE
  8
St
  6
CONTINUOUS
 10
125.93138
 20
-19.142748
 11
125.93138
 21
-20.209415
  0
LINE
  8
St
  6
CONTINUOUS
 10
125.93138
 20
5.456435
 11
125.93138
 21
-1.542748
  0
LINE
  8
St
  6
CONTINUOUS
 10
124.864712
 20
-2.609415
 11
121.49805
 21
-2.609415
  0
ARC
  8
St
  6
CONTINUOUS
 10
124.864713
 20
-1.54275
 40
1.066667
 50
-90.0
 51
0.0
  0
LINE
  8
St
  6
CONTINUOUS
 10
124.864715
 20
-1.542748
 11
121.49805
 21
-1.542748
  0
ARC
  8
St
  6
CONTINUOUS
 10
121.498047
 20
-2.609416
 40
1.066667
 50
90.0
 51
180.0
  0
LINE
  8
St
  6
CONTINUOUS
 10
120.431382
 20
-19.142748
 11
120.431382
 21
-2.609415
  0
LINE
  8
St
  6
CONTINUOUS
 10
121.49805
 20
-20.209415
 11
125.93138
 21
-20.209415
  0
ARC
  8
St
  6
CONTINUOUS
 10
121.498047
 20
-19.14275
 40
1.066667
 50
180.0
 51
270.0
  0
LINE
  8
St
  6
CONTINUOUS
 10
124.864715
 20
3.015202
 11
125.93138
 21
4.081868
  0
LINE
  8
St
  6
CONTINUOUS
 10
124.864715
 20
2.779502
 11
125.93138
 21
3.846168
  0
LINE
  8
St
  6
CONTINUOUS
 10
120.431382
 20
-6.251465
 11
121.49805
 21
-5.184797
  0
LINE
  8
St
  6
CONTINUOUS
 10
121.906765
 20
-2.609415
 11
122.973432
 21
-1.542748
  0
LINE
  8
St
  6
CONTINUOUS
 10
120.431382
 20
-6.487165
 11
121.49805
 21
-5.420497
  0
LINE
  8
St
  6
CONTINUOUS
 10
122.142465
 20
-2.609415
 11
123.209132
 21
-1.542748
  0
LINE
  8
St
  6
CONTINUOUS
 10
120.431382
 20
-16.41745
 11
121.49805
 21
-15.350782
  0
LINE
  8
St
  6
CONTINUOUS
 10
120.431382
 20
-16.65315
 11
121.49805
 21
-15.586482
  0
LINE
  8
St
  6
CONTINUOUS
 10
121.906765
 20
-20.209415
 11
122.973432
 21
-19.142748
  0
LINE
  8
St
  6
CONTINUOUS
 10
122.142465
 20
-20.209415
 11
123.209132
 21
-19.142748
  0
ENDBLK
  0
BLOCK
  2
*GRP_0086
 70
    65
 10
0.0
 20
0.0
  0
LINE
  8
St
  6
CONTINUOUS
 10
125.93138
 20
-23.542748
 11
125.93138
 21
-24.609415
  0
LINE
  8
St
  6
CONTINUOUS
 10
125.93138
 20
-24.609415
 11
121.49805
 21
-24.609415
  0
LINE
  8
St
  6
CONTINUOUS
 10
121.49805
 20
-24.609415
 11
121.49805
 21
-45.142375
  0
LINE
  8
St
  6
CONTINUOUS
 10
121.49805
 20
-45.142375
 11
125.93138
 21
-45.142375
  0
LINE
  8
St
  6
CONTINUOUS
 10
125.93138
 20
-45.142375
 11
125.93138
 21
-46.209043
  0
LINE
  8
St
  6
CONTINUOUS
 10
125.93138
 20
-23.542748
 11
121.49805
 21
-23.542748
  0
ARC
  8
St
  6
CONTINUOUS
 10
121.498047
 20
-24.609416
 40
1.066667
 50
90.0
 51
180.0
  0
LINE
  8
St
  6
CONTINUOUS
 10
120.431382
 20
-24.609415
 11
120.431382
 21
-45.142375
  0
LINE
  8
St
  6
CONTINUOUS
 10
121.49805
 20
-46.209043
 11
125.93138
 21
-46.209043
  0
ARC
  8
St
  6
CONTINUOUS
 10
121.498047
 20
-45.142377
 40
1.066667
 50
180.0
 51
270.0
  0
LINE
  8
St
  6
CONTINUOUS
 10
121.906765
 20
-46.209043
 11
122.973432
 21
-45.142375
  0
LINE
  8
St
  6
CONTINUOUS
 10
122.142465
 20
-46.209043
 11
123.209132
 21
-45.142375
  0
LINE
  8
St
  6
CONTINUOUS
 10
121.906765
 20
-24.609415
 11
122.973432
 21
-23.542748
  0
LINE
  8
St
  6
CONTINUOUS
 10
122.142465
 20
-24.609415
 11
123.209132
 21
-23.542748
  0
LINE
  8
St
  6
CONTINUOUS
 10
120.431382
 20
-30.379903
 11
121.49805
 21
-29.313235
  0
LINE
  8
St
  6
CONTINUOUS
 10
120.431382
 20
-30.615603
 11
121.49805
 21
-29.548935
  0
LINE
  8
St
  6
CONTINUOUS
 10
120.431382
 20
-42.045515
 11
121.49805
 21
-40.978848
  0
LINE
  8
St
  6
CONTINUOUS
 10
120.431382
 20
-42.281215
 11
121.49805
 21
-41.214548
  0
ENDBLK
  0
BLOCK
  2
*GRP_0087
 70
    65
 10
0.0
 20
0.0
  0
LINE
  8
ボルト／ビス
  6
CONTINUOUS
 62
    64
 10
124.264708
 20
-14.376083
 11
124.431375
 21
-14.542748
  0
LINE
  8
ボルト／ビス
  6
CONTINUOUS
 62
    64
 10
124.264708
 20
-16.042748
 11
124.431375
 21
-15.876083
  0
LINE
  8
ボルト／ビス
  6
CONTINUOUS
 62
    64
 10
118.531375
 20
-16.042748
 11
124.264708
 21
-16.042748
  0
LINE
  8
ボルト／ビス
  6
CONTINUOUS
 62
    64
 10
118.531375
 20
-15.876083
 11
124.431375
 21
-15.876083
  0
LINE
  8
ボルト／ビス
  6
CONTINUOUS
 62
    64
 10
124.431375
 20
-15.876083
 11
124.431375
 21
-14.542748
  0
LINE
  8
ボルト／ビス
  6
CONTINUOUS
 62
    64
 10
118.531375
 20
-14.542748
 11
124.431375
 21
-14.542748
  0
LINE
  8
ボルト／ビス
  6
CONTINUOUS
 62
    64
 10
118.531375
 20
-14.376083
 11
124.264708
 21
-14.376083
  0
LINE
  8
ボルト／ビス
  6
CONTINUOUS
 62
    64
 10
124.264708
 20
-16.042748
 11
124.264708
 21
-14.376083
  0
LINE
  8
ボルト／ビス
  6
DOT
 62
    64
 10
117.764708
 20
-13.876083
 11
118.531375
 21
-14.376083
  0
LINE
  8
ボルト／ビス
  6
DOT
 62
    64
 10
117.764708
 20
-16.542748
 11
118.531375
 21
-16.042748
  0
LINE
  8
ボルト／ビス
  6
DOT
 62
    64
 10
117.764708
 20
-13.876083
 11
117.764708
 21
-16.542748
  0
LINE
  8
ボルト／ビス
  6
DASHDOT
 62
    64
 10
116.96964
 20
-15.209415
 11
125.057863
 21
-15.209415
  0
LINE
  8
ボルト／ビス
  6
CONTINUOUS
 62
    64
 10
118.531375
 20
-14.376083
 11
118.531375
 21
-16.042748
  0
ENDBLK
  0
BLOCK
  2
*GRP_0088
 70
    65
 10
0.0
 20
0.0
  0
LINE
  8
ボルト／ビス
  6
CONTINUOUS
 62
    64
 10
124.264708
 20
-7.709415
 11
124.431375
 21
-7.87608
  0
LINE
  8
ボルト／ビス
  6
CONTINUOUS
 62
    64
 10
124.264708
 20
-9.37608
 11
124.431375
 21
-9.209415
  0
LINE
  8
ボルト／ビス
  6
CONTINUOUS
 62
    64
 10
118.531375
 20
-9.37608
 11
124.264708
 21
-9.37608
  0
LINE
  8
ボルト／ビス
  6
CONTINUOUS
 62
    64
 10
118.531375
 20
-9.209415
 11
124.431375
 21
-9.209415
  0
LINE
  8
ボルト／ビス
  6
CONTINUOUS
 62
    64
 10
124.431375
 20
-9.209415
 11
124.431375
 21
-7.87608
  0
LINE
  8
ボルト／ビス
  6
CONTINUOUS
 62
    64
 10
118.531375
 20
-7.87608
 11
124.431375
 21
-7.87608
  0
LINE
  8
ボルト／ビス
  6
CONTINUOUS
 62
    64
 10
118.531375
 20
-7.709415
 11
124.264708
 21
-7.709415
  0
LINE
  8
ボルト／ビス
  6
CONTINUOUS
 62
    64
 10
124.264708
 20
-9.37608
 11
124.264708
 21
-7.709415
  0
LINE
  8
ボルト／ビス
  6
DOT
 62
    64
 10
117.764708
 20
-7.209415
 11
118.531375
 21
-7.709415
  0
LINE
  8
ボルト／ビス
  6
DOT
 62
    64
 10
117.764708
 20
-9.87608
 11
118.531375
 21
-9.37608
  0
LINE
  8
ボルト／ビス
  6
DOT
 62
    64
 10
117.764708
 20
-7.209415
 11
117.764708
 21
-9.87608
  0
LINE
  8
ボルト／ビス
  6
DASHDOT
 62
    64
 10
116.96964
 20
-8.542748
 11
125.057863
 21
-8.542748
  0
LINE
  8
ボルト／ビス
  6
CONTINUOUS
 62
    64
 10
118.531375
 20
-7.709415
 11
118.531375
 21
-9.37608
  0
ENDBLK
  0
BLOCK
  2
*GRP_0089
 70
    65
 10
0.0
 20
0.0
  0
LINE
  8
ボルト／ビス
  6
CONTINUOUS
 62
    64
 10
124.264708
 20
-34.3757
 11
124.431375
 21
-34.542365
  0
LINE
  8
ボルト／ビス
  6
CONTINUOUS
 62
    64
 10
124.264708
 20
-36.042365
 11
124.431375
 21
-35.8757
  0
LINE
  8
ボルト／ビス
  6
CONTINUOUS
 62
    64
 10
118.531375
 20
-36.042365
 11
124.264708
 21
-36.042365
  0
LINE
  8
ボルト／ビス
  6
CONTINUOUS
 62
    64
 10
118.531375
 20
-35.8757
 11
124.431375
 21
-35.8757
  0
LINE
  8
ボルト／ビス
  6
CONTINUOUS
 62
    64
 10
124.431375
 20
-35.8757
 11
124.431375
 21
-34.542365
  0
LINE
  8
ボルト／ビス
  6
CONTINUOUS
 62
    64
 10
118.531375
 20
-34.542365
 11
124.431375
 21
-34.542365
  0
LINE
  8
ボルト／ビス
  6
CONTINUOUS
 62
    64
 10
118.531375
 20
-34.3757
 11
124.264708
 21
-34.3757
  0
LINE
  8
ボルト／ビス
  6
CONTINUOUS
 62
    64
 10
124.264708
 20
-36.042365
 11
124.264708
 21
-34.3757
  0
LINE
  8
ボルト／ビス
  6
DOT
 62
    64
 10
117.764708
 20
-33.8757
 11
118.531375
 21
-34.3757
  0
LINE
  8
ボルト／ビス
  6
DOT
 62
    64
 10
117.764708
 20
-36.542365
 11
118.531375
 21
-36.042365
  0
LINE
  8
ボルト／ビス
  6
DOT
 62
    64
 10
117.764708
 20
-33.8757
 11
117.764708
 21
-36.542365
  0
LINE
  8
ボルト／ビス
  6
DASHDOT
 62
    64
 10
116.96964
 20
-35.209033
 11
125.057863
 21
-35.209033
  0
LINE
  8
ボルト／ビス
  6
CONTINUOUS
 62
    64
 10
118.531375
 20
-34.3757
 11
118.531375
 21
-36.042365
  0
ENDBLK
  0
BLOCK
  2
*GRP_0090
 70
    65
 10
0.0
 20
0.0
  0
LINE
  8
ボルト／ビス
  6
CONTINUOUS
 62
    64
 10
124.264708
 20
-27.709033
 11
124.431375
 21
-27.875698
  0
LINE
  8
ボルト／ビス
  6
CONTINUOUS
 62
    64
 10
124.264708
 20
-29.375698
 11
124.431375
 21
-29.209033
  0
LINE
  8
ボルト／ビス
  6
CONTINUOUS
 62
    64
 10
118.531375
 20
-29.375698
 11
124.264708
 21
-29.375698
  0
LINE
  8
ボルト／ビス
  6
CONTINUOUS
 62
    64
 10
118.531375
 20
-29.209033
 11
124.431375
 21
-29.209033
  0
LINE
  8
ボルト／ビス
  6
CONTINUOUS
 62
    64
 10
124.431375
 20
-29.209033
 11
124.431375
 21
-27.875698
  0
LINE
  8
ボルト／ビス
  6
CONTINUOUS
 62
    64
 10
118.531375
 20
-27.875698
 11
124.431375
 21
-27.875698
  0
LINE
  8
ボルト／ビス
  6
CONTINUOUS
 62
    64
 10
118.531375
 20
-27.709033
 11
124.264708
 21
-27.709033
  0
LINE
  8
ボルト／ビス
  6
CONTINUOUS
 62
    64
 10
124.264708
 20
-29.375698
 11
124.264708
 21
-27.709033
  0
LINE
  8
ボルト／ビス
  6
DOT
 62
    64
 10
117.764708
 20
-27.209033
 11
118.531375
 21
-27.709033
  0
LINE
  8
ボルト／ビス
  6
DOT
 62
    64
 10
117.764708
 20
-29.875698
 11
118.531375
 21
-29.375698
  0
LINE
  8
ボルト／ビス
  6
DOT
 62
    64
 10
117.764708
 20
-27.209033
 11
117.764708
 21
-29.875698
  0
LINE
  8
ボルト／ビス
  6
DASHDOT
 62
    64
 10
116.96964
 20
-28.542365
 11
125.057863
 21
-28.542365
  0
LINE
  8
ボルト／ビス
  6
CONTINUOUS
 62
    64
 10
118.531375
 20
-27.709033
 11
118.531375
 21
-29.375698
  0
ENDBLK
  0
BLOCK
  2
*GRP_0091
 70
    65
 10
0.0
 20
0.0
  0
LINE
  8
別途部材
  6
CONTINUOUS
 10
116.931382
 20
-3.376073
 11
116.931382
 21
-18.042748
  0
ARC
  8
別途部材
  6
CONTINUOUS
 10
114.931385
 20
-3.376088
 40
2.0
 50
0.0
 51
90.0
  0
LINE
  8
別途部材
  6
CONTINUOUS
 10
112.931382
 20
-3.376073
 11
112.931382
 21
-18.042748
  0
ARC
  8
別途部材
  6
CONTINUOUS
 10
114.931385
 20
-3.376088
 40
2.0
 50
90.0
 51
180.0
  0
CIRCLE
  8
別途部材
  6
CONTINUOUS
 10
114.931382
 20
-3.376073
 40
1.0
  0
LINE
  8
別途部材
  6
CONTINUOUS
 10
115.931382
 20
-3.376073
 11
113.931382
 21
-3.376073
  0
LINE
  8
別途部材
  6
CONTINUOUS
 10
114.931382
 20
-2.376073
 11
114.931382
 21
-4.376073
  0
LINE
  8
別途部材
  6
CONTINUOUS
 10
116.931382
 20
-18.042748
 11
116.264708
 21
-18.042748
  0
LINE
  8
別途部材
  6
CONTINUOUS
 10
113.598042
 20
-18.042748
 11
112.931382
 21
-18.042748
  0
LINE
  8
別途部材
  6
CONTINUOUS
 10
116.264708
 20
-18.042748
 11
116.264708
 21
-5.376073
  0
LINE
  8
別途部材
  6
CONTINUOUS
 10
116.264708
 20
-5.376073
 11
113.598042
 21
-5.376073
  0
LINE
  8
別途部材
  6
CONTINUOUS
 10
113.598042
 20
-18.042748
 11
113.598042
 21
-5.376073
  0
ARC
  8
別途部材
  6
CONTINUOUS
 10
114.931385
 20
-17.889977
 40
0.847222
 50
10.38896
 51
169.61104
  0
LINE
  8
別途部材
  6
CONTINUOUS
 10
113.764708
 20
-18.042748
 11
114.098042
 21
-18.042748
  0
LINE
  8
別途部材
  6
CONTINUOUS
 10
116.098042
 20
-18.042748
 11
115.764708
 21
-18.042748
  0
CIRCLE
  8
別途部材
  6
CONTINUOUS
 10
114.931382
 20
-6.709415
 40
0.333342
  0
LINE
  8
別途部材
  6
CONTINUOUS
 10
114.598042
 20
-6.709415
 11
115.264708
 21
-6.709415
  0
LINE
  8
別途部材
  6
CONTINUOUS
 10
114.931382
 20
-6.376073
 11
114.931382
 21
-7.042748
  0
ARC
  8
別途部材
  6
CONTINUOUS
 10
114.931385
 20
-6.19553
 40
0.847222
 50
190.38896
 51
349.61104
  0
LINE
  8
別途部材
  6
CONTINUOUS
 10
113.764708
 20
-6.042748
 11
114.098042
 21
-6.042748
  0
LINE
  8
別途部材
  6
CONTINUOUS
 10
115.764708
 20
-6.042748
 11
116.098042
 21
-6.042748
  0
LINE
  8
別途部材
  6
CONTINUOUS
 10
114.098042
 20
-18.042748
 11
114.098042
 21
-6.042748
  0
LINE
  8
別途部材
  6
CONTINUOUS
 10
113.764708
 20
-18.042748
 11
113.764708
 21
-6.042748
  0
LINE
  8
別途部材
  6
CONTINUOUS
 10
115.764708
 20
-18.042748
 11
115.764708
 21
-6.042748
  0
LINE
  8
別途部材
  6
CONTINUOUS
 10
116.098042
 20
-18.042748
 11
116.098042
 21
-6.042748
  0
ENDBLK
  0
BLOCK
  2
*GRP_0092
 70
    65
 10
0.0
 20
0.0
  0
LINE
  8
別途部材
  6
CONTINUOUS
 10
114.931382
 20
-1.376073
 11
114.931382
 21
-1.376073
  0
LINE
  8
別途部材
  6
CONTINUOUS
 10
116.931382
 20
-5.709415
 11
117.764708
 21
-5.709415
  0
LINE
  8
別途部材
  6
CONTINUOUS
 10
114.931382
 20
-1.209415
 11
114.931382
 21
-1.37609
  0
LINE
  8
別途部材
  6
CONTINUOUS
 10
120.431382
 20
-5.376073
 11
117.764708
 21
-5.376073
  0
ARC
  8
別途部材
  6
CONTINUOUS
 10
120.098053
 20
-17.709421
 40
0.333333
 50
270.0
 51
360.0
  0
LINE
  8
別途部材
  6
CONTINUOUS
 10
118.098042
 20
-18.042748
 11
120.098042
 21
-18.042748
  0
ARC
  8
別途部材
  6
CONTINUOUS
 10
118.098053
 20
-17.709421
 40
0.333333
 50
180.0
 51
270.0
  0
LINE
  8
別途部材
  6
CONTINUOUS
 10
120.431382
 20
-17.709415
 11
120.431382
 21
-1.542748
  0
ARC
  8
別途部材
  6
CONTINUOUS
 10
120.098053
 20
-1.542754
 40
0.333333
 50
0.0
 51
90.0
  0
LINE
  8
別途部材
  6
CONTINUOUS
 10
117.764708
 20
-17.709415
 11
117.764708
 21
-1.542748
  0
ARC
  8
別途部材
  6
CONTINUOUS
 10
118.098053
 20
-1.542754
 40
0.333333
 50
90.0
 51
180.0
  0
LINE
  8
別途部材
  6
CONTINUOUS
 10
120.098042
 20
-1.209415
 11
114.931382
 21
-1.209415
  0
LINE
  8
別途部材
  6
CONTINUOUS
 10
118.531382
 20
-7.709415
 11
118.531382
 21
-9.376073
  0
LINE
  8
別途部材
  6
CONTINUOUS
 10
118.531382
 20
-14.376073
 11
118.531382
 21
-16.042748
  0
POLYLINE
  8
別途部材
  6
CONTINUOUS
 66
     1
  0
VERTEX
  8
別途部材
 10
117.764708
 20
-7.209415
  0
VERTEX
  8
別途部材
 10
118.531382
 20
-7.709415
  0
VERTEX
  8
別途部材
 10
120.431382
 20
-7.709415
  0
SEQEND
  0
LINE
  8
別途部材
  6
CONTINUOUS
 10
117.764708
 20
-8.542748
 11
120.431382
 21
-8.542748
  0
POLYLINE
  8
別途部材
  6
CONTINUOUS
 66
     1
  0
VERTEX
  8
別途部材
 10
117.764708
 20
-9.876073
  0
VERTEX
  8
別途部材
 10
118.531382
 20
-9.376073
  0
VERTEX
  8
別途部材
 10
120.431382
 20
-9.376073
  0
SEQEND
  0
POLYLINE
  8
別途部材
  6
CONTINUOUS
 66
     1
  0
VERTEX
  8
別途部材
 10
117.764708
 20
-13.876073
  0
VERTEX
  8
別途部材
 10
118.531382
 20
-14.376073
  0
VERTEX
  8
別途部材
 10
120.431382
 20
-14.376073
  0
SEQEND
  0
LINE
  8
別途部材
  6
CONTINUOUS
 10
117.764708
 20
-15.209415
 11
120.431382
 21
-15.209415
  0
POLYLINE
  8
別途部材
  6
CONTINUOUS
 66
     1
  0
VERTEX
  8
別途部材
 10
117.764708
 20
-16.542748
  0
VERTEX
  8
別途部材
 10
118.531382
 20
-16.042748
  0
VERTEX
  8
別途部材
 10
120.431382
 20
-16.042748
  0
SEQEND
  0
ENDBLK
  0
BLOCK
  2
*GRP_0093
 70
    65
 10
0.0
 20
0.0
  0
LINE
  8
別途部材
  6
CONTINUOUS
 10
114.931382
 20
-42.375708
 11
114.931382
 21
-42.375708
  0
LINE
  8
別途部材
  6
CONTINUOUS
 10
116.931382
 20
-38.042365
 11
117.764708
 21
-38.042365
  0
LINE
  8
別途部材
  6
CONTINUOUS
 10
114.931382
 20
-42.542365
 11
114.931382
 21
-42.37569
  0
LINE
  8
別途部材
  6
CONTINUOUS
 10
120.431382
 20
-38.375708
 11
117.764708
 21
-38.375708
  0
ARC
  8
別途部材
  6
CONTINUOUS
 10
120.098053
 20
-26.042362
 40
0.333333
 50
0.0
 51
90.0
  0
LINE
  8
別途部材
  6
CONTINUOUS
 10
118.098042
 20
-25.709033
 11
120.098042
 21
-25.709033
  0
ARC
  8
別途部材
  6
CONTINUOUS
 10
118.098053
 20
-26.042362
 40
0.333333
 50
90.0
 51
180.0
  0
LINE
  8
別途部材
  6
CONTINUOUS
 10
120.431382
 20
-26.042365
 11
120.431382
 21
-42.209033
  0
ARC
  8
別途部材
  6
CONTINUOUS
 10
120.098053
 20
-42.209028
 40
0.333333
 50
270.0
 51
360.0
  0
LINE
  8
別途部材
  6
CONTINUOUS
 10
117.764708
 20
-26.042365
 11
117.764708
 21
-42.209033
  0
ARC
  8
別途部材
  6
CONTINUOUS
 10
118.098053
 20
-42.209028
 40
0.333333
 50
180.0
 51
270.0
  0
LINE
  8
別途部材
  6
CONTINUOUS
 10
120.098042
 20
-42.542365
 11
114.931382
 21
-42.542365
  0
LINE
  8
別途部材
  6
CONTINUOUS
 10
118.531382
 20
-36.042365
 11
118.531382
 21
-34.375708
  0
LINE
  8
別途部材
  6
CONTINUOUS
 10
118.531382
 20
-29.375708
 11
118.531382
 21
-27.709033
  0
POLYLINE
  8
別途部材
  6
CONTINUOUS
 66
     1
  0
VERTEX
  8
別途部材
 10
117.764708
 20
-36.542365
  0
VERTEX
  8
別途部材
 10
118.531382
 20
-36.042365
  0
VERTEX
  8
別途部材
 10
120.431382
 20
-36.042365
  0
SEQEND
  0
LINE
  8
別途部材
  6
CONTINUOUS
 10
117.764708
 20
-35.209033
 11
120.431382
 21
-35.209033
  0
POLYLINE
  8
別途部材
  6
CONTINUOUS
 66
     1
  0
VERTEX
  8
別途部材
 10
117.764708
 20
-33.875708
  0
VERTEX
  8
別途部材
 10
118.531382
 20
-34.375708
  0
VERTEX
  8
別途部材
 10
120.431382
 20
-34.375708
  0
SEQEND
  0
POLYLINE
  8
別途部材
  6
CONTINUOUS
 66
     1
  0
VERTEX
  8
別途部材
 10
117.764708
 20
-29.875708
  0
VERTEX
  8
別途部材
 10
118.531382
 20
-29.375708
  0
VERTEX
  8
別途部材
 10
120.431382
 20
-29.375708
  0
SEQEND
  0
LINE
  8
別途部材
  6
CONTINUOUS
 10
117.764708
 20
-28.542365
 11
120.431382
 21
-28.542365
  0
POLYLINE
  8
別途部材
  6
CONTINUOUS
 66
     1
  0
VERTEX
  8
別途部材
 10
117.764708
 20
-27.209033
  0
VERTEX
  8
別途部材
 10
118.531382
 20
-27.709033
  0
VERTEX
  8
別途部材
 10
120.431382
 20
-27.709033
  0
SEQEND
  0
ENDBLK
  0
BLOCK
  2
*GRP_0094
 70
    65
 10
0.0
 20
0.0
  0
LINE
  8
別途部材
  6
CONTINUOUS
 10
116.931382
 20
-40.375708
 11
116.931382
 21
-25.709033
  0
ARC
  8
別途部材
  6
CONTINUOUS
 10
114.931386
 20
-40.375695
 40
2.0
 50
270.0
 51
360.0
  0
LINE
  8
別途部材
  6
CONTINUOUS
 10
112.931382
 20
-40.375708
 11
112.931382
 21
-25.709033
  0
ARC
  8
別途部材
  6
CONTINUOUS
 10
114.931386
 20
-40.375695
 40
2.0
 50
180.0
 51
270.0
  0
CIRCLE
  8
別途部材
  6
CONTINUOUS
 10
114.931382
 20
-40.375708
 40
1.0
  0
LINE
  8
別途部材
  6
CONTINUOUS
 10
115.931382
 20
-40.375708
 11
113.931382
 21
-40.375708
  0
LINE
  8
別途部材
  6
CONTINUOUS
 10
114.931382
 20
-41.375708
 11
114.931382
 21
-39.375708
  0
LINE
  8
別途部材
  6
CONTINUOUS
 10
116.931382
 20
-25.709033
 11
116.264708
 21
-25.709033
  0
LINE
  8
別途部材
  6
CONTINUOUS
 10
113.598042
 20
-25.709033
 11
112.931382
 21
-25.709033
  0
LINE
  8
別途部材
  6
CONTINUOUS
 10
116.264708
 20
-25.709033
 11
116.264708
 21
-38.375708
  0
LINE
  8
別途部材
  6
CONTINUOUS
 10
116.264708
 20
-38.375708
 11
113.598042
 21
-38.375708
  0
LINE
  8
別途部材
  6
CONTINUOUS
 10
113.598042
 20
-25.709033
 11
113.598042
 21
-38.375708
  0
ARC
  8
別途部材
  6
CONTINUOUS
 10
114.931386
 20
-25.861806
 40
0.847222
 50
190.38896
 51
349.61104
  0
LINE
  8
別途部材
  6
CONTINUOUS
 10
113.764708
 20
-25.709033
 11
114.098042
 21
-25.709033
  0
LINE
  8
別途部材
  6
CONTINUOUS
 10
116.098042
 20
-25.709033
 11
115.764708
 21
-25.709033
  0
CIRCLE
  8
別途部材
  6
CONTINUOUS
 10
114.931382
 20
-37.042365
 40
0.333342
  0
LINE
  8
別途部材
  6
CONTINUOUS
 10
114.598042
 20
-37.042365
 11
115.264708
 21
-37.042365
  0
LINE
  8
別途部材
  6
CONTINUOUS
 10
114.931382
 20
-37.375708
 11
114.931382
 21
-36.709033
  0
ARC
  8
別途部材
  6
CONTINUOUS
 10
114.931386
 20
-37.556253
 40
0.847222
 50
10.38896
 51
169.61104
  0
LINE
  8
別途部材
  6
CONTINUOUS
 10
113.764708
 20
-37.709033
 11
114.098042
 21
-37.709033
  0
LINE
  8
別途部材
  6
CONTINUOUS
 10
115.764708
 20
-37.709033
 11
116.098042
 21
-37.709033
  0
LINE
  8
別途部材
  6
CONTINUOUS
 10
114.098042
 20
-25.709033
 11
114.098042
 21
-37.709033
  0
LINE
  8
別途部材
  6
CONTINUOUS
 10
113.764708
 20
-25.709033
 11
113.764708
 21
-37.709033
  0
LINE
  8
別途部材
  6
CONTINUOUS
 10
115.764708
 20
-25.709033
 11
115.764708
 21
-37.709033
  0
LINE
  8
別途部材
  6
CONTINUOUS
 10
116.098042
 20
-25.709033
 11
116.098042
 21
-37.709033
  0
ENDBLK
  0
BLOCK
  2
*GRP_0095
 70
    65
 10
0.0
 20
0.0
  0
LINE
  8
型材断面
  6
DOT
 10
126.098048
 20
-46.209043
 11
126.598048
 21
-46.209043
  0
LINE
  8
型材断面
  6
DOT
 10
126.098048
 20
-43.542375
 11
126.598048
 21
-43.542375
  0
LINE
  8
型材断面
  6
DOT
 10
126.223048
 20
-46.209043
 11
126.223048
 21
-43.542375
  0
LINE
  8
型材断面
  6
DOT
 10
126.348048
 20
-46.209043
 11
126.348048
 21
-43.542375
  0
LINE
  8
型材断面
  6
DOT
 10
126.473048
 20
-46.209043
 11
126.473048
 21
-43.542375
  0
LINE
  8
型材断面
  6
CONTINUOUS
 10
117.93138
 20
-22.709415
 11
117.93138
 21
-20.542748
  0
LINE
  8
型材断面
  6
CONTINUOUS
 10
117.93138
 20
-20.542748
 11
117.43138
 21
-20.542748
  0
LINE
  8
型材断面
  6
CONTINUOUS
 10
126.098048
 20
-23.209415
 11
126.098048
 21
-46.209043
  0
LINE
  8
型材断面
  6
CONTINUOUS
 10
126.098048
 20
-46.209043
 11
107.764715
 21
-46.209043
  0
LINE
  8
型材断面
  6
CONTINUOUS
 10
107.264715
 20
-43.375708
 11
107.764715
 21
-43.375708
  0
LINE
  8
型材断面
  6
CONTINUOUS
 10
107.764715
 20
-43.375708
 11
107.764715
 21
-46.209043
  0
LINE
  8
型材断面
  6
CONTINUOUS
 10
117.43138
 20
-20.542748
 11
117.43138
 21
-22.709415
  0
LINE
  8
型材断面
  6
CONTINUOUS
 10
117.93138
 20
-23.209415
 11
126.098048
 21
-23.209415
  0
ARC
  8
型材断面
  6
CONTINUOUS
 10
117.931378
 20
-22.709417
 40
0.5
 50
180.0
 51
270.0
  0
LINE
  8
型材断面
  6
CONTINUOUS
 10
126.098048
 20
-22.709415
 11
117.93138
 21
-22.709415
  0
ARC
  8
型材断面
  6
CONTINUOUS
 10
126.098045
 20
-23.209417
 40
0.5
 50
0.0
 51
90.0
  0
LINE
  8
型材断面
  6
CONTINUOUS
 10
126.598048
 20
-23.209415
 11
126.598048
 21
-46.209043
  0
ARC
  8
型材断面
  6
CONTINUOUS
 10
126.098045
 20
-46.209044
 40
0.5
 50
-90.0
 51
0.0
  0
LINE
  8
型材断面
  6
CONTINUOUS
 10
126.098048
 20
-46.709043
 11
107.764715
 21
-46.709043
  0
LINE
  8
型材断面
  6
CONTINUOUS
 10
107.264715
 20
-43.375708
 11
107.264715
 21
-46.209043
  0
ARC
  8
型材断面
  6
CONTINUOUS
 10
107.764712
 20
-46.209044
 40
0.5
 50
180.0
 51
270.0
  0
ENDBLK
  0
BLOCK
  2
*GRP_0096
 70
    65
 10
0.0
 20
0.0
  0
ARC
  8
型材断面
  6
CONTINUOUS
 10
120.931383
 20
5.789768
 40
0.5
 50
90.0
 51
180.0
  0
LINE
  8
型材断面
  6
CONTINUOUS
 62
    47
 10
126.098048
 20
6.289768
 11
120.931382
 21
6.289768
  0
ARC
  8
型材断面
  6
CONTINUOUS
 10
126.098048
 20
5.789768
 40
0.5
 50
0.0
 51
90.0
  0
LINE
  8
型材断面
  6
CONTINUOUS
 62
    47
 10
126.098048
 20
5.789768
 11
120.931382
 21
5.789768
  0
LINE
  8
型材断面
  6
CONTINUOUS
 62
    47
 10
126.098048
 20
5.789768
 11
126.098048
 21
-20.209415
  0
LINE
  8
型材断面
  6
CONTINUOUS
 62
    47
 10
126.598048
 20
5.789768
 11
126.598048
 21
-20.209415
  0
ARC
  8
型材断面
  6
CONTINUOUS
 10
126.098048
 20
-20.209414
 40
0.5
 50
270.0
 51
360.0
  0
LINE
  8
型材断面
  6
CONTINUOUS
 62
    47
 10
118.93138
 20
-20.209415
 11
126.098048
 21
-20.209415
  0
ARC
  8
型材断面
  6
CONTINUOUS
 10
118.931381
 20
-20.209414
 40
0.5
 50
180.0
 51
270.0
  0
LINE
  8
型材断面
  6
CONTINUOUS
 62
    47
 10
118.93138
 20
-20.709415
 11
126.098048
 21
-20.709415
  0
LINE
  8
型材断面
  6
CONTINUOUS
 62
    47
 10
118.93138
 20
-20.209415
 11
118.93138
 21
-18.042748
  0
LINE
  8
型材断面
  6
CONTINUOUS
 10
118.93138
 20
-18.042748
 11
118.43138
 21
-18.042748
  0
LINE
  8
型材断面
  6
CONTINUOUS
 62
    47
 10
118.43138
 20
-20.209415
 11
118.43138
 21
-18.042748
  0
LINE
  8
型材断面
  6
DOT
 10
126.098048
 20
-20.209415
 11
126.598048
 21
-20.209415
  0
LINE
  8
型材断面
  6
DOT
 10
126.098048
 20
-17.542748
 11
126.598048
 21
-17.542748
  0
LINE
  8
型材断面
  6
DOT
 10
126.223048
 20
-20.209415
 11
126.223048
 21
-17.542748
  0
LINE
  8
型材断面
  6
DOT
 10
126.348048
 20
-20.209415
 11
126.348048
 21
-17.542748
  0
LINE
  8
型材断面
  6
DOT
 10
126.473048
 20
-20.209415
 11
126.473048
 21
-17.542748
  0
LINE
  8
型材断面
  6
CONTINUOUS
 10
120.431382
 20
5.789768
 11
120.431382
 21
1.289768
  0
LINE
  8
型材断面
  6
CONTINUOUS
 62
    47
 10
120.931382
 20
5.789768
 11
120.931382
 21
1.289768
  0
LINE
  8
型材断面
  6
CONTINUOUS
 10
120.431382
 20
1.289768
 11
120.931382
 21
1.289768
  0
ENDBLK
  0
BLOCK
  2
*GRP_0097
 70
    65
 10
0.0
 20
0.0
  0
LINE
  8
ゴム等
  6
CONTINUOUS
 10
119.264712
 20
-21.042748
 11
119.264712
 21
-20.709415
  0
LINE
  8
ゴム等
  6
CONTINUOUS
 10
119.264712
 20
-20.709415
 11
117.93138
 21
-20.709415
  0
LINE
  8
ゴム等
  6
CONTINUOUS
 10
117.93138
 20
-20.709415
 11
117.93138
 21
-22.709415
  0
LINE
  8
ゴム等
  6
CONTINUOUS
 10
117.93138
 20
-22.709415
 11
122.264712
 21
-22.709415
  0
LINE
  8
ゴム等
  6
CONTINUOUS
 10
120.598048
 20
-20.709415
 11
121.931348
 21
-20.718542
  0
LINE
  8
ゴム等
  6
CONTINUOUS
 10
121.931348
 20
-20.718542
 11
121.93072
 21
-20.810605
  0
ARC
  8
ゴム等
  6
CONTINUOUS
 10
123.32059
 20
-20.840672
 40
0.133333
 50
272.661288
 51
455.530692
  0
LINE
  8
ゴム等
  6
CONTINUOUS
 10
123.307738
 20
-20.707957
 11
122.199807
 21
-20.803415
  0
LINE
  8
ゴム等
  6
CONTINUOUS
 10
121.93072
 20
-20.810605
 11
122.199805
 21
-20.803415
  0
LINE
  8
ゴム等
  6
CONTINUOUS
 10
123.32678
 20
-20.973858
 11
122.264712
 21
-21.133702
  0
LINE
  8
ゴム等
  6
CONTINUOUS
 10
122.264712
 20
-22.709415
 11
122.264712
 21
-21.133702
  0
LINE
  8
ゴム等
  6
CONTINUOUS
 10
120.598048
 20
-20.709415
 11
120.627495
 21
-21.042748
  0
LINE
  8
ゴム等
  6
CONTINUOUS
 10
119.264712
 20
-21.042748
 11
120.627495
 21
-21.042748
  0
LINE
  8
ゴム等
  6
CONTINUOUS
 10
120.795545
 20
-20.710768
 11
118.796897
 21
-22.709415
  0
LINE
  8
ゴム等
  6
CONTINUOUS
 10
121.26374
 20
-20.713973
 11
119.268297
 21
-22.709415
  0
LINE
  8
ゴム等
  6
CONTINUOUS
 10
121.73194
 20
-20.717177
 11
119.739703
 21
-22.709415
  0
LINE
  8
ゴム等
  6
CONTINUOUS
 10
122.10931
 20
-20.811212
 11
120.211108
 21
-22.709415
  0
LINE
  8
ゴム等
  6
CONTINUOUS
 10
122.62516
 20
-20.766767
 11
120.682512
 21
-22.709415
  0
LINE
  8
ゴム等
  6
CONTINUOUS
 10
119.99216
 20
-21.042748
 11
118.325492
 21
-22.709415
  0
LINE
  8
ゴム等
  6
CONTINUOUS
 10
119.520755
 20
-21.042748
 11
117.93138
 21
-22.632122
  0
LINE
  8
ゴム等
  6
CONTINUOUS
 10
119.264712
 20
-20.827385
 11
117.93138
 21
-22.160718
  0
LINE
  8
ゴム等
  6
CONTINUOUS
 10
118.911277
 20
-20.709415
 11
117.93138
 21
-21.689312
  0
LINE
  8
ゴム等
  6
CONTINUOUS
 10
118.439872
 20
-20.709415
 11
117.93138
 21
-21.217908
  0
LINE
  8
ゴム等
  6
CONTINUOUS
 10
122.096728
 20
-22.709415
 11
122.264712
 21
-22.54143
  0
LINE
  8
ゴム等
  6
CONTINUOUS
 10
121.625323
 20
-22.709415
 11
122.264712
 21
-22.070025
  0
LINE
  8
ゴム等
  6
CONTINUOUS
 10
123.14101
 20
-20.722322
 11
122.811997
 21
-21.051335
  0
LINE
  8
ゴム等
  6
CONTINUOUS
 10
122.264712
 20
-21.59862
 11
121.153917
 21
-22.709415
  0
ENDBLK
  0
ENDSEC
  0
SECTION
  2
ENTITIES
  0
POLYLINE
  8
通り芯
  6
CONTINUOUS
 66
     1
 70
     1
  0
VERTEX
  8
通り芯
 10
-210.0
 20
-148.5
  0
VERTEX
  8
通り芯
 10
210.0
 20
-148.5
  0
VERTEX
  8
通り芯
 10
210.0
 20
148.5
  0
VERTEX
  8
通り芯
 10
-210.0
 20
148.5
  0
SEQEND
  0
LINE
  8
躯体
  6
CONTINUOUS
 10
-108.328262
 20
-67.209043
 11
-158.328262
 21
-67.209043
  0
POLYLINE
  8
躯体
  6
CONTINUOUS
 66
     1
  0
VERTEX
  8
躯体
 10
-139.34195
 20
-67.209043
  0
VERTEX
  8
躯体
 10
-136.8912
 20
-56.5762
  0
VERTEX
  8
躯体
 10
-133.460152
 20
-52.16485
  0
VERTEX
  8
躯体
 10
-131.02735
 20
-49.762087
  0
SEQEND
  0
LINE
  8
躯体
  6
CONTINUOUS
 10
124.931382
 20
-67.209043
 11
174.931382
 21
-67.209043
  0
POLYLINE
  8
躯体
  6
CONTINUOUS
 66
     1
  0
VERTEX
  8
躯体
 10
155.94507
 20
-67.209043
  0
VERTEX
  8
躯体
 10
153.49432
 20
-56.5762
  0
VERTEX
  8
躯体
 10
150.063272
 20
-52.16485
  0
VERTEX
  8
躯体
 10
147.63047
 20
-49.762087
  0
SEQEND
  0
LINE
  8
型材
  6
CONTINUOUS
 10
-158.328262
 20
-100.12576
 11
-158.328262
 21
-67.209043
  0
LINE
  8
型材
  6
CONTINUOUS
 10
-164.99493
 20
-67.209043
 11
-164.99493
 21
-76.709043
  0
LINE
  8
型材
  6
CONTINUOUS
 10
-108.328262
 20
-100.12576
 11
-108.328262
 21
-47.010682
  0
LINE
  8
型材
  6
CONTINUOUS
 10
174.931382
 20
-100.12576
 11
174.931382
 21
-67.209043
  0
LINE
  8
型材
  6
CONTINUOUS
 10
181.59805
 20
-67.209043
 11
181.59805
 21
-76.709043
  0
LINE
  8
型材
  6
CONTINUOUS
 10
124.931382
 20
-100.12576
 11
124.931382
 21
-47.010682
  0
INSERT
  2
*GRP_0001
  8
型材断面
  6
CONTINUOUS
 10
0.0
 20
0.0
  0
INSERT
  2
*GRP_0002
  8
型材断面
  6
CONTINUOUS
 10
0.0
 20
0.0
  0
INSERT
  2
*GRP_0003
  8
型材断面
  6
CONTINUOUS
 10
0.0
 20
0.0
  0
ARC
  8
型材断面
  6
CONTINUOUS
 10
-109.494924
 20
-46.709045
 40
0.558373
 50
146.056732
 51
180.725203
  0
ARC
  8
型材断面
  6
CONTINUOUS
 10
-109.494924
 20
-46.709045
 40
0.70711
 50
134.999838
 51
182.029989
  0
INSERT
  2
*GRP_0052
  8
型材断面
  6
DOT
 10
0.0
 20
0.0
  0
INSERT
  2
*GRP_0053
  8
型材断面
  6
DOT
 10
0.0
 20
0.0
  0
INSERT
  2
*GRP_0057
  8
型材断面
  6
CONTINUOUS
 10
0.0
 20
0.0
  0
INSERT
  2
*GRP_0058
  8
型材断面
  6
CONTINUOUS
 10
0.0
 20
0.0
  0
LINE
  8
型材断面
  6
DOT
 10
-103.328262
 20
-0.709415
 11
-103.328262
 21
-1.209415
  0
LINE
  8
型材断面
  6
DOT
 10
-100.661595
 20
-0.709415
 11
-100.661595
 21
-1.209415
  0
LINE
  8
型材断面
  6
DOT
 10
-103.328262
 20
-0.834415
 11
-100.661595
 21
-0.834415
  0
LINE
  8
型材断面
  6
DOT
 10
-103.328262
 20
-0.959415
 11
-100.661595
 21
-0.959415
  0
LINE
  8
型材断面
  6
DOT
 10
-103.328262
 20
-1.084415
 11
-100.661595
 21
-1.084415
  0
INSERT
  2
*GRP_0059
  8
型材断面
  6
DOT
 10
0.0
 20
0.0
  0
INSERT
  2
*GRP_0063
  8
型材断面
  6
CONTINUOUS
 10
0.0
 20
0.0
  0
ARC
  8
型材断面
  6
CONTINUOUS
 10
126.098044
 20
-46.709045
 40
0.558373
 50
359.274797
 51
393.943268
  0
ARC
  8
型材断面
  6
CONTINUOUS
 10
126.098044
 20
-46.709045
 40
0.70711
 50
357.970011
 51
405.000162
  0
INSERT
  2
*GRP_0078
  8
型材断面
  6
DOT
 10
0.0
 20
0.0
  0
INSERT
  2
*GRP_0082
  8
型材断面
  6
CONTINUOUS
 10
0.0
 20
0.0
  0
LINE
  8
型材断面
  6
DOT
 10
119.931382
 20
-0.709415
 11
119.931382
 21
-1.209415
  0
LINE
  8
型材断面
  6
DOT
 10
117.264715
 20
-0.709415
 11
117.264715
 21
-1.209415
  0
LINE
  8
型材断面
  6
DOT
 10
119.931382
 20
-0.834415
 11
117.264715
 21
-0.834415
  0
LINE
  8
型材断面
  6
DOT
 10
119.931382
 20
-0.959415
 11
117.264715
 21
-0.959415
  0
LINE
  8
型材断面
  6
DOT
 10
119.931382
 20
-1.084415
 11
117.264715
 21
-1.084415
  0
INSERT
  2
*GRP_0083
  8
型材断面
  6
DOT
 10
0.0
 20
0.0
  0
INSERT
  2
*GRP_0095
  8
型材断面
  6
CONTINUOUS
 10
0.0
 20
0.0
  0
INSERT
  2
*GRP_0096
  8
型材断面
  6
CONTINUOUS
 10
0.0
 20
0.0
  0
LINE
  8
ガラス
  6
CONTINUOUS
 10
-99.994795
 20
4.223927
 11
-99.994795
 21
1.95726
  0
LINE
  8
ガラス
  6
CONTINUOUS
 10
-99.994795
 20
1.95726
 11
116.598107
 21
1.95726
  0
LINE
  8
ガラス
  6
CONTINUOUS
 10
-99.994795
 20
2.123927
 11
116.598107
 21
2.123927
  0
LINE
  8
ガラス
  6
CONTINUOUS
 10
-99.994795
 20
4.223927
 11
116.598107
 21
4.223927
  0
LINE
  8
ガラス
  6
CONTINUOUS
 10
-99.994795
 20
4.05726
 11
116.598107
 21
4.05726
  0
LINE
  8
ガラス
  6
CONTINUOUS
 10
116.598107
 20
1.95726
 11
116.598107
 21
4.223927
  0
INSERT
  2
*GRP_0004
  8
ゴム等
  6
CONTINUOUS
 10
0.0
 20
0.0
  0
INSERT
  2
*GRP_0005
  8
ゴム等
  6
CONTINUOUS
 10
0.0
 20
0.0
  0
INSERT
  2
*GRP_0006
  8
ゴム等
  6
CONTINUOUS
 10
0.0
 20
0.0
  0
INSERT
  2
*GRP_0007
  8
ゴム等
  6
DOT
 10
0.0
 20
0.0
  0
INSERT
  2
*GRP_0008
  8
ゴム等
  6
DOT
 10
0.0
 20
0.0
  0
INSERT
  2
*GRP_0054
  8
ゴム等
  6
DOT
 10
0.0
 20
0.0
  0
INSERT
  2
*GRP_0061
  8
ゴム等
  6
DOT
 10
0.0
 20
0.0
  0
INSERT
  2
*GRP_0064
  8
ゴム等
  6
CONTINUOUS
 10
0.0
 20
0.0
  0
INSERT
  2
*GRP_0065
  8
ゴム等
  6
CONTINUOUS
 10
0.0
 20
0.0
  0
INSERT
  2
*GRP_0066
  8
ゴム等
  6
DOT
 10
0.0
 20
0.0
  0
INSERT
  2
*GRP_0067
  8
ゴム等
  6
DOT
 10
0.0
 20
0.0
  0
INSERT
  2
*GRP_0079
  8
ゴム等
  6
DOT
 10
0.0
 20
0.0
  0
INSERT
  2
*GRP_0097
  8
ゴム等
  6
CONTINUOUS
 10
0.0
 20
0.0
  0
INSERT
  2
*GRP_0009
  8
ボルト／ビス
  6
CONTINUOUS
 10
0.0
 20
0.0
  0
INSERT
  2
*GRP_0010
  8
ボルト／ビス
  6
CONTINUOUS
 10
0.0
 20
0.0
  0
INSERT
  2
*GRP_0011
  8
ボルト／ビス
  6
CONTINUOUS
 10
0.0
 20
0.0
  0
INSERT
  2
*GRP_0012
  8
ボルト／ビス
  6
CONTINUOUS
 10
0.0
 20
0.0
  0
INSERT
  2
*GRP_0013
  8
ボルト／ビス
  6
CONTINUOUS
 10
0.0
 20
0.0
  0
INSERT
  2
*GRP_0014
  8
ボルト／ビス
  6
CONTINUOUS
 10
0.0
 20
0.0
  0
INSERT
  2
*GRP_0015
  8
ボルト／ビス
  6
CONTINUOUS
 10
0.0
 20
0.0
  0
INSERT
  2
*GRP_0016
  8
ボルト／ビス
  6
CONTINUOUS
 10
0.0
 20
0.0
  0
INSERT
  2
*GRP_0017
  8
ボルト／ビス
  6
CONTINUOUS
 10
0.0
 20
0.0
  0
INSERT
  2
*GRP_0018
  8
ボルト／ビス
  6
CONTINUOUS
 10
0.0
 20
0.0
  0
INSERT
  2
*GRP_0019
  8
ボルト／ビス
  6
CONTINUOUS
 10
0.0
 20
0.0
  0
INSERT
  2
*GRP_0020
  8
ボルト／ビス
  6
CONTINUOUS
 10
0.0
 20
0.0
  0
INSERT
  2
*GRP_0055
  8
ボルト／ビス
  6
DOT
 10
0.0
 20
0.0
  0
INSERT
  2
*GRP_0060
  8
ボルト／ビス
  6
CONTINUOUS
 10
0.0
 20
0.0
  0
INSERT
  2
*GRP_0068
  8
ボルト／ビス
  6
CONTINUOUS
 10
0.0
 20
0.0
  0
INSERT
  2
*GRP_0069
  8
ボルト／ビス
  6
CONTINUOUS
 10
0.0
 20
0.0
  0
INSERT
  2
*GRP_0070
  8
ボルト／ビス
  6
CONTINUOUS
 10
0.0
 20
0.0
  0
INSERT
  2
*GRP_0071
  8
ボルト／ビス
  6
CONTINUOUS
 10
0.0
 20
0.0
  0
INSERT
  2
*GRP_0072
  8
ボルト／ビス
  6
CONTINUOUS
 10
0.0
 20
0.0
  0
INSERT
  2
*GRP_0073
  8
ボルト／ビス
  6
CONTINUOUS
 10
0.0
 20
0.0
  0
INSERT
  2
*GRP_0074
  8
ボルト／ビス
  6
CONTINUOUS
 10
0.0
 20
0.0
  0
INSERT
  2
*GRP_0080
  8
ボルト／ビス
  6
DOT
 10
0.0
 20
0.0
  0
INSERT
  2
*GRP_0084
  8
ボルト／ビス
  6
CONTINUOUS
 10
0.0
 20
0.0
  0
INSERT
  2
*GRP_0087
  8
ボルト／ビス
  6
CONTINUOUS
 10
0.0
 20
0.0
  0
INSERT
  2
*GRP_0088
  8
ボルト／ビス
  6
CONTINUOUS
 10
0.0
 20
0.0
  0
INSERT
  2
*GRP_0089
  8
ボルト／ビス
  6
CONTINUOUS
 10
0.0
 20
0.0
  0
INSERT
  2
*GRP_0090
  8
ボルト／ビス
  6
CONTINUOUS
 10
0.0
 20
0.0
  0
TEXT
  7
TextStyle03
  8
文字
  6
CONTINUOUS
 10
84.55
 20
122.35
  1
シリーズ：ＳＴＤＨ
 40
5.0
 72
     5
 11
134.55
 21
122.35
  0
TEXT
  7
TextStyle03
  8
文字
  6
CONTINUOUS
 10
84.55
 20
116.725
  1
　　　　　（片側開閉）
 40
5.0
 72
     5
 11
145.8
 21
116.725
  0
TEXT
  7
TextStyle03
  8
文字
  6
CONTINUOUS
 10
84.55
 20
111.1
  1
図面名　：全体納まり断面図
 40
5.0
 72
     5
 11
157.05
 21
111.1
  0
TEXT
  7
TextStyle03
  8
文字
  6
CONTINUOUS
 10
84.225
 20
102.75
  1
ＮＳコード：ＮＳＨＳ
 40
5.0
 72
     5
 11
139.85
 21
102.75
  0
TEXT
  7
TextStyle03
  8
文字
  6
CONTINUOUS
 10
150.5
 20
90.475
  1
物件対応
 40
3.0
 72
     5
 11
163.625
 21
90.475
  0
TEXT
  7
TextStyle03
  8
文字
  6
CONTINUOUS
 10
-147.025
 20
90.475
  1
物件対応
 40
3.0
 72
     5
 11
-133.9
 21
90.475
  0
INSERT
  2
*DIM_0027
  8
寸法
  6
CONTINUOUS
 10
0.0
 20
0.0
  0
INSERT
  2
*DIM_0028
  8
寸法
  6
CONTINUOUS
 10
0.0
 20
0.0
  0
INSERT
  2
*DIM_0029
  8
寸法
  6
CONTINUOUS
 10
0.0
 20
0.0
  0
INSERT
  2
*DIM_0030
  8
寸法
  6
CONTINUOUS
 10
0.0
 20
0.0
  0
INSERT
  2
*DIM_0031
  8
寸法
  6
CONTINUOUS
 10
0.0
 20
0.0
  0
INSERT
  2
*DIM_0032
  8
寸法
  6
CONTINUOUS
 10
0.0
 20
0.0
  0
INSERT
  2
*DIM_0033
  8
寸法
  6
CONTINUOUS
 10
0.0
 20
0.0
  0
INSERT
  2
*DIM_0034
  8
寸法
  6
CONTINUOUS
 10
0.0
 20
0.0
  0
INSERT
  2
*DIM_0035
  8
寸法
  6
CONTINUOUS
 10
0.0
 20
0.0
  0
INSERT
  2
*DIM_0036
  8
寸法
  6
CONTINUOUS
 10
0.0
 20
0.0
  0
INSERT
  2
*DIM_0037
  8
寸法
  6
CONTINUOUS
 10
0.0
 20
0.0
  0
INSERT
  2
*DIM_0038
  8
寸法
  6
CONTINUOUS
 10
0.0
 20
0.0
  0
INSERT
  2
*DIM_0039
  8
寸法
  6
CONTINUOUS
 10
0.0
 20
0.0
  0
INSERT
  2
*DIM_0040
  8
寸法
  6
CONTINUOUS
 10
0.0
 20
0.0
  0
INSERT
  2
*DIM_0041
  8
寸法
  6
CONTINUOUS
 10
0.0
 20
0.0
  0
INSERT
  2
*DIM_0042
  8
寸法
  6
CONTINUOUS
 10
0.0
 20
0.0
  0
INSERT
  2
*DIM_0043
  8
寸法
  6
CONTINUOUS
 10
0.0
 20
0.0
  0
INSERT
  2
*DIM_0044
  8
寸法
  6
CONTINUOUS
 10
0.0
 20
0.0
  0
INSERT
  2
*DIM_0045
  8
寸法
  6
CONTINUOUS
 10
0.0
 20
0.0
  0
INSERT
  2
*DIM_0046
  8
寸法
  6
CONTINUOUS
 10
0.0
 20
0.0
  0
INSERT
  2
*DIM_0047
  8
寸法
  6
CONTINUOUS
 10
0.0
 20
0.0
  0
INSERT
  2
*DIM_0048
  8
寸法
  6
CONTINUOUS
 10
0.0
 20
0.0
  0
INSERT
  2
*DIM_0049
  8
寸法
  6
CONTINUOUS
 10
0.0
 20
0.0
  0
INSERT
  2
*DIM_0050
  8
寸法
  6
CONTINUOUS
 10
0.0
 20
0.0
  0
INSERT
  2
*DIM_0051
  8
寸法
  6
CONTINUOUS
 10
0.0
 20
0.0
  0
INSERT
  2
*DIM_0062
  8
寸法
  6
CONTINUOUS
 10
0.0
 20
0.0
  0
INSERT
  2
*DIM_0077
  8
寸法
  6
CONTINUOUS
 10
0.0
 20
0.0
  0
INSERT
  2
*HAT_0001
  8
ﾊｯﾁﾝｸﾞ
 10
0.0
 20
0.0
  0
INSERT
  2
*HAT_0002
  8
ﾊｯﾁﾝｸﾞ
 10
0.0
 20
0.0
  0
INSERT
  2
*HAT_0003
  8
ﾊｯﾁﾝｸﾞ
 10
0.0
 20
0.0
  0
INSERT
  2
*HAT_0004
  8
ﾊｯﾁﾝｸﾞ
 10
0.0
 20
0.0
  0
INSERT
  2
*HAT_0005
  8
ﾊｯﾁﾝｸﾞ
 10
0.0
 20
0.0
  0
INSERT
  2
*HAT_0006
  8
ﾊｯﾁﾝｸﾞ
 10
0.0
 20
0.0
  0
LINE
  8
別途部材
  6
CONTINUOUS
 10
-91.661595
 20
-47.209043
 11
-91.661595
 21
-100.12576
  0
LINE
  8
別途部材
  6
CONTINUOUS
 10
-95.82826
 20
-47.209043
 11
-95.82826
 21
-100.12576
  0
INSERT
  2
*GRP_0021
  8
別途部材
  6
CONTINUOUS
 10
0.0
 20
0.0
  0
LINE
  8
別途部材
  6
CONTINUOUS
 10
-91.994927
 20
-47.209043
 11
-91.994927
 21
-100.12576
  0
LINE
  8
別途部材
  6
CONTINUOUS
 10
-95.494927
 20
-47.209043
 11
-95.494927
 21
-100.12576
  0
ARC
  8
別途部材
  6
CONTINUOUS
 62
    96
 10
-114.853877
 20
5.621113
 40
1.668651
 50
90.001375
 51
158.200993
  0
LINE
  8
別途部材
  6
CONTINUOUS
 10
-120.661463
 20
-1.709043
 11
-119.583145
 21
-1.709043
  0
LINE
  8
別途部材
  6
CONTINUOUS
 62
    96
 10
-116.661488
 20
8.290957
 11
-120.661463
 21
-1.709043
  0
LINE
  8
別途部材
  6
CONTINUOUS
 10
-120.661488
 20
-1.709043
 11
-119.583145
 21
-1.709043
  0
LINE
  8
別途部材
  6
CONTINUOUS
 62
    96
 10
-116.403212
 20
6.240842
 11
-119.583145
 21
-1.709043
  0
LINE
  8
別途部材
  6
CONTINUOUS
 62
    96
 10
-116.661488
 20
8.290957
 11
-99.99478
 21
8.290957
  0
ARC
  8
別途部材
  6
CONTINUOUS
 10
8.30156
 20
-55.721075
 40
125.79999
 50
30.586575
 51
149.413425
  0
ARC
  8
別途部材
  6
CONTINUOUS
 10
8.30156
 20
-55.721075
 40
124.79999
 50
30.32499
 51
149.67501
  0
LINE
  8
別途部材
  6
CONTINUOUS
 10
-99.422722
 20
7.290957
 11
-114.853938
 21
7.290957
  0
LINE
  8
別途部材
  6
CONTINUOUS
 10
108.264715
 20
-47.209043
 11
108.264715
 21
-100.12576
  0
LINE
  8
別途部材
  6
CONTINUOUS
 10
112.43138
 20
-47.209043
 11
112.43138
 21
-100.12576
  0
LINE
  8
別途部材
  6
CONTINUOUS
 10
108.598048
 20
-47.209043
 11
108.598048
 21
-100.12576
  0
LINE
  8
別途部材
  6
CONTINUOUS
 10
112.098048
 20
-47.209043
 11
112.098048
 21
-100.12576
  0
ARC
  8
別途部材
  6
CONTINUOUS
 62
    96
 10
131.456996
 20
5.621113
 40
1.668651
 50
21.799007
 51
89.998625
  0
LINE
  8
別途部材
  6
CONTINUOUS
 10
137.264582
 20
-1.709043
 11
136.186265
 21
-1.709043
  0
LINE
  8
別途部材
  6
CONTINUOUS
 62
    96
 10
133.264608
 20
8.290957
 11
137.264582
 21
-1.709043
  0
LINE
  8
別途部材
  6
CONTINUOUS
 10
137.264608
 20
-1.709043
 11
136.186265
 21
-1.709043
  0
LINE
  8
別途部材
  6
CONTINUOUS
 62
    96
 10
133.006332
 20
6.240842
 11
136.186265
 21
-1.709043
  0
LINE
  8
別途部材
  6
CONTINUOUS
 62
    96
 10
133.264608
 20
8.290957
 11
116.5979
 21
8.290957
  0
LINE
  8
別途部材
  6
CONTINUOUS
 10
116.025843
 20
7.290957
 11
131.457057
 21
7.290957
  0
INSERT
  2
*GRP_0091
  8
別途部材
  6
CONTINUOUS
 10
0.0
 20
0.0
  0
INSERT
  2
*GRP_0092
  8
別途部材
  6
CONTINUOUS
 10
0.0
 20
0.0
  0
INSERT
  2
*GRP_0093
  8
別途部材
  6
CONTINUOUS
 10
0.0
 20
0.0
  0
INSERT
  2
*GRP_0094
  8
別途部材
  6
CONTINUOUS
 10
0.0
 20
0.0
  0
INSERT
  2
*GRP_0022
  8
St
  6
CONTINUOUS
 10
0.0
 20
0.0
  0
INSERT
  2
*GRP_0023
  8
St
  6
CONTINUOUS
 10
0.0
 20
0.0
  0
INSERT
  2
*GRP_0024
  8
St
  6
CONTINUOUS
 10
0.0
 20
0.0
  0
INSERT
  2
*GRP_0025
  8
St
  6
CONTINUOUS
 10
0.0
 20
0.0
  0
INSERT
  2
*GRP_0075
  8
St
  6
CONTINUOUS
 10
0.0
 20
0.0
  0
INSERT
  2
*GRP_0076
  8
St
  6
CONTINUOUS
 10
0.0
 20
0.0
  0
INSERT
  2
*GRP_0085
  8
St
  6
CONTINUOUS
 10
0.0
 20
0.0
  0
INSERT
  2
*GRP_0086
  8
St
  6
CONTINUOUS
 10
0.0
 20
0.0
  0
LINE
  8
その他部品等
  6
CONTINUOUS
 10
-158.328262
 20
-76.709043
 11
-164.49493
 21
-76.709043
  0
LINE
  8
その他部品等
  6
CONTINUOUS
 10
-158.328262
 20
-73.37571
 11
-164.49493
 21
-73.37571
  0
LINE
  8
その他部品等
  6
CONTINUOUS
 10
-158.328262
 20
-71.709043
 11
-164.49493
 21
-71.709043
  0
LINE
  8
その他部品等
  6
CONTINUOUS
 10
-158.328262
 20
-73.37571
 11
-164.49493
 21
-71.709043
  0
LINE
  8
その他部品等
  6
CONTINUOUS
 10
174.931382
 20
-76.709043
 11
181.09805
 21
-76.709043
  0
LINE
  8
その他部品等
  6
CONTINUOUS
 10
174.931382
 20
-73.37571
 11
181.09805
 21
-73.37571
  0
LINE
  8
その他部品等
  6
CONTINUOUS
 10
174.931382
 20
-71.709043
 11
181.09805
 21
-71.709043
  0
LINE
  8
その他部品等
  6
CONTINUOUS
 10
174.931382
 20
-73.37571
 11
181.09805
 21
-71.709043
  0
ENDSEC
  0
EOF
