  0
SECTION
  2
HEADER
  9
$EXTMIN
 10
-210.0
 20
-148.5
  9
$EXTMAX
 10
210.0
 20
148.5
  9
$PDMODE
 70
    32
  9
$PDSIZE
 40
1.5
  9
$LTSCALE
 40
10.0
  0
ENDSEC
  0
SECTION
  2
TABLES
  0
TABLE
  2
LTYPE
 70
    15
  0
LTYPE
  2
CONTINUOUS
 70
    64
  3
実線
 72
    65
 73
     0
 40
0.0
  0
LTYPE
  2
DASHED
 70
    64
  3
破線A
 72
    65
 73
     2
 40
0.6
 49
0.4
 49
-0.2
  0
LTYPE
  2
DASHEDX2
 70
    64
  3
破線B
 72
    65
 73
     2
 40
1.3
 49
0.9
 49
-0.4
  0
LTYPE
  2
DASHDOT
 70
    64
  3
１点鎖線A
 72
    65
 73
     4
 40
0.5375
 49
0.375
 49
-0.05
 49
0.0625
 49
-0.05
  0
LTYPE
  2
DASHDOTX2
 70
    64
  3
１点鎖線B
 72
    65
 73
     4
 40
1.075
 49
0.75
 49
-0.1
 49
0.125
 49
-0.1
  0
LTYPE
  2
DIVIDE2
 70
    64
  3
２点鎖線A
 72
    65
 73
     6
 40
0.5125
 49
0.3
 49
-0.0375
 49
0.05
 49
-0.0375
 49
0.05
 49
-0.0375
  0
LTYPE
  2
DIVIDE
 70
    64
  3
２点鎖線B
 72
    65
 73
     6
 40
1.05
 49
0.55
 49
-0.1
 49
0.1
 49
-0.1
 49
0.1
 49
-0.1
  0
LTYPE
  2
DOT
 70
    64
  3
点線A
 72
    65
 73
     2
 40
0.1125
 49
0.0625
 49
-0.05
  0
LTYPE
  2
DOTX2
 70
    64
  3
点線B
 72
    65
 73
     2
 40
0.275
 49
0.15
 49
-0.125
  0
LTYPE
  2
CONTINUOUS
 70
    64
  3
実線
 72
    65
 73
     0
 40
0.0
  0
LTYPE
  2
CONTINUOUS
 70
    64
  3
実線
 72
    65
 73
     0
 40
0.0
  0
LTYPE
  2
CONTINUOUS
 70
    64
  3
実線
 72
    65
 73
     0
 40
0.0
  0
LTYPE
  2
CONTINUOUS
 70
    64
  3
実線
 72
    65
 73
     0
 40
0.0
  0
LTYPE
  2
CONTINUOUS
 70
    64
  3
実線
 72
    65
 73
     0
 40
0.0
  0
LTYPE
  2
CONTINUOUS
 70
    64
  3
実線
 72
    65
 73
     0
 40
0.0
  0
ENDTAB
  0
TABLE
  2
LAYER
 70
    34
  0
LAYER
  2
通り芯
 70
     0
 62
    15
  6
CONTINUOUS
  0
LAYER
  2
補助線
 70
     0
 62
    16
  6
DOT
  0
LAYER
  2
躯体
 70
     0
 62
    31
  6
CONTINUOUS
  0
LAYER
  2
型材
 70
     0
 62
    32
  6
CONTINUOUS
  0
LAYER
  2
型材断面
 70
     0
 62
    47
  6
CONTINUOUS
  0
LAYER
  2
ガラス
 70
     0
 62
    48
  6
CONTINUOUS
  0
LAYER
  2
ゴム等
 70
     0
 62
    63
  6
CONTINUOUS
  0
LAYER
  2
ボルト／ビス
 70
     0
 62
    64
  6
CONTINUOUS
  0
LAYER
  2
文字
 70
     0
 62
    79
  6
CONTINUOUS
  0
LAYER
  2
寸法
 70
     0
 62
    80
  6
CONTINUOUS
  0
LAYER
  2
ﾊｯﾁﾝｸﾞ
 70
     0
 62
    95
  6
CONTINUOUS
  0
LAYER
  2
別途部材
 70
     0
 62
    96
  6
CONTINUOUS
  0
LAYER
  2
曲げ物
 70
     0
 62
   111
  6
CONTINUOUS
  0
LAYER
  2
鉄骨等
 70
     0
 62
   112
  6
CONTINUOUS
  0
LAYER
  2
St
 70
     0
 62
   127
  6
CONTINUOUS
  0
LAYER
  2
その他部品等
 70
     0
 62
   128
  6
CONTINUOUS
  0
LAYER
  2
ｶﾞｽｹｯﾄ
 70
     0
 62
   143
  6
CONTINUOUS
  0
LAYER
  2
ｽｹｯﾁ
 70
     0
 62
    14
  6
CONTINUOUS
  0
LAYER
  2
0
 70
     0
 62
    17
  6
CONTINUOUS
  0
LAYER
  2
1
 70
     0
 62
    30
  6
CONTINUOUS
  0
LAYER
  2
4
 70
     0
 62
    33
  6
CONTINUOUS
  0
LAYER
  2
ﾚｲﾔ3
 70
     0
 62
    46
  6
CONTINUOUS
  0
LAYER
  2
外形線
 70
     0
 62
    49
  6
CONTINUOUS
  0
LAYER
  2
部品
 70
     0
 62
    14
  6
CONTINUOUS
  0
LAYER
  2
サッシ芯
 70
     0
 62
    17
  6
DASHDOTX2
  0
LAYER
  2
寸法線
 70
     0
 62
    62
  6
CONTINUOUS
  0
LAYER
  2
姿図外形線
 70
     0
 62
    65
  6
CONTINUOUS
  0
LAYER
  2
姿補助線
 70
     0
 62
    30
  6
CONTINUOUS
  0
LAYER
  2
透視線
 70
     0
 62
    78
  6
DOT
  0
LAYER
  2
用紙
 70
     0
 62
    81
  6
CONTINUOUS
  0
LAYER
  2
実線図枠
 70
     0
 62
    94
  6
CONTINUOUS
  0
LAYER
  2
補助図枠
 70
     0
 62
    97
  6
CONTINUOUS
  0
LAYER
  2
建具記号
 70
     0
 62
   110
  6
CONTINUOUS
  0
LAYER
  2
補助文字
 70
     0
 62
   113
  6
CONTINUOUS
  0
ENDTAB
  0
TABLE
  2
STYLE
 70
    10
  0
STYLE
  2
STANDARD
 70
     0
 40
1.0
 41
1.0
 42
1.0
 50
0.0
 71
     0
  3
TXT
  4
BIGFONT
  0
STYLE
  2
TATE
 70
     4
 40
1.0
 41
1.0
 42
1.0
 50
0.0
 71
     0
  3
TXT
  4
BIGFONT
  0
STYLE
  2
TextStyle03
 70
     0
 40
1.0
 41
1.0
 42
1.0
 50
0.0
 71
     0
  3
MONOTXT
  4
BIGFONT
  0
STYLE
  2
TextStyle04
 70
     0
 40
1.0
 41
1.0
 42
1.0
 50
0.0
 71
     0
  3
MONOTXT
  4
BIGFONT
  0
STYLE
  2
TextStyle05
 70
     0
 40
1.0
 41
1.0
 42
1.0
 50
0.0
 71
     0
  3
MONOTXT
  4
BIGFONT
  0
STYLE
  2
TextStyle06
 70
     0
 40
1.0
 41
1.0
 42
1.0
 50
0.0
 71
     0
  3
MONOTXT
  4
BIGFONT
  0
STYLE
  2
TextStyle07
 70
     0
 40
1.0
 41
1.0
 42
1.0
 50
0.0
 71
     0
  3
MONOTXT
  4
BIGFONT
  0
STYLE
  2
TextStyle08
 70
     0
 40
1.0
 41
1.0
 42
1.0
 50
0.0
 71
     0
  3
MONOTXT
  4
BIGFONT
  0
STYLE
  2
TextStyle09
 70
     0
 40
1.0
 41
1.0
 42
1.0
 50
0.0
 71
     0
  3
MONOTXT
  4
BIGFONT
  0
STYLE
  2
TextStyle10
 70
     0
 40
1.0
 41
1.0
 42
1.0
 50
0.0
 71
     0
  3
MONOTXT
  4
BIGFONT
  0
ENDTAB
  0
ENDSEC
  0
SECTION
  2
BLOCKS
  0
BLOCK
  2
*GRP_0001
 70
    65
 10
0.0
 20
0.0
  0
LINE
  8
型材断面
  6
CONTINUOUS
 10
195.0
 20
133.5
 11
195.0
 21
-133.5
  0
LINE
  8
型材断面
  6
CONTINUOUS
 10
195.0
 20
-133.5
 11
-185.0
 21
-133.5
  0
LINE
  8
型材断面
  6
CONTINUOUS
 10
-185.0
 20
-133.5
 11
-185.0
 21
133.5
  0
LINE
  8
型材断面
  6
CONTINUOUS
 10
195.0
 20
133.5
 11
-185.0
 21
133.5
  0
LINE
  8
型材断面
  6
CONTINUOUS
 10
145.0
 20
-133.5
 11
145.0
 21
-118.5
  0
LINE
  8
型材断面
  6
CONTINUOUS
 10
195.0
 20
-118.5
 11
145.0
 21
-118.5
  0
ENDBLK
  0
BLOCK
  2
*DIM_0002
 70
    65
 10
0.0
 20
0.0
  0
LINE
  8
寸法
  6
BYBLOCK
 62
     0
 10
-92.435405
 20
-16.126177
 11
-47.435405
 21
-16.126177
  0
POINT
  8
寸法
 62
     0
 10
-92.435405
 20
-16.126177
  0
POINT
  8
寸法
 62
     0
 10
-47.435405
 20
-16.126177
  0
TEXT
  7
TextStyle03
  8
寸法
  6
CONTINUOUS
 62
     0
 10
-80.85
 20
-15.775
  1
呼称寸法　900
 40
3.0
 72
     5
 11
-59.1
 21
-15.775
  0
ENDBLK
  0
BLOCK
  2
*DIM_0003
 70
    65
 10
0.0
 20
0.0
  0
LINE
  8
寸法
  6
BYBLOCK
 62
     0
 10
-84.935405
 20
57.66027
 11
-84.935405
 21
75.599285
  0
LINE
  8
寸法
  6
BYBLOCK
 62
     0
 10
-54.935405
 20
57.66027
 11
-54.935405
 21
75.599285
  0
LINE
  8
寸法
  6
BYBLOCK
 62
     0
 10
-84.935405
 20
75.599285
 11
-54.935405
 21
75.599285
  0
POINT
  8
寸法
 62
     0
 10
-84.935405
 20
75.599285
  0
POINT
  8
寸法
 62
     0
 10
-54.935405
 20
75.599285
  0
TEXT
  7
TextStyle03
  8
寸法
  6
CONTINUOUS
 62
     0
 10
-72.3875
 20
75.95
  1
600
 40
3.0
 72
     5
 11
-67.5125
 21
75.95
  0
ENDBLK
  0
BLOCK
  2
*DIM_0004
 70
    65
 10
0.0
 20
0.0
  0
LINE
  8
寸法
  6
BYBLOCK
 62
     0
 10
-93.435405
 20
56.66027
 11
-116.343648
 21
56.66027
  0
LINE
  8
寸法
  6
BYBLOCK
 62
     0
 10
-93.435405
 20
34.16027
 11
-116.343648
 21
34.16027
  0
LINE
  8
寸法
  6
BYBLOCK
 62
     0
 10
-116.343648
 20
56.66027
 11
-116.343648
 21
34.16027
  0
POINT
  8
寸法
 62
     0
 10
-116.343648
 20
56.66027
  0
POINT
  8
寸法
 62
     0
 10
-116.343648
 20
34.16027
  0
TEXT
  7
TextStyle03
  8
寸法
  6
CONTINUOUS
 62
     0
 10
-116.725
 20
42.9375
  1
450
 40
3.0
 50
90.0
 72
     5
 11
-116.725
 21
47.8125
  0
ENDBLK
  0
BLOCK
  2
*DIM_0005
 70
    65
 10
0.0
 20
0.0
  0
LINE
  8
寸法
  6
BYBLOCK
 62
     0
 10
-93.435405
 20
11.66027
 11
-116.343648
 21
11.66027
  0
LINE
  8
寸法
  6
BYBLOCK
 62
     0
 10
-116.343648
 20
34.16027
 11
-116.343648
 21
11.66027
  0
POINT
  8
寸法
 62
     0
 10
-116.343648
 20
11.66027
  0
TEXT
  7
TextStyle03
  8
寸法
  6
CONTINUOUS
 62
     0
 10
-116.725
 20
20.4375
  1
450
 40
3.0
 50
90.0
 72
     5
 11
-116.725
 21
25.3125
  0
ENDBLK
  0
BLOCK
  2
*DIM_0006
 70
    65
 10
0.0
 20
0.0
  0
LINE
  8
寸法
  6
BYBLOCK
 62
     0
 10
-46.435405
 20
56.66027
 11
-31.752115
 21
56.66027
  0
LINE
  8
寸法
  6
BYBLOCK
 62
     0
 10
-38.411528
 20
53.66027
 11
-31.752115
 21
53.66027
  0
LINE
  8
寸法
  6
BYBLOCK
 62
     0
 10
-31.752115
 20
56.66027
 11
-31.752115
 21
53.66027
  0
POINT
  8
寸法
 62
     0
 10
-31.752115
 20
56.66027
  0
POINT
  8
寸法
 62
     0
 10
-31.752115
 20
53.66027
  0
TEXT
  7
TextStyle03
  8
寸法
  6
CONTINUOUS
 62
     0
 10
-28.775
 20
53.53125
  1
60
 40
3.0
 50
90.0
 72
     5
 11
-28.775
 21
56.71875
  0
ENDBLK
  0
BLOCK
  2
*DIM_0007
 70
    65
 10
0.0
 20
0.0
  0
LINE
  8
寸法
  6
BYBLOCK
 62
     0
 10
-46.435405
 20
11.66027
 11
-31.752115
 21
11.66027
  0
LINE
  8
寸法
  6
BYBLOCK
 62
     0
 10
-38.411528
 20
14.66027
 11
-31.752115
 21
14.66027
  0
LINE
  8
寸法
  6
BYBLOCK
 62
     0
 10
-31.752115
 20
11.66027
 11
-31.752115
 21
14.66027
  0
POINT
  8
寸法
 62
     0
 10
-31.752115
 20
11.66027
  0
POINT
  8
寸法
 62
     0
 10
-31.752115
 20
14.66027
  0
TEXT
  7
TextStyle03
  8
寸法
  6
CONTINUOUS
 62
     0
 10
-28.775
 20
11.55625
  1
60
 40
3.0
 50
90.0
 72
     5
 11
-28.775
 21
14.74375
  0
ENDBLK
  0
BLOCK
  2
*DIM_0008
 70
    65
 10
0.0
 20
0.0
  0
LINE
  8
寸法
  6
BYBLOCK
 62
     0
 10
-68.935402
 20
-40.529985
 11
-25.04363
 21
-40.529985
  0
LINE
  8
寸法
  6
BYBLOCK
 62
     0
 10
-25.04363
 20
-53.029985
 11
-25.04363
 21
-40.529985
  0
POINT
  8
寸法
 62
     0
 10
-25.04363
 20
-53.029985
  0
POINT
  8
寸法
 62
     0
 10
-25.04363
 20
-40.529985
  0
TEXT
  7
TextStyle03
  8
寸法
  6
CONTINUOUS
 62
     0
 10
-25.45
 20
-49.2375
  1
250
 40
3.0
 50
90.0
 72
     5
 11
-25.45
 21
-44.3625
  0
ENDBLK
  0
BLOCK
  2
*GRP_0009
 70
    65
 10
0.0
 20
0.0
  0
INSERT
  2
*GRP_0021
  8
補助線
  6
CONTINUOUS
 10
0.0
 20
0.0
  0
LINE
  8
ボルト／ビス
  6
CONTINUOUS
 10
-84.935405
 20
10.371595
 11
-84.685405
 21
10.515933
  0
LINE
  8
ボルト／ビス
  6
CONTINUOUS
 10
-84.935405
 20
10.371595
 11
-85.185405
 21
10.515933
  0
LINE
  8
ボルト／ビス
  6
CONTINUOUS
 10
-84.685405
 20
10.804608
 11
-84.935405
 21
10.948945
  0
LINE
  8
ボルト／ビス
  6
CONTINUOUS
 10
-85.185405
 20
10.804608
 11
-84.935405
 21
10.948945
  0
CIRCLE
  8
ボルト／ビス
  6
CONTINUOUS
 10
-84.935405
 20
10.66027
 40
0.25
  0
LINE
  8
ボルト／ビス
  6
CONTINUOUS
 10
-85.185405
 20
10.515933
 11
-85.185405
 21
10.804608
  0
LINE
  8
ボルト／ビス
  6
CONTINUOUS
 10
-84.685405
 20
10.804608
 11
-84.685405
 21
10.515933
  0
ENDBLK
  0
BLOCK
  2
*GRP_0010
 70
    65
 10
0.0
 20
0.0
  0
INSERT
  2
*GRP_0022
  8
補助線
  6
CONTINUOUS
 10
0.0
 20
0.0
  0
LINE
  8
ボルト／ビス
  6
CONTINUOUS
 10
-69.935405
 20
10.371595
 11
-69.685405
 21
10.515933
  0
LINE
  8
ボルト／ビス
  6
CONTINUOUS
 10
-69.935405
 20
10.371595
 11
-70.185405
 21
10.515933
  0
LINE
  8
ボルト／ビス
  6
CONTINUOUS
 10
-69.685405
 20
10.804608
 11
-69.935405
 21
10.948945
  0
LINE
  8
ボルト／ビス
  6
CONTINUOUS
 10
-70.185405
 20
10.804608
 11
-69.935405
 21
10.948945
  0
CIRCLE
  8
ボルト／ビス
  6
CONTINUOUS
 10
-69.935405
 20
10.66027
 40
0.25
  0
LINE
  8
ボルト／ビス
  6
CONTINUOUS
 10
-70.185405
 20
10.515933
 11
-70.185405
 21
10.804608
  0
LINE
  8
ボルト／ビス
  6
CONTINUOUS
 10
-69.685405
 20
10.804608
 11
-69.685405
 21
10.515933
  0
ENDBLK
  0
BLOCK
  2
*GRP_0011
 70
    65
 10
0.0
 20
0.0
  0
INSERT
  2
*GRP_0023
  8
補助線
  6
CONTINUOUS
 10
0.0
 20
0.0
  0
LINE
  8
ボルト／ビス
  6
CONTINUOUS
 10
-93.72408
 20
19.16027
 11
-93.579742
 21
19.41027
  0
LINE
  8
ボルト／ビス
  6
CONTINUOUS
 10
-93.72408
 20
19.16027
 11
-93.579742
 21
18.91027
  0
LINE
  8
ボルト／ビス
  6
CONTINUOUS
 10
-93.291068
 20
19.41027
 11
-93.14673
 21
19.16027
  0
LINE
  8
ボルト／ビス
  6
CONTINUOUS
 10
-93.291068
 20
18.91027
 11
-93.14673
 21
19.16027
  0
CIRCLE
  8
ボルト／ビス
  6
CONTINUOUS
 10
-93.435405
 20
19.16027
 40
0.25
  0
LINE
  8
ボルト／ビス
  6
CONTINUOUS
 10
-93.579742
 20
18.91027
 11
-93.291068
 21
18.91027
  0
LINE
  8
ボルト／ビス
  6
CONTINUOUS
 10
-93.291068
 20
19.41027
 11
-93.579742
 21
19.41027
  0
ENDBLK
  0
BLOCK
  2
*GRP_0012
 70
    65
 10
0.0
 20
0.0
  0
INSERT
  2
*GRP_0024
  8
補助線
  6
CONTINUOUS
 10
0.0
 20
0.0
  0
LINE
  8
ボルト／ビス
  6
CONTINUOUS
 10
-93.72408
 20
34.16027
 11
-93.579742
 21
34.41027
  0
LINE
  8
ボルト／ビス
  6
CONTINUOUS
 10
-93.72408
 20
34.16027
 11
-93.579742
 21
33.91027
  0
LINE
  8
ボルト／ビス
  6
CONTINUOUS
 10
-93.291068
 20
34.41027
 11
-93.14673
 21
34.16027
  0
LINE
  8
ボルト／ビス
  6
CONTINUOUS
 10
-93.291068
 20
33.91027
 11
-93.14673
 21
34.16027
  0
CIRCLE
  8
ボルト／ビス
  6
CONTINUOUS
 10
-93.435405
 20
34.16027
 40
0.25
  0
LINE
  8
ボルト／ビス
  6
CONTINUOUS
 10
-93.579742
 20
33.91027
 11
-93.291068
 21
33.91027
  0
LINE
  8
ボルト／ビス
  6
CONTINUOUS
 10
-93.291068
 20
34.41027
 11
-93.579742
 21
34.41027
  0
ENDBLK
  0
BLOCK
  2
*GRP_0013
 70
    65
 10
0.0
 20
0.0
  0
INSERT
  2
*GRP_0025
  8
補助線
  6
CONTINUOUS
 10
0.0
 20
0.0
  0
LINE
  8
ボルト／ビス
  6
CONTINUOUS
 10
-54.935405
 20
10.371595
 11
-55.185405
 21
10.515933
  0
LINE
  8
ボルト／ビス
  6
CONTINUOUS
 10
-54.935405
 20
10.371595
 11
-54.685405
 21
10.515933
  0
LINE
  8
ボルト／ビス
  6
CONTINUOUS
 10
-55.185405
 20
10.804608
 11
-54.935405
 21
10.948945
  0
LINE
  8
ボルト／ビス
  6
CONTINUOUS
 10
-54.685405
 20
10.804608
 11
-54.935405
 21
10.948945
  0
CIRCLE
  8
ボルト／ビス
  6
CONTINUOUS
 10
-54.935405
 20
10.66027
 40
0.25
  0
LINE
  8
ボルト／ビス
  6
CONTINUOUS
 10
-54.685405
 20
10.515933
 11
-54.685405
 21
10.804608
  0
LINE
  8
ボルト／ビス
  6
CONTINUOUS
 10
-55.185405
 20
10.804608
 11
-55.185405
 21
10.515933
  0
ENDBLK
  0
BLOCK
  2
*GRP_0014
 70
    65
 10
0.0
 20
0.0
  0
INSERT
  2
*GRP_0026
  8
補助線
  6
CONTINUOUS
 10
0.0
 20
0.0
  0
LINE
  8
ボルト／ビス
  6
CONTINUOUS
 10
-46.14673
 20
19.16027
 11
-46.291068
 21
19.41027
  0
LINE
  8
ボルト／ビス
  6
CONTINUOUS
 10
-46.14673
 20
19.16027
 11
-46.291068
 21
18.91027
  0
LINE
  8
ボルト／ビス
  6
CONTINUOUS
 10
-46.579742
 20
19.41027
 11
-46.72408
 21
19.16027
  0
LINE
  8
ボルト／ビス
  6
CONTINUOUS
 10
-46.579742
 20
18.91027
 11
-46.72408
 21
19.16027
  0
CIRCLE
  8
ボルト／ビス
  6
CONTINUOUS
 10
-46.435405
 20
19.16027
 40
0.25
  0
LINE
  8
ボルト／ビス
  6
CONTINUOUS
 10
-46.291068
 20
18.91027
 11
-46.579742
 21
18.91027
  0
LINE
  8
ボルト／ビス
  6
CONTINUOUS
 10
-46.579742
 20
19.41027
 11
-46.291068
 21
19.41027
  0
ENDBLK
  0
BLOCK
  2
*GRP_0015
 70
    65
 10
0.0
 20
0.0
  0
INSERT
  2
*GRP_0027
  8
補助線
  6
CONTINUOUS
 10
0.0
 20
0.0
  0
LINE
  8
ボルト／ビス
  6
CONTINUOUS
 10
-46.14673
 20
34.16027
 11
-46.291068
 21
34.41027
  0
LINE
  8
ボルト／ビス
  6
CONTINUOUS
 10
-46.14673
 20
34.16027
 11
-46.291068
 21
33.91027
  0
LINE
  8
ボルト／ビス
  6
CONTINUOUS
 10
-46.579742
 20
34.41027
 11
-46.72408
 21
34.16027
  0
LINE
  8
ボルト／ビス
  6
CONTINUOUS
 10
-46.579742
 20
33.91027
 11
-46.72408
 21
34.16027
  0
CIRCLE
  8
ボルト／ビス
  6
CONTINUOUS
 10
-46.435405
 20
34.16027
 40
0.25
  0
LINE
  8
ボルト／ビス
  6
CONTINUOUS
 10
-46.291068
 20
33.91027
 11
-46.579742
 21
33.91027
  0
LINE
  8
ボルト／ビス
  6
CONTINUOUS
 10
-46.579742
 20
34.41027
 11
-46.291068
 21
34.41027
  0
ENDBLK
  0
BLOCK
  2
*GRP_0016
 70
    65
 10
0.0
 20
0.0
  0
INSERT
  2
*GRP_0028
  8
補助線
  6
CONTINUOUS
 10
0.0
 20
0.0
  0
LINE
  8
ボルト／ビス
  6
CONTINUOUS
 10
-84.935405
 20
57.948945
 11
-84.685405
 21
57.804608
  0
LINE
  8
ボルト／ビス
  6
CONTINUOUS
 10
-84.935405
 20
57.948945
 11
-85.185405
 21
57.804608
  0
LINE
  8
ボルト／ビス
  6
CONTINUOUS
 10
-84.685405
 20
57.515933
 11
-84.935405
 21
57.371595
  0
LINE
  8
ボルト／ビス
  6
CONTINUOUS
 10
-85.185405
 20
57.515933
 11
-84.935405
 21
57.371595
  0
CIRCLE
  8
ボルト／ビス
  6
CONTINUOUS
 10
-84.935405
 20
57.66027
 40
0.25
  0
LINE
  8
ボルト／ビス
  6
CONTINUOUS
 10
-85.185405
 20
57.804608
 11
-85.185405
 21
57.515933
  0
LINE
  8
ボルト／ビス
  6
CONTINUOUS
 10
-84.685405
 20
57.515933
 11
-84.685405
 21
57.804608
  0
ENDBLK
  0
BLOCK
  2
*GRP_0017
 70
    65
 10
0.0
 20
0.0
  0
INSERT
  2
*GRP_0029
  8
補助線
  6
CONTINUOUS
 10
0.0
 20
0.0
  0
LINE
  8
ボルト／ビス
  6
CONTINUOUS
 10
-69.935405
 20
57.948945
 11
-69.685405
 21
57.804608
  0
LINE
  8
ボルト／ビス
  6
CONTINUOUS
 10
-69.935405
 20
57.948945
 11
-70.185405
 21
57.804608
  0
LINE
  8
ボルト／ビス
  6
CONTINUOUS
 10
-69.685405
 20
57.515933
 11
-69.935405
 21
57.371595
  0
LINE
  8
ボルト／ビス
  6
CONTINUOUS
 10
-70.185405
 20
57.515933
 11
-69.935405
 21
57.371595
  0
CIRCLE
  8
ボルト／ビス
  6
CONTINUOUS
 10
-69.935405
 20
57.66027
 40
0.25
  0
LINE
  8
ボルト／ビス
  6
CONTINUOUS
 10
-70.185405
 20
57.804608
 11
-70.185405
 21
57.515933
  0
LINE
  8
ボルト／ビス
  6
CONTINUOUS
 10
-69.685405
 20
57.515933
 11
-69.685405
 21
57.804608
  0
ENDBLK
  0
BLOCK
  2
*GRP_0018
 70
    65
 10
0.0
 20
0.0
  0
INSERT
  2
*GRP_0030
  8
補助線
  6
CONTINUOUS
 10
0.0
 20
0.0
  0
LINE
  8
ボルト／ビス
  6
CONTINUOUS
 10
-93.72408
 20
49.16027
 11
-93.579742
 21
48.91027
  0
LINE
  8
ボルト／ビス
  6
CONTINUOUS
 10
-93.72408
 20
49.16027
 11
-93.579742
 21
49.41027
  0
LINE
  8
ボルト／ビス
  6
CONTINUOUS
 10
-93.291068
 20
48.91027
 11
-93.14673
 21
49.16027
  0
LINE
  8
ボルト／ビス
  6
CONTINUOUS
 10
-93.291068
 20
49.41027
 11
-93.14673
 21
49.16027
  0
CIRCLE
  8
ボルト／ビス
  6
CONTINUOUS
 10
-93.435405
 20
49.16027
 40
0.25
  0
LINE
  8
ボルト／ビス
  6
CONTINUOUS
 10
-93.579742
 20
49.41027
 11
-93.291068
 21
49.41027
  0
LINE
  8
ボルト／ビス
  6
CONTINUOUS
 10
-93.291068
 20
48.91027
 11
-93.579742
 21
48.91027
  0
ENDBLK
  0
BLOCK
  2
*GRP_0019
 70
    65
 10
0.0
 20
0.0
  0
INSERT
  2
*GRP_0031
  8
補助線
  6
CONTINUOUS
 10
0.0
 20
0.0
  0
LINE
  8
ボルト／ビス
  6
CONTINUOUS
 10
-54.935405
 20
57.948945
 11
-55.185405
 21
57.804608
  0
LINE
  8
ボルト／ビス
  6
CONTINUOUS
 10
-54.935405
 20
57.948945
 11
-54.685405
 21
57.804608
  0
LINE
  8
ボルト／ビス
  6
CONTINUOUS
 10
-55.185405
 20
57.515933
 11
-54.935405
 21
57.371595
  0
LINE
  8
ボルト／ビス
  6
CONTINUOUS
 10
-54.685405
 20
57.515933
 11
-54.935405
 21
57.371595
  0
CIRCLE
  8
ボルト／ビス
  6
CONTINUOUS
 10
-54.935405
 20
57.66027
 40
0.25
  0
LINE
  8
ボルト／ビス
  6
CONTINUOUS
 10
-54.685405
 20
57.804608
 11
-54.685405
 21
57.515933
  0
LINE
  8
ボルト／ビス
  6
CONTINUOUS
 10
-55.185405
 20
57.515933
 11
-55.185405
 21
57.804608
  0
ENDBLK
  0
BLOCK
  2
*GRP_0020
 70
    65
 10
0.0
 20
0.0
  0
INSERT
  2
*GRP_0032
  8
補助線
  6
CONTINUOUS
 10
0.0
 20
0.0
  0
LINE
  8
ボルト／ビス
  6
CONTINUOUS
 10
-46.14673
 20
49.16027
 11
-46.291068
 21
48.91027
  0
LINE
  8
ボルト／ビス
  6
CONTINUOUS
 10
-46.14673
 20
49.16027
 11
-46.291068
 21
49.41027
  0
LINE
  8
ボルト／ビス
  6
CONTINUOUS
 10
-46.579742
 20
48.91027
 11
-46.72408
 21
49.16027
  0
LINE
  8
ボルト／ビス
  6
CONTINUOUS
 10
-46.579742
 20
49.41027
 11
-46.72408
 21
49.16027
  0
CIRCLE
  8
ボルト／ビス
  6
CONTINUOUS
 10
-46.435405
 20
49.16027
 40
0.25
  0
LINE
  8
ボルト／ビス
  6
CONTINUOUS
 10
-46.291068
 20
49.41027
 11
-46.579742
 21
49.41027
  0
LINE
  8
ボルト／ビス
  6
CONTINUOUS
 10
-46.579742
 20
48.91027
 11
-46.291068
 21
48.91027
  0
ENDBLK
  0
BLOCK
  2
*GRP_0021
 70
    65
 10
0.0
 20
0.0
  0
LINE
  8
補助線
  6
BYBLOCK
 62
     0
 10
-85.060405
 20
10.66027
 11
-84.810405
 21
10.66027
  0
LINE
  8
補助線
  6
BYBLOCK
 62
     0
 10
-84.935405
 20
10.53527
 11
-84.935405
 21
10.78527
  0
ENDBLK
  0
BLOCK
  2
*GRP_0022
 70
    65
 10
0.0
 20
0.0
  0
LINE
  8
補助線
  6
BYBLOCK
 62
     0
 10
-70.060405
 20
10.66027
 11
-69.810405
 21
10.66027
  0
LINE
  8
補助線
  6
BYBLOCK
 62
     0
 10
-69.935405
 20
10.53527
 11
-69.935405
 21
10.78527
  0
ENDBLK
  0
BLOCK
  2
*GRP_0023
 70
    65
 10
0.0
 20
0.0
  0
LINE
  8
補助線
  6
BYBLOCK
 62
     0
 10
-93.435405
 20
19.03527
 11
-93.435405
 21
19.28527
  0
LINE
  8
補助線
  6
BYBLOCK
 62
     0
 10
-93.560405
 20
19.16027
 11
-93.310405
 21
19.16027
  0
ENDBLK
  0
BLOCK
  2
*GRP_0024
 70
    65
 10
0.0
 20
0.0
  0
LINE
  8
補助線
  6
BYBLOCK
 62
     0
 10
-93.435405
 20
34.03527
 11
-93.435405
 21
34.28527
  0
LINE
  8
補助線
  6
BYBLOCK
 62
     0
 10
-93.560405
 20
34.16027
 11
-93.310405
 21
34.16027
  0
ENDBLK
  0
BLOCK
  2
*GRP_0025
 70
    65
 10
0.0
 20
0.0
  0
LINE
  8
補助線
  6
BYBLOCK
 62
     0
 10
-54.810405
 20
10.66027
 11
-55.060405
 21
10.66027
  0
LINE
  8
補助線
  6
BYBLOCK
 62
     0
 10
-54.935405
 20
10.53527
 11
-54.935405
 21
10.78527
  0
ENDBLK
  0
BLOCK
  2
*GRP_0026
 70
    65
 10
0.0
 20
0.0
  0
LINE
  8
補助線
  6
BYBLOCK
 62
     0
 10
-46.435405
 20
19.03527
 11
-46.435405
 21
19.28527
  0
LINE
  8
補助線
  6
BYBLOCK
 62
     0
 10
-46.310405
 20
19.16027
 11
-46.560405
 21
19.16027
  0
ENDBLK
  0
BLOCK
  2
*GRP_0027
 70
    65
 10
0.0
 20
0.0
  0
LINE
  8
補助線
  6
BYBLOCK
 62
     0
 10
-46.435405
 20
34.03527
 11
-46.435405
 21
34.28527
  0
LINE
  8
補助線
  6
BYBLOCK
 62
     0
 10
-46.310405
 20
34.16027
 11
-46.560405
 21
34.16027
  0
ENDBLK
  0
BLOCK
  2
*GRP_0028
 70
    65
 10
0.0
 20
0.0
  0
LINE
  8
補助線
  6
BYBLOCK
 62
     0
 10
-85.060405
 20
57.66027
 11
-84.810405
 21
57.66027
  0
LINE
  8
補助線
  6
BYBLOCK
 62
     0
 10
-84.935405
 20
57.78527
 11
-84.935405
 21
57.53527
  0
ENDBLK
  0
BLOCK
  2
*GRP_0029
 70
    65
 10
0.0
 20
0.0
  0
LINE
  8
補助線
  6
BYBLOCK
 62
     0
 10
-70.060405
 20
57.66027
 11
-69.810405
 21
57.66027
  0
LINE
  8
補助線
  6
BYBLOCK
 62
     0
 10
-69.935405
 20
57.78527
 11
-69.935405
 21
57.53527
  0
ENDBLK
  0
BLOCK
  2
*GRP_0030
 70
    65
 10
0.0
 20
0.0
  0
LINE
  8
補助線
  6
BYBLOCK
 62
     0
 10
-93.435405
 20
49.28527
 11
-93.435405
 21
49.03527
  0
LINE
  8
補助線
  6
BYBLOCK
 62
     0
 10
-93.560405
 20
49.16027
 11
-93.310405
 21
49.16027
  0
ENDBLK
  0
BLOCK
  2
*GRP_0031
 70
    65
 10
0.0
 20
0.0
  0
LINE
  8
補助線
  6
BYBLOCK
 62
     0
 10
-54.810405
 20
57.66027
 11
-55.060405
 21
57.66027
  0
LINE
  8
補助線
  6
BYBLOCK
 62
     0
 10
-54.935405
 20
57.78527
 11
-54.935405
 21
57.53527
  0
ENDBLK
  0
BLOCK
  2
*GRP_0032
 70
    65
 10
0.0
 20
0.0
  0
LINE
  8
補助線
  6
BYBLOCK
 62
     0
 10
-46.435405
 20
49.28527
 11
-46.435405
 21
49.03527
  0
LINE
  8
補助線
  6
BYBLOCK
 62
     0
 10
-46.310405
 20
49.16027
 11
-46.560405
 21
49.16027
  0
ENDBLK
  0
BLOCK
  2
*GRP_0033
 70
    65
 10
0.0
 20
0.0
  0
LINE
  8
ボルト／ビス
  6
CONTINUOUS
 10
-93.43541
 20
-53.029987
 11
-93.43541
 21
-52.329985
  0
LINE
  8
ボルト／ビス
  6
CONTINUOUS
 10
-93.985412
 20
-53.029987
 11
-93.985412
 21
-52.929985
  0
LINE
  8
ボルト／ビス
  6
CONTINUOUS
 10
-93.985412
 20
-52.929985
 11
-92.88541
 21
-52.929985
  0
LINE
  8
ボルト／ビス
  6
CONTINUOUS
 10
-92.88541
 20
-52.929985
 11
-92.88541
 21
-53.029987
  0
LINE
  8
ボルト／ビス
  6
CONTINUOUS
 10
-93.985412
 20
-53.029987
 11
-92.88541
 21
-53.029987
  0
LINE
  8
ボルト／ビス
  6
CONTINUOUS
 10
-93.88541
 20
-52.879987
 11
-93.88541
 21
-52.929985
  0
LINE
  8
ボルト／ビス
  6
CONTINUOUS
 10
-93.88541
 20
-52.879987
 11
-92.98541
 21
-52.879987
  0
LINE
  8
ボルト／ビス
  6
CONTINUOUS
 10
-92.98541
 20
-52.879987
 11
-92.98541
 21
-52.929985
  0
LINE
  8
ボルト／ビス
  6
CONTINUOUS
 62
    64
 10
-93.675972
 20
-52.579987
 11
-93.724085
 21
-52.5975
  0
ARC
  8
ボルト／ビス
  6
CONTINUOUS
 62
    64
 10
-93.65192
 20
-52.737457
 40
0.157468
 50
62.721967
 51
90.0
  0
ARC
  8
ボルト／ビス
  6
CONTINUOUS
 62
    64
 10
-93.435414
 20
-53.183592
 40
0.603603
 50
76.165002
 51
103.834985
  0
LINE
  8
ボルト／ビス
  6
CONTINUOUS
 62
    64
 10
-93.194848
 20
-52.579987
 11
-93.146735
 21
-52.5975
  0
ARC
  8
ボルト／ビス
  6
CONTINUOUS
 62
    64
 10
-93.218907
 20
-52.737457
 40
0.157468
 50
90.0
 51
117.278033
  0
LINE
  8
ボルト／ビス
  6
CONTINUOUS
 62
    64
 10
-93.675972
 20
-52.579987
 11
-93.194848
 21
-52.579987
  0
LINE
  8
ボルト／ビス
  6
CONTINUOUS
 62
    64
 10
-93.146735
 20
-52.5975
 11
-93.146735
 21
-52.779985
  0
LINE
  8
ボルト／ビス
  6
CONTINUOUS
 62
    64
 10
-93.291072
 20
-52.5975
 11
-93.291072
 21
-52.779985
  0
LINE
  8
ボルト／ビス
  6
CONTINUOUS
 62
    64
 10
-93.724085
 20
-52.5975
 11
-93.724085
 21
-52.779985
  0
LINE
  8
ボルト／ビス
  6
CONTINUOUS
 62
    64
 10
-93.579748
 20
-52.5975
 11
-93.579748
 21
-52.779985
  0
LINE
  8
ボルト／ビス
  6
CONTINUOUS
 10
-93.724085
 20
-52.779985
 11
-93.146735
 21
-52.779985
  0
LINE
  8
ボルト／ビス
  6
CONTINUOUS
 10
-93.73541
 20
-52.779985
 11
-93.73541
 21
-52.879987
  0
LINE
  8
ボルト／ビス
  6
CONTINUOUS
 10
-93.73541
 20
-52.779985
 11
-93.13541
 21
-52.779985
  0
LINE
  8
ボルト／ビス
  6
CONTINUOUS
 10
-93.13541
 20
-52.779985
 11
-93.13541
 21
-52.879987
  0
ENDBLK
  0
BLOCK
  2
*GRP_0034
 70
    65
 10
0.0
 20
0.0
  0
LINE
  8
ボルト／ビス
  6
CONTINUOUS
 10
-46.435405
 20
-53.029987
 11
-46.435405
 21
-52.329985
  0
LINE
  8
ボルト／ビス
  6
CONTINUOUS
 10
-45.885402
 20
-53.029987
 11
-45.885402
 21
-52.929985
  0
LINE
  8
ボルト／ビス
  6
CONTINUOUS
 10
-45.885402
 20
-52.929985
 11
-46.985405
 21
-52.929985
  0
LINE
  8
ボルト／ビス
  6
CONTINUOUS
 10
-46.985405
 20
-52.929985
 11
-46.985405
 21
-53.029987
  0
LINE
  8
ボルト／ビス
  6
CONTINUOUS
 10
-45.885402
 20
-53.029987
 11
-46.985405
 21
-53.029987
  0
LINE
  8
ボルト／ビス
  6
CONTINUOUS
 10
-45.985405
 20
-52.879987
 11
-45.985405
 21
-52.929985
  0
LINE
  8
ボルト／ビス
  6
CONTINUOUS
 10
-45.985405
 20
-52.879987
 11
-46.885405
 21
-52.879987
  0
LINE
  8
ボルト／ビス
  6
CONTINUOUS
 10
-46.885405
 20
-52.879987
 11
-46.885405
 21
-52.929985
  0
LINE
  8
ボルト／ビス
  6
CONTINUOUS
 62
    64
 10
-46.194842
 20
-52.579987
 11
-46.14673
 21
-52.5975
  0
ARC
  8
ボルト／ビス
  6
CONTINUOUS
 62
    64
 10
-46.218899
 20
-52.737457
 40
0.157468
 50
90.0
 51
117.278033
  0
ARC
  8
ボルト／ビス
  6
CONTINUOUS
 62
    64
 10
-46.435405
 20
-53.183592
 40
0.603603
 50
76.165015
 51
103.834998
  0
LINE
  8
ボルト／ビス
  6
CONTINUOUS
 62
    64
 10
-46.675968
 20
-52.579987
 11
-46.72408
 21
-52.5975
  0
ARC
  8
ボルト／ビス
  6
CONTINUOUS
 62
    64
 10
-46.651912
 20
-52.737457
 40
0.157468
 50
62.721967
 51
90.0
  0
LINE
  8
ボルト／ビス
  6
CONTINUOUS
 62
    64
 10
-46.194842
 20
-52.579987
 11
-46.675968
 21
-52.579987
  0
LINE
  8
ボルト／ビス
  6
CONTINUOUS
 62
    64
 10
-46.72408
 20
-52.5975
 11
-46.72408
 21
-52.779985
  0
LINE
  8
ボルト／ビス
  6
CONTINUOUS
 62
    64
 10
-46.579742
 20
-52.5975
 11
-46.579742
 21
-52.779985
  0
LINE
  8
ボルト／ビス
  6
CONTINUOUS
 62
    64
 10
-46.14673
 20
-52.5975
 11
-46.14673
 21
-52.779985
  0
LINE
  8
ボルト／ビス
  6
CONTINUOUS
 62
    64
 10
-46.291068
 20
-52.5975
 11
-46.291068
 21
-52.779985
  0
LINE
  8
ボルト／ビス
  6
CONTINUOUS
 10
-46.14673
 20
-52.779985
 11
-46.72408
 21
-52.779985
  0
LINE
  8
ボルト／ビス
  6
CONTINUOUS
 10
-46.135405
 20
-52.779985
 11
-46.135405
 21
-52.879987
  0
LINE
  8
ボルト／ビス
  6
CONTINUOUS
 10
-46.135405
 20
-52.779985
 11
-46.735405
 21
-52.779985
  0
LINE
  8
ボルト／ビス
  6
CONTINUOUS
 10
-46.735405
 20
-52.779985
 11
-46.735405
 21
-52.879987
  0
ENDBLK
  0
BLOCK
  2
*GRP_0035
 70
    65
 10
0.0
 20
0.0
  0
INSERT
  2
*GRP_0036
  8
補助線
  6
CONTINUOUS
 10
0.0
 20
0.0
  0
CIRCLE
  8
別途部材
  6
CONTINUOUS
 10
-94.235427
 20
-57.530043
 40
0.3
  0
CIRCLE
  8
別途部材
  6
CONTINUOUS
 10
-94.235427
 20
-57.530043
 40
0.15
  0
LINE
  8
別途部材
  6
CONTINUOUS
 10
-94.085427
 20
-55.430043
 11
-93.935427
 21
-55.430043
  0
LINE
  8
別途部材
  6
CONTINUOUS
 10
-93.935427
 20
-57.530043
 11
-93.935427
 21
-55.430043
  0
LINE
  8
別途部材
  6
CONTINUOUS
 10
-94.085427
 20
-55.430043
 11
-94.085427
 21
-57.270235
  0
LINE
  8
別途部材
  6
CONTINUOUS
 10
-94.085427
 20
-59.630043
 11
-93.935427
 21
-59.630043
  0
LINE
  8
別途部材
  6
CONTINUOUS
 10
-93.935427
 20
-57.530043
 11
-93.935427
 21
-59.630043
  0
LINE
  8
別途部材
  6
CONTINUOUS
 10
-94.085427
 20
-59.630043
 11
-94.085427
 21
-57.78985
  0
LINE
  8
別途部材
  6
CONTINUOUS
 10
-94.085427
 20
-55.83004
 11
-93.935427
 21
-55.83004
  0
LINE
  8
別途部材
  6
CONTINUOUS
 10
-94.085427
 20
-56.23004
 11
-93.935427
 21
-56.23004
  0
LINE
  8
別途部材
  6
CONTINUOUS
 10
-94.085427
 20
-56.630043
 11
-93.935427
 21
-56.630043
  0
LINE
  8
別途部材
  6
CONTINUOUS
 10
-94.085427
 20
-59.23004
 11
-93.935427
 21
-59.23004
  0
LINE
  8
別途部材
  6
CONTINUOUS
 10
-94.085427
 20
-58.83004
 11
-93.935427
 21
-58.83004
  0
LINE
  8
別途部材
  6
CONTINUOUS
 10
-94.085427
 20
-58.430043
 11
-93.935427
 21
-58.430043
  0
ENDBLK
  0
BLOCK
  2
*GRP_0036
 70
    65
 10
0.0
 20
0.0
  0
LINE
  8
補助線
  6
BYBLOCK
 62
     0
 10
-93.985427
 20
-57.530043
 11
-94.485427
 21
-57.530043
  0
LINE
  8
補助線
  6
BYBLOCK
 62
     0
 10
-94.235427
 20
-57.28004
 11
-94.235427
 21
-57.78004
  0
ENDBLK
  0
BLOCK
  2
*DIM_0037
 70
    65
 10
0.0
 20
0.0
  0
LINE
  8
寸法
  6
CONTINUOUS
 10
-43.935405
 20
-53.029985
 11
-25.04363
 21
-53.029985
  0
LINE
  8
寸法
  6
CONTINUOUS
 10
-44.935383
 20
-61.279985
 11
-25.04363
 21
-61.279985
  0
LINE
  8
寸法
  6
CONTINUOUS
 10
-25.04363
 20
-53.029985
 11
-25.04363
 21
-61.279985
  0
POINT
  8
寸法
 10
-25.04363
 20
-53.029985
  0
POINT
  8
寸法
 10
-25.04363
 20
-61.279985
  0
TEXT
  7
TextStyle03
  8
寸法
  6
CONTINUOUS
 10
-25.425
 20
-59.6125
  1
165
 40
3.0
 50
90.0
 72
     5
 11
-25.425
 21
-54.7375
  0
ENDBLK
  0
BLOCK
  2
*DIM_0038
 70
    65
 10
0.0
 20
0.0
  0
LINE
  8
寸法
  6
CONTINUOUS
 10
-36.685383
 20
-65.779985
 11
-25.04363
 21
-65.779985
  0
LINE
  8
寸法
  6
CONTINUOUS
 10
-25.04363
 20
-61.279985
 11
-25.04363
 21
-65.779985
  0
POINT
  8
寸法
 10
-25.04363
 20
-65.779985
  0
TEXT
  7
TextStyle03
  8
寸法
  6
CONTINUOUS
 10
-25.425
 20
-65.05
  1
※
 40
3.0
 50
90.0
 72
     5
 11
-25.425
 21
-62.05
  0
ENDBLK
  0
BLOCK
  2
*DIM_0039
 70
    65
 10
0.0
 20
0.0
  0
LINE
  8
寸法
  6
CONTINUOUS
 10
-102.185427
 20
-61.279987
 11
-102.185427
 21
-16.126177
  0
LINE
  8
寸法
  6
CONTINUOUS
 10
-92.435405
 20
-16.126177
 11
-102.185427
 21
-16.126177
  0
POINT
  8
寸法
 10
-92.435405
 20
-16.126177
  0
POINT
  8
寸法
 10
-102.185427
 20
-16.126177
  0
TEXT
  7
TextStyle03
  8
寸法
  6
CONTINUOUS
 10
-98.825
 20
-15.775
  1
※
 40
3.0
 72
     5
 11
-95.825
 21
-15.775
  0
ENDBLK
  0
BLOCK
  2
*DIM_0040
 70
    65
 10
0.0
 20
0.0
  0
LINE
  8
寸法
  6
CONTINUOUS
 10
-37.685383
 20
-61.279987
 11
-37.685383
 21
-16.126177
  0
LINE
  8
寸法
  6
CONTINUOUS
 10
-47.435405
 20
-16.126177
 11
-37.685383
 21
-16.126177
  0
POINT
  8
寸法
 10
-47.435405
 20
-16.126177
  0
POINT
  8
寸法
 10
-37.685383
 20
-16.126177
  0
TEXT
  7
TextStyle03
  8
寸法
  6
CONTINUOUS
 10
-44.075
 20
-15.775
  1
※
 40
3.0
 72
     5
 11
-41.075
 21
-15.775
  0
ENDBLK
  0
BLOCK
  2
*GRP_0041
 70
    65
 10
0.0
 20
0.0
  0
LINE
  8
型材断面
  6
DOT
 62
    47
 10
50.393318
 20
-55.19655
 11
52.408612
 21
-57.211845
  0
LINE
  8
型材断面
  6
DOT
 62
    47
 10
84.334475
 20
-21.255393
 11
86.34977
 21
-23.270687
  0
LINE
  8
型材断面
  6
DOT
 10
86.34977
 20
-23.270687
 11
52.408612
 21
-57.211845
  0
LINE
  8
別途部材
  6
DOT
 62
    96
 10
48.625565
 20
-54.842983
 11
49.26196
 21
-56.327908
  0
INSERT
  2
*GRP_0045
  8
別途部材
  6
DOT
 10
0.0
 20
0.0
  0
LINE
  8
別途部材
  6
DOT
 62
    96
 10
83.980907
 20
-19.48764
 11
85.46583
 21
-20.124038
  0
INSERT
  2
*GRP_0046
  8
別途部材
  6
DOT
 10
0.0
 20
0.0
  0
LINE
  8
別途部材
  6
DOT
 10
85.46583
 20
-20.124038
 11
49.26196
 21
-56.327908
  0
LINE
  8
別途部材
  6
DOT
 62
    96
 10
83.980907
 20
-19.48764
 11
48.625565
 21
-54.842983
  0
ARC
  8
別途部材
  6
DOT
 10
76.202731
 20
-47.064805
 40
26.5
 50
76.890792
 51
193.109208
  0
ENDBLK
  0
BLOCK
  2
*GRP_0042
 70
    65
 10
0.0
 20
0.0
  0
LINE
  8
ボルト／ビス
  6
CONTINUOUS
 10
53.102565
 20
-53.029987
 11
53.102565
 21
-52.329985
  0
LINE
  8
ボルト／ビス
  6
CONTINUOUS
 10
52.552563
 20
-53.029987
 11
52.552563
 21
-52.929985
  0
LINE
  8
ボルト／ビス
  6
CONTINUOUS
 10
52.552563
 20
-52.929985
 11
53.652565
 21
-52.929985
  0
LINE
  8
ボルト／ビス
  6
CONTINUOUS
 10
53.652565
 20
-52.929985
 11
53.652565
 21
-53.029987
  0
LINE
  8
ボルト／ビス
  6
CONTINUOUS
 10
52.552563
 20
-53.029987
 11
53.652565
 21
-53.029987
  0
LINE
  8
ボルト／ビス
  6
CONTINUOUS
 10
52.652565
 20
-52.879987
 11
52.652565
 21
-52.929985
  0
LINE
  8
ボルト／ビス
  6
CONTINUOUS
 10
52.652565
 20
-52.879987
 11
53.552565
 21
-52.879987
  0
LINE
  8
ボルト／ビス
  6
CONTINUOUS
 10
53.552565
 20
-52.879987
 11
53.552565
 21
-52.929985
  0
LINE
  8
ボルト／ビス
  6
CONTINUOUS
 62
    64
 10
52.862003
 20
-52.579987
 11
52.81389
 21
-52.5975
  0
ARC
  8
ボルト／ビス
  6
CONTINUOUS
 62
    64
 10
52.886054
 20
-52.737457
 40
0.157468
 50
62.721967
 51
90.0
  0
ARC
  8
ボルト／ビス
  6
CONTINUOUS
 62
    64
 10
53.10256
 20
-53.183592
 40
0.603603
 50
76.165002
 51
103.834985
  0
LINE
  8
ボルト／ビス
  6
CONTINUOUS
 62
    64
 10
53.343128
 20
-52.579987
 11
53.39124
 21
-52.5975
  0
ARC
  8
ボルト／ビス
  6
CONTINUOUS
 62
    64
 10
53.319067
 20
-52.737457
 40
0.157468
 50
90.0
 51
117.278033
  0
LINE
  8
ボルト／ビス
  6
CONTINUOUS
 62
    64
 10
52.862003
 20
-52.579987
 11
53.343128
 21
-52.579987
  0
LINE
  8
ボルト／ビス
  6
CONTINUOUS
 62
    64
 10
53.39124
 20
-52.5975
 11
53.39124
 21
-52.779985
  0
LINE
  8
ボルト／ビス
  6
CONTINUOUS
 62
    64
 10
53.246903
 20
-52.5975
 11
53.246903
 21
-52.779985
  0
LINE
  8
ボルト／ビス
  6
CONTINUOUS
 62
    64
 10
52.81389
 20
-52.5975
 11
52.81389
 21
-52.779985
  0
LINE
  8
ボルト／ビス
  6
CONTINUOUS
 62
    64
 10
52.958228
 20
-52.5975
 11
52.958228
 21
-52.779985
  0
LINE
  8
ボルト／ビス
  6
CONTINUOUS
 10
52.81389
 20
-52.779985
 11
53.39124
 21
-52.779985
  0
LINE
  8
ボルト／ビス
  6
CONTINUOUS
 10
52.802565
 20
-52.779985
 11
52.802565
 21
-52.879987
  0
LINE
  8
ボルト／ビス
  6
CONTINUOUS
 10
52.802565
 20
-52.779985
 11
53.402565
 21
-52.779985
  0
LINE
  8
ボルト／ビス
  6
CONTINUOUS
 10
53.402565
 20
-52.779985
 11
53.402565
 21
-52.879987
  0
ENDBLK
  0
BLOCK
  2
*GRP_0043
 70
    65
 10
0.0
 20
0.0
  0
LINE
  8
ボルト／ビス
  6
CONTINUOUS
 10
100.10257
 20
-53.029987
 11
100.10257
 21
-52.329985
  0
LINE
  8
ボルト／ビス
  6
CONTINUOUS
 10
100.652572
 20
-53.029987
 11
100.652572
 21
-52.929985
  0
LINE
  8
ボルト／ビス
  6
CONTINUOUS
 10
100.652572
 20
-52.929985
 11
99.55257
 21
-52.929985
  0
LINE
  8
ボルト／ビス
  6
CONTINUOUS
 10
99.55257
 20
-52.929985
 11
99.55257
 21
-53.029987
  0
LINE
  8
ボルト／ビス
  6
CONTINUOUS
 10
100.652572
 20
-53.029987
 11
99.55257
 21
-53.029987
  0
LINE
  8
ボルト／ビス
  6
CONTINUOUS
 10
100.55257
 20
-52.879987
 11
100.55257
 21
-52.929985
  0
LINE
  8
ボルト／ビス
  6
CONTINUOUS
 10
100.55257
 20
-52.879987
 11
99.65257
 21
-52.879987
  0
LINE
  8
ボルト／ビス
  6
CONTINUOUS
 10
99.65257
 20
-52.879987
 11
99.65257
 21
-52.929985
  0
LINE
  8
ボルト／ビス
  6
CONTINUOUS
 62
    64
 10
100.343132
 20
-52.579987
 11
100.391245
 21
-52.5975
  0
ARC
  8
ボルト／ビス
  6
CONTINUOUS
 62
    64
 10
100.319075
 20
-52.737457
 40
0.157468
 50
90.0
 51
117.278033
  0
ARC
  8
ボルト／ビス
  6
CONTINUOUS
 62
    64
 10
100.102568
 20
-53.183592
 40
0.603603
 50
76.165015
 51
103.834998
  0
LINE
  8
ボルト／ビス
  6
CONTINUOUS
 62
    64
 10
99.862008
 20
-52.579987
 11
99.813895
 21
-52.5975
  0
ARC
  8
ボルト／ビス
  6
CONTINUOUS
 62
    64
 10
99.886062
 20
-52.737457
 40
0.157468
 50
62.721967
 51
90.0
  0
LINE
  8
ボルト／ビス
  6
CONTINUOUS
 62
    64
 10
100.343132
 20
-52.579987
 11
99.862008
 21
-52.579987
  0
LINE
  8
ボルト／ビス
  6
CONTINUOUS
 62
    64
 10
99.813895
 20
-52.5975
 11
99.813895
 21
-52.779985
  0
LINE
  8
ボルト／ビス
  6
CONTINUOUS
 62
    64
 10
99.958232
 20
-52.5975
 11
99.958232
 21
-52.779985
  0
LINE
  8
ボルト／ビス
  6
CONTINUOUS
 62
    64
 10
100.391245
 20
-52.5975
 11
100.391245
 21
-52.779985
  0
LINE
  8
ボルト／ビス
  6
CONTINUOUS
 62
    64
 10
100.246908
 20
-52.5975
 11
100.246908
 21
-52.779985
  0
LINE
  8
ボルト／ビス
  6
CONTINUOUS
 10
100.391245
 20
-52.779985
 11
99.813895
 21
-52.779985
  0
LINE
  8
ボルト／ビス
  6
CONTINUOUS
 10
100.40257
 20
-52.779985
 11
100.40257
 21
-52.879987
  0
LINE
  8
ボルト／ビス
  6
CONTINUOUS
 10
100.40257
 20
-52.779985
 11
99.80257
 21
-52.779985
  0
LINE
  8
ボルト／ビス
  6
CONTINUOUS
 10
99.80257
 20
-52.779985
 11
99.80257
 21
-52.879987
  0
ENDBLK
  0
BLOCK
  2
*GRP_0044
 70
    65
 10
0.0
 20
0.0
  0
INSERT
  2
*GRP_0047
  8
補助線
  6
CONTINUOUS
 10
0.0
 20
0.0
  0
CIRCLE
  8
別途部材
  6
CONTINUOUS
 10
52.302548
 20
-57.530043
 40
0.3
  0
CIRCLE
  8
別途部材
  6
CONTINUOUS
 10
52.302548
 20
-57.530043
 40
0.15
  0
LINE
  8
別途部材
  6
CONTINUOUS
 10
52.452548
 20
-55.430043
 11
52.602548
 21
-55.430043
  0
LINE
  8
別途部材
  6
CONTINUOUS
 10
52.602548
 20
-57.530043
 11
52.602548
 21
-55.430043
  0
LINE
  8
別途部材
  6
CONTINUOUS
 10
52.452548
 20
-55.430043
 11
52.452548
 21
-57.270235
  0
LINE
  8
別途部材
  6
CONTINUOUS
 10
52.452548
 20
-59.630043
 11
52.602548
 21
-59.630043
  0
LINE
  8
別途部材
  6
CONTINUOUS
 10
52.602548
 20
-57.530043
 11
52.602548
 21
-59.630043
  0
LINE
  8
別途部材
  6
CONTINUOUS
 10
52.452548
 20
-59.630043
 11
52.452548
 21
-57.78985
  0
LINE
  8
別途部材
  6
CONTINUOUS
 10
52.452548
 20
-55.83004
 11
52.602548
 21
-55.83004
  0
LINE
  8
別途部材
  6
CONTINUOUS
 10
52.452548
 20
-56.23004
 11
52.602548
 21
-56.23004
  0
LINE
  8
別途部材
  6
CONTINUOUS
 10
52.452548
 20
-56.630043
 11
52.602548
 21
-56.630043
  0
LINE
  8
別途部材
  6
CONTINUOUS
 10
52.452548
 20
-59.23004
 11
52.602548
 21
-59.23004
  0
LINE
  8
別途部材
  6
CONTINUOUS
 10
52.452548
 20
-58.83004
 11
52.602548
 21
-58.83004
  0
LINE
  8
別途部材
  6
CONTINUOUS
 10
52.452548
 20
-58.430043
 11
52.602548
 21
-58.430043
  0
ENDBLK
  0
BLOCK
  2
*GRP_0045
 70
    65
 10
0.0
 20
0.0
  0
LINE
  8
ボルト／ビス
  6
DOT
 10
49.686225
 20
-53.782325
 11
49.19125
 21
-53.28735
  0
LINE
  8
ボルト／ビス
  6
DOT
 10
49.297315
 20
-54.171235
 11
49.226603
 21
-54.100522
  0
LINE
  8
ボルト／ビス
  6
DOT
 10
49.226603
 20
-54.100522
 11
50.004422
 21
-53.322705
  0
LINE
  8
ボルト／ビス
  6
DOT
 10
50.004422
 20
-53.322705
 11
50.075135
 21
-53.393418
  0
LINE
  8
ボルト／ビス
  6
DOT
 10
49.297315
 20
-54.171235
 11
50.075135
 21
-53.393418
  0
LINE
  8
ボルト／ビス
  6
DOT
 10
49.261962
 20
-53.994458
 11
49.297315
 21
-54.02981
  0
LINE
  8
ボルト／ビス
  6
DOT
 10
49.261962
 20
-53.994458
 11
49.898358
 21
-53.35806
  0
LINE
  8
ボルト／ビス
  6
DOT
 10
49.898358
 20
-53.35806
 11
49.933712
 21
-53.393415
  0
LINE
  8
ボルト／ビス
  6
DOT
 62
    64
 10
49.197925
 20
-53.63423
 11
49.176288
 21
-53.680635
  0
ARC
  8
ボルト／ビス
  6
DOT
 62
    64
 10
49.326279
 20
-53.728571
 40
0.157468
 50
107.721967
 51
135.0
  0
ARC
  8
ボルト／ビス
  6
DOT
 62
    64
 10
49.794837
 20
-53.890943
 40
0.603603
 50
121.165002
 51
148.834985
  0
LINE
  8
ボルト／ビス
  6
DOT
 62
    64
 10
49.53813
 20
-53.294025
 11
49.584535
 21
-53.272387
  0
ARC
  8
ボルト／ビス
  6
DOT
 62
    64
 10
49.632465
 20
-53.422384
 40
0.157468
 50
135.0
 51
162.278033
  0
LINE
  8
ボルト／ビス
  6
DOT
 62
    64
 10
49.197925
 20
-53.63423
 11
49.53813
 21
-53.294025
  0
LINE
  8
ボルト／ビス
  6
DOT
 62
    64
 10
49.584535
 20
-53.272387
 11
49.713573
 21
-53.401422
  0
LINE
  8
ボルト／ビス
  6
DOT
 62
    64
 10
49.482473
 20
-53.374448
 11
49.61151
 21
-53.503485
  0
LINE
  8
ボルト／ビス
  6
DOT
 62
    64
 10
49.176288
 20
-53.680635
 11
49.305322
 21
-53.80967
  0
LINE
  8
ボルト／ビス
  6
DOT
 62
    64
 10
49.27835
 20
-53.578572
 11
49.407385
 21
-53.70761
  0
LINE
  8
ボルト／ビス
  6
DOT
 10
49.305322
 20
-53.80967
 11
49.713573
 21
-53.401422
  0
LINE
  8
ボルト／ビス
  6
DOT
 10
49.297315
 20
-53.81768
 11
49.368028
 21
-53.888393
  0
LINE
  8
ボルト／ビス
  6
DOT
 10
49.297315
 20
-53.81768
 11
49.72158
 21
-53.393415
  0
LINE
  8
ボルト／ビス
  6
DOT
 10
49.72158
 20
-53.393415
 11
49.792293
 21
-53.464127
  0
ENDBLK
  0
BLOCK
  2
*GRP_0046
 70
    65
 10
0.0
 20
0.0
  0
LINE
  8
ボルト／ビス
  6
DOT
 10
82.920248
 20
-20.548303
 11
82.425273
 21
-20.053327
  0
LINE
  8
ボルト／ビス
  6
DOT
 10
83.309158
 20
-20.159393
 11
83.238445
 21
-20.08868
  0
LINE
  8
ボルト／ビス
  6
DOT
 10
83.238445
 20
-20.08868
 11
82.460628
 21
-20.8665
  0
LINE
  8
ボルト／ビス
  6
DOT
 10
82.460628
 20
-20.8665
 11
82.53134
 21
-20.937212
  0
LINE
  8
ボルト／ビス
  6
DOT
 10
83.309158
 20
-20.159393
 11
82.53134
 21
-20.937212
  0
LINE
  8
ボルト／ビス
  6
DOT
 10
83.13238
 20
-20.12404
 11
83.167735
 21
-20.159393
  0
LINE
  8
ボルト／ビス
  6
DOT
 10
83.13238
 20
-20.12404
 11
82.495985
 21
-20.760435
  0
LINE
  8
ボルト／ビス
  6
DOT
 10
82.495985
 20
-20.760435
 11
82.531337
 21
-20.795788
  0
LINE
  8
ボルト／ビス
  6
DOT
 62
    64
 10
82.772153
 20
-20.060002
 11
82.818557
 21
-20.038365
  0
ARC
  8
ボルト／ビス
  6
DOT
 62
    64
 10
82.866489
 20
-20.18836
 40
0.157468
 50
135.0
 51
162.278033
  0
ARC
  8
ボルト／ビス
  6
DOT
 62
    64
 10
83.028862
 20
-20.656918
 40
0.603603
 50
121.165015
 51
148.834998
  0
LINE
  8
ボルト／ビス
  6
DOT
 62
    64
 10
82.431948
 20
-20.400208
 11
82.41031
 21
-20.446612
  0
ARC
  8
ボルト／ビス
  6
DOT
 62
    64
 10
82.560303
 20
-20.494546
 40
0.157468
 50
107.721967
 51
135.0
  0
LINE
  8
ボルト／ビス
  6
DOT
 62
    64
 10
82.772153
 20
-20.060002
 11
82.431948
 21
-20.400208
  0
LINE
  8
ボルト／ビス
  6
DOT
 62
    64
 10
82.41031
 20
-20.446612
 11
82.539345
 21
-20.575648
  0
LINE
  8
ボルト／ビス
  6
DOT
 62
    64
 10
82.512372
 20
-20.34455
 11
82.641408
 21
-20.473588
  0
LINE
  8
ボルト／ビス
  6
DOT
 62
    64
 10
82.818557
 20
-20.038365
 11
82.947593
 21
-20.1674
  0
LINE
  8
ボルト／ビス
  6
DOT
 62
    64
 10
82.716495
 20
-20.140425
 11
82.845533
 21
-20.269463
  0
LINE
  8
ボルト／ビス
  6
DOT
 10
82.947593
 20
-20.1674
 11
82.539345
 21
-20.575648
  0
LINE
  8
ボルト／ビス
  6
DOT
 10
82.955602
 20
-20.159393
 11
83.026315
 21
-20.230105
  0
LINE
  8
ボルト／ビス
  6
DOT
 10
82.955602
 20
-20.159393
 11
82.531337
 21
-20.583658
  0
LINE
  8
ボルト／ビス
  6
DOT
 10
82.531337
 20
-20.583658
 11
82.60205
 21
-20.65437
  0
ENDBLK
  0
BLOCK
  2
*GRP_0047
 70
    65
 10
0.0
 20
0.0
  0
LINE
  8
補助線
  6
BYBLOCK
 62
     0
 10
52.552548
 20
-57.530043
 11
52.052548
 21
-57.530043
  0
LINE
  8
補助線
  6
BYBLOCK
 62
     0
 10
52.302548
 20
-57.28004
 11
52.302548
 21
-57.78004
  0
ENDBLK
  0
BLOCK
  2
*DIM_0048
 70
    65
 10
0.0
 20
0.0
  0
LINE
  8
寸法
  6
CONTINUOUS
 10
170.304785
 20
75.557477
 11
180.048485
 21
75.557477
  0
LINE
  8
寸法
  6
CONTINUOUS
 10
170.304785
 20
30.557477
 11
180.048485
 21
30.557477
  0
LINE
  8
寸法
  6
CONTINUOUS
 10
180.048485
 20
75.557477
 11
180.048485
 21
30.557477
  0
POINT
  8
寸法
 10
180.048485
 20
75.557477
  0
POINT
  8
寸法
 10
180.048485
 20
30.557477
  0
TEXT
  7
TextStyle03
  8
寸法
  6
CONTINUOUS
 10
179.65
 20
50.6125
  1
900
 40
3.0
 50
90.0
 72
     5
 11
179.65
 21
55.4875
  0
ENDBLK
  0
BLOCK
  2
*DIM_0049
 70
    65
 10
0.0
 20
0.0
  0
LINE
  8
寸法
  6
CONTINUOUS
 10
167.304785
 20
78.557477
 11
167.304785
 21
86.078338
  0
LINE
  8
寸法
  6
CONTINUOUS
 10
122.304785
 20
78.557477
 11
122.304785
 21
86.078338
  0
LINE
  8
寸法
  6
CONTINUOUS
 10
167.304785
 20
86.078338
 11
122.304785
 21
86.078338
  0
POINT
  8
寸法
 10
167.304785
 20
86.078338
  0
POINT
  8
寸法
 10
122.304785
 20
86.078338
  0
TEXT
  7
TextStyle03
  8
寸法
  6
CONTINUOUS
 10
142.3625
 20
86.45
  1
900
 40
3.0
 72
     5
 11
147.2375
 21
86.45
  0
ENDBLK
  0
ENDSEC
  0
SECTION
  2
ENTITIES
  0
POLYLINE
  8
通り芯
  6
CONTINUOUS
 66
     1
 70
     1
  0
VERTEX
  8
通り芯
 10
-210.0
 20
-148.5
  0
VERTEX
  8
通り芯
 10
210.0
 20
-148.5
  0
VERTEX
  8
通り芯
 10
210.0
 20
148.5
  0
VERTEX
  8
通り芯
 10
-210.0
 20
148.5
  0
SEQEND
  0
INSERT
  2
*GRP_0001
  8
型材断面
  6
CONTINUOUS
 10
0.0
 20
0.0
  0
LINE
  8
型材断面
  6
CONTINUOUS
 10
-7.342083
 20
5.196457
 11
-9.585527
 21
1.310698
  0
LINE
  8
型材断面
  6
CONTINUOUS
 10
-7.342083
 20
5.196457
 11
-5.098638
 21
1.310698
  0
LINE
  8
型材断面
  6
CONTINUOUS
 10
-5.098638
 20
1.310698
 11
-9.585527
 21
1.310698
  0
LINE
  8
型材断面
  6
CONTINUOUS
 10
-7.342083
 20
-2.49309
 11
-6.447998
 21
-6.37885
  0
LINE
  8
型材断面
  6
CONTINUOUS
 10
-7.342083
 20
-2.49309
 11
-8.236168
 21
-6.37885
  0
LINE
  8
型材断面
  6
CONTINUOUS
 10
-8.236168
 20
-6.37885
 11
-6.447998
 21
-6.37885
  0
LINE
  8
型材断面
  6
CONTINUOUS
 10
-16.375962
 20
-0.097195
 11
36.280717
 21
-0.097195
  0
LINE
  8
型材断面
  6
CONTINUOUS
 10
-16.375962
 20
-11.297188
 11
36.280717
 21
-11.297188
  0
LINE
  8
型材断面
  6
CONTINUOUS
 10
-16.375962
 20
-18.137133
 11
36.280717
 21
-18.137133
  0
LINE
  8
型材断面
  6
DASHDOT
 10
-69.935405
 20
-67.794
 11
-69.935405
 21
56.66027
  0
LINE
  8
型材断面
  6
DASHDOT
 10
-92.435405
 20
-67.794
 11
-92.435405
 21
56.66027
  0
LINE
  8
型材断面
  6
DASHDOT
 10
-47.435405
 20
-67.794
 11
-47.435405
 21
56.66027
  0
LINE
  8
型材断面
  6
DASHDOT
 10
-92.435405
 20
56.66027
 11
-47.435405
 21
56.66027
  0
LINE
  8
型材断面
  6
DASHDOT
 10
-92.435405
 20
34.16027
 11
-47.435405
 21
34.16027
  0
LINE
  8
型材断面
  6
DASHDOT
 10
-92.435405
 20
11.66027
 11
-47.435405
 21
11.66027
  0
LINE
  8
型材断面
  6
CONTINUOUS
 10
-69.935405
 20
64.684145
 11
-72.17885
 21
68.569905
  0
LINE
  8
型材断面
  6
CONTINUOUS
 10
-69.935405
 20
64.684145
 11
-67.69196
 21
68.569905
  0
LINE
  8
型材断面
  6
CONTINUOUS
 10
-67.69196
 20
68.569905
 11
-72.17885
 21
68.569905
  0
LINE
  8
型材断面
  6
CONTINUOUS
 10
-69.935405
 20
3.636395
 11
-72.17885
 21
-0.249365
  0
LINE
  8
型材断面
  6
CONTINUOUS
 10
-69.935405
 20
3.636395
 11
-67.69196
 21
-0.249365
  0
LINE
  8
型材断面
  6
CONTINUOUS
 10
-67.69196
 20
-0.249365
 11
-72.17885
 21
-0.249365
  0
LINE
  8
型材断面
  6
CONTINUOUS
 10
-39.41153
 20
34.16027
 11
-35.52577
 21
36.403715
  0
LINE
  8
型材断面
  6
CONTINUOUS
 10
-39.41153
 20
34.16027
 11
-35.52577
 21
31.916825
  0
LINE
  8
型材断面
  6
CONTINUOUS
 10
-35.52577
 20
31.916825
 11
-35.52577
 21
36.403715
  0
LINE
  8
型材断面
  6
CONTINUOUS
 10
-100.45928
 20
34.16027
 11
-104.34504
 21
36.403715
  0
LINE
  8
型材断面
  6
CONTINUOUS
 10
-100.45928
 20
34.16027
 11
-104.34504
 21
31.916825
  0
LINE
  8
型材断面
  6
CONTINUOUS
 10
-104.34504
 20
31.916825
 11
-104.34504
 21
36.403715
  0
LINE
  8
型材断面
  6
CONTINUOUS
 10
-39.411528
 20
53.66027
 11
-35.525767
 21
52.766185
  0
LINE
  8
型材断面
  6
CONTINUOUS
 10
-39.411528
 20
53.66027
 11
-35.525767
 21
54.554355
  0
LINE
  8
型材断面
  6
CONTINUOUS
 10
-35.525767
 20
54.554355
 11
-35.525767
 21
52.766185
  0
LINE
  8
型材断面
  6
CONTINUOUS
 10
-39.411528
 20
14.66027
 11
-35.525767
 21
15.554355
  0
LINE
  8
型材断面
  6
CONTINUOUS
 10
-39.411528
 20
14.66027
 11
-35.525767
 21
13.766185
  0
LINE
  8
型材断面
  6
CONTINUOUS
 10
-35.525767
 20
13.766185
 11
-35.525767
 21
15.554355
  0
LINE
  8
型材断面
  6
CONTINUOUS
 10
-95.53541
 20
59.760275
 11
-102.185427
 21
66.410292
  0
LINE
  8
型材断面
  6
CONTINUOUS
 10
-102.185427
 20
1.910247
 11
-95.53541
 21
8.560265
  0
LINE
  8
型材断面
  6
CONTINUOUS
 10
-102.185427
 20
1.910247
 11
-102.185427
 21
66.410292
  0
LINE
  8
型材断面
  6
CONTINUOUS
 10
-44.3354
 20
59.760275
 11
-37.685383
 21
66.410292
  0
LINE
  8
型材断面
  6
CONTINUOUS
 10
-44.3354
 20
8.560265
 11
-37.685383
 21
1.910247
  0
LINE
  8
型材断面
  6
CONTINUOUS
 10
-37.685383
 20
66.410292
 11
-37.685383
 21
1.910247
  0
LINE
  8
型材断面
  6
CONTINUOUS
 10
-37.685383
 20
66.410292
 11
-102.185427
 21
66.410292
  0
LINE
  8
型材断面
  6
CONTINUOUS
 10
-37.685383
 20
1.910247
 11
-102.185427
 21
1.910247
  0
POLYLINE
  8
型材断面
  6
DASHDOT
 66
     1
  0
VERTEX
  8
型材断面
 10
-47.435405
 20
56.66027
  0
VERTEX
  8
型材断面
 10
-92.435405
 20
34.16027
  0
VERTEX
  8
型材断面
 10
-47.435405
 20
11.66027
  0
SEQEND
  0
LINE
  8
型材断面
  6
CONTINUOUS
 62
    47
 10
-93.935427
 20
-54.529985
 11
-93.935427
 21
-57.380043
  0
LINE
  8
型材断面
  6
CONTINUOUS
 10
-93.935427
 20
-57.680043
 11
-93.935427
 21
-61.279985
  0
LINE
  8
型材断面
  6
CONTINUOUS
 10
-93.935427
 20
-61.279985
 11
-102.185427
 21
-62.279987
  0
LINE
  8
型材断面
  6
CONTINUOUS
 10
-102.185427
 20
-65.779985
 11
-102.185427
 21
-62.279987
  0
LINE
  8
型材断面
  6
CONTINUOUS
 62
    47
 10
-45.935383
 20
-54.529985
 11
-45.935383
 21
-57.380043
  0
LINE
  8
型材断面
  6
CONTINUOUS
 10
-45.935383
 20
-57.680043
 11
-45.935383
 21
-61.279985
  0
LINE
  8
型材断面
  6
CONTINUOUS
 10
-45.935383
 20
-61.279985
 11
-37.685383
 21
-62.279987
  0
LINE
  8
型材断面
  6
CONTINUOUS
 10
-37.685383
 20
-65.779985
 11
-37.685383
 21
-62.279987
  0
LINE
  8
型材断面
  6
CONTINUOUS
 10
-102.185427
 20
-65.779985
 11
-37.685383
 21
-65.779985
  0
LINE
  8
型材断面
  6
CONTINUOUS
 10
-102.185427
 20
-62.279987
 11
-37.685383
 21
-62.279987
  0
LINE
  8
型材断面
  6
CONTINUOUS
 10
-45.935383
 20
-57.380043
 11
-93.935427
 21
-57.380043
  0
LINE
  8
型材断面
  6
CONTINUOUS
 10
-45.935383
 20
-57.680043
 11
-93.935427
 21
-57.680043
  0
LINE
  8
型材断面
  6
CONTINUOUS
 10
-45.935383
 20
-61.279985
 11
-93.935427
 21
-61.279985
  0
POLYLINE
  8
型材断面
  6
CONTINUOUS
 66
     1
 70
     1
  0
VERTEX
  8
型材断面
 10
-107.2312
 20
-54.880725
  0
VERTEX
  8
型材断面
 10
-120.82721
 20
-54.880725
  0
VERTEX
  8
型材断面
 10
-120.82721
 20
-60.174252
  0
VERTEX
  8
型材断面
 10
-107.2312
 20
-60.174252
  0
SEQEND
  0
LINE
  8
型材断面
  6
CONTINUOUS
 62
    47
 10
52.602548
 20
-54.529985
 11
52.602548
 21
-57.380043
  0
LINE
  8
型材断面
  6
CONTINUOUS
 10
52.602548
 20
-57.680043
 11
52.602548
 21
-61.279985
  0
LINE
  8
型材断面
  6
CONTINUOUS
 10
52.602548
 20
-61.279985
 11
44.352548
 21
-62.279987
  0
LINE
  8
型材断面
  6
CONTINUOUS
 10
44.352548
 20
-65.779985
 11
44.352548
 21
-62.279987
  0
LINE
  8
型材断面
  6
CONTINUOUS
 62
    47
 10
100.602592
 20
-54.529985
 11
100.602592
 21
-57.380043
  0
LINE
  8
型材断面
  6
CONTINUOUS
 10
100.602592
 20
-57.680043
 11
100.602592
 21
-61.279985
  0
LINE
  8
型材断面
  6
CONTINUOUS
 10
100.602592
 20
-61.279985
 11
108.852592
 21
-62.279987
  0
LINE
  8
型材断面
  6
CONTINUOUS
 10
108.852592
 20
-65.779985
 11
108.852592
 21
-62.279987
  0
LINE
  8
型材断面
  6
CONTINUOUS
 10
44.352548
 20
-65.779985
 11
108.852592
 21
-65.779985
  0
LINE
  8
型材断面
  6
CONTINUOUS
 10
44.352548
 20
-62.279987
 11
108.852592
 21
-62.279987
  0
LINE
  8
型材断面
  6
CONTINUOUS
 10
100.602592
 20
-57.380043
 11
52.602548
 21
-57.380043
  0
LINE
  8
型材断面
  6
CONTINUOUS
 10
100.602592
 20
-57.680043
 11
52.602548
 21
-57.680043
  0
LINE
  8
型材断面
  6
CONTINUOUS
 10
100.602592
 20
-61.279985
 11
52.602548
 21
-61.279985
  0
INSERT
  2
*GRP_0041
  8
型材断面
  6
DASHDOT
 10
0.0
 20
0.0
  0
ARC
  8
型材断面
  6
DASHDOT
 10
52.302547
 20
-57.530042
 40
49.504978
 50
365.21545
 51
410.21545
  0
LINE
  8
ガラス
  6
CONTINUOUS
 10
167.304785
 20
75.557477
 11
167.304785
 21
30.557477
  0
LINE
  8
ガラス
  6
CONTINUOUS
 10
122.304785
 20
30.557477
 11
167.304785
 21
30.557477
  0
LINE
  8
ガラス
  6
CONTINUOUS
 10
122.304785
 20
30.557477
 11
122.304785
 21
75.557477
  0
LINE
  8
ガラス
  6
CONTINUOUS
 10
122.304785
 20
75.557477
 11
167.304785
 21
75.557477
  0
CIRCLE
  8
ボルト／ビス
  6
CONTINUOUS
 10
-84.935405
 20
10.66027
 40
0.288675
  0
CIRCLE
  8
ボルト／ビス
  6
CONTINUOUS
 10
-84.935405
 20
10.66027
 40
0.455885
  0
CIRCLE
  8
ボルト／ビス
  6
CONTINUOUS
 10
-69.935405
 20
10.66027
 40
0.288675
  0
CIRCLE
  8
ボルト／ビス
  6
CONTINUOUS
 10
-69.935405
 20
10.66027
 40
0.455885
  0
CIRCLE
  8
ボルト／ビス
  6
CONTINUOUS
 10
-93.435405
 20
19.16027
 40
0.288675
  0
CIRCLE
  8
ボルト／ビス
  6
CONTINUOUS
 10
-93.435405
 20
19.16027
 40
0.455885
  0
CIRCLE
  8
ボルト／ビス
  6
CONTINUOUS
 10
-93.435405
 20
34.16027
 40
0.288675
  0
CIRCLE
  8
ボルト／ビス
  6
CONTINUOUS
 10
-93.435405
 20
34.16027
 40
0.455885
  0
CIRCLE
  8
ボルト／ビス
  6
CONTINUOUS
 10
-54.935405
 20
10.66027
 40
0.288675
  0
CIRCLE
  8
ボルト／ビス
  6
CONTINUOUS
 10
-54.935405
 20
10.66027
 40
0.455885
  0
CIRCLE
  8
ボルト／ビス
  6
CONTINUOUS
 10
-46.435405
 20
19.16027
 40
0.288675
  0
CIRCLE
  8
ボルト／ビス
  6
CONTINUOUS
 10
-46.435405
 20
19.16027
 40
0.455885
  0
CIRCLE
  8
ボルト／ビス
  6
CONTINUOUS
 10
-46.435405
 20
34.16027
 40
0.288675
  0
CIRCLE
  8
ボルト／ビス
  6
CONTINUOUS
 10
-46.435405
 20
34.16027
 40
0.455885
  0
CIRCLE
  8
ボルト／ビス
  6
CONTINUOUS
 10
-84.935405
 20
57.66027
 40
0.288675
  0
CIRCLE
  8
ボルト／ビス
  6
CONTINUOUS
 10
-84.935405
 20
57.66027
 40
0.455885
  0
CIRCLE
  8
ボルト／ビス
  6
CONTINUOUS
 10
-69.935405
 20
57.66027
 40
0.288675
  0
CIRCLE
  8
ボルト／ビス
  6
CONTINUOUS
 10
-69.935405
 20
57.66027
 40
0.455885
  0
CIRCLE
  8
ボルト／ビス
  6
CONTINUOUS
 10
-93.435405
 20
49.16027
 40
0.288675
  0
CIRCLE
  8
ボルト／ビス
  6
CONTINUOUS
 10
-93.435405
 20
49.16027
 40
0.455885
  0
CIRCLE
  8
ボルト／ビス
  6
CONTINUOUS
 10
-54.935405
 20
57.66027
 40
0.288675
  0
CIRCLE
  8
ボルト／ビス
  6
CONTINUOUS
 10
-54.935405
 20
57.66027
 40
0.455885
  0
CIRCLE
  8
ボルト／ビス
  6
CONTINUOUS
 10
-46.435405
 20
49.16027
 40
0.288675
  0
CIRCLE
  8
ボルト／ビス
  6
CONTINUOUS
 10
-46.435405
 20
49.16027
 40
0.455885
  0
TEXT
  7
TextStyle03
  8
文字
  6
CONTINUOUS
 10
-3.075
 20
1.625
  1
は排水穴位置を示す
 40
3.0
 72
     5
 11
26.925
 21
1.625
  0
TEXT
  7
TextStyle03
  8
文字
  6
CONTINUOUS
 10
-8.675
 20
-16.75
  1
アンカー数量　６ヶ所
 40
3.0
 72
     5
 11
24.7
 21
-16.75
  0
TEXT
  7
TextStyle03
  8
文字
  6
CONTINUOUS
 10
-3.075
 20
-6.225
  1
はケーシング位置を示す
 40
3.0
 72
     5
 11
33.675
 21
-6.225
  0
TEXT
  7
TextStyle03
  8
文字
  6
CONTINUOUS
 10
-3.075
 20
-9.6
  1
２ヶ所中1ヶ所に設定
 40
3.0
 72
     5
 11
28.6125
 21
-9.6
  0
TEXT
  7
TextStyle03
  8
文字
  6
CONTINUOUS
 10
83.25
 20
96.275
  1
ＮＳコード：ＮＳＨＳ
 40
5.0
 72
     5
 11
138.875
 21
96.275
  0
TEXT
  7
TextStyle03
  8
文字
  6
CONTINUOUS
 10
146.1
 20
38.8
  1
網入り6.8t
 40
3.0
 72
     5
 11
162.7875
 21
38.8
  0
TEXT
  7
TextStyle03
  8
文字
  6
CONTINUOUS
 10
152.725
 20
33.55
  1
×１枚
 40
3.0
 72
     5
 11
162.475
 21
33.55
  0
TEXT
  7
TextStyle03
  8
文字
  6
CONTINUOUS
 10
-98.825
 20
79.85
  1
アンカーピッチ
 40
3.0
 72
     5
 11
-75.575
 21
79.85
  0
TEXT
  7
TextStyle03
  8
文字
  6
CONTINUOUS
 10
-122.475
 20
1.75
  1
アンカーピッチ
 40
3.0
 50
90.0
 72
     5
 11
-122.475
 21
25.0
  0
TEXT
  7
TextStyle03
  8
文字
  6
CONTINUOUS
 10
83.15
 20
118.55
  1
シリーズ：ＳＴＤＨ
 40
5.0
 72
     5
 11
133.15
 21
118.55
  0
TEXT
  7
TextStyle03
  8
文字
  6
CONTINUOUS
 10
83.15
 20
112.925
  1
　　　　　（片側開閉）900×900タイプ
 40
5.0
 72
     5
 11
183.775
 21
112.925
  0
TEXT
  7
TextStyle03
  8
文字
  6
CONTINUOUS
 10
83.15
 20
107.3
  1
図面名　：外観姿図
 40
5.0
 72
     5
 11
133.15
 21
107.3
  0
TEXT
  7
TextStyle03
  8
文字
  6
CONTINUOUS
 10
83.15
 20
101.675
  1
　　　　　　
 40
5.0
 72
     5
 11
116.275
 21
101.675
  0
INSERT
  2
*GRP_0009
  8
文字
  6
CONTINUOUS
 10
0.0
 20
0.0
  0
INSERT
  2
*GRP_0010
  8
文字
  6
CONTINUOUS
 10
0.0
 20
0.0
  0
INSERT
  2
*GRP_0011
  8
文字
  6
CONTINUOUS
 10
0.0
 20
0.0
  0
INSERT
  2
*GRP_0012
  8
文字
  6
CONTINUOUS
 10
0.0
 20
0.0
  0
INSERT
  2
*GRP_0013
  8
文字
  6
CONTINUOUS
 10
0.0
 20
0.0
  0
INSERT
  2
*GRP_0014
  8
文字
  6
CONTINUOUS
 10
0.0
 20
0.0
  0
INSERT
  2
*GRP_0015
  8
文字
  6
CONTINUOUS
 10
0.0
 20
0.0
  0
INSERT
  2
*GRP_0016
  8
文字
  6
CONTINUOUS
 10
0.0
 20
0.0
  0
INSERT
  2
*GRP_0017
  8
文字
  6
CONTINUOUS
 10
0.0
 20
0.0
  0
INSERT
  2
*GRP_0018
  8
文字
  6
CONTINUOUS
 10
0.0
 20
0.0
  0
INSERT
  2
*GRP_0019
  8
文字
  6
CONTINUOUS
 10
0.0
 20
0.0
  0
INSERT
  2
*GRP_0020
  8
文字
  6
CONTINUOUS
 10
0.0
 20
0.0
  0
TEXT
  7
TextStyle03
  8
文字
  6
CONTINUOUS
 10
-119.175
 20
-58.9
  1
丁番側
 40
3.0
 72
     5
 11
-109.425
 21
-58.9
  0
TEXT
  7
TextStyle03
  8
文字
  6
CONTINUOUS
 10
99.2
 20
-36.275
  1
45°
 40
3.0
 72
     5
 11
105.575
 21
-36.275
  0
TEXT
  7
TextStyle03
  8
文字
  6
CONTINUOUS
 10
-110.5
 20
-77.4
  1
※は物件対応寸法
 40
3.0
 72
     5
 11
-83.875
 21
-77.4
  0
INSERT
  2
*DIM_0002
  8
寸法
  6
CONTINUOUS
 10
0.0
 20
0.0
  0
INSERT
  2
*DIM_0003
  8
寸法
  6
CONTINUOUS
 10
0.0
 20
0.0
  0
INSERT
  2
*DIM_0004
  8
寸法
  6
CONTINUOUS
 10
0.0
 20
0.0
  0
INSERT
  2
*DIM_0005
  8
寸法
  6
CONTINUOUS
 10
0.0
 20
0.0
  0
INSERT
  2
*DIM_0006
  8
寸法
  6
CONTINUOUS
 10
0.0
 20
0.0
  0
INSERT
  2
*DIM_0007
  8
寸法
  6
CONTINUOUS
 10
0.0
 20
0.0
  0
CIRCLE
  8
寸法
  6
CONTINUOUS
 10
-111.453763
 20
34.16027
 40
1.73792
  0
INSERT
  2
*DIM_0008
  8
寸法
  6
CONTINUOUS
 10
0.0
 20
0.0
  0
INSERT
  2
*DIM_0037
  8
寸法
  6
CONTINUOUS
 10
0.0
 20
0.0
  0
INSERT
  2
*DIM_0038
  8
寸法
  6
CONTINUOUS
 10
0.0
 20
0.0
  0
INSERT
  2
*DIM_0039
  8
寸法
  6
CONTINUOUS
 10
0.0
 20
0.0
  0
INSERT
  2
*DIM_0040
  8
寸法
  6
CONTINUOUS
 10
0.0
 20
0.0
  0
INSERT
  2
*DIM_0048
  8
寸法
  6
CONTINUOUS
 10
0.0
 20
0.0
  0
INSERT
  2
*DIM_0049
  8
寸法
  6
CONTINUOUS
 10
0.0
 20
0.0
  0
LINE
  8
別途部材
  6
CONTINUOUS
 10
-95.53541
 20
59.760275
 11
-92.435405
 21
56.66027
  0
LINE
  8
別途部材
  6
CONTINUOUS
 10
-92.435405
 20
56.66027
 11
-80.505998
 21
44.730862
  0
LINE
  8
別途部材
  6
CONTINUOUS
 10
-95.53541
 20
8.560265
 11
-92.435405
 21
11.66027
  0
LINE
  8
別途部材
  6
CONTINUOUS
 10
-92.435405
 20
11.66027
 11
-80.505998
 21
23.589677
  0
LINE
  8
別途部材
  6
CONTINUOUS
 10
-92.435405
 20
56.66027
 11
-92.435405
 21
11.66027
  0
LINE
  8
別途部材
  6
CONTINUOUS
 10
-94.93541
 20
59.160275
 11
-94.93541
 21
9.160265
  0
LINE
  8
別途部材
  6
CONTINUOUS
 10
-95.53541
 20
59.760275
 11
-95.53541
 21
8.560265
  0
LINE
  8
別途部材
  6
CONTINUOUS
 10
-47.435405
 20
56.66027
 11
-44.3354
 21
59.760275
  0
LINE
  8
別途部材
  6
CONTINUOUS
 10
-47.435405
 20
56.66027
 11
-59.364812
 21
44.730862
  0
LINE
  8
別途部材
  6
CONTINUOUS
 10
-47.435405
 20
11.66027
 11
-44.3354
 21
8.560265
  0
LINE
  8
別途部材
  6
CONTINUOUS
 10
-47.435405
 20
11.66027
 11
-59.364812
 21
23.589677
  0
LINE
  8
別途部材
  6
CONTINUOUS
 10
-47.435405
 20
56.66027
 11
-47.435405
 21
11.66027
  0
LINE
  8
別途部材
  6
CONTINUOUS
 10
-44.9354
 20
59.160275
 11
-44.9354
 21
9.160265
  0
LINE
  8
別途部材
  6
CONTINUOUS
 10
-44.3354
 20
59.760275
 11
-44.3354
 21
8.560265
  0
LINE
  8
別途部材
  6
CONTINUOUS
 10
-92.435405
 20
56.66027
 11
-47.435405
 21
56.66027
  0
LINE
  8
別途部材
  6
CONTINUOUS
 10
-94.93541
 20
59.160275
 11
-44.9354
 21
59.160275
  0
LINE
  8
別途部材
  6
CONTINUOUS
 10
-95.53541
 20
59.760275
 11
-44.3354
 21
59.760275
  0
LINE
  8
別途部材
  6
CONTINUOUS
 10
-47.435405
 20
11.66027
 11
-92.435405
 21
11.66027
  0
LINE
  8
別途部材
  6
CONTINUOUS
 10
-44.9354
 20
9.160265
 11
-94.93541
 21
9.160265
  0
LINE
  8
別途部材
  6
CONTINUOUS
 10
-44.3354
 20
8.560265
 11
-95.53541
 21
8.560265
  0
LINE
  8
別途部材
  6
CONTINUOUS
 62
    96
 10
-94.93541
 20
-53.029985
 11
-95.53541
 21
-54.529985
  0
INSERT
  2
*GRP_0033
  8
別途部材
  6
DOT
 10
0.0
 20
0.0
  0
LINE
  8
別途部材
  6
CONTINUOUS
 62
    96
 10
-44.935405
 20
-53.029985
 11
-44.335405
 21
-54.529985
  0
INSERT
  2
*GRP_0034
  8
別途部材
  6
DOT
 10
0.0
 20
0.0
  0
LINE
  8
別途部材
  6
CONTINUOUS
 10
-44.335405
 20
-54.529985
 11
-95.53541
 21
-54.529985
  0
LINE
  8
別途部材
  6
CONTINUOUS
 62
    96
 10
-44.935405
 20
-53.029985
 11
-94.93541
 21
-53.029985
  0
ARC
  8
別途部材
  6
CONTINUOUS
 10
-69.935404
 20
-67.029985
 40
26.5
 50
31.890792
 51
148.109208
  0
INSERT
  2
*GRP_0035
  8
別途部材
  6
CONTINUOUS
 10
0.0
 20
0.0
  0
LINE
  8
別途部材
  6
CONTINUOUS
 62
    96
 10
51.602565
 20
-53.029985
 11
51.002565
 21
-54.529985
  0
INSERT
  2
*GRP_0042
  8
別途部材
  6
DOT
 10
0.0
 20
0.0
  0
LINE
  8
別途部材
  6
CONTINUOUS
 62
    96
 10
101.60257
 20
-53.029985
 11
102.20257
 21
-54.529985
  0
INSERT
  2
*GRP_0043
  8
別途部材
  6
DOT
 10
0.0
 20
0.0
  0
LINE
  8
別途部材
  6
CONTINUOUS
 10
102.20257
 20
-54.529985
 11
51.002565
 21
-54.529985
  0
LINE
  8
別途部材
  6
CONTINUOUS
 62
    96
 10
101.60257
 20
-53.029985
 11
51.602565
 21
-53.029985
  0
ARC
  8
別途部材
  6
CONTINUOUS
 10
76.602569
 20
-67.029985
 40
26.5
 50
31.890792
 51
148.109208
  0
INSERT
  2
*GRP_0044
  8
別途部材
  6
CONTINUOUS
 10
0.0
 20
0.0
  0
ENDSEC
  0
EOF
